999
dxflib 3.7.5.0
  0
SECTION
  2
HEADER
  9
$ACADVER
  1
AC1015
  9
$HANDSEED
  5
FFFF
  9
$AUNITS
 70
0
  9
$AUPREC
 70
2
  9
$DIMADEC
 70
0
  9
$DIMASZ
 40
2.5
  9
$DIMAUNIT
 70
0
  9
$DIMAZIN
 70
0
  9
$DIMDEC
 70
4
  9
$DIMEXE
 40
1.25
  9
$DIMEXO
 40
0.625
  9
$DIMGAP
 40
0.625
  9
$DIMLFAC
 40
1.0
  9
$DIMLUNIT
 70
2
  9
$DIMSCALE
 40
1.0
  9
$DIMTIH
 70
0
  9
$DIMTSZ
 40
0.0
  9
$DIMTXT
 40
2.5
  9
$DIMZIN
 70
0
  9
$DWGCODEPAGE
  3
ANSI_1252
  9
$EXTMAX
 10
125.4000039999999956
 20
35.3999889999999979
 30
0.0
  9
$EXTMIN
 10
-100.0
 20
-15.4000109999999992
 30
0.0
  9
$INSBASE
 10
0.0
 20
0.0
 30
0.0
  9
$INSUNITS
 70
4
  9
$LIMMAX
 10
420.0
 20
297.0
  9
$LIMMIN
 10
0.0
 20
0.0
  9
$LTSCALE
 40
1.0
  9
$LUNITS
 70
2
  9
$LUPREC
 70
4
  9
$MEASUREMENT
 70
1
  9
$ORTHOMODE
 70
0
  9
$PDMODE
 70
0
  9
$PDSIZE
 40
0
  9
$PINSBASE
 10
0.0
 20
0.0
 30
0.0
  9
$PLIMMAX
 10
15143417439900000256.0
 20
21417118950699999232.0
  9
$PLIMMIN
 10
0.0
 20
0.0
  9
$SPLINESEGS
 70
8
  9
$TEXTSTYLE
  7
STANDARD
  0
ENDSEC
  0
SECTION
  2
TABLES
  0
TABLE
  2
VPORT
  5
8
100
AcDbSymbolTable
 70
1
  0
VPORT
  5
30
100
AcDbSymbolTableRecord
100
AcDbViewportTableRecord
  2
*Active
 70
0
 10
0.0
 20
0.0
 11
1.0
 21
1.0
 12
286.3055555555554861
 22
148.5
 13
0.0
 23
0.0
 14
10.0
 24
10.0
 15
10.0
 25
10.0
 16
0.0
 26
0.0
 36
1.0
 17
0.0
 27
0.0
 37
0.0
 40
297.0
 41
1.92798353909465
 42
50.0
 43
0.0
 44
0.0
 50
0.0
 51
0.0
 71
0
 72
100
 73
1
 74
3
 75
1
 76
1
 77
0
 78
0
281
0
 65
1
110
0.0
120
0.0
130
0.0
111
1.0
121
0.0
131
0.0
112
0.0
122
1.0
132
0.0
 79
0
146
0.0
  0
ENDTAB
  0
TABLE
  2
LTYPE
  5
5
100
AcDbSymbolTable
 70
41
  0
LTYPE
  5
16
100
AcDbSymbolTableRecord
100
AcDbLinetypeTableRecord
  2
Continuous
 70
0
  3
Solid line
 72
65
 73
0
 40
0.0
  0
LTYPE
  5
31
100
AcDbSymbolTableRecord
100
AcDbLinetypeTableRecord
  2
ACAD_ISO15W100
 70
0
  3
ISO double-dash triple-dot __ __ . . . __ __ . .
 72
65
 73
10
 40
39.0
 49
12.0
 74
0
 49
-3.0
 74
0
 49
12.0
 74
0
 49
-3.0
 74
0
 49
0.0
 74
0
 49
-3.0
 74
0
 49
0.0
 74
0
 49
-3.0
 74
0
 49
0.0
 74
0
 49
-3.0
 74
0
  0
LTYPE
  5
32
100
AcDbSymbolTableRecord
100
AcDbLinetypeTableRecord
  2
DIVIDE
 70
0
  3
Divide ____ . . ____ . . ____ . . ____ . . ____
 72
65
 73
6
 40
31.7500000000000036
 49
12.6999999999999993
 74
0
 49
-6.2999999999999998
 74
0
 49
0.1
 74
0
 49
-6.25
 74
0
 49
0.1
 74
0
 49
-6.2999999999999998
 74
0
  0
LTYPE
  5
33
100
AcDbSymbolTableRecord
100
AcDbLinetypeTableRecord
  2
ACAD_ISO10W100
 70
0
  3
ISO dash dot __ . __ . __ . __ . __ . __ . __ . 
 72
65
 73
4
 40
18.0
 49
12.0
 74
0
 49
-3.0
 74
0
 49
0.0
 74
0
 49
-3.0
 74
0
  0
LTYPE
  5
34
100
AcDbSymbolTableRecord
100
AcDbLinetypeTableRecord
  2
ACAD_ISO04W100
 70
0
  3
ISO long-dash dot ____ . ____ . ____ . ____ . _
 72
65
 73
4
 40
30.0
 49
24.0
 74
0
 49
-3.0
 74
0
 49
0.0
 74
0
 49
-3.0
 74
0
  0
LTYPE
  5
14
100
AcDbSymbolTableRecord
100
AcDbLinetypeTableRecord
  2
ByBlock
 70
0
  3

 72
65
 73
0
 40
0.0
  0
LTYPE
  5
35
100
AcDbSymbolTableRecord
100
AcDbLinetypeTableRecord
  2
CENTER2
 70
0
  3
Center (.5x) ___ _ ___ _ ___ _ ___ _ ___ _ ___
 72
65
 73
4
 40
28.5750000000000028
 49
19.0500000000000007
 74
0
 49
-3.1749999999999998
 74
0
 49
3.1749999999999998
 74
0
 49
-3.1749999999999998
 74
0
  0
LTYPE
  5
36
100
AcDbSymbolTableRecord
100
AcDbLinetypeTableRecord
  2
ACAD_ISO11W100
 70
0
  3
ISO double-dash dot __ __ . __ __ . __ __ . __ _
 72
65
 73
6
 40
33.0
 49
12.0
 74
0
 49
-3.0
 74
0
 49
12.0
 74
0
 49
-3.0
 74
0
 49
0.0
 74
0
 49
-3.0
 74
0
  0
LTYPE
  5
37
100
AcDbSymbolTableRecord
100
AcDbLinetypeTableRecord
  2
HIDDEN2
 70
0
  3
Hidden (.5x) _ _ _ _ _ _ _ _ _ _ _ _ _ _ _ _ _ 
 72
65
 73
2
 40
4.7624999999999993
 49
3.1749999999999998
 74
0
 49
-1.5874999999999999
 74
0
  0
LTYPE
  5
38
100
AcDbSymbolTableRecord
100
AcDbLinetypeTableRecord
  2
BORDERX2
 70
0
  3
Border (2x) ____  ____  .  ____  ____  .  ___
 72
65
 73
6
 40
88.8999999999999773
 49
25.3999999999999986
 74
0
 49
-12.6999999999999993
 74
0
 49
25.3999999999999986
 74
0
 49
-12.6499999999999986
 74
0
 49
0.1
 74
0
 49
-12.6499999999999986
 74
0
  0
LTYPE
  5
39
100
AcDbSymbolTableRecord
100
AcDbLinetypeTableRecord
  2
ACAD_ISO05W100
 70
0
  3
ISO long-dash double-dot ____ .. ____ .. ____ . 
 72
65
 73
6
 40
33.0
 49
24.0
 74
0
 49
-3.0
 74
0
 49
0.0
 74
0
 49
-3.0
 74
0
 49
0.0
 74
0
 49
-3.0
 74
0
  0
LTYPE
  5
3A
100
AcDbSymbolTableRecord
100
AcDbLinetypeTableRecord
  2
DASHDOTX2
 70
0
  3
Dash dot (2x) ____  .  ____  .  ____  .  ___
 72
65
 73
4
 40
50.7999999999999972
 49
25.3999999999999986
 74
0
 49
-12.6499999999999986
 74
0
 49
0.1
 74
0
 49
-12.6499999999999986
 74
0
  0
LTYPE
  5
3B
100
AcDbSymbolTableRecord
100
AcDbLinetypeTableRecord
  2
HIDDENX2
 70
0
  3
Hidden (2x) ____ ____ ____ ____ ____ ____ ____ 
 72
65
 73
2
 40
19.0499999999999972
 49
12.6999999999999993
 74
0
 49
-6.3499999999999996
 74
0
  0
LTYPE
  5
3C
100
AcDbSymbolTableRecord
100
AcDbLinetypeTableRecord
  2
CENTERX2
 70
0
  3
Center (2x) ________  __  ________  __  _____
 72
65
 73
4
 40
101.6000000000000085
 49
63.5
 74
0
 49
-12.6999999999999993
 74
0
 49
12.6999999999999993
 74
0
 49
-12.6999999999999993
 74
0
  0
LTYPE
  5
3D
100
AcDbSymbolTableRecord
100
AcDbLinetypeTableRecord
  2
BORDER2
 70
0
  3
Border (.5x) __.__.__.__.__.__.__.__.__.__.__.
 72
65
 73
6
 40
22.2250000000000014
 49
6.3499999999999996
 74
0
 49
-3.1749999999999998
 74
0
 49
6.3499999999999996
 74
0
 49
-3.125
 74
0
 49
0.1
 74
0
 49
-3.125
 74
0
  0
LTYPE
  5
3E
100
AcDbSymbolTableRecord
100
AcDbLinetypeTableRecord
  2
DASHDOT2
 70
0
  3
Dash dot (.5x) _._._._._._._._._._._._._._._.
 72
65
 73
4
 40
12.6999999999999993
 49
6.3499999999999996
 74
0
 49
-3.125
 74
0
 49
0.1
 74
0
 49
-3.125
 74
0
  0
LTYPE
  5
3F
100
AcDbSymbolTableRecord
100
AcDbLinetypeTableRecord
  2
ACAD_ISO12W100
 70
0
  3
ISO dash double-dot __ . . __ . . __ . . __ . . 
 72
65
 73
6
 40
21.0
 49
12.0
 74
0
 49
-3.0
 74
0
 49
0.0
 74
0
 49
-3.0
 74
0
 49
0.0
 74
0
 49
-3.0
 74
0
  0
LTYPE
  5
40
100
AcDbSymbolTableRecord
100
AcDbLinetypeTableRecord
  2
ACAD_ISO07W100
 70
0
  3
ISO dot . . . . . . . . . . . . . . . . . . . . 
 72
65
 73
2
 40
3.0
 49
0.0
 74
0
 49
-3.0
 74
0
  0
LTYPE
  5
41
100
AcDbSymbolTableRecord
100
AcDbLinetypeTableRecord
  2
HIDDEN
 70
0
  3
Hidden __ __ __ __ __ __ __ __ __ __ __ __ __ __
 72
65
 73
2
 40
9.5249999999999986
 49
6.3499999999999996
 74
0
 49
-3.1749999999999998
 74
0
  0
LTYPE
  5
42
100
AcDbSymbolTableRecord
100
AcDbLinetypeTableRecord
  2
ACAD_ISO06W100
 70
0
  3
ISO long-dash triple-dot ____ ... ____ ... ____
 72
65
 73
8
 40
36.0
 49
24.0
 74
0
 49
-3.0
 74
0
 49
0.0
 74
0
 49
-3.0
 74
0
 49
0.0
 74
0
 49
-3.0
 74
0
 49
0.0
 74
0
 49
-3.0
 74
0
  0
LTYPE
  5
43
100
AcDbSymbolTableRecord
100
AcDbLinetypeTableRecord
  2
CENTER
 70
0
  3
Center ____ _ ____ _ ____ _ ____ _ ____ _ ____
 72
65
 73
4
 40
50.8000000000000043
 49
31.75
 74
0
 49
-6.3499999999999996
 74
0
 49
6.3499999999999996
 74
0
 49
-6.3499999999999996
 74
0
  0
LTYPE
  5
44
100
AcDbSymbolTableRecord
100
AcDbLinetypeTableRecord
  2
DOTX2
 70
0
  3
Dot (2x) .  .  .  .  .  .  .  .  .  .  .  .  .
 72
65
 73
2
 40
12.6999999999999993
 49
0.1
 74
0
 49
-12.5999999999999996
 74
0
  0
LTYPE
  5
45
100
AcDbSymbolTableRecord
100
AcDbLinetypeTableRecord
  2
PHANTOM
 70
0
  3
Phantom ______  __  __  ______  __  __  ______ 
 72
65
 73
6
 40
63.5000000000000071
 49
31.75
 74
0
 49
-6.3499999999999996
 74
0
 49
6.3499999999999996
 74
0
 49
-6.3499999999999996
 74
0
 49
6.3499999999999996
 74
0
 49
-6.3499999999999996
 74
0
  0
LTYPE
  5
46
100
AcDbSymbolTableRecord
100
AcDbLinetypeTableRecord
  2
ACAD_ISO08W100
 70
0
  3
ISO long-dash short-dash ____ __ ____ __ ____ _
 72
65
 73
4
 40
36.0
 49
24.0
 74
0
 49
-3.0
 74
0
 49
6.0
 74
0
 49
-3.0
 74
0
  0
LTYPE
  5
47
100
AcDbSymbolTableRecord
100
AcDbLinetypeTableRecord
  2
DASHEDX2
 70
0
  3
Dashed (2x) ____  ____  ____  ____  ____  ___
 72
65
 73
2
 40
38.0999999999999943
 49
25.3999999999999986
 74
0
 49
-12.6999999999999993
 74
0
  0
LTYPE
  5
48
100
AcDbSymbolTableRecord
100
AcDbLinetypeTableRecord
  2
ACAD_ISO02W100
 70
0
  3
ISO dash __ __ __ __ __ __ __ __ __ __ __ __ __
 72
65
 73
2
 40
15.0
 49
12.0
 74
0
 49
-3.0
 74
0
  0
LTYPE
  5
49
100
AcDbSymbolTableRecord
100
AcDbLinetypeTableRecord
  2
PHANTOM2
 70
0
  3
Phantom (.5x) ___ _ _ ___ _ _ ___ _ _ ___ _ _
 72
65
 73
6
 40
31.7500000000000036
 49
15.875
 74
0
 49
-3.1749999999999998
 74
0
 49
3.1749999999999998
 74
0
 49
-3.1749999999999998
 74
0
 49
3.1749999999999998
 74
0
 49
-3.1749999999999998
 74
0
  0
LTYPE
  5
4A
100
AcDbSymbolTableRecord
100
AcDbLinetypeTableRecord
  2
DASHED2
 70
0
  3
Dashed (.5x) _ _ _ _ _ _ _ _ _ _ _ _ _ _ _ _ _
 72
65
 73
2
 40
9.5249999999999986
 49
6.3499999999999996
 74
0
 49
-3.1749999999999998
 74
0
  0
LTYPE
  5
4B
100
AcDbSymbolTableRecord
100
AcDbLinetypeTableRecord
  2
ACAD_ISO09W100
 70
0
  3
ISO long-dash double-short-dash ____ __ __ ____
 72
65
 73
6
 40
45.0
 49
24.0
 74
0
 49
-3.0
 74
0
 49
6.0
 74
0
 49
-3.0
 74
0
 49
6.0
 74
0
 49
-3.0
 74
0
  0
LTYPE
  5
4C
100
AcDbSymbolTableRecord
100
AcDbLinetypeTableRecord
  2
ACAD_ISO13W100
 70
0
  3
ISO double-dash double-dot __ __ . . __ __ . . _
 72
65
 73
8
 40
36.0
 49
12.0
 74
0
 49
-3.0
 74
0
 49
12.0
 74
0
 49
-3.0
 74
0
 49
0.0
 74
0
 49
-3.0
 74
0
 49
0.0
 74
0
 49
-3.0
 74
0
  0
LTYPE
  5
4D
100
AcDbSymbolTableRecord
100
AcDbLinetypeTableRecord
  2
DOT2
 70
0
  3
Dot (.5x) .....................................
 72
65
 73
2
 40
3.1749999999999998
 49
0.1
 74
0
 49
-3.0749999999999997
 74
0
  0
LTYPE
  5
4E
100
AcDbSymbolTableRecord
100
AcDbLinetypeTableRecord
  2
DASHED
 70
0
  3
Dot . . . . . . . . . . . . . . . . . . . . . .
 72
65
 73
2
 40
19.0499999999999972
 49
12.6999999999999993
 74
0
 49
-6.3499999999999996
 74
0
  0
LTYPE
  5
4F
100
AcDbSymbolTableRecord
100
AcDbLinetypeTableRecord
  2
ACAD_ISO14W100
 70
0
  3
ISO dash triple-dot __ . . . __ . . . __ . . . _
 72
65
 73
8
 40
24.0
 49
12.0
 74
0
 49
-3.0
 74
0
 49
0.0
 74
0
 49
-3.0
 74
0
 49
0.0
 74
0
 49
-3.0
 74
0
 49
0.0
 74
0
 49
-3.0
 74
0
  0
LTYPE
  5
50
100
AcDbSymbolTableRecord
100
AcDbLinetypeTableRecord
  2
PHANTOMX2
 70
0
  3
Phantom (2x) ____________    ____    ____   _
 72
65
 73
6
 40
127.0000000000000142
 49
63.5
 74
0
 49
-12.6999999999999993
 74
0
 49
12.6999999999999993
 74
0
 49
-12.6999999999999993
 74
0
 49
12.6999999999999993
 74
0
 49
-12.6999999999999993
 74
0
  0
LTYPE
  5
51
100
AcDbSymbolTableRecord
100
AcDbLinetypeTableRecord
  2
DIVIDEX2
 70
0
  3
Divide (2x) ________  .  .  ________  .  .  _
 72
65
 73
6
 40
63.5
 49
25.3999999999999986
 74
0
 49
-12.6499999999999986
 74
0
 49
0.1
 74
0
 49
-12.5999999999999979
 74
0
 49
0.1
 74
0
 49
-12.6499999999999986
 74
0
  0
LTYPE
  5
52
100
AcDbSymbolTableRecord
100
AcDbLinetypeTableRecord
  2
BORDER
 70
0
  3
Border __ __ . __ __ . __ __ . __ __ . __ __ .
 72
65
 73
6
 40
44.4499999999999957
 49
12.6999999999999993
 74
0
 49
-6.3499999999999996
 74
0
 49
12.6999999999999993
 74
0
 49
-6.2999999999999998
 74
0
 49
0.1
 74
0
 49
-6.2999999999999998
 74
0
  0
LTYPE
  5
53
100
AcDbSymbolTableRecord
100
AcDbLinetypeTableRecord
  2
DIVIDE2
 70
0
  3
Divide (.5x) __..__..__..__..__..__..__..__.._
 72
65
 73
6
 40
15.8749999999999982
 49
6.3499999999999996
 74
0
 49
-3.125
 74
0
 49
0.1
 74
0
 49
-3.0750000000000002
 74
0
 49
0.1
 74
0
 49
-3.125
 74
0
  0
LTYPE
  5
54
100
AcDbSymbolTableRecord
100
AcDbLinetypeTableRecord
  2
DOT
 70
0
  3
Dot . . . . . . . . . . . . . . . . . . . . . .
 72
65
 73
2
 40
6.3499999999999996
 49
0.1
 74
0
 49
-6.25
 74
0
  0
LTYPE
  5
55
100
AcDbSymbolTableRecord
100
AcDbLinetypeTableRecord
  2
DASHDOT
 70
0
  3
Dash dot __ . __ . __ . __ . __ . __ . __ . __
 72
65
 73
4
 40
25.4000000000000021
 49
12.6999999999999993
 74
0
 49
-6.2999999999999998
 74
0
 49
0.1
 74
0
 49
-6.2999999999999998
 74
0
  0
LTYPE
  5
56
100
AcDbSymbolTableRecord
100
AcDbLinetypeTableRecord
  2
ACAD_ISO03W100
 70
0
  3
ISO dash space __    __    __    __    __    __
 72
65
 73
2
 40
30.0
 49
12.0
 74
0
 49
-18.0
 74
0
  0
LTYPE
  5
15
100
AcDbSymbolTableRecord
100
AcDbLinetypeTableRecord
  2
ByLayer
 70
0
  3

 72
65
 73
0
 40
0.0
  0
ENDTAB
  0
TABLE
  2
LAYER
  5
2
100
AcDbSymbolTable
 70
6
  0
LAYER
  5
57
100
AcDbSymbolTableRecord
100
AcDbLayerTableRecord
  2
help
 70
0
 62
1
420
16711680
  6
Continuous
370
-3
390
F
  0
LAYER
  5
58
100
AcDbSymbolTableRecord
100
AcDbLayerTableRecord
  2
jig
 70
0
 62
2
420
16776960
  6
Continuous
370
0
390
F
  0
LAYER
  5
59
100
AcDbSymbolTableRecord
100
AcDbLayerTableRecord
  2
hdmi
 70
0
 62
4
420
65535
  6
Continuous
370
0
390
F
  0
LAYER
  5
10
100
AcDbSymbolTableRecord
100
AcDbLayerTableRecord
  2
0
 70
0
 62
7
420
16777215
  6
Continuous
370
0
390
F
  0
LAYER
  5
5A
100
AcDbSymbolTableRecord
100
AcDbLayerTableRecord
  2
text
 70
0
 62
6
420
16711935
  6
Continuous
370
0
390
F
  0
LAYER
  5
5B
100
AcDbSymbolTableRecord
100
AcDbLayerTableRecord
  2
usb
 70
0
 62
30
420
16744192
  6
Continuous
370
-3
390
F
  0
ENDTAB
  0
TABLE
  2
STYLE
  5
3
100
AcDbSymbolTable
 70
6
  0
STYLE
  5
5C
100
AcDbSymbolTableRecord
100
AcDbTextStyleTableRecord
  2
Standard
 70
0
 40
0.0
 41
1.0
 50
0.0
 71
0
 42
2.5
  3

  4

1001
ACAD
1000
txt
1071
0
  0
STYLE
  5
5D
100
AcDbSymbolTableRecord
100
AcDbTextStyleTableRecord
  2
textstyle0
 70
0
 40
0.0
 41
1.0
 50
0.0
 71
0
 42
2.0
  3

  4

1001
ACAD
1000
Standard
1071
0
  0
STYLE
  5
5E
100
AcDbSymbolTableRecord
100
AcDbTextStyleTableRecord
  2
textstyle1
 70
0
 40
0.0
 41
1.0
 50
0.0
 71
0
 42
2.0
  3

  4

1001
ACAD
1000
Standard
1071
0
  0
STYLE
  5
5F
100
AcDbSymbolTableRecord
100
AcDbTextStyleTableRecord
  2
textstyle2
 70
0
 40
0.0
 41
1.0
 50
0.0
 71
0
 42
2.0
  3

  4

1001
ACAD
1000
Standard
1071
0
  0
STYLE
  5
60
100
AcDbSymbolTableRecord
100
AcDbTextStyleTableRecord
  2
textstyle3
 70
0
 40
0.0
 41
1.0
 50
0.0
 71
0
 42
2.0
  3

  4

1001
ACAD
1000
Standard
1071
0
  0
STYLE
  5
61
100
AcDbSymbolTableRecord
100
AcDbTextStyleTableRecord
  2
textstyle4
 70
0
 40
0.0
 41
1.0
 50
0.0
 71
0
 42
2.0
  3

  4

1001
ACAD
1000
Standard
1071
0
  0
ENDTAB
  0
TABLE
  2
VIEW
  5
6
100
AcDbSymbolTable
 70
0
  0
ENDTAB
  0
TABLE
  2
UCS
  5
7
100
AcDbSymbolTable
 70
0
  0
ENDTAB
  0
TABLE
  2
APPID
  5
9
100
AcDbSymbolTable
 70
1
  0
APPID
  5
12
100
AcDbSymbolTableRecord
100
AcDbRegAppTableRecord
  2
ACAD
 70
0
  0
APPID
  5
62
100
AcDbSymbolTableRecord
100
AcDbRegAppTableRecord
  2
QCAD
 70
0
  0
ENDTAB
  0
TABLE
  2
DIMSTYLE
  5
A
100
AcDbSymbolTable
 70
1
100
AcDbDimStyleTable
 71
0
  0
DIMSTYLE
105
27
100
AcDbSymbolTableRecord
100
AcDbDimStyleTableRecord
  2
Standard
 41
2.5
 42
0.625
 43
3.75
 44
1.25
 70
0
 73
0
 74
0
 77
1
 78
8
140
2.5
141
2.5
143
0.03937007874016
147
0.625
171
3
172
1
271
2
272
2
274
3
278
44
283
0
284
8
340
5C
  0
ENDTAB
  0
TABLE
  2
BLOCK_RECORD
  5
1
100
AcDbSymbolTable
 70
1
  0
BLOCK_RECORD
  5
1F
100
AcDbSymbolTableRecord
100
AcDbBlockTableRecord
  2
*Model_Space
340
22
  0
BLOCK_RECORD
  5
1B
100
AcDbSymbolTableRecord
100
AcDbBlockTableRecord
  2
*Paper_Space
340
1E
  0
BLOCK_RECORD
  5
23
100
AcDbSymbolTableRecord
100
AcDbBlockTableRecord
  2
*Paper_Space0
340
26
  0
ENDTAB
  0
ENDSEC
  0
SECTION
  2
BLOCKS
  0
BLOCK
  5
20
100
AcDbEntity
  8
0
100
AcDbBlockBegin
  2
*Model_Space
 70
0
 10
0.0
 20
0.0
 30
0.0
  3
*Model_Space
  1

  0
ENDBLK
  5
21
100
AcDbEntity
  8
0
100
AcDbBlockEnd
  0
BLOCK
  5
1C
100
AcDbEntity
 67
1
  8
0
100
AcDbBlockBegin
  2
*Paper_Space
 70
0
 10
0.0
 20
0.0
 30
0.0
  3
*Paper_Space
  1

  0
ENDBLK
  5
1D
100
AcDbEntity
 67
1
  8
0
100
AcDbBlockEnd
  0
BLOCK
  5
24
100
AcDbEntity
  8
0
100
AcDbBlockBegin
  2
*Paper_Space0
 70
0
 10
0.0
 20
0.0
 30
0.0
  3
*Paper_Space0
  1

  0
ENDBLK
  5
25
100
AcDbEntity
  8
0
100
AcDbBlockEnd
  0
ENDSEC
  0
SECTION
  2
ENTITIES
  0
CIRCLE
  5
63
100
AcDbEntity
100
AcDbCircle
  8
0
 62
256
370
-1
 48
1.0
  6
ByLayer
 10
5.5
 20
3.5
 30
0.0
 40
1.5
  0
CIRCLE
  5
64
100
AcDbEntity
100
AcDbCircle
  8
0
 62
256
370
-1
 48
1.0
  6
ByLayer
 10
63.5
 20
3.5
 30
0.0
 40
1.5
  0
CIRCLE
  5
65
100
AcDbEntity
100
AcDbCircle
  8
0
 62
256
370
-1
 48
1.0
  6
ByLayer
 10
5.5
 20
26.5
 30
0.0
 40
1.5
  0
CIRCLE
  5
66
100
AcDbEntity
100
AcDbCircle
  8
0
 62
256
370
-1
 48
1.0
  6
ByLayer
 10
63.5
 20
26.5
 30
0.0
 40
1.5
  0
ARC
  5
67
100
AcDbEntity
  8
0
 62
256
370
-1
 48
1.0
  6
ByLayer
100
AcDbCircle
 10
64.0
 20
27.0
 30
0.0
 40
3.0
100
AcDbArc
 50
0.0
 51
90.0
  0
LINE
  5
68
100
AcDbEntity
100
AcDbLine
  8
0
 62
256
370
-1
 48
1.0
  6
ByLayer
 10
67.0
 20
3.0
 30
0.0
 11
67.0
 21
27.0
 31
0.0
  0
ARC
  5
69
100
AcDbEntity
  8
0
 62
256
370
-1
 48
1.0
  6
ByLayer
100
AcDbCircle
 10
64.0
 20
3.0
 30
0.0
 40
3.0
100
AcDbArc
 50
270.0
 51
0.0
  0
LINE
  5
6A
100
AcDbEntity
100
AcDbLine
  8
0
 62
256
370
-1
 48
1.0
  6
ByLayer
 10
2.0
 20
23.9600000000000009
 30
0.0
 11
0.0
 21
23.9600000000000009
 31
0.0
  0
LINE
  5
6B
100
AcDbEntity
100
AcDbLine
  8
0
 62
256
370
-1
 48
1.0
  6
ByLayer
 10
2.0
 20
10.0
 30
0.0
 11
0.0
 21
10.0
 31
0.0
  0
LINE
  5
6C
100
AcDbEntity
100
AcDbLine
  8
0
 62
256
370
-1
 48
1.0
  6
ByLayer
 10
2.0
 20
23.9600000000000009
 30
0.0
 11
2.0
 21
10.0
 31
0.0
  0
LINE
  5
6D
100
AcDbEntity
100
AcDbLine
  8
0
 62
256
370
-1
 48
1.0
  6
ByLayer
 10
0.0
 20
23.9600000000000009
 30
0.0
 11
0.0
 21
27.0
 31
0.0
  0
ARC
  5
6E
100
AcDbEntity
  8
0
 62
256
370
-1
 48
1.0
  6
ByLayer
100
AcDbCircle
 10
3.0
 20
27.0
 30
0.0
 40
3.0
100
AcDbArc
 50
90.0
 51
180.0
  0
LINE
  5
6F
100
AcDbEntity
100
AcDbLine
  8
0
 62
256
370
-1
 48
1.0
  6
ByLayer
 10
0.0
 20
10.0
 30
0.0
 11
0.0
 21
3.0
 31
0.0
  0
ARC
  5
70
100
AcDbEntity
  8
0
 62
256
370
-1
 48
1.0
  6
ByLayer
100
AcDbCircle
 10
3.0
 20
3.0
 30
0.0
 40
3.0
100
AcDbArc
 50
180.0
 51
270.0
  0
LINE
  5
71
100
AcDbEntity
100
AcDbLine
  8
0
 62
256
370
-1
 48
1.0
  6
ByLayer
 10
3.0
 20
0.0
 30
0.0
 11
64.0
 21
0.0
 31
0.0
  0
LINE
  5
72
100
AcDbEntity
100
AcDbLine
  8
hdmi
 62
256
370
-1
 48
1.0
  6
ByLayer
 10
8.5
 20
7.7000000000000002
 30
0.0
 11
20.3000000000000007
 21
7.7000000000000002
 31
0.0
  0
LINE
  5
73
100
AcDbEntity
100
AcDbLine
  8
hdmi
 62
256
370
-1
 48
1.0
  6
ByLayer
 10
8.5
 20
-0.5
 30
0.0
 11
8.5
 21
7.7000000000000002
 31
0.0
  0
LINE
  5
74
100
AcDbEntity
100
AcDbLine
  8
hdmi
 62
256
370
-1
 48
1.0
  6
ByLayer
 10
8.5
 20
-0.5
 30
0.0
 11
20.3000000000000007
 21
-0.5
 31
0.0
  0
LINE
  5
75
100
AcDbEntity
100
AcDbLine
  8
hdmi
 62
256
370
-1
 48
1.0
  6
ByLayer
 10
20.3000000000000007
 20
7.7000000000000002
 30
0.0
 11
20.3000000000000007
 21
-0.5
 31
0.0
  0
LINE
  5
76
100
AcDbEntity
100
AcDbLine
  8
usb
 62
256
370
-1
 48
1.0
  6
ByLayer
 10
39.1499999999999986
 20
-0.5
 30
0.0
 11
47.6499999999999986
 21
-0.5
 31
0.0
  0
LINE
  5
77
100
AcDbEntity
100
AcDbLine
  8
usb
 62
256
370
-1
 48
1.0
  6
ByLayer
 10
47.6499999999999986
 20
-0.5
 30
0.0
 11
47.6499999999999986
 21
6.0
 31
0.0
  0
LINE
  5
78
100
AcDbEntity
100
AcDbLine
  8
usb
 62
256
370
-1
 48
1.0
  6
ByLayer
 10
47.6499999999999986
 20
6.0
 30
0.0
 11
39.1499999999999986
 21
6.0
 31
0.0
  0
LINE
  5
79
100
AcDbEntity
100
AcDbLine
  8
usb
 62
256
370
-1
 48
1.0
  6
ByLayer
 10
39.1499999999999986
 20
6.0
 30
0.0
 11
39.1499999999999986
 21
-0.5
 31
0.0
  0
LINE
  5
7A
100
AcDbEntity
100
AcDbLine
  8
usb
 62
256
370
-1
 48
1.0
  6
ByLayer
 10
51.75
 20
-0.5
 30
0.0
 11
60.25
 21
-0.5
 31
0.0
  0
LINE
  5
7B
100
AcDbEntity
100
AcDbLine
  8
usb
 62
256
370
-1
 48
1.0
  6
ByLayer
 10
60.25
 20
-0.5
 30
0.0
 11
60.25
 21
6.0
 31
0.0
  0
LINE
  5
7C
100
AcDbEntity
100
AcDbLine
  8
usb
 62
256
370
-1
 48
1.0
  6
ByLayer
 10
55.2000000000000028
 20
6.0
 30
0.0
 11
51.75
 21
6.0
 31
0.0
  0
MTEXT
  5
7D
100
AcDbEntity
100
AcDbMText
  8
help
 62
256
370
-1
 48
1.0
  6
ByLayer
 10
72.0
 20
15.0000000000000426
 30
0.0
 40
2.0
 41
0.0
 71
1
 72
1
  1
Adjust for kerf (outer)\PSuggest +0.25 mm
  7
textstyle0
 50
0.0
 73
2
 44
1.0
  0
LINE
  5
7E
100
AcDbEntity
100
AcDbLine
  8
usb
 62
256
370
-1
 48
1.0
  6
ByLayer
 10
51.75
 20
6.0
 30
0.0
 11
51.75
 21
-0.5
 31
0.0
  0
LINE
  5
7F
100
AcDbEntity
100
AcDbLine
  8
usb
 62
256
370
-1
 48
1.0
  6
ByLayer
 10
59.0000000000000071
 20
6.0
 30
0.0
 11
59.0
 21
6.0
 31
0.0
  0
LINE
  5
80
100
AcDbEntity
100
AcDbLine
  8
usb
 62
256
370
-1
 48
1.0
  6
ByLayer
 10
59.0
 20
6.0
 30
0.0
 11
59.0
 21
8.0
 31
0.0
  0
LINE
  5
81
100
AcDbEntity
100
AcDbLine
  8
usb
 62
256
370
-1
 48
1.0
  6
ByLayer
 10
59.0
 20
8.0
 30
0.0
 11
55.2000000000000028
 21
8.0
 31
0.0
  0
LINE
  5
82
100
AcDbEntity
100
AcDbLine
  8
usb
 62
256
370
-1
 48
1.0
  6
ByLayer
 10
55.2000000000000028
 20
8.0
 30
0.0
 11
55.2000000000000028
 21
6.0
 31
0.0
  0
LINE
  5
83
100
AcDbEntity
100
AcDbLine
  8
0
 62
256
370
-1
 48
1.0
  6
ByLayer
 10
9.0999999999999996
 20
30.0
 30
0.0
 11
9.0999999999999996
 21
23.9600000000000009
 31
0.0
  0
LINE
  5
84
100
AcDbEntity
100
AcDbLine
  8
0
 62
256
370
-1
 48
1.0
  6
ByLayer
 10
9.0999999999999996
 20
23.9600000000000009
 30
0.0
 11
59.8999999999999986
 21
23.9600000000000009
 31
0.0
  0
LINE
  5
85
100
AcDbEntity
100
AcDbLine
  8
0
 62
256
370
-1
 48
1.0
  6
ByLayer
 10
59.8999999999999986
 20
23.9600000000000009
 30
0.0
 11
59.8999999999999986
 21
30.0
 31
0.0
  0
LINE
  5
86
100
AcDbEntity
100
AcDbLine
  8
0
 62
256
370
-1
 48
1.0
  6
ByLayer
 10
9.0999999999999996
 20
30.0
 30
0.0
 11
3.0000002775799999
 21
30.0
 31
0.0
  0
LINE
  5
87
100
AcDbEntity
100
AcDbLine
  8
0
 62
256
370
-1
 48
1.0
  6
ByLayer
 10
64.0
 20
30.0
 30
0.0
 11
59.8999999999999986
 21
30.0
 31
0.0
  0
CIRCLE
  5
88
100
AcDbEntity
100
AcDbCircle
  8
text
 62
256
370
-1
 48
1.0
  6
ByLayer
 10
58.6300039999999996
 20
11.0300170250999994
 30
0.0
 40
0.878
  0
CIRCLE
  5
89
100
AcDbEntity
100
AcDbCircle
  8
text
 62
256
370
-1
 48
1.0
  6
ByLayer
 10
56.0900120000000015
 20
11.0300170250999994
 30
0.0
 40
0.878
  0
CIRCLE
  5
8A
100
AcDbEntity
100
AcDbCircle
  8
text
 62
256
370
-1
 48
1.0
  6
ByLayer
 10
53.5500200000000035
 20
11.0300170250999994
 30
0.0
 40
0.878
  0
CIRCLE
  5
8B
100
AcDbEntity
100
AcDbCircle
  8
text
 62
256
370
-1
 48
1.0
  6
ByLayer
 10
51.0100279999999984
 20
11.0300170250999994
 30
0.0
 40
0.878
  0
CIRCLE
  5
8C
100
AcDbEntity
100
AcDbCircle
  8
text
 62
256
370
-1
 48
1.0
  6
ByLayer
 10
48.4700360000000003
 20
11.0300170250999994
 30
0.0
 40
0.878
  0
CIRCLE
  5
8D
100
AcDbEntity
100
AcDbCircle
  8
text
 62
256
370
-1
 48
1.0
  6
ByLayer
 10
45.9300440000000023
 20
11.0300170250999994
 30
0.0
 40
0.878
  0
CIRCLE
  5
8E
100
AcDbEntity
100
AcDbCircle
  8
text
 62
256
370
-1
 48
1.0
  6
ByLayer
 10
43.3900519999999972
 20
11.0300170250999994
 30
0.0
 40
0.878
  0
CIRCLE
  5
8F
100
AcDbEntity
100
AcDbCircle
  8
text
 62
256
370
-1
 48
1.0
  6
ByLayer
 10
40.8500599999999991
 20
11.0300170250999994
 30
0.0
 40
0.878
  0
CIRCLE
  5
90
100
AcDbEntity
100
AcDbCircle
  8
text
 62
256
370
-1
 48
1.0
  6
ByLayer
 10
38.3100680000000011
 20
11.0300170250999994
 30
0.0
 40
0.878
  0
CIRCLE
  5
91
100
AcDbEntity
100
AcDbCircle
  8
text
 62
256
370
-1
 48
1.0
  6
ByLayer
 10
35.7700760000000031
 20
11.0300170250999994
 30
0.0
 40
0.878
  0
CIRCLE
  5
92
100
AcDbEntity
100
AcDbCircle
  8
text
 62
256
370
-1
 48
1.0
  6
ByLayer
 10
33.2300840000000051
 20
11.0300170250999994
 30
0.0
 40
0.878
  0
CIRCLE
  5
93
100
AcDbEntity
100
AcDbCircle
  8
text
 62
256
370
-1
 48
1.0
  6
ByLayer
 10
30.6900919999999999
 20
11.0300170250999994
 30
0.0
 40
0.878
  0
CIRCLE
  5
94
100
AcDbEntity
100
AcDbCircle
  8
text
 62
256
370
-1
 48
1.0
  6
ByLayer
 10
28.1500999999999983
 20
11.0300170250999994
 30
0.0
 40
0.878
  0
CIRCLE
  5
95
100
AcDbEntity
100
AcDbCircle
  8
text
 62
256
370
-1
 48
1.0
  6
ByLayer
 10
25.6101080000000003
 20
11.0300170250999994
 30
0.0
 40
0.878
  0
CIRCLE
  5
96
100
AcDbEntity
100
AcDbCircle
  8
text
 62
256
370
-1
 48
1.0
  6
ByLayer
 10
23.0701159999999987
 20
11.0300170250999994
 30
0.0
 40
0.878
  0
CIRCLE
  5
97
100
AcDbEntity
100
AcDbCircle
  8
text
 62
256
370
-1
 48
1.0
  6
ByLayer
 10
20.5301240000000007
 20
11.0300170250999994
 30
0.0
 40
0.878
  0
CIRCLE
  5
98
100
AcDbEntity
100
AcDbCircle
  8
text
 62
256
370
-1
 48
1.0
  6
ByLayer
 10
17.9901319999999991
 20
11.0300170250999994
 30
0.0
 40
0.878
  0
CIRCLE
  5
99
100
AcDbEntity
100
AcDbCircle
  8
text
 62
256
370
-1
 48
1.0
  6
ByLayer
 10
15.4501399999999993
 20
11.0300170250999994
 30
0.0
 40
0.878
  0
CIRCLE
  5
9A
100
AcDbEntity
100
AcDbCircle
  8
text
 62
256
370
-1
 48
1.0
  6
ByLayer
 10
12.9101479999999995
 20
11.0300170250999994
 30
0.0
 40
0.878
  0
CIRCLE
  5
9B
100
AcDbEntity
100
AcDbCircle
  8
text
 62
256
370
-1
 48
1.0
  6
ByLayer
 10
58.6300039999999996
 20
13.5700169748999997
 30
0.0
 40
0.878
  0
CIRCLE
  5
9C
100
AcDbEntity
100
AcDbCircle
  8
text
 62
256
370
-1
 48
1.0
  6
ByLayer
 10
56.0900120000000015
 20
13.5700169748999997
 30
0.0
 40
0.878
  0
CIRCLE
  5
9D
100
AcDbEntity
100
AcDbCircle
  8
text
 62
256
370
-1
 48
1.0
  6
ByLayer
 10
53.5500200000000035
 20
13.5700169748999997
 30
0.0
 40
0.878
  0
CIRCLE
  5
9E
100
AcDbEntity
100
AcDbCircle
  8
text
 62
256
370
-1
 48
1.0
  6
ByLayer
 10
51.0100279999999984
 20
13.5700169748999997
 30
0.0
 40
0.878
  0
CIRCLE
  5
9F
100
AcDbEntity
100
AcDbCircle
  8
text
 62
256
370
-1
 48
1.0
  6
ByLayer
 10
48.4700360000000003
 20
13.5700169748999997
 30
0.0
 40
0.878
  0
CIRCLE
  5
A0
100
AcDbEntity
100
AcDbCircle
  8
text
 62
256
370
-1
 48
1.0
  6
ByLayer
 10
45.9300440000000023
 20
13.5700169748999997
 30
0.0
 40
0.878
  0
CIRCLE
  5
A1
100
AcDbEntity
100
AcDbCircle
  8
text
 62
256
370
-1
 48
1.0
  6
ByLayer
 10
43.3900519999999972
 20
13.5700169748999997
 30
0.0
 40
0.878
  0
CIRCLE
  5
A2
100
AcDbEntity
100
AcDbCircle
  8
text
 62
256
370
-1
 48
1.0
  6
ByLayer
 10
40.8500599999999991
 20
13.5700169748999997
 30
0.0
 40
0.878
  0
CIRCLE
  5
A3
100
AcDbEntity
100
AcDbCircle
  8
text
 62
256
370
-1
 48
1.0
  6
ByLayer
 10
38.3100680000000011
 20
13.5700169748999997
 30
0.0
 40
0.878
  0
CIRCLE
  5
A4
100
AcDbEntity
100
AcDbCircle
  8
text
 62
256
370
-1
 48
1.0
  6
ByLayer
 10
35.7700760000000031
 20
13.5700169748999997
 30
0.0
 40
0.878
  0
CIRCLE
  5
A5
100
AcDbEntity
100
AcDbCircle
  8
text
 62
256
370
-1
 48
1.0
  6
ByLayer
 10
33.2300840000000051
 20
13.5700169748999997
 30
0.0
 40
0.878
  0
CIRCLE
  5
A6
100
AcDbEntity
100
AcDbCircle
  8
text
 62
256
370
-1
 48
1.0
  6
ByLayer
 10
30.6900919999999999
 20
13.5700169748999997
 30
0.0
 40
0.878
  0
CIRCLE
  5
A7
100
AcDbEntity
100
AcDbCircle
  8
text
 62
256
370
-1
 48
1.0
  6
ByLayer
 10
28.1500999999999983
 20
13.5700169748999997
 30
0.0
 40
0.878
  0
CIRCLE
  5
A8
100
AcDbEntity
100
AcDbCircle
  8
text
 62
256
370
-1
 48
1.0
  6
ByLayer
 10
25.6101080000000003
 20
13.5700169748999997
 30
0.0
 40
0.878
  0
CIRCLE
  5
A9
100
AcDbEntity
100
AcDbCircle
  8
text
 62
256
370
-1
 48
1.0
  6
ByLayer
 10
23.0701159999999987
 20
13.5700169748999997
 30
0.0
 40
0.878
  0
CIRCLE
  5
AA
100
AcDbEntity
100
AcDbCircle
  8
text
 62
256
370
-1
 48
1.0
  6
ByLayer
 10
20.5301240000000007
 20
13.5700169748999997
 30
0.0
 40
0.878
  0
CIRCLE
  5
AB
100
AcDbEntity
100
AcDbCircle
  8
text
 62
256
370
-1
 48
1.0
  6
ByLayer
 10
17.9901319999999991
 20
13.5700169748999997
 30
0.0
 40
0.878
  0
CIRCLE
  5
AC
100
AcDbEntity
100
AcDbCircle
  8
text
 62
256
370
-1
 48
1.0
  6
ByLayer
 10
15.4501399999999993
 20
13.5700169748999997
 30
0.0
 40
0.878
  0
CIRCLE
  5
AD
100
AcDbEntity
100
AcDbCircle
  8
text
 62
256
370
-1
 48
1.0
  6
ByLayer
 10
12.9101479999999995
 20
13.5700169748999997
 30
0.0
 40
0.878
  0
CIRCLE
  5
AE
100
AcDbEntity
100
AcDbCircle
  8
text
 62
256
370
-1
 48
1.0
  6
ByLayer
 10
10.3701559999999997
 20
13.5700169748999997
 30
0.0
 40
0.878
  0
LWPOLYLINE
  5
AF
  8
text
 62
256
370
-1
 48
1.0
  6
ByLayer
100
AcDbEntity
100
AcDbPolyline
 90
5
 70
0
 10
11.6400009999999998
 20
9.7600169999999995
 30
0.0
 10
11.6400009999999998
 20
12.3000170000000004
 30
0.0
 10
14.1800010000000007
 20
12.3000170000000004
 30
0.0
 10
14.1800010000000007
 20
9.7600169999999995
 30
0.0
 10
11.6400009999999998
 20
9.7600169999999995
 30
0.0
  0
LWPOLYLINE
  5
B0
  8
text
 62
256
370
-1
 48
1.0
  6
ByLayer
100
AcDbEntity
100
AcDbPolyline
 90
5
 70
0
 10
9.1000040000000002
 20
9.7600169999999995
 30
0.0
 10
9.1000040000000002
 20
12.3000170000000004
 30
0.0
 10
11.6400039999999994
 20
12.3000170000000004
 30
0.0
 10
11.6400039999999994
 20
9.7600169999999995
 30
0.0
 10
9.1000040000000002
 20
9.7600169999999995
 30
0.0
  0
LWPOLYLINE
  5
B1
  8
text
 62
256
370
-1
 48
1.0
  6
ByLayer
100
AcDbEntity
100
AcDbPolyline
 90
5
 70
0
 10
9.5200040000000001
 20
10.1800180000000005
 30
0.0
 10
9.5200040000000001
 20
11.8800179999999997
 30
0.0
 10
11.2200039999999994
 20
11.8800179999999997
 30
0.0
 10
11.2200039999999994
 20
10.1800180000000005
 30
0.0
 10
9.5200040000000001
 20
10.1800180000000005
 30
0.0
  0
LWPOLYLINE
  5
B2
  8
text
 62
256
370
-1
 48
1.0
  6
ByLayer
100
AcDbEntity
100
AcDbPolyline
 90
5
 70
0
 10
9.1000040000000002
 20
12.3000170000000004
 30
0.0
 10
9.1000040000000002
 20
14.8400169999999996
 30
0.0
 10
11.6400039999999994
 20
14.8400169999999996
 30
0.0
 10
11.6400039999999994
 20
12.3000170000000004
 30
0.0
 10
9.1000040000000002
 20
12.3000170000000004
 30
0.0
  0
LWPOLYLINE
  5
B3
  8
text
 62
256
370
-1
 48
1.0
  6
ByLayer
100
AcDbEntity
100
AcDbPolyline
 90
5
 70
0
 10
14.1800049999999995
 20
9.7600160000000002
 30
0.0
 10
14.1800049999999995
 20
12.3000159999999994
 30
0.0
 10
16.7200050000000005
 20
12.3000159999999994
 30
0.0
 10
16.7200050000000005
 20
9.7600160000000002
 30
0.0
 10
14.1800049999999995
 20
9.7600160000000002
 30
0.0
  0
LWPOLYLINE
  5
B4
  8
text
 62
256
370
-1
 48
1.0
  6
ByLayer
100
AcDbEntity
100
AcDbPolyline
 90
5
 70
0
 10
14.1800040000000003
 20
12.3000000000000007
 30
0.0
 10
14.1800040000000003
 20
14.8399999999999999
 30
0.0
 10
16.7200039999999994
 20
14.8399999999999999
 30
0.0
 10
16.7200039999999994
 20
12.3000000000000007
 30
0.0
 10
14.1800040000000003
 20
12.3000000000000007
 30
0.0
  0
LWPOLYLINE
  5
B5
  8
text
 62
256
370
-1
 48
1.0
  6
ByLayer
100
AcDbEntity
100
AcDbPolyline
 90
5
 70
0
 10
24.3400010000000009
 20
9.7600160000000002
 30
0.0
 10
24.3400010000000009
 20
12.3000159999999994
 30
0.0
 10
26.880001
 20
12.3000159999999994
 30
0.0
 10
26.880001
 20
9.7600160000000002
 30
0.0
 10
24.3400010000000009
 20
9.7600160000000002
 30
0.0
  0
LWPOLYLINE
  5
B6
  8
text
 62
256
370
-1
 48
1.0
  6
ByLayer
100
AcDbEntity
100
AcDbPolyline
 90
5
 70
0
 10
24.3400040000000004
 20
12.3000000000000007
 30
0.0
 10
24.3400040000000004
 20
14.8399999999999999
 30
0.0
 10
26.8800039999999996
 20
14.8399999999999999
 30
0.0
 10
26.8800039999999996
 20
12.3000000000000007
 30
0.0
 10
24.3400040000000004
 20
12.3000000000000007
 30
0.0
  0
LWPOLYLINE
  5
B7
  8
text
 62
256
370
-1
 48
1.0
  6
ByLayer
100
AcDbEntity
100
AcDbPolyline
 90
5
 70
0
 10
21.8000010000000017
 20
9.7600160000000002
 30
0.0
 10
21.8000010000000017
 20
12.3000159999999994
 30
0.0
 10
24.3400010000000009
 20
12.3000159999999994
 30
0.0
 10
24.3400010000000009
 20
9.7600160000000002
 30
0.0
 10
21.8000010000000017
 20
9.7600160000000002
 30
0.0
  0
LWPOLYLINE
  5
B8
  8
text
 62
256
370
-1
 48
1.0
  6
ByLayer
100
AcDbEntity
100
AcDbPolyline
 90
5
 70
0
 10
21.8000010000000017
 20
12.3000019999999992
 30
0.0
 10
21.8000010000000017
 20
14.8400020000000001
 30
0.0
 10
24.3400010000000009
 20
14.8400020000000001
 30
0.0
 10
24.3400010000000009
 20
12.3000019999999992
 30
0.0
 10
21.8000010000000017
 20
12.3000019999999992
 30
0.0
  0
LWPOLYLINE
  5
B9
  8
text
 62
256
370
-1
 48
1.0
  6
ByLayer
100
AcDbEntity
100
AcDbPolyline
 90
5
 70
0
 10
29.4200039999999987
 20
9.7600169999999995
 30
0.0
 10
29.4200039999999987
 20
12.3000170000000004
 30
0.0
 10
31.9600040000000014
 20
12.3000170000000004
 30
0.0
 10
31.9600040000000014
 20
9.7600169999999995
 30
0.0
 10
29.4200039999999987
 20
9.7600169999999995
 30
0.0
  0
LWPOLYLINE
  5
BA
  8
text
 62
256
370
-1
 48
1.0
  6
ByLayer
100
AcDbEntity
100
AcDbPolyline
 90
5
 70
0
 10
29.4200069999999982
 20
12.3000019999999992
 30
0.0
 10
29.4200069999999982
 20
14.8400020000000001
 30
0.0
 10
31.9600070000000009
 20
14.8400020000000001
 30
0.0
 10
31.9600070000000009
 20
12.3000019999999992
 30
0.0
 10
29.4200069999999982
 20
12.3000019999999992
 30
0.0
  0
LWPOLYLINE
  5
BB
  8
text
 62
256
370
-1
 48
1.0
  6
ByLayer
100
AcDbEntity
100
AcDbPolyline
 90
5
 70
0
 10
34.4999930000000035
 20
9.7600160000000002
 30
0.0
 10
34.4999930000000035
 20
12.3000159999999994
 30
0.0
 10
37.0399930000000026
 20
12.3000159999999994
 30
0.0
 10
37.0399930000000026
 20
9.7600160000000002
 30
0.0
 10
34.4999930000000035
 20
9.7600160000000002
 30
0.0
  0
LWPOLYLINE
  5
BC
  8
text
 62
256
370
-1
 48
1.0
  6
ByLayer
100
AcDbEntity
100
AcDbPolyline
 90
5
 70
0
 10
34.4999930000000035
 20
12.3000019999999992
 30
0.0
 10
34.4999930000000035
 20
14.8400020000000001
 30
0.0
 10
37.0399930000000026
 20
14.8400020000000001
 30
0.0
 10
37.0399930000000026
 20
12.3000019999999992
 30
0.0
 10
34.4999930000000035
 20
12.3000019999999992
 30
0.0
  0
LWPOLYLINE
  5
BD
  8
text
 62
256
370
-1
 48
1.0
  6
ByLayer
100
AcDbEntity
100
AcDbPolyline
 90
5
 70
0
 10
31.9600000000000009
 20
9.7600160000000002
 30
0.0
 10
31.9600000000000009
 20
12.3000159999999994
 30
0.0
 10
34.5
 20
12.3000159999999994
 30
0.0
 10
34.5
 20
9.7600160000000002
 30
0.0
 10
31.9600000000000009
 20
9.7600160000000002
 30
0.0
  0
LWPOLYLINE
  5
BE
  8
text
 62
256
370
-1
 48
1.0
  6
ByLayer
100
AcDbEntity
100
AcDbPolyline
 90
5
 70
0
 10
31.9599949999999993
 20
12.3000000000000007
 30
0.0
 10
31.9599949999999993
 20
14.8399999999999999
 30
0.0
 10
34.4999949999999984
 20
14.8399999999999999
 30
0.0
 10
34.4999949999999984
 20
12.3000000000000007
 30
0.0
 10
31.9599949999999993
 20
12.3000000000000007
 30
0.0
  0
LWPOLYLINE
  5
BF
  8
text
 62
256
370
-1
 48
1.0
  6
ByLayer
100
AcDbEntity
100
AcDbPolyline
 90
5
 70
0
 10
37.0400020000000012
 20
9.7600160000000002
 30
0.0
 10
37.0400020000000012
 20
12.3000159999999994
 30
0.0
 10
39.5800020000000004
 20
12.3000159999999994
 30
0.0
 10
39.5800020000000004
 20
9.7600160000000002
 30
0.0
 10
37.0400020000000012
 20
9.7600160000000002
 30
0.0
  0
LWPOLYLINE
  5
C0
  8
text
 62
256
370
-1
 48
1.0
  6
ByLayer
100
AcDbEntity
100
AcDbPolyline
 90
5
 70
0
 10
37.0400020000000012
 20
12.3000019999999992
 30
0.0
 10
37.0400020000000012
 20
14.8400020000000001
 30
0.0
 10
39.5800020000000004
 20
14.8400020000000001
 30
0.0
 10
39.5800020000000004
 20
12.3000019999999992
 30
0.0
 10
37.0400020000000012
 20
12.3000019999999992
 30
0.0
  0
LWPOLYLINE
  5
C1
  8
text
 62
256
370
-1
 48
1.0
  6
ByLayer
100
AcDbEntity
100
AcDbPolyline
 90
5
 70
0
 10
47.2000010000000003
 20
9.7600160000000002
 30
0.0
 10
47.2000010000000003
 20
12.3000159999999994
 30
0.0
 10
49.7400009999999995
 20
12.3000159999999994
 30
0.0
 10
49.7400009999999995
 20
9.7600160000000002
 30
0.0
 10
47.2000010000000003
 20
9.7600160000000002
 30
0.0
  0
LWPOLYLINE
  5
C2
  8
text
 62
256
370
-1
 48
1.0
  6
ByLayer
100
AcDbEntity
100
AcDbPolyline
 90
5
 70
0
 10
47.2000010000000003
 20
12.3000019999999992
 30
0.0
 10
47.2000010000000003
 20
14.8400020000000001
 30
0.0
 10
49.7400009999999995
 20
14.8400020000000001
 30
0.0
 10
49.7400009999999995
 20
12.3000019999999992
 30
0.0
 10
47.2000010000000003
 20
12.3000019999999992
 30
0.0
  0
LWPOLYLINE
  5
C3
  8
text
 62
256
370
-1
 48
1.0
  6
ByLayer
100
AcDbEntity
100
AcDbPolyline
 90
5
 70
0
 10
44.6600060000000028
 20
9.7600160000000002
 30
0.0
 10
44.6600060000000028
 20
12.3000159999999994
 30
0.0
 10
47.2000060000000019
 20
12.3000159999999994
 30
0.0
 10
47.2000060000000019
 20
9.7600160000000002
 30
0.0
 10
44.6600060000000028
 20
9.7600160000000002
 30
0.0
  0
LWPOLYLINE
  5
C4
  8
text
 62
256
370
-1
 48
1.0
  6
ByLayer
100
AcDbEntity
100
AcDbPolyline
 90
5
 70
0
 10
44.6600040000000007
 20
12.3000000000000007
 30
0.0
 10
44.6600040000000007
 20
14.8399999999999999
 30
0.0
 10
47.2000039999999998
 20
14.8399999999999999
 30
0.0
 10
47.2000039999999998
 20
12.3000000000000007
 30
0.0
 10
44.6600040000000007
 20
12.3000000000000007
 30
0.0
  0
LWPOLYLINE
  5
C5
  8
text
 62
256
370
-1
 48
1.0
  6
ByLayer
100
AcDbEntity
100
AcDbPolyline
 90
5
 70
0
 10
16.7200059999999979
 20
9.7600160000000002
 30
0.0
 10
16.7200059999999979
 20
12.3000159999999994
 30
0.0
 10
19.2600060000000006
 20
12.3000159999999994
 30
0.0
 10
19.2600060000000006
 20
9.7600160000000002
 30
0.0
 10
16.7200059999999979
 20
9.7600160000000002
 30
0.0
  0
LWPOLYLINE
  5
C6
  8
text
 62
256
370
-1
 48
1.0
  6
ByLayer
100
AcDbEntity
100
AcDbPolyline
 90
5
 70
0
 10
16.7200059999999979
 20
12.3000019999999992
 30
0.0
 10
16.7200059999999979
 20
14.8400020000000001
 30
0.0
 10
19.2600060000000006
 20
14.8400020000000001
 30
0.0
 10
19.2600060000000006
 20
12.3000019999999992
 30
0.0
 10
16.7200059999999979
 20
12.3000019999999992
 30
0.0
  0
LWPOLYLINE
  5
C7
  8
text
 62
256
370
-1
 48
1.0
  6
ByLayer
100
AcDbEntity
100
AcDbPolyline
 90
5
 70
0
 10
19.259995
 20
9.7600169999999995
 30
0.0
 10
19.259995
 20
12.3000170000000004
 30
0.0
 10
21.7999949999999991
 20
12.3000170000000004
 30
0.0
 10
21.7999949999999991
 20
9.7600169999999995
 30
0.0
 10
19.259995
 20
9.7600169999999995
 30
0.0
  0
LWPOLYLINE
  5
C8
  8
text
 62
256
370
-1
 48
1.0
  6
ByLayer
100
AcDbEntity
100
AcDbPolyline
 90
5
 70
0
 10
19.2599939999999989
 20
12.3000019999999992
 30
0.0
 10
19.2599939999999989
 20
14.8400020000000001
 30
0.0
 10
21.7999940000000016
 20
14.8400020000000001
 30
0.0
 10
21.7999940000000016
 20
12.3000019999999992
 30
0.0
 10
19.2599939999999989
 20
12.3000019999999992
 30
0.0
  0
LWPOLYLINE
  5
C9
  8
text
 62
256
370
-1
 48
1.0
  6
ByLayer
100
AcDbEntity
100
AcDbPolyline
 90
5
 70
0
 10
11.6400009999999998
 20
12.3000000000000007
 30
0.0
 10
11.6400009999999998
 20
14.8399999999999999
 30
0.0
 10
14.1800010000000007
 20
14.8399999999999999
 30
0.0
 10
14.1800010000000007
 20
12.3000000000000007
 30
0.0
 10
11.6400009999999998
 20
12.3000000000000007
 30
0.0
  0
LWPOLYLINE
  5
CA
  8
text
 62
256
370
-1
 48
1.0
  6
ByLayer
100
AcDbEntity
100
AcDbPolyline
 90
5
 70
0
 10
26.8800039999999996
 20
9.7600160000000002
 30
0.0
 10
26.8800039999999996
 20
12.3000159999999994
 30
0.0
 10
29.4200039999999987
 20
12.3000159999999994
 30
0.0
 10
29.4200039999999987
 20
9.7600160000000002
 30
0.0
 10
26.8800039999999996
 20
9.7600160000000002
 30
0.0
  0
LWPOLYLINE
  5
CB
  8
text
 62
256
370
-1
 48
1.0
  6
ByLayer
100
AcDbEntity
100
AcDbPolyline
 90
5
 70
0
 10
26.8800039999999996
 20
12.3000019999999992
 30
0.0
 10
26.8800039999999996
 20
14.8400020000000001
 30
0.0
 10
29.4200039999999987
 20
14.8400020000000001
 30
0.0
 10
29.4200039999999987
 20
12.3000019999999992
 30
0.0
 10
26.8800039999999996
 20
12.3000019999999992
 30
0.0
  0
LWPOLYLINE
  5
CC
  8
text
 62
256
370
-1
 48
1.0
  6
ByLayer
100
AcDbEntity
100
AcDbPolyline
 90
5
 70
0
 10
39.5799949999999967
 20
9.7600169999999995
 30
0.0
 10
39.5799949999999967
 20
12.3000170000000004
 30
0.0
 10
42.119995000000003
 20
12.3000170000000004
 30
0.0
 10
42.119995000000003
 20
9.7600169999999995
 30
0.0
 10
39.5799949999999967
 20
9.7600169999999995
 30
0.0
  0
LWPOLYLINE
  5
CD
  8
text
 62
256
370
-1
 48
1.0
  6
ByLayer
100
AcDbEntity
100
AcDbPolyline
 90
5
 70
0
 10
39.5799919999999972
 20
12.3000019999999992
 30
0.0
 10
39.5799919999999972
 20
14.8400020000000001
 30
0.0
 10
42.1199920000000034
 20
14.8400020000000001
 30
0.0
 10
42.1199920000000034
 20
12.3000019999999992
 30
0.0
 10
39.5799919999999972
 20
12.3000019999999992
 30
0.0
  0
LWPOLYLINE
  5
CE
  8
text
 62
256
370
-1
 48
1.0
  6
ByLayer
100
AcDbEntity
100
AcDbPolyline
 90
5
 70
0
 10
42.1200040000000016
 20
9.7600160000000002
 30
0.0
 10
42.1200040000000016
 20
12.3000159999999994
 30
0.0
 10
44.6600040000000007
 20
12.3000159999999994
 30
0.0
 10
44.6600040000000007
 20
9.7600160000000002
 30
0.0
 10
42.1200040000000016
 20
9.7600160000000002
 30
0.0
  0
LWPOLYLINE
  5
CF
  8
text
 62
256
370
-1
 48
1.0
  6
ByLayer
100
AcDbEntity
100
AcDbPolyline
 90
5
 70
0
 10
42.1200040000000016
 20
12.3000019999999992
 30
0.0
 10
42.1200040000000016
 20
14.8400020000000001
 30
0.0
 10
44.6600040000000007
 20
14.8400020000000001
 30
0.0
 10
44.6600040000000007
 20
12.3000019999999992
 30
0.0
 10
42.1200040000000016
 20
12.3000019999999992
 30
0.0
  0
LWPOLYLINE
  5
D0
  8
text
 62
256
370
-1
 48
1.0
  6
ByLayer
100
AcDbEntity
100
AcDbPolyline
 90
5
 70
0
 10
49.740003999999999
 20
9.7600160000000002
 30
0.0
 10
49.740003999999999
 20
12.3000159999999994
 30
0.0
 10
52.2800039999999981
 20
12.3000159999999994
 30
0.0
 10
52.2800039999999981
 20
9.7600160000000002
 30
0.0
 10
49.740003999999999
 20
9.7600160000000002
 30
0.0
  0
LWPOLYLINE
  5
D1
  8
text
 62
256
370
-1
 48
1.0
  6
ByLayer
100
AcDbEntity
100
AcDbPolyline
 90
5
 70
0
 10
49.740003999999999
 20
12.3000000000000007
 30
0.0
 10
49.740003999999999
 20
14.8399999999999999
 30
0.0
 10
52.2800039999999981
 20
14.8399999999999999
 30
0.0
 10
52.2800039999999981
 20
12.3000000000000007
 30
0.0
 10
49.740003999999999
 20
12.3000000000000007
 30
0.0
  0
LWPOLYLINE
  5
D2
  8
text
 62
256
370
-1
 48
1.0
  6
ByLayer
100
AcDbEntity
100
AcDbPolyline
 90
5
 70
0
 10
54.8200009999999978
 20
9.7600160000000002
 30
0.0
 10
54.8200009999999978
 20
12.3000159999999994
 30
0.0
 10
57.3600009999999969
 20
12.3000159999999994
 30
0.0
 10
57.3600009999999969
 20
9.7600160000000002
 30
0.0
 10
54.8200009999999978
 20
9.7600160000000002
 30
0.0
  0
LWPOLYLINE
  5
D3
  8
text
 62
256
370
-1
 48
1.0
  6
ByLayer
100
AcDbEntity
100
AcDbPolyline
 90
5
 70
0
 10
54.8200009999999978
 20
12.3000019999999992
 30
0.0
 10
54.8200009999999978
 20
14.8400020000000001
 30
0.0
 10
57.3600009999999969
 20
14.8400020000000001
 30
0.0
 10
57.3600009999999969
 20
12.3000019999999992
 30
0.0
 10
54.8200009999999978
 20
12.3000019999999992
 30
0.0
  0
LWPOLYLINE
  5
D4
  8
text
 62
256
370
-1
 48
1.0
  6
ByLayer
100
AcDbEntity
100
AcDbPolyline
 90
5
 70
0
 10
52.2800039999999981
 20
9.7600160000000002
 30
0.0
 10
52.2800039999999981
 20
12.3000159999999994
 30
0.0
 10
54.8200039999999973
 20
12.3000159999999994
 30
0.0
 10
54.8200039999999973
 20
9.7600160000000002
 30
0.0
 10
52.2800039999999981
 20
9.7600160000000002
 30
0.0
  0
LWPOLYLINE
  5
D5
  8
text
 62
256
370
-1
 48
1.0
  6
ByLayer
100
AcDbEntity
100
AcDbPolyline
 90
5
 70
0
 10
52.2800039999999981
 20
12.3000019999999992
 30
0.0
 10
52.2800039999999981
 20
14.8400020000000001
 30
0.0
 10
54.8200039999999973
 20
14.8400020000000001
 30
0.0
 10
54.8200039999999973
 20
12.3000019999999992
 30
0.0
 10
52.2800039999999981
 20
12.3000019999999992
 30
0.0
  0
LWPOLYLINE
  5
D6
  8
text
 62
256
370
-1
 48
1.0
  6
ByLayer
100
AcDbEntity
100
AcDbPolyline
 90
5
 70
0
 10
57.3600040000000035
 20
9.7600169999999995
 30
0.0
 10
57.3600040000000035
 20
12.3000170000000004
 30
0.0
 10
59.9000040000000027
 20
12.3000170000000004
 30
0.0
 10
59.9000040000000027
 20
9.7600169999999995
 30
0.0
 10
57.3600040000000035
 20
9.7600169999999995
 30
0.0
  0
LWPOLYLINE
  5
D7
  8
text
 62
256
370
-1
 48
1.0
  6
ByLayer
100
AcDbEntity
100
AcDbPolyline
 90
5
 70
0
 10
57.3600040000000035
 20
12.3000019999999992
 30
0.0
 10
57.3600040000000035
 20
14.8400020000000001
 30
0.0
 10
59.9000040000000027
 20
14.8400020000000001
 30
0.0
 10
59.9000040000000027
 20
12.3000019999999992
 30
0.0
 10
57.3600040000000035
 20
12.3000019999999992
 30
0.0
  0
LWPOLYLINE
  5
D8
  8
text
 62
256
370
-1
 48
1.0
  6
ByLayer
100
AcDbEntity
100
AcDbPolyline
 90
17
 70
0
 10
9.6915119999999995
 20
17.0602629999999991
 30
0.0
 10
9.6915119999999995
 20
16.4140809999999995
 30
0.0
 10
10.2730759999999997
 20
16.3494630000000001
 30
0.0
 10
10.2084569999999992
 20
16.4140809999999995
 30
0.0
 10
10.1438389999999998
 20
16.6079350000000012
 30
0.0
 10
10.1438389999999998
 20
16.8017900000000004
 30
0.0
 10
10.2084569999999992
 20
16.9956439999999986
 30
0.0
 10
10.3376940000000008
 20
17.1248809999999985
 30
0.0
 10
10.5315480000000008
 20
17.1894990000000014
 30
0.0
 10
10.6607850000000006
 20
17.1894990000000014
 30
0.0
 10
10.8546390000000006
 20
17.1248809999999985
 30
0.0
 10
10.9838760000000004
 20
16.9956439999999986
 30
0.0
 10
11.0484939999999998
 20
16.8017900000000004
 30
0.0
 10
11.0484939999999998
 20
16.6079350000000012
 30
0.0
 10
10.9838760000000004
 20
16.4140809999999995
 30
0.0
 10
10.919257
 20
16.3494630000000001
 30
0.0
 10
10.7900209999999994
 20
16.2848439999999997
 30
0.0
  0
LWPOLYLINE
  5
D9
  8
text
 62
256
370
-1
 48
1.0
  6
ByLayer
100
AcDbEntity
100
AcDbPolyline
 90
2
 70
0
 10
9.6915119999999995
 20
17.447972
 30
0.0
 10
11.0484939999999998
 20
17.9649169999999998
 30
0.0
  0
LWPOLYLINE
  5
DA
  8
text
 62
256
370
-1
 48
1.0
  6
ByLayer
100
AcDbEntity
100
AcDbPolyline
 90
2
 70
0
 10
9.6915119999999995
 20
18.4818630000000006
 30
0.0
 10
11.0484939999999998
 20
17.9649169999999998
 30
0.0
  0
LWPOLYLINE
  5
DB
  8
text
 62
256
370
-1
 48
1.0
  6
ByLayer
100
AcDbEntity
100
AcDbPolyline
 90
19
 70
0
 10
15.0946060000000006
 20
17.2575259999999986
 30
0.0
 10
14.9653690000000008
 20
17.1929079999999992
 30
0.0
 10
14.8361330000000002
 20
17.0636720000000004
 30
0.0
 10
14.7715150000000008
 20
16.9344350000000006
 30
0.0
 10
14.7715150000000008
 20
16.6759629999999994
 30
0.0
 10
14.8361330000000002
 20
16.5467259999999996
 30
0.0
 10
14.9653690000000008
 20
16.4174900000000008
 30
0.0
 10
15.0946060000000006
 20
16.3528720000000014
 30
0.0
 10
15.2884600000000006
 20
16.2882539999999985
 30
0.0
 10
15.6115510000000004
 20
16.2882539999999985
 30
0.0
 10
15.8054059999999996
 20
16.3528720000000014
 30
0.0
 10
15.9346420000000002
 20
16.4174900000000008
 30
0.0
 10
16.0638780000000025
 20
16.5467259999999996
 30
0.0
 10
16.1284969999999994
 20
16.6759629999999994
 30
0.0
 10
16.1284969999999994
 20
16.9344350000000006
 30
0.0
 10
16.0638780000000025
 20
17.0636720000000004
 30
0.0
 10
15.9346420000000002
 20
17.1929079999999992
 30
0.0
 10
15.8054059999999996
 20
17.2575259999999986
 30
0.0
 10
15.6115510000000004
 20
17.2575259999999986
 30
0.0
  0
LWPOLYLINE
  5
DC
  8
text
 62
256
370
-1
 48
1.0
  6
ByLayer
100
AcDbEntity
100
AcDbPolyline
 90
2
 70
0
 10
15.6115510000000004
 20
16.9344350000000006
 30
0.0
 10
15.6115510000000004
 20
17.2575259999999986
 30
0.0
  0
LWPOLYLINE
  5
DD
  8
text
 62
256
370
-1
 48
1.0
  6
ByLayer
100
AcDbEntity
100
AcDbPolyline
 90
2
 70
0
 10
14.7715150000000008
 20
17.709854
 30
0.0
 10
16.1284969999999994
 20
17.709854
 30
0.0
  0
LWPOLYLINE
  5
DE
  8
text
 62
256
370
-1
 48
1.0
  6
ByLayer
100
AcDbEntity
100
AcDbPolyline
 90
2
 70
0
 10
14.7715150000000008
 20
17.709854
 30
0.0
 10
16.1284969999999994
 20
18.6145080000000007
 30
0.0
  0
LWPOLYLINE
  5
DF
  8
text
 62
256
370
-1
 48
1.0
  6
ByLayer
100
AcDbEntity
100
AcDbPolyline
 90
2
 70
0
 10
14.7715150000000008
 20
18.6145080000000007
 30
0.0
 10
16.1284969999999994
 20
18.6145080000000007
 30
0.0
  0
LWPOLYLINE
  5
E0
  8
text
 62
256
370
-1
 48
1.0
  6
ByLayer
100
AcDbEntity
100
AcDbPolyline
 90
2
 70
0
 10
14.7715150000000008
 20
19.1314540000000015
 30
0.0
 10
16.1284969999999994
 20
19.1314540000000015
 30
0.0
  0
LWPOLYLINE
  5
E1
  8
text
 62
256
370
-1
 48
1.0
  6
ByLayer
100
AcDbEntity
100
AcDbPolyline
 90
12
 70
0
 10
14.7715150000000008
 20
19.1314540000000015
 30
0.0
 10
14.7715150000000008
 20
19.5837809999999983
 30
0.0
 10
14.8361330000000002
 20
19.7776350000000001
 30
0.0
 10
14.9653690000000008
 20
19.9068719999999999
 30
0.0
 10
15.0946060000000006
 20
19.9714899999999993
 30
0.0
 10
15.2884600000000006
 20
20.0361079999999987
 30
0.0
 10
15.6115510000000004
 20
20.0361079999999987
 30
0.0
 10
15.8054059999999996
 20
19.9714899999999993
 30
0.0
 10
15.9346420000000002
 20
19.9068719999999999
 30
0.0
 10
16.0638780000000025
 20
19.7776350000000001
 30
0.0
 10
16.1284969999999994
 20
19.5837809999999983
 30
0.0
 10
16.1284969999999994
 20
19.1314540000000015
 30
0.0
  0
LWPOLYLINE
  5
E2
  8
text
 62
256
370
-1
 48
1.0
  6
ByLayer
100
AcDbEntity
100
AcDbPolyline
 90
4
 70
0
 10
17.6044610000000006
 20
16.2697380000000003
 30
0.0
 10
17.5418549999999982
 20
16.4011899999999997
 30
0.0
 10
17.3540369999999982
 20
16.5983710000000002
 30
0.0
 10
18.668762000000001
 20
16.5983710000000002
 30
0.0
  0
LWPOLYLINE
  5
E3
  8
text
 62
256
370
-1
 48
1.0
  6
ByLayer
100
AcDbEntity
100
AcDbPolyline
 90
3
 70
0
 10
17.3540369999999982
 20
18.0443600000000011
 30
0.0
 10
18.2305199999999985
 20
17.3870910000000016
 30
0.0
 10
18.2305199999999985
 20
18.372993000000001
 30
0.0
  0
LWPOLYLINE
  5
E4
  8
text
 62
256
370
-1
 48
1.0
  6
ByLayer
100
AcDbEntity
100
AcDbPolyline
 90
2
 70
0
 10
17.3540369999999982
 20
18.0443600000000011
 30
0.0
 10
18.668762000000001
 20
18.0443600000000011
 30
0.0
  0
LWPOLYLINE
  5
E5
  8
text
 62
256
370
-1
 48
1.0
  6
ByLayer
100
AcDbEntity
100
AcDbPolyline
 90
2
 70
0
 10
17.3540369999999982
 20
19.8337320000000012
 30
0.0
 10
18.668762000000001
 20
19.8337320000000012
 30
0.0
  0
LWPOLYLINE
  5
E6
  8
text
 62
256
370
-1
 48
1.0
  6
ByLayer
100
AcDbEntity
100
AcDbPolyline
 90
2
 70
0
 10
17.3540369999999982
 20
19.3736449999999998
 30
0.0
 10
17.3540369999999982
 20
20.2938200000000002
 30
0.0
  0
LWPOLYLINE
  5
E7
  8
text
 62
256
370
-1
 48
1.0
  6
ByLayer
100
AcDbEntity
100
AcDbPolyline
 90
2
 70
0
 10
17.3540369999999982
 20
20.5567269999999986
 30
0.0
 10
18.668762000000001
 20
21.476901999999999
 30
0.0
  0
LWPOLYLINE
  5
E8
  8
text
 62
256
370
-1
 48
1.0
  6
ByLayer
100
AcDbEntity
100
AcDbPolyline
 90
2
 70
0
 10
17.3540369999999982
 20
21.476901999999999
 30
0.0
 10
18.668762000000001
 20
20.5567269999999986
 30
0.0
  0
LWPOLYLINE
  5
E9
  8
text
 62
256
370
-1
 48
1.0
  6
ByLayer
100
AcDbEntity
100
AcDbPolyline
 90
2
 70
0
 10
17.3540369999999982
 20
21.9369900000000015
 30
0.0
 10
18.668762000000001
 20
21.9369900000000015
 30
0.0
  0
LWPOLYLINE
  5
EA
  8
text
 62
256
370
-1
 48
1.0
  6
ByLayer
100
AcDbEntity
100
AcDbPolyline
 90
12
 70
0
 10
17.3540369999999982
 20
21.9369900000000015
 30
0.0
 10
17.3540369999999982
 20
22.3970780000000005
 30
0.0
 10
17.4166430000000005
 20
22.594258
 30
0.0
 10
17.5418549999999982
 20
22.7257110000000004
 30
0.0
 10
17.6670669999999994
 20
22.7914390000000004
 30
0.0
 10
17.8548849999999995
 20
22.8571649999999984
 30
0.0
 10
18.1679139999999997
 20
22.8571649999999984
 30
0.0
 10
18.3557319999999997
 20
22.7914390000000004
 30
0.0
 10
18.4809440000000009
 20
22.7257110000000004
 30
0.0
 10
18.6061559999999986
 20
22.594258
 30
0.0
 10
18.668762000000001
 20
22.3970780000000005
 30
0.0
 10
18.668762000000001
 20
21.9369900000000015
 30
0.0
  0
LWPOLYLINE
  5
EB
  8
text
 62
256
370
-1
 48
1.0
  6
ByLayer
100
AcDbEntity
100
AcDbPolyline
 90
4
 70
0
 10
20.1452029999999986
 20
16.2699460000000009
 30
0.0
 10
20.0825969999999998
 20
16.3951570000000011
 30
0.0
 10
19.8947789999999998
 20
16.5829750000000011
 30
0.0
 10
21.209503999999999
 20
16.5829750000000011
 30
0.0
  0
LWPOLYLINE
  5
EC
  8
text
 62
256
370
-1
 48
1.0
  6
ByLayer
100
AcDbEntity
100
AcDbPolyline
 90
17
 70
0
 10
19.8947789999999998
 20
18.0855169999999994
 30
0.0
 10
19.8947789999999998
 20
17.4594580000000015
 30
0.0
 10
20.4582329999999999
 20
17.3968519999999991
 30
0.0
 10
20.3956270000000011
 20
17.4594580000000015
 30
0.0
 10
20.3330209999999987
 20
17.6472760000000015
 30
0.0
 10
20.3330209999999987
 20
17.8350940000000016
 30
0.0
 10
20.3956270000000011
 20
18.0229110000000006
 30
0.0
 10
20.5208389999999987
 20
18.1481229999999982
 30
0.0
 10
20.7086560000000013
 20
18.2107290000000006
 30
0.0
 10
20.8338679999999989
 20
18.2107290000000006
 30
0.0
 10
21.021685999999999
 20
18.1481229999999982
 30
0.0
 10
21.1468980000000002
 20
18.0229110000000006
 30
0.0
 10
21.209503999999999
 20
17.8350940000000016
 30
0.0
 10
21.209503999999999
 20
17.6472760000000015
 30
0.0
 10
21.1468980000000002
 20
17.4594580000000015
 30
0.0
 10
21.0842920000000014
 20
17.3968519999999991
 30
0.0
 10
20.9590800000000002
 20
17.3342460000000003
 30
0.0
  0
LWPOLYLINE
  5
ED
  8
text
 62
256
370
-1
 48
1.0
  6
ByLayer
100
AcDbEntity
100
AcDbPolyline
 90
2
 70
0
 10
19.8947789999999998
 20
19.404948000000001
 30
0.0
 10
21.209503999999999
 20
19.404948000000001
 30
0.0
  0
LWPOLYLINE
  5
EE
  8
text
 62
256
370
-1
 48
1.0
  6
ByLayer
100
AcDbEntity
100
AcDbPolyline
 90
10
 70
0
 10
19.8947789999999998
 20
19.404948000000001
 30
0.0
 10
19.8947789999999998
 20
19.9684010000000001
 30
0.0
 10
19.9573849999999986
 20
20.1562190000000001
 30
0.0
 10
20.019991000000001
 20
20.2188249999999989
 30
0.0
 10
20.1452029999999986
 20
20.2814300000000003
 30
0.0
 10
20.2704149999999998
 20
20.2814300000000003
 30
0.0
 10
20.3956270000000011
 20
20.2188249999999989
 30
0.0
 10
20.4582329999999999
 20
20.1562190000000001
 30
0.0
 10
20.5208389999999987
 20
19.9684010000000001
 30
0.0
 10
20.5208389999999987
 20
19.404948000000001
 30
0.0
  0
LWPOLYLINE
  5
EF
  8
text
 62
256
370
-1
 48
1.0
  6
ByLayer
100
AcDbEntity
100
AcDbPolyline
 90
2
 70
0
 10
20.5208389999999987
 20
19.8431889999999989
 30
0.0
 10
21.209503999999999
 20
20.2814300000000003
 30
0.0
  0
LWPOLYLINE
  5
F0
  8
text
 62
256
370
-1
 48
1.0
  6
ByLayer
100
AcDbEntity
100
AcDbPolyline
 90
2
 70
0
 10
19.8947789999999998
 20
20.6570660000000004
 30
0.0
 10
21.209503999999999
 20
21.5335490000000007
 30
0.0
  0
LWPOLYLINE
  5
F1
  8
text
 62
256
370
-1
 48
1.0
  6
ByLayer
100
AcDbEntity
100
AcDbPolyline
 90
2
 70
0
 10
19.8947789999999998
 20
21.5335490000000007
 30
0.0
 10
21.209503999999999
 20
20.6570660000000004
 30
0.0
  0
LWPOLYLINE
  5
F2
  8
text
 62
256
370
-1
 48
1.0
  6
ByLayer
100
AcDbEntity
100
AcDbPolyline
 90
2
 70
0
 10
19.8947789999999998
 20
21.9717899999999986
 30
0.0
 10
21.209503999999999
 20
21.9717899999999986
 30
0.0
  0
LWPOLYLINE
  5
F3
  8
text
 62
256
370
-1
 48
1.0
  6
ByLayer
100
AcDbEntity
100
AcDbPolyline
 90
12
 70
0
 10
19.8947789999999998
 20
21.9717899999999986
 30
0.0
 10
19.8947789999999998
 20
22.4100320000000011
 30
0.0
 10
19.9573849999999986
 20
22.5978490000000001
 30
0.0
 10
20.0825969999999998
 20
22.7230610000000013
 30
0.0
 10
20.207809000000001
 20
22.7856670000000001
 30
0.0
 10
20.3956270000000011
 20
22.8482729999999989
 30
0.0
 10
20.7086560000000013
 20
22.8482729999999989
 30
0.0
 10
20.8964740000000013
 20
22.7856670000000001
 30
0.0
 10
21.021685999999999
 20
22.7230610000000013
 30
0.0
 10
21.1468980000000002
 20
22.5978490000000001
 30
0.0
 10
21.209503999999999
 20
22.4100320000000011
 30
0.0
 10
21.209503999999999
 20
21.9717899999999986
 30
0.0
  0
LWPOLYLINE
  5
F4
  8
text
 62
256
370
-1
 48
1.0
  6
ByLayer
100
AcDbEntity
100
AcDbPolyline
 90
4
 70
0
 10
22.6851999999999983
 20
16.2699449999999999
 30
0.0
 10
22.6225939999999994
 20
16.3951570000000011
 30
0.0
 10
22.4347759999999994
 20
16.5829750000000011
 30
0.0
 10
23.7495009999999986
 20
16.5829750000000011
 30
0.0
  0
LWPOLYLINE
  5
F5
  8
text
 62
256
370
-1
 48
1.0
  6
ByLayer
100
AcDbEntity
100
AcDbPolyline
 90
29
 70
0
 10
22.4347759999999994
 20
17.6472760000000015
 30
0.0
 10
22.4973820000000018
 20
17.4594580000000015
 30
0.0
 10
22.6225939999999994
 20
17.3968519999999991
 30
0.0
 10
22.7478060000000006
 20
17.3968519999999991
 30
0.0
 10
22.8730179999999983
 20
17.4594580000000015
 30
0.0
 10
22.9356240000000007
 20
17.5846699999999991
 30
0.0
 10
22.9982299999999995
 20
17.8350940000000016
 30
0.0
 10
23.0608359999999983
 20
18.0229110000000006
 30
0.0
 10
23.1860479999999995
 20
18.1481229999999982
 30
0.0
 10
23.3112600000000008
 20
18.2107290000000006
 30
0.0
 10
23.4990780000000008
 20
18.2107290000000006
 30
0.0
 10
23.624289000000001
 20
18.1481229999999982
 30
0.0
 10
23.6868949999999998
 20
18.0855169999999994
 30
0.0
 10
23.7495009999999986
 20
17.8976989999999994
 30
0.0
 10
23.7495009999999986
 20
17.6472760000000015
 30
0.0
 10
23.6868949999999998
 20
17.4594580000000015
 30
0.0
 10
23.624289000000001
 20
17.3968519999999991
 30
0.0
 10
23.4990780000000008
 20
17.3342460000000003
 30
0.0
 10
23.3112600000000008
 20
17.3342460000000003
 30
0.0
 10
23.1860479999999995
 20
17.3968519999999991
 30
0.0
 10
23.0608359999999983
 20
17.5220640000000003
 30
0.0
 10
22.9982299999999995
 20
17.7098820000000003
 30
0.0
 10
22.9356240000000007
 20
17.9603050000000017
 30
0.0
 10
22.8730179999999983
 20
18.0855169999999994
 30
0.0
 10
22.7478060000000006
 20
18.1481229999999982
 30
0.0
 10
22.6225939999999994
 20
18.1481229999999982
 30
0.0
 10
22.4973820000000018
 20
18.0855169999999994
 30
0.0
 10
22.4347759999999994
 20
17.8976989999999994
 30
0.0
 10
22.4347759999999994
 20
17.6472760000000015
 30
0.0
  0
LWPOLYLINE
  5
F6
  8
text
 62
256
370
-1
 48
1.0
  6
ByLayer
100
AcDbEntity
100
AcDbPolyline
 90
14
 70
0
 10
27.7946060000000017
 20
16.3985640000000004
 30
0.0
 10
27.7299870000000013
 20
16.3985640000000004
 30
0.0
 10
27.6007509999999989
 20
16.4631819999999998
 30
0.0
 10
27.5361329999999995
 20
16.5277999999999992
 30
0.0
 10
27.4715150000000001
 20
16.6570360000000015
 30
0.0
 10
27.4715150000000001
 20
16.9155090000000001
 30
0.0
 10
27.5361329999999995
 20
17.0447449999999989
 30
0.0
 10
27.6007509999999989
 20
17.1093639999999994
 30
0.0
 10
27.7299870000000013
 20
17.1739819999999987
 30
0.0
 10
27.8592240000000011
 20
17.1739819999999987
 30
0.0
 10
27.9884599999999999
 20
17.1093639999999994
 30
0.0
 10
28.1823149999999991
 20
16.9801269999999995
 30
0.0
 10
28.8284969999999987
 20
16.3339449999999999
 30
0.0
 10
28.8284969999999987
 20
17.2386000000000017
 30
0.0
  0
LWPOLYLINE
  5
F7
  8
text
 62
256
370
-1
 48
1.0
  6
ByLayer
100
AcDbEntity
100
AcDbPolyline
 90
15
 70
0
 10
27.4715150000000001
 20
17.7555450000000015
 30
0.0
 10
27.4715150000000001
 20
18.4663450000000005
 30
0.0
 10
27.9884599999999999
 20
18.0786359999999995
 30
0.0
 10
27.9884599999999999
 20
18.2724909999999987
 30
0.0
 10
28.0530779999999993
 20
18.4017270000000011
 30
0.0
 10
28.1176969999999997
 20
18.4663450000000005
 30
0.0
 10
28.3115510000000015
 20
18.5309640000000009
 30
0.0
 10
28.4407870000000003
 20
18.5309640000000009
 30
0.0
 10
28.6346419999999995
 20
18.4663450000000005
 30
0.0
 10
28.7638779999999983
 20
18.3371090000000017
 30
0.0
 10
28.8284969999999987
 20
18.1432539999999989
 30
0.0
 10
28.8284969999999987
 20
17.9494000000000007
 30
0.0
 10
28.7638779999999983
 20
17.7555450000000015
 30
0.0
 10
28.6992599999999989
 20
17.6909269999999985
 30
0.0
 10
28.5700240000000001
 20
17.6263089999999991
 30
0.0
  0
LWPOLYLINE
  5
F8
  8
text
 62
256
370
-1
 48
1.0
  6
ByLayer
100
AcDbEntity
100
AcDbPolyline
 90
14
 70
0
 10
30.3346060000000008
 20
16.3985640000000004
 30
0.0
 10
30.2699870000000004
 20
16.3985640000000004
 30
0.0
 10
30.1407510000000016
 20
16.4631819999999998
 30
0.0
 10
30.0761329999999987
 20
16.5277999999999992
 30
0.0
 10
30.0115149999999993
 20
16.6570360000000015
 30
0.0
 10
30.0115149999999993
 20
16.9155090000000001
 30
0.0
 10
30.0761329999999987
 20
17.0447449999999989
 30
0.0
 10
30.1407510000000016
 20
17.1093639999999994
 30
0.0
 10
30.2699870000000004
 20
17.1739819999999987
 30
0.0
 10
30.3992240000000002
 20
17.1739819999999987
 30
0.0
 10
30.528459999999999
 20
17.1093639999999994
 30
0.0
 10
30.7223149999999983
 20
16.9801269999999995
 30
0.0
 10
31.3684970000000014
 20
16.3339449999999999
 30
0.0
 10
31.3684970000000014
 20
17.2386000000000017
 30
0.0
  0
LWPOLYLINE
  5
F9
  8
text
 62
256
370
-1
 48
1.0
  6
ByLayer
100
AcDbEntity
100
AcDbPolyline
 90
3
 70
0
 10
30.0115149999999993
 20
18.2724909999999987
 30
0.0
 10
30.916169
 20
17.6263089999999991
 30
0.0
 10
30.916169
 20
18.5955820000000003
 30
0.0
  0
LWPOLYLINE
  5
FA
  8
text
 62
256
370
-1
 48
1.0
  6
ByLayer
100
AcDbEntity
100
AcDbPolyline
 90
2
 70
0
 10
30.0115149999999993
 20
18.2724909999999987
 30
0.0
 10
31.3684970000000014
 20
18.2724909999999987
 30
0.0
  0
LWPOLYLINE
  5
FB
  8
text
 62
256
370
-1
 48
1.0
  6
ByLayer
100
AcDbEntity
100
AcDbPolyline
 90
14
 70
0
 10
35.4146029999999996
 20
16.3985640000000004
 30
0.0
 10
35.3499849999999967
 20
16.3985640000000004
 30
0.0
 10
35.2207480000000004
 20
16.4631819999999998
 30
0.0
 10
35.1561299999999974
 20
16.5277999999999992
 30
0.0
 10
35.0915120000000016
 20
16.6570360000000015
 30
0.0
 10
35.0915120000000016
 20
16.9155090000000001
 30
0.0
 10
35.1561299999999974
 20
17.0447449999999989
 30
0.0
 10
35.2207480000000004
 20
17.1093639999999994
 30
0.0
 10
35.3499849999999967
 20
17.1739819999999987
 30
0.0
 10
35.4792210000000026
 20
17.1739819999999987
 30
0.0
 10
35.6084570000000014
 20
17.1093639999999994
 30
0.0
 10
35.8023120000000006
 20
16.9801269999999995
 30
0.0
 10
36.4484939999999966
 20
16.3339449999999999
 30
0.0
 10
36.4484939999999966
 20
17.2386000000000017
 30
0.0
  0
LWPOLYLINE
  5
FC
  8
text
 62
256
370
-1
 48
1.0
  6
ByLayer
100
AcDbEntity
100
AcDbPolyline
 90
17
 70
0
 10
35.0915120000000016
 20
18.4017270000000011
 30
0.0
 10
35.0915120000000016
 20
17.7555450000000015
 30
0.0
 10
35.6730760000000018
 20
17.6909269999999985
 30
0.0
 10
35.6084570000000014
 20
17.7555450000000015
 30
0.0
 10
35.5438389999999984
 20
17.9494000000000007
 30
0.0
 10
35.5438389999999984
 20
18.1432539999999989
 30
0.0
 10
35.6084570000000014
 20
18.3371090000000017
 30
0.0
 10
35.7376939999999976
 20
18.4663450000000005
 30
0.0
 10
35.9315479999999994
 20
18.5309640000000009
 30
0.0
 10
36.0607850000000028
 20
18.5309640000000009
 30
0.0
 10
36.2546389999999974
 20
18.4663450000000005
 30
0.0
 10
36.3838760000000008
 20
18.3371090000000017
 30
0.0
 10
36.4484939999999966
 20
18.1432539999999989
 30
0.0
 10
36.4484939999999966
 20
17.9494000000000007
 30
0.0
 10
36.3838760000000008
 20
17.7555450000000015
 30
0.0
 10
36.3192570000000003
 20
17.6909269999999985
 30
0.0
 10
36.1900210000000015
 20
17.6263089999999991
 30
0.0
  0
LWPOLYLINE
  5
FD
  8
text
 62
256
370
-1
 48
1.0
  6
ByLayer
100
AcDbEntity
100
AcDbPolyline
 90
29
 70
0
 10
37.6315129999999982
 20
16.611345
 30
0.0
 10
37.6961310000000012
 20
16.4174930000000003
 30
0.0
 10
37.825369000000002
 20
16.3528720000000014
 30
0.0
 10
37.9546040000000033
 20
16.3528720000000014
 30
0.0
 10
38.0838419999999971
 20
16.4174930000000003
 30
0.0
 10
38.14846
 20
16.5467280000000017
 30
0.0
 10
38.2130769999999984
 20
16.8051980000000007
 30
0.0
 10
38.2776950000000014
 20
16.999054000000001
 30
0.0
 10
38.4069330000000022
 20
17.1282919999999983
 30
0.0
 10
38.5361680000000035
 20
17.1929100000000012
 30
0.0
 10
38.7300210000000007
 20
17.1929100000000012
 30
0.0
 10
38.8592590000000015
 20
17.1282919999999983
 30
0.0
 10
38.9238769999999974
 20
17.0636720000000004
 30
0.0
 10
38.9884940000000029
 20
16.8698189999999997
 30
0.0
 10
38.9884940000000029
 20
16.611345
 30
0.0
 10
38.9238769999999974
 20
16.4174930000000003
 30
0.0
 10
38.8592590000000015
 20
16.3528720000000014
 30
0.0
 10
38.7300210000000007
 20
16.2882549999999995
 30
0.0
 10
38.5361680000000035
 20
16.2882549999999995
 30
0.0
 10
38.4069330000000022
 20
16.3528720000000014
 30
0.0
 10
38.2776950000000014
 20
16.4821099999999987
 30
0.0
 10
38.2130769999999984
 20
16.6759629999999994
 30
0.0
 10
38.14846
 20
16.9344360000000016
 30
0.0
 10
38.0838419999999971
 20
17.0636720000000004
 30
0.0
 10
37.9546040000000033
 20
17.1282919999999983
 30
0.0
 10
37.825369000000002
 20
17.1282919999999983
 30
0.0
 10
37.6961310000000012
 20
17.0636720000000004
 30
0.0
 10
37.6315129999999982
 20
16.8698189999999997
 30
0.0
 10
37.6315129999999982
 20
16.611345
 30
0.0
  0
LWPOLYLINE
  5
FE
  8
text
 62
256
370
-1
 48
1.0
  6
ByLayer
100
AcDbEntity
100
AcDbPolyline
 90
18
 70
0
 10
37.9546050000000008
 20
19.2463380000000015
 30
0.0
 10
37.8253699999999995
 20
19.1817199999999985
 30
0.0
 10
37.6961330000000032
 20
19.0524829999999987
 30
0.0
 10
37.6315150000000003
 20
18.923248000000001
 30
0.0
 10
37.6315150000000003
 20
18.6647749999999988
 30
0.0
 10
37.6961330000000032
 20
18.5355370000000015
 30
0.0
 10
37.8253699999999995
 20
18.4063020000000002
 30
0.0
 10
37.9546050000000008
 20
18.3416819999999987
 30
0.0
 10
38.1484609999999975
 20
18.2770650000000003
 30
0.0
 10
38.4715509999999981
 20
18.2770650000000003
 30
0.0
 10
38.6654059999999973
 20
18.3416819999999987
 30
0.0
 10
38.7946430000000007
 20
18.4063020000000002
 30
0.0
 10
38.923878000000002
 20
18.5355370000000015
 30
0.0
 10
38.9884959999999978
 20
18.6647749999999988
 30
0.0
 10
38.9884959999999978
 20
18.923248000000001
 30
0.0
 10
38.923878000000002
 20
19.0524829999999987
 30
0.0
 10
38.7946430000000007
 20
19.1817199999999985
 30
0.0
 10
38.6654059999999973
 20
19.2463380000000015
 30
0.0
  0
LWPOLYLINE
  5
FF
  8
text
 62
256
370
-1
 48
1.0
  6
ByLayer
100
AcDbEntity
100
AcDbPolyline
 90
2
 70
0
 10
37.6315150000000003
 20
19.6986629999999998
 30
0.0
 10
38.9884959999999978
 20
19.6986629999999998
 30
0.0
  0
LWPOLYLINE
  5
100
  8
text
 62
256
370
-1
 48
1.0
  6
ByLayer
100
AcDbEntity
100
AcDbPolyline
 90
2
 70
0
 10
37.6315150000000003
 20
19.6986629999999998
 30
0.0
 10
37.6315150000000003
 20
20.5387009999999997
 30
0.0
  0
LWPOLYLINE
  5
101
  8
text
 62
256
370
-1
 48
1.0
  6
ByLayer
100
AcDbEntity
100
AcDbPolyline
 90
2
 70
0
 10
38.2776959999999988
 20
19.6986629999999998
 30
0.0
 10
38.2776959999999988
 20
20.2156109999999991
 30
0.0
  0
LWPOLYLINE
  5
102
  8
text
 62
256
370
-1
 48
1.0
  6
ByLayer
100
AcDbEntity
100
AcDbPolyline
 90
2
 70
0
 10
38.9884959999999978
 20
19.6986629999999998
 30
0.0
 10
38.9884959999999978
 20
20.5387009999999997
 30
0.0
  0
LWPOLYLINE
  5
103
  8
text
 62
256
370
-1
 48
1.0
  6
ByLayer
100
AcDbEntity
100
AcDbPolyline
 90
17
 70
0
 10
37.6315150000000003
 20
21.2495009999999986
 30
0.0
 10
37.6961330000000032
 20
21.0556459999999994
 30
0.0
 10
37.8899880000000024
 20
20.9264089999999996
 30
0.0
 10
38.213078000000003
 20
20.8617910000000002
 30
0.0
 10
38.4069330000000022
 20
20.8617910000000002
 30
0.0
 10
38.7300230000000028
 20
20.9264089999999996
 30
0.0
 10
38.923878000000002
 20
21.0556459999999994
 30
0.0
 10
38.9884959999999978
 20
21.2495009999999986
 30
0.0
 10
38.9884959999999978
 20
21.378737000000001
 30
0.0
 10
38.923878000000002
 20
21.5725920000000002
 30
0.0
 10
38.7300230000000028
 20
21.701829
 30
0.0
 10
38.4069330000000022
 20
21.7664469999999994
 30
0.0
 10
38.213078000000003
 20
21.7664469999999994
 30
0.0
 10
37.8899880000000024
 20
21.701829
 30
0.0
 10
37.6961330000000032
 20
21.5725920000000002
 30
0.0
 10
37.6315150000000003
 20
21.378737000000001
 30
0.0
 10
37.6315150000000003
 20
21.2495009999999986
 30
0.0
  0
LWPOLYLINE
  5
104
  8
text
 62
256
370
-1
 48
1.0
  6
ByLayer
100
AcDbEntity
100
AcDbPolyline
 90
2
 70
0
 10
40.2147840000000016
 20
17.1324289999999984
 30
0.0
 10
41.5295070000000024
 20
16.5063700000000004
 30
0.0
  0
LWPOLYLINE
  5
105
  8
text
 62
256
370
-1
 48
1.0
  6
ByLayer
100
AcDbEntity
100
AcDbPolyline
 90
2
 70
0
 10
40.2147840000000016
 20
16.2559460000000016
 30
0.0
 10
40.2147840000000016
 20
17.1324289999999984
 30
0.0
  0
LWPOLYLINE
  5
106
  8
text
 62
256
370
-1
 48
1.0
  6
ByLayer
100
AcDbEntity
100
AcDbPolyline
 90
18
 70
0
 10
40.5278130000000019
 20
19.2151470000000018
 30
0.0
 10
40.4026009999999971
 20
19.1525420000000004
 30
0.0
 10
40.2773889999999994
 20
19.0273299999999992
 30
0.0
 10
40.2147840000000016
 20
18.9021180000000015
 30
0.0
 10
40.2147840000000016
 20
18.6516939999999991
 30
0.0
 10
40.2773889999999994
 20
18.5264820000000014
 30
0.0
 10
40.4026009999999971
 20
18.4012710000000013
 30
0.0
 10
40.5278130000000019
 20
18.3386649999999989
 30
0.0
 10
40.7156310000000019
 20
18.2760590000000001
 30
0.0
 10
41.0286609999999996
 20
18.2760590000000001
 30
0.0
 10
41.2164780000000022
 20
18.3386649999999989
 30
0.0
 10
41.3416899999999998
 20
18.4012710000000013
 30
0.0
 10
41.4669019999999975
 20
18.5264820000000014
 30
0.0
 10
41.5295079999999999
 20
18.6516939999999991
 30
0.0
 10
41.5295079999999999
 20
18.9021180000000015
 30
0.0
 10
41.4669019999999975
 20
19.0273299999999992
 30
0.0
 10
41.3416899999999998
 20
19.1525420000000004
 30
0.0
 10
41.2164780000000022
 20
19.2151470000000018
 30
0.0
  0
LWPOLYLINE
  5
107
  8
text
 62
256
370
-1
 48
1.0
  6
ByLayer
100
AcDbEntity
100
AcDbPolyline
 90
2
 70
0
 10
40.2147840000000016
 20
19.6533890000000007
 30
0.0
 10
41.5295079999999999
 20
19.6533890000000007
 30
0.0
  0
LWPOLYLINE
  5
108
  8
text
 62
256
370
-1
 48
1.0
  6
ByLayer
100
AcDbEntity
100
AcDbPolyline
 90
2
 70
0
 10
40.2147840000000016
 20
19.6533890000000007
 30
0.0
 10
40.2147840000000016
 20
20.4672659999999986
 30
0.0
  0
LWPOLYLINE
  5
109
  8
text
 62
256
370
-1
 48
1.0
  6
ByLayer
100
AcDbEntity
100
AcDbPolyline
 90
2
 70
0
 10
40.8408429999999996
 20
19.6533890000000007
 30
0.0
 10
40.8408429999999996
 20
20.1542360000000009
 30
0.0
  0
LWPOLYLINE
  5
10A
  8
text
 62
256
370
-1
 48
1.0
  6
ByLayer
100
AcDbEntity
100
AcDbPolyline
 90
2
 70
0
 10
41.5295079999999999
 20
19.6533890000000007
 30
0.0
 10
41.5295079999999999
 20
20.4672659999999986
 30
0.0
  0
LWPOLYLINE
  5
10B
  8
text
 62
256
370
-1
 48
1.0
  6
ByLayer
100
AcDbEntity
100
AcDbPolyline
 90
4
 70
0
 10
40.4652069999999995
 20
20.9681129999999989
 30
0.0
 10
40.4026009999999971
 20
21.0933250000000001
 30
0.0
 10
40.2147840000000016
 20
21.2811430000000001
 30
0.0
 10
41.5295079999999999
 20
21.2811430000000001
 30
0.0
  0
LWPOLYLINE
  5
10C
  8
text
 62
256
370
-1
 48
1.0
  6
ByLayer
100
AcDbEntity
100
AcDbPolyline
 90
4
 70
0
 10
42.9355049999999991
 20
16.2703980000000001
 30
0.0
 10
42.8708730000000031
 20
16.3996589999999998
 30
0.0
 10
42.6769809999999978
 20
16.593554000000001
 30
0.0
 10
44.0342300000000009
 20
16.593554000000001
 30
0.0
  0
LWPOLYLINE
  5
10D
  8
text
 62
256
370
-1
 48
1.0
  6
ByLayer
100
AcDbEntity
100
AcDbPolyline
 90
2
 70
0
 10
42.6769790000000029
 20
18.2770709999999994
 30
0.0
 10
44.0342279999999988
 20
18.2770709999999994
 30
0.0
  0
LWPOLYLINE
  5
10E
  8
text
 62
256
370
-1
 48
1.0
  6
ByLayer
100
AcDbEntity
100
AcDbPolyline
 90
2
 70
0
 10
42.6769790000000029
 20
18.794118000000001
 30
0.0
 10
44.0342279999999988
 20
18.794118000000001
 30
0.0
  0
LWPOLYLINE
  5
10F
  8
text
 62
256
370
-1
 48
1.0
  6
ByLayer
100
AcDbEntity
100
AcDbPolyline
 90
12
 70
0
 10
42.6769790000000029
 20
18.794118000000001
 30
0.0
 10
42.6769790000000029
 20
19.246535999999999
 30
0.0
 10
42.7416100000000014
 20
19.4404299999999992
 30
0.0
 10
42.8708719999999985
 20
19.5696919999999999
 30
0.0
 10
43.0001320000000007
 20
19.6343229999999984
 30
0.0
 10
43.1940260000000009
 20
19.6989540000000005
 30
0.0
 10
43.5171810000000008
 20
19.6989540000000005
 30
0.0
 10
43.711075000000001
 20
19.6343229999999984
 30
0.0
 10
43.8403369999999981
 20
19.5696919999999999
 30
0.0
 10
43.9695970000000003
 20
19.4404299999999992
 30
0.0
 10
44.0342279999999988
 20
19.246535999999999
 30
0.0
 10
44.0342279999999988
 20
18.794118000000001
 30
0.0
  0
LWPOLYLINE
  5
110
  8
text
 62
256
370
-1
 48
1.0
  6
ByLayer
100
AcDbEntity
100
AcDbPolyline
 90
2
 70
0
 10
44.1487359999999995
 20
19.8928480000000008
 30
0.0
 10
44.1487359999999995
 20
21.056204000000001
 30
0.0
  0
LWPOLYLINE
  5
111
  8
text
 62
256
370
-1
 48
1.0
  6
ByLayer
100
AcDbEntity
100
AcDbPolyline
 90
20
 70
0
 10
42.8708719999999985
 20
22.1549329999999998
 30
0.0
 10
42.7416100000000014
 20
22.0256709999999991
 30
0.0
 10
42.6769790000000029
 20
21.8317779999999999
 30
0.0
 10
42.6769790000000029
 20
21.5732530000000011
 30
0.0
 10
42.7416100000000014
 20
21.3793599999999984
 30
0.0
 10
42.8708719999999985
 20
21.2500970000000002
 30
0.0
 10
43.0001320000000007
 20
21.2500970000000002
 30
0.0
 10
43.1293950000000024
 20
21.3147279999999988
 30
0.0
 10
43.1940260000000009
 20
21.3793599999999984
 30
0.0
 10
43.2586569999999995
 20
21.508621999999999
 30
0.0
 10
43.3879189999999966
 20
21.8964089999999985
 30
0.0
 10
43.4525500000000022
 20
22.0256709999999991
 30
0.0
 10
43.5171810000000008
 20
22.0903020000000012
 30
0.0
 10
43.6464440000000025
 20
22.1549329999999998
 30
0.0
 10
43.8403369999999981
 20
22.1549329999999998
 30
0.0
 10
43.9695970000000003
 20
22.0256709999999991
 30
0.0
 10
44.0342279999999988
 20
21.8317779999999999
 30
0.0
 10
44.0342279999999988
 20
21.5732530000000011
 30
0.0
 10
43.9695970000000003
 20
21.3793599999999984
 30
0.0
 10
43.8403369999999981
 20
21.2500970000000002
 30
0.0
  0
LWPOLYLINE
  5
112
  8
text
 62
256
370
-1
 48
1.0
  6
ByLayer
100
AcDbEntity
100
AcDbPolyline
 90
18
 70
0
 10
43.0001320000000007
 20
23.5121830000000003
 30
0.0
 10
42.8708719999999985
 20
23.4475540000000002
 30
0.0
 10
42.7416100000000014
 20
23.3182919999999996
 30
0.0
 10
42.6769790000000029
 20
23.1890290000000014
 30
0.0
 10
42.6769790000000029
 20
22.9305050000000001
 30
0.0
 10
42.7416100000000014
 20
22.8012429999999995
 30
0.0
 10
42.8708719999999985
 20
22.6719800000000014
 30
0.0
 10
43.0001320000000007
 20
22.6073489999999993
 30
0.0
 10
43.1940260000000009
 20
22.5427180000000007
 30
0.0
 10
43.5171810000000008
 20
22.5427180000000007
 30
0.0
 10
43.711075000000001
 20
22.6073489999999993
 30
0.0
 10
43.8403369999999981
 20
22.6719800000000014
 30
0.0
 10
43.9695970000000003
 20
22.8012429999999995
 30
0.0
 10
44.0342279999999988
 20
22.9305050000000001
 30
0.0
 10
44.0342279999999988
 20
23.1890290000000014
 30
0.0
 10
43.9695970000000003
 20
23.3182919999999996
 30
0.0
 10
43.8403369999999981
 20
23.4475540000000002
 30
0.0
 10
43.711075000000001
 20
23.5121830000000003
 30
0.0
  0
LWPOLYLINE
  5
113
  8
text
 62
256
370
-1
 48
1.0
  6
ByLayer
100
AcDbEntity
100
AcDbPolyline
 90
4
 70
0
 10
48.0852140000000006
 20
16.2699449999999999
 30
0.0
 10
48.0226079999999982
 20
16.3951570000000011
 30
0.0
 10
47.8347910000000027
 20
16.5829750000000011
 30
0.0
 10
49.149515000000001
 20
16.5829750000000011
 30
0.0
  0
LWPOLYLINE
  5
114
  8
text
 62
256
370
-1
 48
1.0
  6
ByLayer
100
AcDbEntity
100
AcDbPolyline
 90
14
 70
0
 10
48.1478200000000029
 20
17.3968519999999991
 30
0.0
 10
48.0852140000000006
 20
17.3968519999999991
 30
0.0
 10
47.9600020000000029
 20
17.4594580000000015
 30
0.0
 10
47.8973960000000005
 20
17.5220640000000003
 30
0.0
 10
47.8347910000000027
 20
17.6472760000000015
 30
0.0
 10
47.8347910000000027
 20
17.8976989999999994
 30
0.0
 10
47.8973960000000005
 20
18.0229110000000006
 30
0.0
 10
47.9600020000000029
 20
18.0855169999999994
 30
0.0
 10
48.0852140000000006
 20
18.1481229999999982
 30
0.0
 10
48.2104259999999982
 20
18.1481229999999982
 30
0.0
 10
48.335638000000003
 20
18.0855169999999994
 30
0.0
 10
48.523456000000003
 20
17.9603050000000017
 30
0.0
 10
49.149515000000001
 20
17.3342460000000003
 30
0.0
 10
49.149515000000001
 20
18.2107290000000006
 30
0.0
  0
LWPOLYLINE
  5
115
  8
text
 62
256
370
-1
 48
1.0
  6
ByLayer
100
AcDbEntity
100
AcDbPolyline
 90
4
 70
0
 10
53.1652029999999982
 20
16.2699449999999999
 30
0.0
 10
53.1025970000000029
 20
16.3951570000000011
 30
0.0
 10
52.9147790000000029
 20
16.5829750000000011
 30
0.0
 10
54.2295039999999986
 20
16.5829750000000011
 30
0.0
  0
LWPOLYLINE
  5
116
  8
text
 62
256
370
-1
 48
1.0
  6
ByLayer
100
AcDbEntity
100
AcDbPolyline
 90
23
 70
0
 10
53.1025970000000029
 20
18.1481229999999982
 30
0.0
 10
52.9773849999999982
 20
18.0855169999999994
 30
0.0
 10
52.9147790000000029
 20
17.8976989999999994
 30
0.0
 10
52.9147790000000029
 20
17.7724879999999992
 30
0.0
 10
52.9773849999999982
 20
17.5846699999999991
 30
0.0
 10
53.1652029999999982
 20
17.4594580000000015
 30
0.0
 10
53.478233000000003
 20
17.3968519999999991
 30
0.0
 10
53.7912630000000007
 20
17.3968519999999991
 30
0.0
 10
54.0416859999999986
 20
17.4594580000000015
 30
0.0
 10
54.1668980000000033
 20
17.5846699999999991
 30
0.0
 10
54.2295039999999986
 20
17.7724879999999992
 30
0.0
 10
54.2295039999999986
 20
17.8350940000000016
 30
0.0
 10
54.1668980000000033
 20
18.0229110000000006
 30
0.0
 10
54.0416859999999986
 20
18.1481229999999982
 30
0.0
 10
53.8538679999999985
 20
18.2107290000000006
 30
0.0
 10
53.7912630000000007
 20
18.2107290000000006
 30
0.0
 10
53.6034450000000007
 20
18.1481229999999982
 30
0.0
 10
53.478233000000003
 20
18.0229110000000006
 30
0.0
 10
53.4156270000000006
 20
17.8350940000000016
 30
0.0
 10
53.4156270000000006
 20
17.7724879999999992
 30
0.0
 10
53.478233000000003
 20
17.5846699999999991
 30
0.0
 10
53.6034450000000007
 20
17.4594580000000015
 30
0.0
 10
53.7912630000000007
 20
17.3968519999999991
 30
0.0
  0
LWPOLYLINE
  5
117
  8
text
 62
256
370
-1
 48
1.0
  6
ByLayer
100
AcDbEntity
100
AcDbPolyline
 90
14
 70
0
 10
55.7346080000000015
 20
16.3985650000000014
 30
0.0
 10
55.6699899999999985
 20
16.3985650000000014
 30
0.0
 10
55.5407530000000023
 20
16.4631849999999993
 30
0.0
 10
55.4761349999999993
 20
16.5278029999999987
 30
0.0
 10
55.4115170000000035
 20
16.657038
 30
0.0
 10
55.4115170000000035
 20
16.9155130000000007
 30
0.0
 10
55.4761349999999993
 20
17.0447479999999985
 30
0.0
 10
55.5407530000000023
 20
17.1093660000000014
 30
0.0
 10
55.6699899999999985
 20
17.1739849999999983
 30
0.0
 10
55.7992249999999999
 20
17.1739849999999983
 30
0.0
 10
55.9284630000000007
 20
17.1093660000000014
 30
0.0
 10
56.1223179999999999
 20
16.9801299999999991
 30
0.0
 10
56.768498000000001
 20
16.3339479999999995
 30
0.0
 10
56.768498000000001
 20
17.2386030000000012
 30
0.0
  0
LWPOLYLINE
  5
118
  8
text
 62
256
370
-1
 48
1.0
  6
ByLayer
100
AcDbEntity
100
AcDbPolyline
 90
17
 70
0
 10
55.4115170000000035
 20
18.0140209999999996
 30
0.0
 10
55.4761349999999993
 20
17.8201660000000004
 30
0.0
 10
55.6699899999999985
 20
17.6909279999999995
 30
0.0
 10
55.9930799999999991
 20
17.6263110000000012
 30
0.0
 10
56.1869349999999983
 20
17.6263110000000012
 30
0.0
 10
56.5100260000000034
 20
17.6909279999999995
 30
0.0
 10
56.7038810000000026
 20
17.8201660000000004
 30
0.0
 10
56.768498000000001
 20
18.0140209999999996
 30
0.0
 10
56.768498000000001
 20
18.1432560000000009
 30
0.0
 10
56.7038810000000026
 20
18.3371110000000002
 30
0.0
 10
56.5100260000000034
 20
18.466349000000001
 30
0.0
 10
56.1869349999999983
 20
18.5309659999999994
 30
0.0
 10
55.9930799999999991
 20
18.5309659999999994
 30
0.0
 10
55.6699899999999985
 20
18.466349000000001
 30
0.0
 10
55.4761349999999993
 20
18.3371110000000002
 30
0.0
 10
55.4115170000000035
 20
18.1432560000000009
 30
0.0
 10
55.4115170000000035
 20
18.0140209999999996
 30
0.0
  0
LWPOLYLINE
  5
119
  8
text
 62
256
370
-1
 48
1.0
  6
ByLayer
100
AcDbEntity
100
AcDbPolyline
 90
14
 70
0
 10
55.7346080000000015
 20
6.1434259999999998
 30
0.0
 10
55.6699899999999985
 20
6.1434259999999998
 30
0.0
 10
55.5407539999999997
 20
6.2080450000000003
 30
0.0
 10
55.4761359999999968
 20
6.2726629999999997
 30
0.0
 10
55.4115180000000009
 20
6.4018990000000002
 30
0.0
 10
55.4115180000000009
 20
6.6603719999999997
 30
0.0
 10
55.4761359999999968
 20
6.7896080000000003
 30
0.0
 10
55.5407539999999997
 20
6.8542259999999997
 30
0.0
 10
55.6699899999999985
 20
6.9188450000000001
 30
0.0
 10
55.7992270000000019
 20
6.9188450000000001
 30
0.0
 10
55.9284630000000007
 20
6.8542259999999997
 30
0.0
 10
56.1223179999999999
 20
6.72499
 30
0.0
 10
56.7684989999999985
 20
6.0788080000000004
 30
0.0
 10
56.7684989999999985
 20
6.9834630000000004
 30
0.0
  0
LWPOLYLINE
  5
11A
  8
text
 62
256
370
-1
 48
1.0
  6
ByLayer
100
AcDbEntity
100
AcDbPolyline
 90
23
 70
0
 10
55.6053720000000027
 20
8.2112079999999992
 30
0.0
 10
55.4761359999999968
 20
8.1465899999999998
 30
0.0
 10
55.4115180000000009
 20
7.9527359999999998
 30
0.0
 10
55.4115180000000009
 20
7.823499
 30
0.0
 10
55.4761359999999968
 20
7.629645
 30
0.0
 10
55.6699899999999985
 20
7.5004080000000002
 30
0.0
 10
55.9930809999999965
 20
7.4357899999999999
 30
0.0
 10
56.3161720000000017
 20
7.4357899999999999
 30
0.0
 10
56.5746449999999967
 20
7.5004080000000002
 30
0.0
 10
56.7038810000000026
 20
7.629645
 30
0.0
 10
56.7684989999999985
 20
7.823499
 30
0.0
 10
56.7684989999999985
 20
7.8881170000000003
 30
0.0
 10
56.7038810000000026
 20
8.0819720000000004
 30
0.0
 10
56.5746449999999967
 20
8.2112079999999992
 30
0.0
 10
56.3807899999999975
 20
8.2758260000000003
 30
0.0
 10
56.3161720000000017
 20
8.2758260000000003
 30
0.0
 10
56.1223179999999999
 20
8.2112079999999992
 30
0.0
 10
55.9930809999999965
 20
8.0819720000000004
 30
0.0
 10
55.9284630000000007
 20
7.8881170000000003
 30
0.0
 10
55.9284630000000007
 20
7.823499
 30
0.0
 10
55.9930809999999965
 20
7.629645
 30
0.0
 10
56.1223179999999999
 20
7.5004080000000002
 30
0.0
 10
56.3161720000000017
 20
7.4357899999999999
 30
0.0
  0
LWPOLYLINE
  5
11B
  8
text
 62
256
370
-1
 48
1.0
  6
ByLayer
100
AcDbEntity
100
AcDbPolyline
 90
4
 70
0
 10
53.1652160000000009
 20
6.3986510000000001
 30
0.0
 10
53.1026099999999985
 20
6.5238630000000004
 30
0.0
 10
52.9147919999999985
 20
6.7116809999999996
 30
0.0
 10
54.2295159999999967
 20
6.7116809999999996
 30
0.0
  0
LWPOLYLINE
  5
11C
  8
text
 62
256
370
-1
 48
1.0
  6
ByLayer
100
AcDbEntity
100
AcDbPolyline
 90
23
 70
0
 10
53.3530330000000035
 20
8.2768309999999996
 30
0.0
 10
53.5408510000000035
 20
8.2142250000000008
 30
0.0
 10
53.6660630000000012
 20
8.0890129999999996
 30
0.0
 10
53.7286689999999965
 20
7.9011950000000004
 30
0.0
 10
53.7286689999999965
 20
7.8385889999999998
 30
0.0
 10
53.6660630000000012
 20
7.6507719999999999
 30
0.0
 10
53.5408510000000035
 20
7.5255599999999996
 30
0.0
 10
53.3530330000000035
 20
7.4629539999999999
 30
0.0
 10
53.2904279999999986
 20
7.4629539999999999
 30
0.0
 10
53.1026099999999985
 20
7.5255599999999996
 30
0.0
 10
52.9773980000000009
 20
7.6507719999999999
 30
0.0
 10
52.9147919999999985
 20
7.8385889999999998
 30
0.0
 10
52.9147919999999985
 20
7.9011950000000004
 30
0.0
 10
52.9773980000000009
 20
8.0890129999999996
 30
0.0
 10
53.1026099999999985
 20
8.2142250000000008
 30
0.0
 10
53.3530330000000035
 20
8.2768309999999996
 30
0.0
 10
53.6660630000000012
 20
8.2768309999999996
 30
0.0
 10
53.9790929999999989
 20
8.2142250000000008
 30
0.0
 10
54.1669100000000014
 20
8.0890129999999996
 30
0.0
 10
54.2295159999999967
 20
7.9011950000000004
 30
0.0
 10
54.2295159999999967
 20
7.7759830000000001
 30
0.0
 10
54.1669100000000014
 20
7.5881660000000002
 30
0.0
 10
54.0416990000000013
 20
7.5255599999999996
 30
0.0
  0
LWPOLYLINE
  5
11D
  8
text
 62
256
370
-1
 48
1.0
  6
ByLayer
100
AcDbEntity
100
AcDbPolyline
 90
4
 70
0
 10
50.6252029999999991
 20
6.3360440000000002
 30
0.0
 10
50.5625969999999967
 20
6.4612559999999997
 30
0.0
 10
50.3747789999999966
 20
6.6490739999999997
 30
0.0
 10
51.6895039999999995
 20
6.6490739999999997
 30
0.0
  0
LWPOLYLINE
  5
11E
  8
text
 62
256
370
-1
 48
1.0
  6
ByLayer
100
AcDbEntity
100
AcDbPolyline
 90
15
 70
0
 10
50.3747789999999966
 20
7.5255570000000001
 30
0.0
 10
50.3747789999999966
 20
8.2142230000000005
 30
0.0
 10
50.8756270000000015
 20
7.8385870000000004
 30
0.0
 10
50.8756270000000015
 20
8.0264050000000005
 30
0.0
 10
50.9382329999999968
 20
8.1516169999999999
 30
0.0
 10
51.0008389999999991
 20
8.2142230000000005
 30
0.0
 10
51.1886569999999992
 20
8.2768289999999993
 30
0.0
 10
51.3138679999999994
 20
8.2768289999999993
 30
0.0
 10
51.5016859999999994
 20
8.2142230000000005
 30
0.0
 10
51.6268979999999971
 20
8.0890109999999993
 30
0.0
 10
51.6895039999999995
 20
7.9011930000000001
 30
0.0
 10
51.6895039999999995
 20
7.7133750000000001
 30
0.0
 10
51.6268979999999971
 20
7.5255570000000001
 30
0.0
 10
51.5642920000000018
 20
7.4629510000000003
 30
0.0
 10
51.439079999999997
 20
7.4003449999999997
 30
0.0
  0
LWPOLYLINE
  5
11F
  8
text
 62
256
370
-1
 48
1.0
  6
ByLayer
100
AcDbEntity
100
AcDbPolyline
 90
23
 70
0
 10
47.9853719999999981
 20
8.2112079999999992
 30
0.0
 10
47.8561359999999993
 20
8.1465899999999998
 30
0.0
 10
47.7915180000000035
 20
7.9527349999999997
 30
0.0
 10
47.7915180000000035
 20
7.823499
 30
0.0
 10
47.8561359999999993
 20
7.6296439999999999
 30
0.0
 10
48.0499900000000011
 20
7.5004080000000002
 30
0.0
 10
48.3730809999999991
 20
7.4357899999999999
 30
0.0
 10
48.6961719999999971
 20
7.4357899999999999
 30
0.0
 10
48.9546449999999993
 20
7.5004080000000002
 30
0.0
 10
49.0838809999999981
 20
7.6296439999999999
 30
0.0
 10
49.148499000000001
 20
7.823499
 30
0.0
 10
49.148499000000001
 20
7.8881170000000003
 30
0.0
 10
49.0838809999999981
 20
8.0819720000000004
 30
0.0
 10
48.9546449999999993
 20
8.2112079999999992
 30
0.0
 10
48.7607900000000001
 20
8.2758260000000003
 30
0.0
 10
48.6961719999999971
 20
8.2758260000000003
 30
0.0
 10
48.5023180000000025
 20
8.2112079999999992
 30
0.0
 10
48.3730809999999991
 20
8.0819720000000004
 30
0.0
 10
48.3084630000000033
 20
7.8881170000000003
 30
0.0
 10
48.3084630000000033
 20
7.823499
 30
0.0
 10
48.3730809999999991
 20
7.6296439999999999
 30
0.0
 10
48.5023180000000025
 20
7.5004080000000002
 30
0.0
 10
48.6961719999999971
 20
7.4357899999999999
 30
0.0
  0
LWPOLYLINE
  5
120
  8
text
 62
256
370
-1
 48
1.0
  6
ByLayer
100
AcDbEntity
100
AcDbPolyline
 90
17
 70
0
 10
45.2515149999999977
 20
8.1465899999999998
 30
0.0
 10
45.2515149999999977
 20
7.5004080000000002
 30
0.0
 10
45.8330780000000004
 20
7.4357899999999999
 30
0.0
 10
45.7684599999999975
 20
7.5004080000000002
 30
0.0
 10
45.7038420000000016
 20
7.6942620000000002
 30
0.0
 10
45.7038420000000016
 20
7.8881170000000003
 30
0.0
 10
45.7684599999999975
 20
8.0819720000000004
 30
0.0
 10
45.8976970000000009
 20
8.2112079999999992
 30
0.0
 10
46.0915510000000026
 20
8.2758260000000003
 30
0.0
 10
46.2207870000000014
 20
8.2758260000000003
 30
0.0
 10
46.4146420000000006
 20
8.2112079999999992
 30
0.0
 10
46.5438779999999994
 20
8.0819720000000004
 30
0.0
 10
46.6084969999999998
 20
7.8881170000000003
 30
0.0
 10
46.6084969999999998
 20
7.6942620000000002
 30
0.0
 10
46.5438779999999994
 20
7.5004080000000002
 30
0.0
 10
46.4792599999999965
 20
7.4357899999999999
 30
0.0
 10
46.3500239999999977
 20
7.3711719999999996
 30
0.0
  0
LWPOLYLINE
  5
121
  8
text
 62
256
370
-1
 48
1.0
  6
ByLayer
100
AcDbEntity
100
AcDbPolyline
 90
2
 70
0
 10
42.6320720000000009
 20
0.5198700000000001
 30
0.0
 10
44.0224159999999998
 20
0.5198700000000001
 30
0.0
  0
LWPOLYLINE
  5
122
  8
text
 62
256
370
-1
 48
1.0
  6
ByLayer
100
AcDbEntity
100
AcDbPolyline
 90
2
 70
0
 10
42.6320720000000009
 20
1.0495239999999999
 30
0.0
 10
44.0224159999999998
 20
1.0495239999999999
 30
0.0
  0
LWPOLYLINE
  5
123
  8
text
 62
256
370
-1
 48
1.0
  6
ByLayer
100
AcDbEntity
100
AcDbPolyline
 90
12
 70
0
 10
42.6320720000000009
 20
1.0495239999999999
 30
0.0
 10
42.6320720000000009
 20
1.5129710000000001
 30
0.0
 10
42.6982789999999994
 20
1.7115929999999999
 30
0.0
 10
42.8306929999999966
 20
1.844007
 30
0.0
 10
42.9631070000000008
 20
1.9102140000000001
 30
0.0
 10
43.1617260000000016
 20
1.9764189999999999
 30
0.0
 10
43.492761999999999
 20
1.9764189999999999
 30
0.0
 10
43.6913830000000019
 20
1.9102140000000001
 30
0.0
 10
43.823796999999999
 20
1.844007
 30
0.0
 10
43.9562090000000012
 20
1.7115929999999999
 30
0.0
 10
44.0224159999999998
 20
1.5129710000000001
 30
0.0
 10
44.0224159999999998
 20
1.0495239999999999
 30
0.0
  0
LWPOLYLINE
  5
124
  8
text
 62
256
370
-1
 48
1.0
  6
ByLayer
100
AcDbEntity
100
AcDbPolyline
 90
2
 70
0
 10
44.1479550000000032
 20
2.1750419999999999
 30
0.0
 10
44.1479550000000032
 20
3.366765
 30
0.0
  0
LWPOLYLINE
  5
125
  8
text
 62
256
370
-1
 48
1.0
  6
ByLayer
100
AcDbEntity
100
AcDbPolyline
 90
20
 70
0
 10
42.8306929999999966
 20
4.4922810000000002
 30
0.0
 10
42.6982789999999994
 20
4.3598689999999998
 30
0.0
 10
42.6320720000000009
 20
4.1612479999999996
 30
0.0
 10
42.6320720000000009
 20
3.8964189999999999
 30
0.0
 10
42.6982789999999994
 20
3.6977980000000001
 30
0.0
 10
42.8306929999999966
 20
3.5653860000000002
 30
0.0
 10
42.9631070000000008
 20
3.5653860000000002
 30
0.0
 10
43.095519000000003
 20
3.6315909999999998
 30
0.0
 10
43.1617260000000016
 20
3.6977980000000001
 30
0.0
 10
43.2279330000000002
 20
3.830212
 30
0.0
 10
43.3603469999999973
 20
4.227455
 30
0.0
 10
43.4265550000000005
 20
4.3598689999999998
 30
0.0
 10
43.492761999999999
 20
4.4260760000000001
 30
0.0
 10
43.6251760000000033
 20
4.4922810000000002
 30
0.0
 10
43.823796999999999
 20
4.4922810000000002
 30
0.0
 10
43.9562090000000012
 20
4.3598689999999998
 30
0.0
 10
44.0224159999999998
 20
4.1612479999999996
 30
0.0
 10
44.0224159999999998
 20
3.8964189999999999
 30
0.0
 10
43.9562090000000012
 20
3.6977980000000001
 30
0.0
 10
43.823796999999999
 20
3.5653860000000002
 30
0.0
  0
LWPOLYLINE
  5
126
  8
text
 62
256
370
-1
 48
1.0
  6
ByLayer
100
AcDbEntity
100
AcDbPolyline
 90
2
 70
0
 10
42.6320720000000009
 20
4.9557330000000004
 30
0.0
 10
44.0224159999999998
 20
4.9557330000000004
 30
0.0
  0
LWPOLYLINE
  5
127
  8
text
 62
256
370
-1
 48
1.0
  6
ByLayer
100
AcDbEntity
100
AcDbPolyline
 90
12
 70
0
 10
42.6320720000000009
 20
4.9557330000000004
 30
0.0
 10
42.6320720000000009
 20
5.4191799999999999
 30
0.0
 10
42.6982789999999994
 20
5.617801
 30
0.0
 10
42.8306929999999966
 20
5.7502149999999999
 30
0.0
 10
42.9631070000000008
 20
5.8164220000000002
 30
0.0
 10
43.1617260000000016
 20
5.8826270000000003
 30
0.0
 10
43.492761999999999
 20
5.8826270000000003
 30
0.0
 10
43.6913830000000019
 20
5.8164220000000002
 30
0.0
 10
43.823796999999999
 20
5.7502149999999999
 30
0.0
 10
43.9562090000000012
 20
5.617801
 30
0.0
 10
44.0224159999999998
 20
5.4191799999999999
 30
0.0
 10
44.0224159999999998
 20
4.9557330000000004
 30
0.0
  0
LWPOLYLINE
  5
128
  8
text
 62
256
370
-1
 48
1.0
  6
ByLayer
100
AcDbEntity
100
AcDbPolyline
 90
17
 70
0
 10
42.6320699999999988
 20
7.745374
 30
0.0
 10
42.6982769999999974
 20
7.546754
 30
0.0
 10
42.8968989999999977
 20
7.414339
 30
0.0
 10
43.2279320000000027
 20
7.3481350000000001
 30
0.0
 10
43.426554000000003
 20
7.3481350000000001
 30
0.0
 10
43.7575900000000004
 20
7.414339
 30
0.0
 10
43.9562090000000012
 20
7.546754
 30
0.0
 10
44.0224159999999998
 20
7.745374
 30
0.0
 10
44.0224159999999998
 20
7.8777900000000001
 30
0.0
 10
43.9562090000000012
 20
8.0764089999999999
 30
0.0
 10
43.7575900000000004
 20
8.2088249999999992
 30
0.0
 10
43.426554000000003
 20
8.275029
 30
0.0
 10
43.2279320000000027
 20
8.275029
 30
0.0
 10
42.8968989999999977
 20
8.2088249999999992
 30
0.0
 10
42.6982769999999974
 20
8.0764089999999999
 30
0.0
 10
42.6320699999999988
 20
7.8777900000000001
 30
0.0
 10
42.6320699999999988
 20
7.745374
 30
0.0
  0
LWPOLYLINE
  5
129
  8
text
 62
256
370
-1
 48
1.0
  6
ByLayer
100
AcDbEntity
100
AcDbPolyline
 90
20
 70
0
 10
37.8625979999999984
 20
1.6324920000000001
 30
0.0
 10
37.7373860000000008
 20
1.50728
 30
0.0
 10
37.6747799999999984
 20
1.3194619999999999
 30
0.0
 10
37.6747799999999984
 20
1.0690390000000001
 30
0.0
 10
37.7373860000000008
 20
0.881221
 30
0.0
 10
37.8625979999999984
 20
0.756009
 30
0.0
 10
37.9878100000000032
 20
0.756009
 30
0.0
 10
38.1130220000000008
 20
0.818615
 30
0.0
 10
38.1756280000000032
 20
0.881221
 30
0.0
 10
38.2382339999999985
 20
1.0064329999999999
 30
0.0
 10
38.3634460000000033
 20
1.3820680000000001
 30
0.0
 10
38.4260510000000011
 20
1.50728
 30
0.0
 10
38.4886570000000034
 20
1.5698859999999999
 30
0.0
 10
38.6138690000000011
 20
1.6324920000000001
 30
0.0
 10
38.8016870000000011
 20
1.6324920000000001
 30
0.0
 10
38.9268989999999988
 20
1.50728
 30
0.0
 10
38.9895050000000012
 20
1.3194619999999999
 30
0.0
 10
38.9895050000000012
 20
1.0690390000000001
 30
0.0
 10
38.9268989999999988
 20
0.881221
 30
0.0
 10
38.8016870000000011
 20
0.756009
 30
0.0
  0
LWPOLYLINE
  5
12A
  8
text
 62
256
370
-1
 48
1.0
  6
ByLayer
100
AcDbEntity
100
AcDbPolyline
 90
18
 70
0
 10
37.9878100000000032
 20
2.9472160000000001
 30
0.0
 10
37.8625979999999984
 20
2.8846099999999999
 30
0.0
 10
37.7373860000000008
 20
2.759398
 30
0.0
 10
37.6747799999999984
 20
2.6341869999999998
 30
0.0
 10
37.6747799999999984
 20
2.3837630000000001
 30
0.0
 10
37.7373860000000008
 20
2.2585510000000002
 30
0.0
 10
37.8625979999999984
 20
2.1333389999999999
 30
0.0
 10
37.9878100000000032
 20
2.0707330000000002
 30
0.0
 10
38.1756280000000032
 20
2.008127
 30
0.0
 10
38.4886570000000034
 20
2.008127
 30
0.0
 10
38.6764750000000035
 20
2.0707330000000002
 30
0.0
 10
38.8016870000000011
 20
2.1333389999999999
 30
0.0
 10
38.9268989999999988
 20
2.2585510000000002
 30
0.0
 10
38.9895050000000012
 20
2.3837630000000001
 30
0.0
 10
38.9895050000000012
 20
2.6341869999999998
 30
0.0
 10
38.9268989999999988
 20
2.759398
 30
0.0
 10
38.8016870000000011
 20
2.8846099999999999
 30
0.0
 10
38.6764750000000035
 20
2.9472160000000001
 30
0.0
  0
LWPOLYLINE
  5
12B
  8
text
 62
256
370
-1
 48
1.0
  6
ByLayer
100
AcDbEntity
100
AcDbPolyline
 90
3
 70
0
 10
37.6747799999999984
 20
3.3854600000000001
 30
0.0
 10
38.9895050000000012
 20
3.3854600000000001
 30
0.0
 10
38.9895050000000012
 20
4.1367310000000002
 30
0.0
  0
LWPOLYLINE
  5
12C
  8
text
 62
256
370
-1
 48
1.0
  6
ByLayer
100
AcDbEntity
100
AcDbPolyline
 90
2
 70
0
 10
37.6747799999999984
 20
4.4497609999999996
 30
0.0
 10
38.9895050000000012
 20
4.4497609999999996
 30
0.0
  0
LWPOLYLINE
  5
12D
  8
text
 62
256
370
-1
 48
1.0
  6
ByLayer
100
AcDbEntity
100
AcDbPolyline
 90
2
 70
0
 10
37.6747799999999984
 20
5.3262429999999998
 30
0.0
 10
38.5512629999999987
 20
4.4497609999999996
 30
0.0
  0
LWPOLYLINE
  5
12E
  8
text
 62
256
370
-1
 48
1.0
  6
ByLayer
100
AcDbEntity
100
AcDbPolyline
 90
2
 70
0
 10
38.2382339999999985
 20
4.7627899999999999
 30
0.0
 10
38.9895050000000012
 20
5.3262429999999998
 30
0.0
  0
LWPOLYLINE
  5
12F
  8
text
 62
256
370
-1
 48
1.0
  6
ByLayer
100
AcDbEntity
100
AcDbPolyline
 90
4
 70
0
 10
37.9252040000000008
 20
6.7116809999999996
 30
0.0
 10
37.8625979999999984
 20
6.8368919999999997
 30
0.0
 10
37.6747799999999984
 20
7.0247099999999998
 30
0.0
 10
38.9895050000000012
 20
7.0247099999999998
 30
0.0
  0
LWPOLYLINE
  5
130
  8
text
 62
256
370
-1
 48
1.0
  6
ByLayer
100
AcDbEntity
100
AcDbPolyline
 90
4
 70
0
 10
37.9252040000000008
 20
7.9638010000000001
 30
0.0
 10
37.8625979999999984
 20
8.0890129999999996
 30
0.0
 10
37.6747799999999984
 20
8.2768309999999996
 30
0.0
 10
38.9895050000000012
 20
8.2768309999999996
 30
0.0
  0
LWPOLYLINE
  5
131
  8
text
 62
256
370
-1
 48
1.0
  6
ByLayer
100
AcDbEntity
100
AcDbPolyline
 90
2
 70
0
 10
35.0915139999999965
 20
0.989559
 30
0.0
 10
36.4484950000000012
 20
0.989559
 30
0.0
  0
LWPOLYLINE
  5
132
  8
text
 62
256
370
-1
 48
1.0
  6
ByLayer
100
AcDbEntity
100
AcDbPolyline
 90
2
 70
0
 10
35.0915139999999965
 20
0.989559
 30
0.0
 10
36.4484950000000012
 20
1.506505
 30
0.0
  0
LWPOLYLINE
  5
133
  8
text
 62
256
370
-1
 48
1.0
  6
ByLayer
100
AcDbEntity
100
AcDbPolyline
 90
2
 70
0
 10
35.0915139999999965
 20
2.02345
 30
0.0
 10
36.4484950000000012
 20
1.506505
 30
0.0
  0
LWPOLYLINE
  5
134
  8
text
 62
256
370
-1
 48
1.0
  6
ByLayer
100
AcDbEntity
100
AcDbPolyline
 90
2
 70
0
 10
35.0915139999999965
 20
2.02345
 30
0.0
 10
36.4484950000000012
 20
2.02345
 30
0.0
  0
LWPOLYLINE
  5
135
  8
text
 62
256
370
-1
 48
1.0
  6
ByLayer
100
AcDbEntity
100
AcDbPolyline
 90
2
 70
0
 10
35.0915139999999965
 20
2.5403950000000002
 30
0.0
 10
36.4484950000000012
 20
2.5403950000000002
 30
0.0
  0
LWPOLYLINE
  5
136
  8
text
 62
256
370
-1
 48
1.0
  6
ByLayer
100
AcDbEntity
100
AcDbPolyline
 90
20
 70
0
 10
35.2853690000000029
 20
3.8973779999999998
 30
0.0
 10
35.1561319999999995
 20
3.768141
 30
0.0
 10
35.0915139999999965
 20
3.5742880000000001
 30
0.0
 10
35.0915139999999965
 20
3.3158129999999999
 30
0.0
 10
35.1561319999999995
 20
3.1219600000000001
 30
0.0
 10
35.2853690000000029
 20
2.9927229999999998
 30
0.0
 10
35.4146050000000017
 20
2.9927229999999998
 30
0.0
 10
35.5438419999999979
 20
3.0573399999999999
 30
0.0
 10
35.6084600000000009
 20
3.1219600000000001
 30
0.0
 10
35.6730769999999993
 20
3.2511960000000002
 30
0.0
 10
35.8023150000000001
 20
3.638906
 30
0.0
 10
35.8669319999999985
 20
3.768141
 30
0.0
 10
35.9315500000000014
 20
3.8327610000000001
 30
0.0
 10
36.0607869999999977
 20
3.8973779999999998
 30
0.0
 10
36.2546419999999969
 20
3.8973779999999998
 30
0.0
 10
36.3838780000000028
 20
3.768141
 30
0.0
 10
36.4484950000000012
 20
3.5742880000000001
 30
0.0
 10
36.4484950000000012
 20
3.3158129999999999
 30
0.0
 10
36.3838780000000028
 20
3.1219600000000001
 30
0.0
 10
36.2546419999999969
 20
2.9927229999999998
 30
0.0
  0
LWPOLYLINE
  5
137
  8
text
 62
256
370
-1
 48
1.0
  6
ByLayer
100
AcDbEntity
100
AcDbPolyline
 90
21
 70
0
 10
35.0915139999999965
 20
4.6727939999999997
 30
0.0
 10
35.1561319999999995
 20
4.5435590000000001
 30
0.0
 10
35.2853690000000029
 20
4.4143210000000002
 30
0.0
 10
35.4146050000000017
 20
4.349704
 30
0.0
 10
35.6084600000000009
 20
4.2850859999999997
 30
0.0
 10
35.9315500000000014
 20
4.2850859999999997
 30
0.0
 10
36.1254050000000007
 20
4.349704
 30
0.0
 10
36.2546419999999969
 20
4.4143210000000002
 30
0.0
 10
36.3838780000000028
 20
4.5435590000000001
 30
0.0
 10
36.4484950000000012
 20
4.6727939999999997
 30
0.0
 10
36.4484950000000012
 20
4.9312690000000003
 30
0.0
 10
36.3838780000000028
 20
5.0605039999999999
 30
0.0
 10
36.2546419999999969
 20
5.1897419999999999
 30
0.0
 10
36.1254050000000007
 20
5.254359
 30
0.0
 10
35.9315500000000014
 20
5.3189770000000003
 30
0.0
 10
35.6084600000000009
 20
5.3189770000000003
 30
0.0
 10
35.4146050000000017
 20
5.254359
 30
0.0
 10
35.2853690000000029
 20
5.1897419999999999
 30
0.0
 10
35.1561319999999995
 20
5.0605039999999999
 30
0.0
 10
35.0915139999999965
 20
4.9312690000000003
 30
0.0
 10
35.0915139999999965
 20
4.6727939999999997
 30
0.0
  0
LWPOLYLINE
  5
138
  8
text
 62
256
370
-1
 48
1.0
  6
ByLayer
100
AcDbEntity
100
AcDbPolyline
 90
23
 70
0
 10
35.5438419999999979
 20
8.2758249999999993
 30
0.0
 10
35.7376950000000022
 20
8.2112040000000004
 30
0.0
 10
35.8669300000000035
 20
8.0819690000000008
 30
0.0
 10
35.9315479999999994
 20
7.8881129999999997
 30
0.0
 10
35.9315479999999994
 20
7.8234959999999996
 30
0.0
 10
35.8669300000000035
 20
7.6296400000000002
 30
0.0
 10
35.7376950000000022
 20
7.5004049999999998
 30
0.0
 10
35.5438419999999979
 20
7.4357870000000004
 30
0.0
 10
35.479222
 20
7.4357870000000004
 30
0.0
 10
35.2853690000000029
 20
7.5004049999999998
 30
0.0
 10
35.156131000000002
 20
7.6296400000000002
 30
0.0
 10
35.0915129999999991
 20
7.8234959999999996
 30
0.0
 10
35.0915129999999991
 20
7.8881129999999997
 30
0.0
 10
35.156131000000002
 20
8.0819690000000008
 30
0.0
 10
35.2853690000000029
 20
8.2112040000000004
 30
0.0
 10
35.5438419999999979
 20
8.2758249999999993
 30
0.0
 10
35.8669300000000035
 20
8.2758249999999993
 30
0.0
 10
36.1900210000000015
 20
8.2112040000000004
 30
0.0
 10
36.3838769999999982
 20
8.0819690000000008
 30
0.0
 10
36.4484939999999966
 20
7.8881129999999997
 30
0.0
 10
36.4484939999999966
 20
7.7588749999999997
 30
0.0
 10
36.3838769999999982
 20
7.5650230000000001
 30
0.0
 10
36.2546409999999995
 20
7.5004049999999998
 30
0.0
  0
LWPOLYLINE
  5
139
  8
text
 62
256
370
-1
 48
1.0
  6
ByLayer
100
AcDbEntity
100
AcDbPolyline
 90
2
 70
0
 10
32.5947919999999982
 20
1.1879900000000001
 30
0.0
 10
33.9095159999999964
 20
1.1879900000000001
 30
0.0
  0
LWPOLYLINE
  5
13A
  8
text
 62
256
370
-1
 48
1.0
  6
ByLayer
100
AcDbEntity
100
AcDbPolyline
 90
2
 70
0
 10
32.5947919999999982
 20
1.1879900000000001
 30
0.0
 10
33.9095159999999964
 20
1.6888369999999999
 30
0.0
  0
LWPOLYLINE
  5
13B
  8
text
 62
256
370
-1
 48
1.0
  6
ByLayer
100
AcDbEntity
100
AcDbPolyline
 90
2
 70
0
 10
32.5947919999999982
 20
2.1896849999999999
 30
0.0
 10
33.9095159999999964
 20
1.6888369999999999
 30
0.0
  0
LWPOLYLINE
  5
13C
  8
text
 62
256
370
-1
 48
1.0
  6
ByLayer
100
AcDbEntity
100
AcDbPolyline
 90
2
 70
0
 10
32.5947919999999982
 20
2.1896849999999999
 30
0.0
 10
33.9095159999999964
 20
2.1896849999999999
 30
0.0
  0
LWPOLYLINE
  5
13D
  8
text
 62
256
370
-1
 48
1.0
  6
ByLayer
100
AcDbEntity
100
AcDbPolyline
 90
21
 70
0
 10
32.5947919999999982
 20
3.0035620000000001
 30
0.0
 10
32.6573980000000006
 20
2.8783500000000002
 30
0.0
 10
32.7826099999999983
 20
2.7531379999999999
 30
0.0
 10
32.9078219999999959
 20
2.6905320000000001
 30
0.0
 10
33.0956389999999985
 20
2.627926
 30
0.0
 10
33.4086690000000033
 20
2.627926
 30
0.0
 10
33.5964869999999962
 20
2.6905320000000001
 30
0.0
 10
33.721699000000001
 20
2.7531379999999999
 30
0.0
 10
33.8469100000000012
 20
2.8783500000000002
 30
0.0
 10
33.9095159999999964
 20
3.0035620000000001
 30
0.0
 10
33.9095159999999964
 20
3.2539850000000001
 30
0.0
 10
33.8469100000000012
 20
3.379197
 30
0.0
 10
33.721699000000001
 20
3.5044089999999999
 30
0.0
 10
33.5964869999999962
 20
3.567015
 30
0.0
 10
33.4086690000000033
 20
3.6296210000000002
 30
0.0
 10
33.0956389999999985
 20
3.6296210000000002
 30
0.0
 10
32.9078219999999959
 20
3.567015
 30
0.0
 10
32.7826099999999983
 20
3.5044089999999999
 30
0.0
 10
32.6573980000000006
 20
3.379197
 30
0.0
 10
32.5947919999999982
 20
3.2539850000000001
 30
0.0
 10
32.5947919999999982
 20
3.0035620000000001
 30
0.0
  0
LWPOLYLINE
  5
13E
  8
text
 62
256
370
-1
 48
1.0
  6
ByLayer
100
AcDbEntity
100
AcDbPolyline
 90
20
 70
0
 10
32.7826099999999983
 20
4.8817409999999999
 30
0.0
 10
32.6573980000000006
 20
4.7565299999999997
 30
0.0
 10
32.5947919999999982
 20
4.5687119999999997
 30
0.0
 10
32.5947919999999982
 20
4.3182879999999999
 30
0.0
 10
32.6573980000000006
 20
4.1304699999999999
 30
0.0
 10
32.7826099999999983
 20
4.0052589999999997
 30
0.0
 10
32.9078219999999959
 20
4.0052589999999997
 30
0.0
 10
33.0330330000000032
 20
4.0678650000000003
 30
0.0
 10
33.0956389999999985
 20
4.1304699999999999
 30
0.0
 10
33.1582450000000009
 20
4.2556820000000002
 30
0.0
 10
33.2834569999999985
 20
4.6313180000000003
 30
0.0
 10
33.3460630000000009
 20
4.7565299999999997
 30
0.0
 10
33.4086690000000033
 20
4.8191360000000003
 30
0.0
 10
33.5338810000000009
 20
4.8817409999999999
 30
0.0
 10
33.721699000000001
 20
4.8817409999999999
 30
0.0
 10
33.8469100000000012
 20
4.7565299999999997
 30
0.0
 10
33.9095159999999964
 20
4.5687119999999997
 30
0.0
 10
33.9095159999999964
 20
4.3182879999999999
 30
0.0
 10
33.8469100000000012
 20
4.1304699999999999
 30
0.0
 10
33.721699000000001
 20
4.0052589999999997
 30
0.0
  0
LWPOLYLINE
  5
13F
  8
text
 62
256
370
-1
 48
1.0
  6
ByLayer
100
AcDbEntity
100
AcDbPolyline
 90
2
 70
0
 10
32.5947919999999982
 20
5.3199829999999997
 30
0.0
 10
33.9095159999999964
 20
5.3199829999999997
 30
0.0
  0
LWPOLYLINE
  5
140
  8
text
 62
256
370
-1
 48
1.0
  6
ByLayer
100
AcDbEntity
100
AcDbPolyline
 90
4
 70
0
 10
32.8452160000000006
 20
6.3360450000000004
 30
0.0
 10
32.7826099999999983
 20
6.4612569999999998
 30
0.0
 10
32.5947919999999982
 20
6.6490749999999998
 30
0.0
 10
33.9095159999999964
 20
6.6490749999999998
 30
0.0
  0
LWPOLYLINE
  5
141
  8
text
 62
256
370
-1
 48
1.0
  6
ByLayer
100
AcDbEntity
100
AcDbPolyline
 90
17
 70
0
 10
32.5947919999999982
 20
7.7759830000000001
 30
0.0
 10
32.6573980000000006
 20
7.5881660000000002
 30
0.0
 10
32.8452160000000006
 20
7.4629539999999999
 30
0.0
 10
33.1582450000000009
 20
7.4003480000000001
 30
0.0
 10
33.3460630000000009
 20
7.4003480000000001
 30
0.0
 10
33.6590929999999986
 20
7.4629539999999999
 30
0.0
 10
33.8469100000000012
 20
7.5881660000000002
 30
0.0
 10
33.9095159999999964
 20
7.7759830000000001
 30
0.0
 10
33.9095159999999964
 20
7.9011950000000004
 30
0.0
 10
33.8469100000000012
 20
8.0890129999999996
 30
0.0
 10
33.6590929999999986
 20
8.2142250000000008
 30
0.0
 10
33.3460630000000009
 20
8.2768309999999996
 30
0.0
 10
33.1582450000000009
 20
8.2768309999999996
 30
0.0
 10
32.8452160000000006
 20
8.2142250000000008
 30
0.0
 10
32.6573980000000006
 20
8.0890129999999996
 30
0.0
 10
32.5947919999999982
 20
7.9011950000000004
 30
0.0
 10
32.5947919999999982
 20
7.7759830000000001
 30
0.0
  0
LWPOLYLINE
  5
142
  8
text
 62
256
370
-1
 48
1.0
  6
ByLayer
100
AcDbEntity
100
AcDbPolyline
 90
15
 70
0
 10
30.0115179999999988
 20
5.1741520000000003
 30
0.0
 10
30.0115179999999988
 20
5.8849520000000002
 30
0.0
 10
30.5284629999999986
 20
5.4972430000000001
 30
0.0
 10
30.5284629999999986
 20
5.6910970000000001
 30
0.0
 10
30.5930810000000015
 20
5.8203339999999999
 30
0.0
 10
30.6576990000000009
 20
5.8849520000000002
 30
0.0
 10
30.8515540000000001
 20
5.9495699999999996
 30
0.0
 10
30.9807899999999989
 20
5.9495699999999996
 30
0.0
 10
31.1746450000000017
 20
5.8849520000000002
 30
0.0
 10
31.3038810000000005
 20
5.7557150000000004
 30
0.0
 10
31.3684989999999999
 20
5.5618610000000004
 30
0.0
 10
31.3684989999999999
 20
5.3680060000000003
 30
0.0
 10
31.3038810000000005
 20
5.1741520000000003
 30
0.0
 10
31.2392630000000011
 20
5.109534
 30
0.0
 10
31.1100269999999988
 20
5.0449149999999996
 30
0.0
  0
LWPOLYLINE
  5
143
  8
text
 62
256
370
-1
 48
1.0
  6
ByLayer
100
AcDbEntity
100
AcDbPolyline
 90
2
 70
0
 10
30.4638449999999992
 20
6.2726610000000003
 30
0.0
 10
31.3684989999999999
 20
6.6603700000000003
 30
0.0
  0
LWPOLYLINE
  5
144
  8
text
 62
256
370
-1
 48
1.0
  6
ByLayer
100
AcDbEntity
100
AcDbPolyline
 90
2
 70
0
 10
30.4638449999999992
 20
7.0480790000000004
 30
0.0
 10
31.3684989999999999
 20
6.6603700000000003
 30
0.0
  0
LWPOLYLINE
  5
145
  8
text
 62
256
370
-1
 48
1.0
  6
ByLayer
100
AcDbEntity
100
AcDbPolyline
 90
15
 70
0
 10
30.0115179999999988
 20
7.5004059999999999
 30
0.0
 10
30.0115179999999988
 20
8.2112060000000007
 30
0.0
 10
30.5284629999999986
 20
7.8234969999999997
 30
0.0
 10
30.5284629999999986
 20
8.0173520000000007
 30
0.0
 10
30.5930810000000015
 20
8.1465879999999995
 30
0.0
 10
30.6576990000000009
 20
8.2112060000000007
 30
0.0
 10
30.8515540000000001
 20
8.2758240000000001
 30
0.0
 10
30.9807899999999989
 20
8.2758240000000001
 30
0.0
 10
31.1746450000000017
 20
8.2112060000000007
 30
0.0
 10
31.3038810000000005
 20
8.0819700000000001
 30
0.0
 10
31.3684989999999999
 20
7.888115
 30
0.0
 10
31.3684989999999999
 20
7.694261
 30
0.0
 10
31.3038810000000005
 20
7.5004059999999999
 30
0.0
 10
31.2392630000000011
 20
7.4357879999999996
 30
0.0
 10
31.1100269999999988
 20
7.3711700000000002
 30
0.0
  0
LWPOLYLINE
  5
146
  8
text
 62
256
370
-1
 48
1.0
  6
ByLayer
100
AcDbEntity
100
AcDbPolyline
 90
14
 70
0
 10
27.7946109999999997
 20
6.1757350000000004
 30
0.0
 10
27.7299930000000003
 20
6.1757350000000004
 30
0.0
 10
27.6007570000000015
 20
6.2403529999999998
 30
0.0
 10
27.5361389999999986
 20
6.3049720000000002
 30
0.0
 10
27.4715200000000017
 20
6.4342079999999999
 30
0.0
 10
27.4715200000000017
 20
6.6926810000000003
 30
0.0
 10
27.5361389999999986
 20
6.821917
 30
0.0
 10
27.6007570000000015
 20
6.8865350000000003
 30
0.0
 10
27.7299930000000003
 20
6.9511529999999997
 30
0.0
 10
27.8592289999999991
 20
6.9511529999999997
 30
0.0
 10
27.988465999999999
 20
6.8865350000000003
 30
0.0
 10
28.1823200000000007
 20
6.7572989999999997
 30
0.0
 10
28.8285020000000003
 20
6.1111170000000001
 30
0.0
 10
28.8285020000000003
 20
7.0157720000000001
 30
0.0
  0
LWPOLYLINE
  5
147
  8
text
 62
256
370
-1
 48
1.0
  6
ByLayer
100
AcDbEntity
100
AcDbPolyline
 90
14
 70
0
 10
27.7946109999999997
 20
7.4680989999999996
 30
0.0
 10
27.7299930000000003
 20
7.4680989999999996
 30
0.0
 10
27.6007570000000015
 20
7.5327169999999999
 30
0.0
 10
27.5361389999999986
 20
7.5973350000000002
 30
0.0
 10
27.4715200000000017
 20
7.726572
 30
0.0
 10
27.4715200000000017
 20
7.9850440000000003
 30
0.0
 10
27.5361389999999986
 20
8.1142810000000001
 30
0.0
 10
27.6007570000000015
 20
8.1788989999999995
 30
0.0
 10
27.7299930000000003
 20
8.2435170000000006
 30
0.0
 10
27.8592289999999991
 20
8.2435170000000006
 30
0.0
 10
27.988465999999999
 20
8.1788989999999995
 30
0.0
 10
28.1823200000000007
 20
8.0496630000000007
 30
0.0
 10
28.8285020000000003
 20
7.4034810000000002
 30
0.0
 10
28.8285020000000003
 20
8.308135
 30
0.0
  0
LWPOLYLINE
  5
148
  8
text
 62
256
370
-1
 48
1.0
  6
ByLayer
100
AcDbEntity
100
AcDbPolyline
 90
14
 70
0
 10
25.254605999999999
 20
6.1465649999999998
 30
0.0
 10
25.1899869999999986
 20
6.1465649999999998
 30
0.0
 10
25.0607509999999998
 20
6.2111830000000001
 30
0.0
 10
24.9961330000000004
 20
6.2758010000000004
 30
0.0
 10
24.931515000000001
 20
6.4050370000000001
 30
0.0
 10
24.931515000000001
 20
6.6635099999999996
 30
0.0
 10
24.9961330000000004
 20
6.7927470000000003
 30
0.0
 10
25.0607509999999998
 20
6.8573649999999997
 30
0.0
 10
25.1899869999999986
 20
6.921983
 30
0.0
 10
25.3192239999999984
 20
6.921983
 30
0.0
 10
25.4484600000000007
 20
6.8573649999999997
 30
0.0
 10
25.642315
 20
6.7281279999999999
 30
0.0
 10
26.2884969999999996
 20
6.0819470000000004
 30
0.0
 10
26.2884969999999996
 20
6.9866010000000003
 30
0.0
  0
LWPOLYLINE
  5
149
  8
text
 62
256
370
-1
 48
1.0
  6
ByLayer
100
AcDbEntity
100
AcDbPolyline
 90
2
 70
0
 10
24.931515000000001
 20
8.2789649999999995
 30
0.0
 10
26.2884969999999996
 20
7.6327829999999999
 30
0.0
  0
LWPOLYLINE
  5
14A
  8
text
 62
256
370
-1
 48
1.0
  6
ByLayer
100
AcDbEntity
100
AcDbPolyline
 90
2
 70
0
 10
24.931515000000001
 20
7.3743100000000004
 30
0.0
 10
24.931515000000001
 20
8.2789649999999995
 30
0.0
  0
LWPOLYLINE
  5
14B
  8
text
 62
256
370
-1
 48
1.0
  6
ByLayer
100
AcDbEntity
100
AcDbPolyline
 90
4
 70
0
 10
22.6893549999999991
 20
6.3140559999999999
 30
0.0
 10
22.6259529999999991
 20
6.4408599999999998
 30
0.0
 10
22.4357469999999992
 20
6.6310650000000004
 30
0.0
 10
23.7671850000000013
 20
6.6310650000000004
 30
0.0
  0
LWPOLYLINE
  5
14C
  8
text
 62
256
370
-1
 48
1.0
  6
ByLayer
100
AcDbEntity
100
AcDbPolyline
 90
2
 70
0
 10
22.4357469999999992
 20
8.2795120000000004
 30
0.0
 10
23.7671850000000013
 20
7.6454940000000002
 30
0.0
  0
LWPOLYLINE
  5
14D
  8
text
 62
256
370
-1
 48
1.0
  6
ByLayer
100
AcDbEntity
100
AcDbPolyline
 90
2
 70
0
 10
22.4357469999999992
 20
7.3918869999999997
 30
0.0
 10
22.4357469999999992
 20
8.2795120000000004
 30
0.0
  0
LWPOLYLINE
  5
14E
  8
text
 62
256
370
-1
 48
1.0
  6
ByLayer
100
AcDbEntity
100
AcDbPolyline
 90
3
 70
0
 10
17.2986160000000027
 20
7.9742790000000001
 30
0.0
 10
18.2334120000000013
 20
7.3065670000000003
 30
0.0
 10
18.2334120000000013
 20
8.308135
 30
0.0
  0
LWPOLYLINE
  5
14F
  8
text
 62
256
370
-1
 48
1.0
  6
ByLayer
100
AcDbEntity
100
AcDbPolyline
 90
2
 70
0
 10
17.2986160000000027
 20
7.9742790000000001
 30
0.0
 10
18.7008110000000016
 20
7.9742790000000001
 30
0.0
  0
LWPOLYLINE
  5
150
  8
text
 62
256
370
-1
 48
1.0
  6
ByLayer
100
AcDbEntity
100
AcDbPolyline
 90
20
 70
0
 10
14.9653720000000003
 20
3.3310019999999998
 30
0.0
 10
14.8361359999999998
 20
3.2017660000000001
 30
0.0
 10
14.7715180000000004
 20
3.007911
 30
0.0
 10
14.7715180000000004
 20
2.749438
 30
0.0
 10
14.8361359999999998
 20
2.5555840000000001
 30
0.0
 10
14.9653720000000003
 20
2.4263479999999999
 30
0.0
 10
15.0946079999999991
 20
2.4263479999999999
 30
0.0
 10
15.2238450000000007
 20
2.4909659999999998
 30
0.0
 10
15.2884630000000001
 20
2.5555840000000001
 30
0.0
 10
15.3530809999999995
 20
2.6848200000000002
 30
0.0
 10
15.4823179999999994
 20
3.0725289999999998
 30
0.0
 10
15.5469360000000005
 20
3.2017660000000001
 30
0.0
 10
15.6115539999999999
 20
3.266384
 30
0.0
 10
15.7407900000000005
 20
3.3310019999999998
 30
0.0
 10
15.9346449999999997
 20
3.3310019999999998
 30
0.0
 10
16.0638810000000021
 20
3.2017660000000001
 30
0.0
 10
16.1284989999999979
 20
3.007911
 30
0.0
 10
16.1284989999999979
 20
2.749438
 30
0.0
 10
16.0638810000000021
 20
2.5555840000000001
 30
0.0
 10
15.9346449999999997
 20
2.4263479999999999
 30
0.0
  0
LWPOLYLINE
  5
151
  8
text
 62
256
370
-1
 48
1.0
  6
ByLayer
100
AcDbEntity
100
AcDbPolyline
 90
18
 70
0
 10
15.0946079999999991
 20
4.6879840000000002
 30
0.0
 10
14.9653720000000003
 20
4.6233659999999999
 30
0.0
 10
14.8361359999999998
 20
4.494129
 30
0.0
 10
14.7715180000000004
 20
4.3648930000000004
 30
0.0
 10
14.7715180000000004
 20
4.10642
 30
0.0
 10
14.8361359999999998
 20
3.9771839999999998
 30
0.0
 10
14.9653720000000003
 20
3.8479480000000001
 30
0.0
 10
15.0946079999999991
 20
3.7833290000000002
 30
0.0
 10
15.2884630000000001
 20
3.7187109999999999
 30
0.0
 10
15.6115539999999999
 20
3.7187109999999999
 30
0.0
 10
15.8054079999999999
 20
3.7833290000000002
 30
0.0
 10
15.9346449999999997
 20
3.8479480000000001
 30
0.0
 10
16.0638810000000021
 20
3.9771839999999998
 30
0.0
 10
16.1284989999999979
 20
4.10642
 30
0.0
 10
16.1284989999999979
 20
4.3648930000000004
 30
0.0
 10
16.0638810000000021
 20
4.494129
 30
0.0
 10
15.9346449999999997
 20
4.6233659999999999
 30
0.0
 10
15.8054079999999999
 20
4.6879840000000002
 30
0.0
  0
LWPOLYLINE
  5
152
  8
text
 62
256
370
-1
 48
1.0
  6
ByLayer
100
AcDbEntity
100
AcDbPolyline
 90
3
 70
0
 10
14.7715180000000004
 20
5.1403109999999996
 30
0.0
 10
16.1284989999999979
 20
5.1403109999999996
 30
0.0
 10
16.1284989999999979
 20
5.9157289999999998
 30
0.0
  0
LWPOLYLINE
  5
153
  8
text
 62
256
370
-1
 48
1.0
  6
ByLayer
100
AcDbEntity
100
AcDbPolyline
 90
15
 70
0
 10
14.7715189999999996
 20
7.5004049999999998
 30
0.0
 10
14.7715189999999996
 20
8.2112069999999999
 30
0.0
 10
15.2884620000000009
 20
7.8234959999999996
 30
0.0
 10
15.2884620000000009
 20
8.0173509999999997
 30
0.0
 10
15.3530800000000003
 20
8.1465870000000002
 30
0.0
 10
15.4176979999999997
 20
8.2112069999999999
 30
0.0
 10
15.6115530000000007
 20
8.2758249999999993
 30
0.0
 10
15.7407909999999998
 20
8.2758249999999993
 30
0.0
 10
15.934647
 20
8.2112069999999999
 30
0.0
 10
16.0638819999999996
 20
8.0819690000000008
 30
0.0
 10
16.1285000000000025
 20
7.8881129999999997
 30
0.0
 10
16.1285000000000025
 20
7.6942579999999996
 30
0.0
 10
16.0638819999999996
 20
7.5004049999999998
 30
0.0
 10
15.9992649999999994
 20
7.4357870000000004
 30
0.0
 10
15.8700270000000003
 20
7.3711700000000002
 30
0.0
  0
LWPOLYLINE
  5
154
  8
text
 62
256
370
-1
 48
1.0
  6
ByLayer
100
AcDbEntity
100
AcDbPolyline
 90
20
 70
0
 10
12.4253809999999998
 20
3.236192
 30
0.0
 10
12.296144
 20
3.1069559999999998
 30
0.0
 10
12.2315260000000006
 20
2.9131010000000002
 30
0.0
 10
12.2315260000000006
 20
2.6546289999999999
 30
0.0
 10
12.296144
 20
2.4607739999999998
 30
0.0
 10
12.4253809999999998
 20
2.3315380000000001
 30
0.0
 10
12.5546170000000004
 20
2.3315380000000001
 30
0.0
 10
12.6838529999999992
 20
2.396156
 30
0.0
 10
12.7484710000000003
 20
2.4607739999999998
 30
0.0
 10
12.8130900000000008
 20
2.5900110000000001
 30
0.0
 10
12.9423259999999996
 20
2.9777200000000001
 30
0.0
 10
13.0069440000000007
 20
3.1069559999999998
 30
0.0
 10
13.0715620000000001
 20
3.1715740000000001
 30
0.0
 10
13.2007989999999999
 20
3.236192
 30
0.0
 10
13.3946529999999999
 20
3.236192
 30
0.0
 10
13.5238899999999997
 20
3.1069559999999998
 30
0.0
 10
13.5885079999999991
 20
2.9131010000000002
 30
0.0
 10
13.5885079999999991
 20
2.6546289999999999
 30
0.0
 10
13.5238899999999997
 20
2.4607739999999998
 30
0.0
 10
13.3946529999999999
 20
2.3315380000000001
 30
0.0
  0
LWPOLYLINE
  5
155
  8
text
 62
256
370
-1
 48
1.0
  6
ByLayer
100
AcDbEntity
100
AcDbPolyline
 90
2
 70
0
 10
12.2315260000000006
 20
3.68852
 30
0.0
 10
13.5885079999999991
 20
3.68852
 30
0.0
  0
LWPOLYLINE
  5
156
  8
text
 62
256
370
-1
 48
1.0
  6
ByLayer
100
AcDbEntity
100
AcDbPolyline
 90
12
 70
0
 10
12.2315260000000006
 20
3.68852
 30
0.0
 10
12.2315260000000006
 20
4.1408469999999999
 30
0.0
 10
12.296144
 20
4.3347009999999999
 30
0.0
 10
12.4253809999999998
 20
4.4639379999999997
 30
0.0
 10
12.5546170000000004
 20
4.528556
 30
0.0
 10
12.7484710000000003
 20
4.5931740000000003
 30
0.0
 10
13.0715620000000001
 20
4.5931740000000003
 30
0.0
 10
13.2654169999999993
 20
4.528556
 30
0.0
 10
13.3946529999999999
 20
4.4639379999999997
 30
0.0
 10
13.5238899999999997
 20
4.3347009999999999
 30
0.0
 10
13.5885079999999991
 20
4.1408469999999999
 30
0.0
 10
13.5885079999999991
 20
3.68852
 30
0.0
  0
LWPOLYLINE
  5
157
  8
text
 62
256
370
-1
 48
1.0
  6
ByLayer
100
AcDbEntity
100
AcDbPolyline
 90
2
 70
0
 10
12.2315260000000006
 20
5.3685919999999996
 30
0.0
 10
13.5885079999999991
 20
4.8516469999999998
 30
0.0
  0
LWPOLYLINE
  5
158
  8
text
 62
256
370
-1
 48
1.0
  6
ByLayer
100
AcDbEntity
100
AcDbPolyline
 90
2
 70
0
 10
12.2315260000000006
 20
5.3685919999999996
 30
0.0
 10
13.5885079999999991
 20
5.8855380000000004
 30
0.0
  0
LWPOLYLINE
  5
159
  8
text
 62
256
370
-1
 48
1.0
  6
ByLayer
100
AcDbEntity
100
AcDbPolyline
 90
2
 70
0
 10
13.1361810000000006
 20
5.0455009999999998
 30
0.0
 10
13.1361810000000006
 20
5.6916830000000003
 30
0.0
  0
LWPOLYLINE
  5
15A
  8
text
 62
256
370
-1
 48
1.0
  6
ByLayer
100
AcDbEntity
100
AcDbPolyline
 90
14
 70
0
 10
12.5546179999999996
 20
7.4680960000000001
 30
0.0
 10
12.4900009999999995
 20
7.4680960000000001
 30
0.0
 10
12.3607630000000004
 20
7.5327140000000004
 30
0.0
 10
12.2961449999999992
 20
7.5973309999999996
 30
0.0
 10
12.2315269999999998
 20
7.7265670000000002
 30
0.0
 10
12.2315269999999998
 20
7.9850430000000001
 30
0.0
 10
12.2961449999999992
 20
8.1142780000000005
 30
0.0
 10
12.3607630000000004
 20
8.1788950000000007
 30
0.0
 10
12.4900009999999995
 20
8.2435159999999996
 30
0.0
 10
12.6192360000000008
 20
8.2435159999999996
 30
0.0
 10
12.7484739999999999
 20
8.1788950000000007
 30
0.0
 10
12.9423270000000006
 20
8.0496599999999994
 30
0.0
 10
13.5885079999999991
 20
7.4034789999999999
 30
0.0
 10
13.5885079999999991
 20
8.3081329999999998
 30
0.0
  0
LWPOLYLINE
  5
15B
  8
text
 62
256
370
-1
 48
1.0
  6
ByLayer
100
AcDbEntity
100
AcDbPolyline
 90
15
 70
0
 10
9.6915119999999995
 20
5.1741520000000003
 30
0.0
 10
9.6915119999999995
 20
5.8849520000000002
 30
0.0
 10
10.2084569999999992
 20
5.4972430000000001
 30
0.0
 10
10.2084569999999992
 20
5.6910970000000001
 30
0.0
 10
10.2730759999999997
 20
5.8203339999999999
 30
0.0
 10
10.3376940000000008
 20
5.8849520000000002
 30
0.0
 10
10.5315480000000008
 20
5.9495699999999996
 30
0.0
 10
10.6607850000000006
 20
5.9495699999999996
 30
0.0
 10
10.8546390000000006
 20
5.8849520000000002
 30
0.0
 10
10.9838760000000004
 20
5.7557150000000004
 30
0.0
 10
11.0484939999999998
 20
5.5618610000000004
 30
0.0
 10
11.0484939999999998
 20
5.3680060000000003
 30
0.0
 10
10.9838760000000004
 20
5.1741520000000003
 30
0.0
 10
10.919257
 20
5.109534
 30
0.0
 10
10.7900209999999994
 20
5.0449149999999996
 30
0.0
  0
LWPOLYLINE
  5
15C
  8
text
 62
256
370
-1
 48
1.0
  6
ByLayer
100
AcDbEntity
100
AcDbPolyline
 90
2
 70
0
 10
10.1438389999999998
 20
6.2726610000000003
 30
0.0
 10
11.0484939999999998
 20
6.6603700000000003
 30
0.0
  0
LWPOLYLINE
  5
15D
  8
text
 62
256
370
-1
 48
1.0
  6
ByLayer
100
AcDbEntity
100
AcDbPolyline
 90
2
 70
0
 10
10.1438389999999998
 20
7.0480790000000004
 30
0.0
 10
11.0484939999999998
 20
6.6603700000000003
 30
0.0
  0
LWPOLYLINE
  5
15E
  8
text
 62
256
370
-1
 48
1.0
  6
ByLayer
100
AcDbEntity
100
AcDbPolyline
 90
15
 70
0
 10
9.6915119999999995
 20
7.5004059999999999
 30
0.0
 10
9.6915119999999995
 20
8.2112060000000007
 30
0.0
 10
10.2084569999999992
 20
7.8234969999999997
 30
0.0
 10
10.2084569999999992
 20
8.0173520000000007
 30
0.0
 10
10.2730759999999997
 20
8.1465879999999995
 30
0.0
 10
10.3376940000000008
 20
8.2112060000000007
 30
0.0
 10
10.5315480000000008
 20
8.2758240000000001
 30
0.0
 10
10.6607850000000006
 20
8.2758240000000001
 30
0.0
 10
10.8546390000000006
 20
8.2112060000000007
 30
0.0
 10
10.9838760000000004
 20
8.0819700000000001
 30
0.0
 10
11.0484939999999998
 20
7.888115
 30
0.0
 10
11.0484939999999998
 20
7.694261
 30
0.0
 10
10.9838760000000004
 20
7.5004059999999999
 30
0.0
 10
10.919257
 20
7.4357879999999996
 30
0.0
 10
10.7900209999999994
 20
7.3711700000000002
 30
0.0
  0
LWPOLYLINE
  5
15F
  8
text
 62
256
370
-1
 48
1.0
  6
ByLayer
100
AcDbEntity
100
AcDbPolyline
 90
17
 70
0
 10
12.2315199999999997
 20
17.0602629999999991
 30
0.0
 10
12.2315199999999997
 20
16.4140809999999995
 30
0.0
 10
12.8130839999999999
 20
16.3494630000000001
 30
0.0
 10
12.7484660000000005
 20
16.4140809999999995
 30
0.0
 10
12.6838479999999993
 20
16.6079350000000012
 30
0.0
 10
12.6838479999999993
 20
16.8017900000000004
 30
0.0
 10
12.7484660000000005
 20
16.9956439999999986
 30
0.0
 10
12.8777019999999993
 20
17.1248809999999985
 30
0.0
 10
13.0715570000000003
 20
17.1894990000000014
 30
0.0
 10
13.2007930000000009
 20
17.1894990000000014
 30
0.0
 10
13.3946480000000001
 20
17.1248809999999985
 30
0.0
 10
13.5238840000000007
 20
16.9956439999999986
 30
0.0
 10
13.5885020000000001
 20
16.8017900000000004
 30
0.0
 10
13.5885020000000001
 20
16.6079350000000012
 30
0.0
 10
13.5238840000000007
 20
16.4140809999999995
 30
0.0
 10
13.4592659999999995
 20
16.3494630000000001
 30
0.0
 10
13.3300289999999997
 20
16.2848439999999997
 30
0.0
  0
LWPOLYLINE
  5
160
  8
text
 62
256
370
-1
 48
1.0
  6
ByLayer
100
AcDbEntity
100
AcDbPolyline
 90
2
 70
0
 10
12.2315199999999997
 20
17.447972
 30
0.0
 10
13.5885020000000001
 20
17.9649169999999998
 30
0.0
  0
LWPOLYLINE
  5
161
  8
text
 62
256
370
-1
 48
1.0
  6
ByLayer
100
AcDbEntity
100
AcDbPolyline
 90
2
 70
0
 10
12.2315199999999997
 20
18.4818630000000006
 30
0.0
 10
13.5885020000000001
 20
17.9649169999999998
 30
0.0
  0
LWPOLYLINE
  5
162
  8
text
 62
256
370
-1
 48
1.0
  6
ByLayer
100
AcDbEntity
100
AcDbPolyline
 90
19
 70
0
 10
25.2546140000000001
 20
17.2575259999999986
 30
0.0
 10
25.1253780000000013
 20
17.1929079999999992
 30
0.0
 10
24.9961410000000015
 20
17.0636720000000004
 30
0.0
 10
24.9315229999999985
 20
16.9344350000000006
 30
0.0
 10
24.9315229999999985
 20
16.6759629999999994
 30
0.0
 10
24.9961410000000015
 20
16.5467259999999996
 30
0.0
 10
25.1253780000000013
 20
16.4174900000000008
 30
0.0
 10
25.2546140000000001
 20
16.3528720000000014
 30
0.0
 10
25.4484689999999993
 20
16.2882539999999985
 30
0.0
 10
25.7715600000000009
 20
16.2882539999999985
 30
0.0
 10
25.9654139999999991
 20
16.3528720000000014
 30
0.0
 10
26.0946500000000015
 20
16.4174900000000008
 30
0.0
 10
26.2238870000000013
 20
16.5467259999999996
 30
0.0
 10
26.2885050000000007
 20
16.6759629999999994
 30
0.0
 10
26.2885050000000007
 20
16.9344350000000006
 30
0.0
 10
26.2238870000000013
 20
17.0636720000000004
 30
0.0
 10
26.0946500000000015
 20
17.1929079999999992
 30
0.0
 10
25.9654139999999991
 20
17.2575259999999986
 30
0.0
 10
25.7715600000000009
 20
17.2575259999999986
 30
0.0
  0
LWPOLYLINE
  5
163
  8
text
 62
256
370
-1
 48
1.0
  6
ByLayer
100
AcDbEntity
100
AcDbPolyline
 90
2
 70
0
 10
25.7715600000000009
 20
16.9344350000000006
 30
0.0
 10
25.7715600000000009
 20
17.2575259999999986
 30
0.0
  0
LWPOLYLINE
  5
164
  8
text
 62
256
370
-1
 48
1.0
  6
ByLayer
100
AcDbEntity
100
AcDbPolyline
 90
2
 70
0
 10
24.9315229999999985
 20
17.709854
 30
0.0
 10
26.2885050000000007
 20
17.709854
 30
0.0
  0
LWPOLYLINE
  5
165
  8
text
 62
256
370
-1
 48
1.0
  6
ByLayer
100
AcDbEntity
100
AcDbPolyline
 90
2
 70
0
 10
24.9315229999999985
 20
17.709854
 30
0.0
 10
26.2885050000000007
 20
18.6145080000000007
 30
0.0
  0
LWPOLYLINE
  5
166
  8
text
 62
256
370
-1
 48
1.0
  6
ByLayer
100
AcDbEntity
100
AcDbPolyline
 90
2
 70
0
 10
24.9315229999999985
 20
18.6145080000000007
 30
0.0
 10
26.2885050000000007
 20
18.6145080000000007
 30
0.0
  0
LWPOLYLINE
  5
167
  8
text
 62
256
370
-1
 48
1.0
  6
ByLayer
100
AcDbEntity
100
AcDbPolyline
 90
2
 70
0
 10
24.9315229999999985
 20
19.1314540000000015
 30
0.0
 10
26.2885050000000007
 20
19.1314540000000015
 30
0.0
  0
LWPOLYLINE
  5
168
  8
text
 62
256
370
-1
 48
1.0
  6
ByLayer
100
AcDbEntity
100
AcDbPolyline
 90
12
 70
0
 10
24.9315229999999985
 20
19.1314540000000015
 30
0.0
 10
24.9315229999999985
 20
19.5837809999999983
 30
0.0
 10
24.9961410000000015
 20
19.7776350000000001
 30
0.0
 10
25.1253780000000013
 20
19.9068719999999999
 30
0.0
 10
25.2546140000000001
 20
19.9714899999999993
 30
0.0
 10
25.4484689999999993
 20
20.0361079999999987
 30
0.0
 10
25.7715600000000009
 20
20.0361079999999987
 30
0.0
 10
25.9654139999999991
 20
19.9714899999999993
 30
0.0
 10
26.0946500000000015
 20
19.9068719999999999
 30
0.0
 10
26.2238870000000013
 20
19.7776350000000001
 30
0.0
 10
26.2885050000000007
 20
19.5837809999999983
 30
0.0
 10
26.2885050000000007
 20
19.1314540000000015
 30
0.0
  0
LWPOLYLINE
  5
169
  8
text
 62
256
370
-1
 48
1.0
  6
ByLayer
100
AcDbEntity
100
AcDbPolyline
 90
19
 70
0
 10
32.8746170000000006
 20
17.2575259999999986
 30
0.0
 10
32.7453809999999947
 20
17.1929079999999992
 30
0.0
 10
32.6161439999999985
 20
17.0636720000000004
 30
0.0
 10
32.5515259999999955
 20
16.9344350000000006
 30
0.0
 10
32.5515259999999955
 20
16.6759629999999994
 30
0.0
 10
32.6161439999999985
 20
16.5467259999999996
 30
0.0
 10
32.7453809999999947
 20
16.4174900000000008
 30
0.0
 10
32.8746170000000006
 20
16.3528720000000014
 30
0.0
 10
33.0684710000000024
 20
16.2882539999999985
 30
0.0
 10
33.3915620000000004
 20
16.2882539999999985
 30
0.0
 10
33.5854169999999996
 20
16.3528720000000014
 30
0.0
 10
33.7146529999999984
 20
16.4174900000000008
 30
0.0
 10
33.8438900000000018
 20
16.5467259999999996
 30
0.0
 10
33.9085079999999977
 20
16.6759629999999994
 30
0.0
 10
33.9085079999999977
 20
16.9344350000000006
 30
0.0
 10
33.8438900000000018
 20
17.0636720000000004
 30
0.0
 10
33.7146529999999984
 20
17.1929079999999992
 30
0.0
 10
33.5854169999999996
 20
17.2575259999999986
 30
0.0
 10
33.3915620000000004
 20
17.2575259999999986
 30
0.0
  0
LWPOLYLINE
  5
16A
  8
text
 62
256
370
-1
 48
1.0
  6
ByLayer
100
AcDbEntity
100
AcDbPolyline
 90
2
 70
0
 10
33.3915620000000004
 20
16.9344350000000006
 30
0.0
 10
33.3915620000000004
 20
17.2575259999999986
 30
0.0
  0
LWPOLYLINE
  5
16B
  8
text
 62
256
370
-1
 48
1.0
  6
ByLayer
100
AcDbEntity
100
AcDbPolyline
 90
2
 70
0
 10
32.5515259999999955
 20
17.709854
 30
0.0
 10
33.9085079999999977
 20
17.709854
 30
0.0
  0
LWPOLYLINE
  5
16C
  8
text
 62
256
370
-1
 48
1.0
  6
ByLayer
100
AcDbEntity
100
AcDbPolyline
 90
2
 70
0
 10
32.5515259999999955
 20
17.709854
 30
0.0
 10
33.9085079999999977
 20
18.6145080000000007
 30
0.0
  0
LWPOLYLINE
  5
16D
  8
text
 62
256
370
-1
 48
1.0
  6
ByLayer
100
AcDbEntity
100
AcDbPolyline
 90
2
 70
0
 10
32.5515259999999955
 20
18.6145080000000007
 30
0.0
 10
33.9085079999999977
 20
18.6145080000000007
 30
0.0
  0
LWPOLYLINE
  5
16E
  8
text
 62
256
370
-1
 48
1.0
  6
ByLayer
100
AcDbEntity
100
AcDbPolyline
 90
2
 70
0
 10
32.5515259999999955
 20
19.1314540000000015
 30
0.0
 10
33.9085079999999977
 20
19.1314540000000015
 30
0.0
  0
LWPOLYLINE
  5
16F
  8
text
 62
256
370
-1
 48
1.0
  6
ByLayer
100
AcDbEntity
100
AcDbPolyline
 90
12
 70
0
 10
32.5515259999999955
 20
19.1314540000000015
 30
0.0
 10
32.5515259999999955
 20
19.5837809999999983
 30
0.0
 10
32.6161439999999985
 20
19.7776350000000001
 30
0.0
 10
32.7453809999999947
 20
19.9068719999999999
 30
0.0
 10
32.8746170000000006
 20
19.9714899999999993
 30
0.0
 10
33.0684710000000024
 20
20.0361079999999987
 30
0.0
 10
33.3915620000000004
 20
20.0361079999999987
 30
0.0
 10
33.5854169999999996
 20
19.9714899999999993
 30
0.0
 10
33.7146529999999984
 20
19.9068719999999999
 30
0.0
 10
33.8438900000000018
 20
19.7776350000000001
 30
0.0
 10
33.9085079999999977
 20
19.5837809999999983
 30
0.0
 10
33.9085079999999977
 20
19.1314540000000015
 30
0.0
  0
LWPOLYLINE
  5
170
  8
text
 62
256
370
-1
 48
1.0
  6
ByLayer
100
AcDbEntity
100
AcDbPolyline
 90
19
 70
0
 10
45.5746139999999968
 20
17.2575259999999986
 30
0.0
 10
45.4453779999999981
 20
17.1929079999999992
 30
0.0
 10
45.3161410000000018
 20
17.0636720000000004
 30
0.0
 10
45.2515229999999988
 20
16.9344350000000006
 30
0.0
 10
45.2515229999999988
 20
16.6759629999999994
 30
0.0
 10
45.3161410000000018
 20
16.5467259999999996
 30
0.0
 10
45.4453779999999981
 20
16.4174900000000008
 30
0.0
 10
45.5746139999999968
 20
16.3528720000000014
 30
0.0
 10
45.7684690000000032
 20
16.2882539999999985
 30
0.0
 10
46.0915600000000012
 20
16.2882539999999985
 30
0.0
 10
46.2854140000000029
 20
16.3528720000000014
 30
0.0
 10
46.4146500000000017
 20
16.4174900000000008
 30
0.0
 10
46.543886999999998
 20
16.5467259999999996
 30
0.0
 10
46.608505000000001
 20
16.6759629999999994
 30
0.0
 10
46.608505000000001
 20
16.9344350000000006
 30
0.0
 10
46.543886999999998
 20
17.0636720000000004
 30
0.0
 10
46.4146500000000017
 20
17.1929079999999992
 30
0.0
 10
46.2854140000000029
 20
17.2575259999999986
 30
0.0
 10
46.0915600000000012
 20
17.2575259999999986
 30
0.0
  0
LWPOLYLINE
  5
171
  8
text
 62
256
370
-1
 48
1.0
  6
ByLayer
100
AcDbEntity
100
AcDbPolyline
 90
2
 70
0
 10
46.0915600000000012
 20
16.9344350000000006
 30
0.0
 10
46.0915600000000012
 20
17.2575259999999986
 30
0.0
  0
LWPOLYLINE
  5
172
  8
text
 62
256
370
-1
 48
1.0
  6
ByLayer
100
AcDbEntity
100
AcDbPolyline
 90
2
 70
0
 10
45.2515229999999988
 20
17.709854
 30
0.0
 10
46.608505000000001
 20
17.709854
 30
0.0
  0
LWPOLYLINE
  5
173
  8
text
 62
256
370
-1
 48
1.0
  6
ByLayer
100
AcDbEntity
100
AcDbPolyline
 90
2
 70
0
 10
45.2515229999999988
 20
17.709854
 30
0.0
 10
46.608505000000001
 20
18.6145080000000007
 30
0.0
  0
LWPOLYLINE
  5
174
  8
text
 62
256
370
-1
 48
1.0
  6
ByLayer
100
AcDbEntity
100
AcDbPolyline
 90
2
 70
0
 10
45.2515229999999988
 20
18.6145080000000007
 30
0.0
 10
46.608505000000001
 20
18.6145080000000007
 30
0.0
  0
LWPOLYLINE
  5
175
  8
text
 62
256
370
-1
 48
1.0
  6
ByLayer
100
AcDbEntity
100
AcDbPolyline
 90
2
 70
0
 10
45.2515229999999988
 20
19.1314540000000015
 30
0.0
 10
46.608505000000001
 20
19.1314540000000015
 30
0.0
  0
LWPOLYLINE
  5
176
  8
text
 62
256
370
-1
 48
1.0
  6
ByLayer
100
AcDbEntity
100
AcDbPolyline
 90
12
 70
0
 10
45.2515229999999988
 20
19.1314540000000015
 30
0.0
 10
45.2515229999999988
 20
19.5837809999999983
 30
0.0
 10
45.3161410000000018
 20
19.7776350000000001
 30
0.0
 10
45.4453779999999981
 20
19.9068719999999999
 30
0.0
 10
45.5746139999999968
 20
19.9714899999999993
 30
0.0
 10
45.7684690000000032
 20
20.0361079999999987
 30
0.0
 10
46.0915600000000012
 20
20.0361079999999987
 30
0.0
 10
46.2854140000000029
 20
19.9714899999999993
 30
0.0
 10
46.4146500000000017
 20
19.9068719999999999
 30
0.0
 10
46.543886999999998
 20
19.7776350000000001
 30
0.0
 10
46.608505000000001
 20
19.5837809999999983
 30
0.0
 10
46.608505000000001
 20
19.1314540000000015
 30
0.0
  0
LWPOLYLINE
  5
177
  8
text
 62
256
370
-1
 48
1.0
  6
ByLayer
100
AcDbEntity
100
AcDbPolyline
 90
19
 70
0
 10
50.6546060000000011
 20
17.2575259999999986
 30
0.0
 10
50.5253689999999978
 20
17.1929079999999992
 30
0.0
 10
50.396132999999999
 20
17.0636720000000004
 30
0.0
 10
50.3315150000000031
 20
16.9344350000000006
 30
0.0
 10
50.3315150000000031
 20
16.6759629999999994
 30
0.0
 10
50.396132999999999
 20
16.5467259999999996
 30
0.0
 10
50.5253689999999978
 20
16.4174900000000008
 30
0.0
 10
50.6546060000000011
 20
16.3528720000000014
 30
0.0
 10
50.8484600000000029
 20
16.2882539999999985
 30
0.0
 10
51.1715510000000009
 20
16.2882539999999985
 30
0.0
 10
51.3654060000000001
 20
16.3528720000000014
 30
0.0
 10
51.4946419999999989
 20
16.4174900000000008
 30
0.0
 10
51.6238779999999977
 20
16.5467259999999996
 30
0.0
 10
51.6884969999999981
 20
16.6759629999999994
 30
0.0
 10
51.6884969999999981
 20
16.9344350000000006
 30
0.0
 10
51.6238779999999977
 20
17.0636720000000004
 30
0.0
 10
51.4946419999999989
 20
17.1929079999999992
 30
0.0
 10
51.3654060000000001
 20
17.2575259999999986
 30
0.0
 10
51.1715510000000009
 20
17.2575259999999986
 30
0.0
  0
LWPOLYLINE
  5
178
  8
text
 62
256
370
-1
 48
1.0
  6
ByLayer
100
AcDbEntity
100
AcDbPolyline
 90
2
 70
0
 10
51.1715510000000009
 20
16.9344350000000006
 30
0.0
 10
51.1715510000000009
 20
17.2575259999999986
 30
0.0
  0
LWPOLYLINE
  5
179
  8
text
 62
256
370
-1
 48
1.0
  6
ByLayer
100
AcDbEntity
100
AcDbPolyline
 90
2
 70
0
 10
50.3315150000000031
 20
17.709854
 30
0.0
 10
51.6884969999999981
 20
17.709854
 30
0.0
  0
LWPOLYLINE
  5
17A
  8
text
 62
256
370
-1
 48
1.0
  6
ByLayer
100
AcDbEntity
100
AcDbPolyline
 90
2
 70
0
 10
50.3315150000000031
 20
17.709854
 30
0.0
 10
51.6884969999999981
 20
18.6145080000000007
 30
0.0
  0
LWPOLYLINE
  5
17B
  8
text
 62
256
370
-1
 48
1.0
  6
ByLayer
100
AcDbEntity
100
AcDbPolyline
 90
2
 70
0
 10
50.3315150000000031
 20
18.6145080000000007
 30
0.0
 10
51.6884969999999981
 20
18.6145080000000007
 30
0.0
  0
LWPOLYLINE
  5
17C
  8
text
 62
256
370
-1
 48
1.0
  6
ByLayer
100
AcDbEntity
100
AcDbPolyline
 90
2
 70
0
 10
50.3315150000000031
 20
19.1314540000000015
 30
0.0
 10
51.6884969999999981
 20
19.1314540000000015
 30
0.0
  0
LWPOLYLINE
  5
17D
  8
text
 62
256
370
-1
 48
1.0
  6
ByLayer
100
AcDbEntity
100
AcDbPolyline
 90
12
 70
0
 10
50.3315150000000031
 20
19.1314540000000015
 30
0.0
 10
50.3315150000000031
 20
19.5837809999999983
 30
0.0
 10
50.396132999999999
 20
19.7776350000000001
 30
0.0
 10
50.5253689999999978
 20
19.9068719999999999
 30
0.0
 10
50.6546060000000011
 20
19.9714899999999993
 30
0.0
 10
50.8484600000000029
 20
20.0361079999999987
 30
0.0
 10
51.1715510000000009
 20
20.0361079999999987
 30
0.0
 10
51.3654060000000001
 20
19.9714899999999993
 30
0.0
 10
51.4946419999999989
 20
19.9068719999999999
 30
0.0
 10
51.6238779999999977
 20
19.7776350000000001
 30
0.0
 10
51.6884969999999981
 20
19.5837809999999983
 30
0.0
 10
51.6884969999999981
 20
19.1314540000000015
 30
0.0
  0
LWPOLYLINE
  5
17E
  8
text
 62
256
370
-1
 48
1.0
  6
ByLayer
100
AcDbEntity
100
AcDbPolyline
 90
14
 70
0
 10
58.3078059999999994
 20
16.3941240000000015
 30
0.0
 10
58.245199999999997
 20
16.3941240000000015
 30
0.0
 10
58.1199879999999993
 20
16.4567300000000003
 30
0.0
 10
58.0573819999999969
 20
16.5193359999999991
 30
0.0
 10
57.9947760000000017
 20
16.6445480000000003
 30
0.0
 10
57.9947760000000017
 20
16.8949710000000017
 30
0.0
 10
58.0573819999999969
 20
17.0201829999999994
 30
0.0
 10
58.1199879999999993
 20
17.0827889999999982
 30
0.0
 10
58.245199999999997
 20
17.1453950000000006
 30
0.0
 10
58.3704109999999972
 20
17.1453950000000006
 30
0.0
 10
58.4956230000000019
 20
17.0827889999999982
 30
0.0
 10
58.683441000000002
 20
16.9575770000000006
 30
0.0
 10
59.3094999999999999
 20
16.3315179999999991
 30
0.0
 10
59.3094999999999999
 20
17.2080009999999994
 30
0.0
  0
LWPOLYLINE
  5
17F
  8
text
 62
256
370
-1
 48
1.0
  6
ByLayer
100
AcDbEntity
100
AcDbPolyline
 90
4
 70
0
 10
58.245199999999997
 20
17.7714539999999985
 30
0.0
 10
58.1825940000000017
 20
17.8966659999999997
 30
0.0
 10
57.9947760000000017
 20
18.0844839999999998
 30
0.0
 10
59.3094999999999999
 20
18.0844839999999998
 30
0.0
  0
LWPOLYLINE
  5
180
  8
text
 62
256
370
-1
 48
1.0
  6
ByLayer
100
AcDbEntity
100
AcDbPolyline
 90
19
 70
0
 10
58.274602999999999
 20
5.4972440000000002
 30
0.0
 10
58.1453660000000028
 20
5.432626
 30
0.0
 10
58.0161299999999969
 20
5.3033900000000003
 30
0.0
 10
57.951512000000001
 20
5.1741539999999997
 30
0.0
 10
57.951512000000001
 20
4.9156810000000002
 30
0.0
 10
58.0161299999999969
 20
4.7864440000000004
 30
0.0
 10
58.1453660000000028
 20
4.6572079999999998
 30
0.0
 10
58.274602999999999
 20
4.5925900000000004
 30
0.0
 10
58.4684570000000008
 20
4.5279720000000001
 30
0.0
 10
58.7915479999999988
 20
4.5279720000000001
 30
0.0
 10
58.985402999999998
 20
4.5925900000000004
 30
0.0
 10
59.1146389999999968
 20
4.6572079999999998
 30
0.0
 10
59.2438760000000002
 20
4.7864440000000004
 30
0.0
 10
59.3084940000000032
 20
4.9156810000000002
 30
0.0
 10
59.3084940000000032
 20
5.1741539999999997
 30
0.0
 10
59.2438760000000002
 20
5.3033900000000003
 30
0.0
 10
59.1146389999999968
 20
5.432626
 30
0.0
 10
58.985402999999998
 20
5.4972440000000002
 30
0.0
 10
58.7915479999999988
 20
5.4972440000000002
 30
0.0
  0
LWPOLYLINE
  5
181
  8
text
 62
256
370
-1
 48
1.0
  6
ByLayer
100
AcDbEntity
100
AcDbPolyline
 90
2
 70
0
 10
58.7915479999999988
 20
5.1741539999999997
 30
0.0
 10
58.7915479999999988
 20
5.4972440000000002
 30
0.0
  0
LWPOLYLINE
  5
182
  8
text
 62
256
370
-1
 48
1.0
  6
ByLayer
100
AcDbEntity
100
AcDbPolyline
 90
2
 70
0
 10
57.951512000000001
 20
5.9495719999999999
 30
0.0
 10
59.3084940000000032
 20
5.9495719999999999
 30
0.0
  0
LWPOLYLINE
  5
183
  8
text
 62
256
370
-1
 48
1.0
  6
ByLayer
100
AcDbEntity
100
AcDbPolyline
 90
2
 70
0
 10
57.951512000000001
 20
5.9495719999999999
 30
0.0
 10
59.3084940000000032
 20
6.8542259999999997
 30
0.0
  0
LWPOLYLINE
  5
184
  8
text
 62
256
370
-1
 48
1.0
  6
ByLayer
100
AcDbEntity
100
AcDbPolyline
 90
2
 70
0
 10
57.951512000000001
 20
6.8542259999999997
 30
0.0
 10
59.3084940000000032
 20
6.8542259999999997
 30
0.0
  0
LWPOLYLINE
  5
185
  8
text
 62
256
370
-1
 48
1.0
  6
ByLayer
100
AcDbEntity
100
AcDbPolyline
 90
2
 70
0
 10
57.951512000000001
 20
7.3711719999999996
 30
0.0
 10
59.3084940000000032
 20
7.3711719999999996
 30
0.0
  0
LWPOLYLINE
  5
186
  8
text
 62
256
370
-1
 48
1.0
  6
ByLayer
100
AcDbEntity
100
AcDbPolyline
 90
12
 70
0
 10
57.951512000000001
 20
7.3711719999999996
 30
0.0
 10
57.951512000000001
 20
7.823499
 30
0.0
 10
58.0161299999999969
 20
8.0173539999999992
 30
0.0
 10
58.1453660000000028
 20
8.1465899999999998
 30
0.0
 10
58.274602999999999
 20
8.2112079999999992
 30
0.0
 10
58.4684570000000008
 20
8.2758260000000003
 30
0.0
 10
58.7915479999999988
 20
8.2758260000000003
 30
0.0
 10
58.985402999999998
 20
8.2112079999999992
 30
0.0
 10
59.1146389999999968
 20
8.1465899999999998
 30
0.0
 10
59.2438760000000002
 20
8.0173539999999992
 30
0.0
 10
59.3084940000000032
 20
7.823499
 30
0.0
 10
59.3084940000000032
 20
7.3711719999999996
 30
0.0
  0
LWPOLYLINE
  5
187
  8
text
 62
256
370
-1
 48
1.0
  6
ByLayer
100
AcDbEntity
100
AcDbPolyline
 90
19
 70
0
 10
40.4946029999999979
 20
5.4972440000000002
 30
0.0
 10
40.3653660000000016
 20
5.432626
 30
0.0
 10
40.2361300000000028
 20
5.3033900000000003
 30
0.0
 10
40.1715119999999999
 20
5.1741539999999997
 30
0.0
 10
40.1715119999999999
 20
4.9156810000000002
 30
0.0
 10
40.2361300000000028
 20
4.7864440000000004
 30
0.0
 10
40.3653660000000016
 20
4.6572079999999998
 30
0.0
 10
40.4946029999999979
 20
4.5925900000000004
 30
0.0
 10
40.6884569999999997
 20
4.5279720000000001
 30
0.0
 10
41.0115479999999977
 20
4.5279720000000001
 30
0.0
 10
41.2054029999999969
 20
4.5925900000000004
 30
0.0
 10
41.3346390000000028
 20
4.6572079999999998
 30
0.0
 10
41.4638759999999991
 20
4.7864440000000004
 30
0.0
 10
41.528494000000002
 20
4.9156810000000002
 30
0.0
 10
41.528494000000002
 20
5.1741539999999997
 30
0.0
 10
41.4638759999999991
 20
5.3033900000000003
 30
0.0
 10
41.3346390000000028
 20
5.432626
 30
0.0
 10
41.2054029999999969
 20
5.4972440000000002
 30
0.0
 10
41.0115479999999977
 20
5.4972440000000002
 30
0.0
  0
LWPOLYLINE
  5
188
  8
text
 62
256
370
-1
 48
1.0
  6
ByLayer
100
AcDbEntity
100
AcDbPolyline
 90
2
 70
0
 10
41.0115479999999977
 20
5.1741539999999997
 30
0.0
 10
41.0115479999999977
 20
5.4972440000000002
 30
0.0
  0
LWPOLYLINE
  5
189
  8
text
 62
256
370
-1
 48
1.0
  6
ByLayer
100
AcDbEntity
100
AcDbPolyline
 90
2
 70
0
 10
40.1715119999999999
 20
5.9495719999999999
 30
0.0
 10
41.528494000000002
 20
5.9495719999999999
 30
0.0
  0
LWPOLYLINE
  5
18A
  8
text
 62
256
370
-1
 48
1.0
  6
ByLayer
100
AcDbEntity
100
AcDbPolyline
 90
2
 70
0
 10
40.1715119999999999
 20
5.9495719999999999
 30
0.0
 10
41.528494000000002
 20
6.8542259999999997
 30
0.0
  0
LWPOLYLINE
  5
18B
  8
text
 62
256
370
-1
 48
1.0
  6
ByLayer
100
AcDbEntity
100
AcDbPolyline
 90
2
 70
0
 10
40.1715119999999999
 20
6.8542259999999997
 30
0.0
 10
41.528494000000002
 20
6.8542259999999997
 30
0.0
  0
LWPOLYLINE
  5
18C
  8
text
 62
256
370
-1
 48
1.0
  6
ByLayer
100
AcDbEntity
100
AcDbPolyline
 90
2
 70
0
 10
40.1715119999999999
 20
7.3711719999999996
 30
0.0
 10
41.528494000000002
 20
7.3711719999999996
 30
0.0
  0
LWPOLYLINE
  5
18D
  8
text
 62
256
370
-1
 48
1.0
  6
ByLayer
100
AcDbEntity
100
AcDbPolyline
 90
12
 70
0
 10
40.1715119999999999
 20
7.3711719999999996
 30
0.0
 10
40.1715119999999999
 20
7.823499
 30
0.0
 10
40.2361300000000028
 20
8.0173539999999992
 30
0.0
 10
40.3653660000000016
 20
8.1465899999999998
 30
0.0
 10
40.4946029999999979
 20
8.2112079999999992
 30
0.0
 10
40.6884569999999997
 20
8.2758260000000003
 30
0.0
 10
41.0115479999999977
 20
8.2758260000000003
 30
0.0
 10
41.2054029999999969
 20
8.2112079999999992
 30
0.0
 10
41.3346390000000028
 20
8.1465899999999998
 30
0.0
 10
41.4638759999999991
 20
8.0173539999999992
 30
0.0
 10
41.528494000000002
 20
7.823499
 30
0.0
 10
41.528494000000002
 20
7.3711719999999996
 30
0.0
  0
LWPOLYLINE
  5
18E
  8
text
 62
256
370
-1
 48
1.0
  6
ByLayer
100
AcDbEntity
100
AcDbPolyline
 90
19
 70
0
 10
20.1746079999999992
 20
5.4972440000000002
 30
0.0
 10
20.0453720000000004
 20
5.432626
 30
0.0
 10
19.9161360000000016
 20
5.3033900000000003
 30
0.0
 10
19.8515179999999987
 20
5.1741539999999997
 30
0.0
 10
19.8515179999999987
 20
4.9156810000000002
 30
0.0
 10
19.9161360000000016
 20
4.7864440000000004
 30
0.0
 10
20.0453720000000004
 20
4.6572079999999998
 30
0.0
 10
20.1746079999999992
 20
4.5925900000000004
 30
0.0
 10
20.3684629999999984
 20
4.5279720000000001
 30
0.0
 10
20.691554
 20
4.5279720000000001
 30
0.0
 10
20.8854080000000017
 20
4.5925900000000004
 30
0.0
 10
21.0146450000000016
 20
4.6572079999999998
 30
0.0
 10
21.1438810000000004
 20
4.7864440000000004
 30
0.0
 10
21.2084989999999998
 20
4.9156810000000002
 30
0.0
 10
21.2084989999999998
 20
5.1741539999999997
 30
0.0
 10
21.1438810000000004
 20
5.3033900000000003
 30
0.0
 10
21.0146450000000016
 20
5.432626
 30
0.0
 10
20.8854080000000017
 20
5.4972440000000002
 30
0.0
 10
20.691554
 20
5.4972440000000002
 30
0.0
  0
LWPOLYLINE
  5
18F
  8
text
 62
256
370
-1
 48
1.0
  6
ByLayer
100
AcDbEntity
100
AcDbPolyline
 90
2
 70
0
 10
20.691554
 20
5.1741539999999997
 30
0.0
 10
20.691554
 20
5.4972440000000002
 30
0.0
  0
LWPOLYLINE
  5
190
  8
text
 62
256
370
-1
 48
1.0
  6
ByLayer
100
AcDbEntity
100
AcDbPolyline
 90
2
 70
0
 10
19.8515179999999987
 20
5.9495719999999999
 30
0.0
 10
21.2084989999999998
 20
5.9495719999999999
 30
0.0
  0
LWPOLYLINE
  5
191
  8
text
 62
256
370
-1
 48
1.0
  6
ByLayer
100
AcDbEntity
100
AcDbPolyline
 90
2
 70
0
 10
19.8515179999999987
 20
5.9495719999999999
 30
0.0
 10
21.2084989999999998
 20
6.8542259999999997
 30
0.0
  0
LWPOLYLINE
  5
192
  8
text
 62
256
370
-1
 48
1.0
  6
ByLayer
100
AcDbEntity
100
AcDbPolyline
 90
2
 70
0
 10
19.8515179999999987
 20
6.8542259999999997
 30
0.0
 10
21.2084989999999998
 20
6.8542259999999997
 30
0.0
  0
LWPOLYLINE
  5
193
  8
text
 62
256
370
-1
 48
1.0
  6
ByLayer
100
AcDbEntity
100
AcDbPolyline
 90
2
 70
0
 10
19.8515179999999987
 20
7.3711719999999996
 30
0.0
 10
21.2084989999999998
 20
7.3711719999999996
 30
0.0
  0
LWPOLYLINE
  5
194
  8
text
 62
256
370
-1
 48
1.0
  6
ByLayer
100
AcDbEntity
100
AcDbPolyline
 90
12
 70
0
 10
19.8515179999999987
 20
7.3711719999999996
 30
0.0
 10
19.8515179999999987
 20
7.823499
 30
0.0
 10
19.9161360000000016
 20
8.0173539999999992
 30
0.0
 10
20.0453720000000004
 20
8.1465899999999998
 30
0.0
 10
20.1746079999999992
 20
8.2112079999999992
 30
0.0
 10
20.3684629999999984
 20
8.2758260000000003
 30
0.0
 10
20.691554
 20
8.2758260000000003
 30
0.0
 10
20.8854080000000017
 20
8.2112079999999992
 30
0.0
 10
21.0146450000000016
 20
8.1465899999999998
 30
0.0
 10
21.1438810000000004
 20
8.0173539999999992
 30
0.0
 10
21.2084989999999998
 20
7.823499
 30
0.0
 10
21.2084989999999998
 20
7.3711719999999996
 30
0.0
  0
LWPOLYLINE
  5
195
  8
text
 62
256
370
-1
 48
1.0
  6
ByLayer
100
AcDbEntity
100
AcDbPolyline
 90
2
 70
0
 10
58.6300039999999996
 20
14.409027
 30
0.0
 10
58.6300039999999996
 20
15.8938970000000008
 30
0.0
  0
LWPOLYLINE
  5
196
  8
text
 62
256
370
-1
 48
1.0
  6
ByLayer
100
AcDbEntity
100
AcDbPolyline
 90
2
 70
0
 10
17.9900090000000006
 20
14.409027
 30
0.0
 10
17.9900090000000006
 20
15.8938970000000008
 30
0.0
  0
LWPOLYLINE
  5
197
  8
text
 62
256
370
-1
 48
1.0
  6
ByLayer
100
AcDbEntity
100
AcDbPolyline
 90
2
 70
0
 10
20.5300149999999988
 20
14.409027
 30
0.0
 10
20.5300149999999988
 20
15.8938970000000008
 30
0.0
  0
LWPOLYLINE
  5
198
  8
text
 62
256
370
-1
 48
1.0
  6
ByLayer
100
AcDbEntity
100
AcDbPolyline
 90
2
 70
0
 10
23.0700089999999989
 20
14.409027
 30
0.0
 10
23.0700089999999989
 20
15.8938970000000008
 30
0.0
  0
LWPOLYLINE
  5
199
  8
text
 62
256
370
-1
 48
1.0
  6
ByLayer
100
AcDbEntity
100
AcDbPolyline
 90
2
 70
0
 10
28.1500179999999993
 20
14.409027
 30
0.0
 10
28.1500179999999993
 20
15.8938970000000008
 30
0.0
  0
LWPOLYLINE
  5
19A
  8
text
 62
256
370
-1
 48
1.0
  6
ByLayer
100
AcDbEntity
100
AcDbPolyline
 90
2
 70
0
 10
30.6900119999999994
 20
14.409027
 30
0.0
 10
30.6900119999999994
 20
15.8938970000000008
 30
0.0
  0
LWPOLYLINE
  5
19B
  8
text
 62
256
370
-1
 48
1.0
  6
ByLayer
100
AcDbEntity
100
AcDbPolyline
 90
2
 70
0
 10
35.7700090000000017
 20
14.409027
 30
0.0
 10
35.7700090000000017
 20
15.8938970000000008
 30
0.0
  0
LWPOLYLINE
  5
19C
  8
text
 62
256
370
-1
 48
1.0
  6
ByLayer
100
AcDbEntity
100
AcDbPolyline
 90
2
 70
0
 10
38.3100179999999995
 20
14.409027
 30
0.0
 10
38.3100179999999995
 20
15.8938970000000008
 30
0.0
  0
LWPOLYLINE
  5
19D
  8
text
 62
256
370
-1
 48
1.0
  6
ByLayer
100
AcDbEntity
100
AcDbPolyline
 90
2
 70
0
 10
40.8500060000000005
 20
14.409027
 30
0.0
 10
40.8500060000000005
 20
15.8938970000000008
 30
0.0
  0
LWPOLYLINE
  5
19E
  8
text
 62
256
370
-1
 48
1.0
  6
ByLayer
100
AcDbEntity
100
AcDbPolyline
 90
2
 70
0
 10
43.3900059999999996
 20
14.409027
 30
0.0
 10
43.3900059999999996
 20
15.8938970000000008
 30
0.0
  0
LWPOLYLINE
  5
19F
  8
text
 62
256
370
-1
 48
1.0
  6
ByLayer
100
AcDbEntity
100
AcDbPolyline
 90
2
 70
0
 10
48.470004000000003
 20
14.409027
 30
0.0
 10
48.470004000000003
 20
15.8938970000000008
 30
0.0
  0
LWPOLYLINE
  5
1A0
  8
text
 62
256
370
-1
 48
1.0
  6
ByLayer
100
AcDbEntity
100
AcDbPolyline
 90
2
 70
0
 10
53.5500040000000013
 20
14.409027
 30
0.0
 10
53.5500040000000013
 20
15.8938970000000008
 30
0.0
  0
LWPOLYLINE
  5
1A1
  8
text
 62
256
370
-1
 48
1.0
  6
ByLayer
100
AcDbEntity
100
AcDbPolyline
 90
2
 70
0
 10
56.0900120000000015
 20
14.409027
 30
0.0
 10
56.0900120000000015
 20
15.8938970000000008
 30
0.0
  0
LWPOLYLINE
  5
1A2
  8
text
 62
256
370
-1
 48
1.0
  6
ByLayer
100
AcDbEntity
100
AcDbPolyline
 90
2
 70
0
 10
17.9900090000000006
 20
10.1805109999999992
 30
0.0
 10
17.9900090000000006
 20
8.6956419999999994
 30
0.0
  0
LWPOLYLINE
  5
1A3
  8
text
 62
256
370
-1
 48
1.0
  6
ByLayer
100
AcDbEntity
100
AcDbPolyline
 90
2
 70
0
 10
12.910012
 20
10.1805109999999992
 30
0.0
 10
12.910012
 20
8.6956419999999994
 30
0.0
  0
LWPOLYLINE
  5
1A4
  8
text
 62
256
370
-1
 48
1.0
  6
ByLayer
100
AcDbEntity
100
AcDbPolyline
 90
2
 70
0
 10
15.4500089999999997
 20
10.1805109999999992
 30
0.0
 10
15.4500089999999997
 20
8.6956419999999994
 30
0.0
  0
LWPOLYLINE
  5
1A5
  8
text
 62
256
370
-1
 48
1.0
  6
ByLayer
100
AcDbEntity
100
AcDbPolyline
 90
2
 70
0
 10
23.0700089999999989
 20
10.1805109999999992
 30
0.0
 10
23.0700089999999989
 20
8.6956419999999994
 30
0.0
  0
LWPOLYLINE
  5
1A6
  8
text
 62
256
370
-1
 48
1.0
  6
ByLayer
100
AcDbEntity
100
AcDbPolyline
 90
2
 70
0
 10
25.6100120000000011
 20
10.1805109999999992
 30
0.0
 10
25.6100120000000011
 20
8.6956419999999994
 30
0.0
  0
LWPOLYLINE
  5
1A7
  8
text
 62
256
370
-1
 48
1.0
  6
ByLayer
100
AcDbEntity
100
AcDbPolyline
 90
2
 70
0
 10
28.1500179999999993
 20
10.1805109999999992
 30
0.0
 10
28.1500179999999993
 20
8.6956419999999994
 30
0.0
  0
LWPOLYLINE
  5
1A8
  8
text
 62
256
370
-1
 48
1.0
  6
ByLayer
100
AcDbEntity
100
AcDbPolyline
 90
2
 70
0
 10
33.2300150000000016
 20
10.1805109999999992
 30
0.0
 10
33.2300150000000016
 20
8.6956419999999994
 30
0.0
  0
LWPOLYLINE
  5
1A9
  8
text
 62
256
370
-1
 48
1.0
  6
ByLayer
100
AcDbEntity
100
AcDbPolyline
 90
2
 70
0
 10
35.7700090000000017
 20
10.1805109999999992
 30
0.0
 10
35.7700090000000017
 20
8.6956419999999994
 30
0.0
  0
LWPOLYLINE
  5
1AA
  8
text
 62
256
370
-1
 48
1.0
  6
ByLayer
100
AcDbEntity
100
AcDbPolyline
 90
2
 70
0
 10
38.3100179999999995
 20
10.1805109999999992
 30
0.0
 10
38.3100179999999995
 20
8.6956419999999994
 30
0.0
  0
LWPOLYLINE
  5
1AB
  8
text
 62
256
370
-1
 48
1.0
  6
ByLayer
100
AcDbEntity
100
AcDbPolyline
 90
2
 70
0
 10
43.3900059999999996
 20
10.1805109999999992
 30
0.0
 10
43.3900059999999996
 20
8.6956419999999994
 30
0.0
  0
LWPOLYLINE
  5
1AC
  8
text
 62
256
370
-1
 48
1.0
  6
ByLayer
100
AcDbEntity
100
AcDbPolyline
 90
2
 70
0
 10
45.9300089999999983
 20
10.1805109999999992
 30
0.0
 10
45.9300089999999983
 20
8.6956419999999994
 30
0.0
  0
LWPOLYLINE
  5
1AD
  8
text
 62
256
370
-1
 48
1.0
  6
ByLayer
100
AcDbEntity
100
AcDbPolyline
 90
2
 70
0
 10
48.470004000000003
 20
10.1805109999999992
 30
0.0
 10
48.470004000000003
 20
8.6956419999999994
 30
0.0
  0
LWPOLYLINE
  5
1AE
  8
text
 62
256
370
-1
 48
1.0
  6
ByLayer
100
AcDbEntity
100
AcDbPolyline
 90
2
 70
0
 10
51.0100210000000018
 20
10.1805109999999992
 30
0.0
 10
51.0100210000000018
 20
8.6956419999999994
 30
0.0
  0
LWPOLYLINE
  5
1AF
  8
text
 62
256
370
-1
 48
1.0
  6
ByLayer
100
AcDbEntity
100
AcDbPolyline
 90
2
 70
0
 10
53.5500040000000013
 20
10.1805109999999992
 30
0.0
 10
53.5500040000000013
 20
8.6956419999999994
 30
0.0
  0
LWPOLYLINE
  5
1B0
  8
text
 62
256
370
-1
 48
1.0
  6
ByLayer
100
AcDbEntity
100
AcDbPolyline
 90
2
 70
0
 10
56.0900120000000015
 20
10.1805109999999992
 30
0.0
 10
56.0900120000000015
 20
8.6956419999999994
 30
0.0
  0
LWPOLYLINE
  5
1B1
  8
text
 62
256
370
-1
 48
1.0
  6
ByLayer
100
AcDbEntity
100
AcDbPolyline
 90
2
 70
0
 10
10.3700039999999998
 20
10.1782869999999992
 30
0.0
 10
10.3700039999999998
 20
8.6934179999999994
 30
0.0
  0
LWPOLYLINE
  5
1B2
  8
text
 62
256
370
-1
 48
1.0
  6
ByLayer
100
AcDbEntity
100
AcDbPolyline
 90
2
 70
0
 10
20.5300149999999988
 20
10.1805109999999992
 30
0.0
 10
20.5300149999999988
 20
8.6956419999999994
 30
0.0
  0
LWPOLYLINE
  5
1B3
  8
text
 62
256
370
-1
 48
1.0
  6
ByLayer
100
AcDbEntity
100
AcDbPolyline
 90
2
 70
0
 10
30.6900119999999994
 20
10.1805109999999992
 30
0.0
 10
30.6900119999999994
 20
8.6956419999999994
 30
0.0
  0
LWPOLYLINE
  5
1B4
  8
text
 62
256
370
-1
 48
1.0
  6
ByLayer
100
AcDbEntity
100
AcDbPolyline
 90
2
 70
0
 10
40.8500060000000005
 20
10.1805109999999992
 30
0.0
 10
40.8500060000000005
 20
8.6956419999999994
 30
0.0
  0
LWPOLYLINE
  5
1B5
  8
text
 62
256
370
-1
 48
1.0
  6
ByLayer
100
AcDbEntity
100
AcDbPolyline
 90
2
 70
0
 10
58.6300039999999996
 20
10.1805109999999992
 30
0.0
 10
58.6300039999999996
 20
8.6956419999999994
 30
0.0
  0
LWPOLYLINE
  5
1B6
  8
text
 62
256
370
-1
 48
1.0
  6
ByLayer
100
AcDbEntity
100
AcDbPolyline
 90
2
 70
0
 10
51.0100210000000018
 20
14.409027
 30
0.0
 10
51.0100210000000018
 20
15.8938970000000008
 30
0.0
  0
LWPOLYLINE
  5
1B7
  8
text
 62
256
370
-1
 48
1.0
  6
ByLayer
100
AcDbEntity
100
AcDbPolyline
 90
2
 70
0
 10
45.9300089999999983
 20
14.409027
 30
0.0
 10
45.9300089999999983
 20
15.8938970000000008
 30
0.0
  0
LWPOLYLINE
  5
1B8
  8
text
 62
256
370
-1
 48
1.0
  6
ByLayer
100
AcDbEntity
100
AcDbPolyline
 90
2
 70
0
 10
33.2300150000000016
 20
14.409027
 30
0.0
 10
33.2300150000000016
 20
15.8938970000000008
 30
0.0
  0
LWPOLYLINE
  5
1B9
  8
text
 62
256
370
-1
 48
1.0
  6
ByLayer
100
AcDbEntity
100
AcDbPolyline
 90
2
 70
0
 10
25.6100120000000011
 20
14.409027
 30
0.0
 10
25.6100120000000011
 20
15.8938970000000008
 30
0.0
  0
LWPOLYLINE
  5
1BA
  8
text
 62
256
370
-1
 48
1.0
  6
ByLayer
100
AcDbEntity
100
AcDbPolyline
 90
2
 70
0
 10
15.4500089999999997
 20
14.409027
 30
0.0
 10
15.4500089999999997
 20
15.8938970000000008
 30
0.0
  0
LWPOLYLINE
  5
1BB
  8
text
 62
256
370
-1
 48
1.0
  6
ByLayer
100
AcDbEntity
100
AcDbPolyline
 90
2
 70
0
 10
12.910012
 20
14.409027
 30
0.0
 10
12.910012
 20
15.8938970000000008
 30
0.0
  0
LWPOLYLINE
  5
1BC
  8
text
 62
256
370
-1
 48
1.0
  6
ByLayer
100
AcDbEntity
100
AcDbPolyline
 90
2
 70
0
 10
10.3700039999999998
 20
14.409027
 30
0.0
 10
10.3700039999999998
 20
15.8938970000000008
 30
0.0
  0
ARC
  5
1BD
100
AcDbEntity
  8
jig
 62
256
370
-1
 48
1.0
  6
ByLayer
100
AcDbCircle
 10
66.0
 20
27.0
 30
0.0
 40
3.0
100
AcDbArc
 50
0.0
 51
90.0
  0
ARC
  5
1BE
100
AcDbEntity
  8
jig
 62
256
370
-1
 48
1.0
  6
ByLayer
100
AcDbCircle
 10
66.0
 20
3.0
 30
0.0
 40
3.0
100
AcDbArc
 50
270.0
 51
0.0
  0
LINE
  5
1BF
100
AcDbEntity
100
AcDbLine
  8
jig
 62
256
370
-1
 48
1.0
  6
ByLayer
 10
69.0
 20
27.0
 30
0.0
 11
69.0
 21
3.0
 31
0.0
  0
LINE
  5
1C0
100
AcDbEntity
100
AcDbLine
  8
jig
 62
256
370
-1
 48
1.0
  6
ByLayer
 10
64.2999999999999972
 20
30.0
 30
0.0
 11
66.0
 21
30.0
 31
0.0
  0
LINE
  5
1C1
100
AcDbEntity
100
AcDbLine
  8
jig
 62
256
370
-1
 48
1.0
  6
ByLayer
 10
64.2999999999999972
 20
-0.0000000000000001
 30
0.0
 11
66.0
 21
-0.0000000000000001
 31
0.0
  0
LINE
  5
1C2
100
AcDbEntity
100
AcDbLine
  8
usb
 62
256
370
-1
 48
1.0
  6
ByLayer
 10
59.0
 20
6.0
 30
0.0
 11
60.25
 21
6.0
 31
0.0
  0
HATCH
  5
1C3
  8
usb
 62
256
370
-1
 48
1.0
  6
ByLayer
100
AcDbEntity
100
AcDbHatch
 10
0.0
 20
0.0
 30
0.0
210
0.0
220
0.0
230
1.0
  2
ANSI37
 70
0
 71
0
 91
2
 92
1
 93
4
 72
1
 10
47.6499999999999986
 20
-0.5
 11
47.6499999999999986
 21
6.0
 72
1
 10
47.6499999999999986
 20
6.0
 11
39.1499999999999986
 21
6.0
 72
1
 10
39.1499999999999986
 20
6.0
 11
39.1499999999999986
 21
-0.5
 72
1
 10
39.1499999999999986
 20
-0.5
 11
47.6499999999999986
 21
-0.5
 97
0
 92
1
 93
8
 72
1
 10
51.75
 20
-0.5
 11
60.25
 21
-0.5
 72
1
 10
60.25
 20
-0.5
 11
60.25
 21
6.0
 72
1
 10
60.25
 20
6.0
 11
59.0
 21
6.0
 72
1
 10
59.0
 20
6.0
 11
59.0
 21
8.0
 72
1
 10
59.0
 20
8.0
 11
55.2000000000000028
 21
8.0
 72
1
 10
55.2000000000000028
 20
8.0
 11
55.2000000000000028
 21
6.0
 72
1
 10
55.2000000000000028
 20
6.0
 11
51.75
 21
6.0
 72
1
 10
51.75
 20
6.0
 11
51.75
 21
-0.5
 97
0
 75
0
 76
1
 52
90.0
 41
0.4
 77
0
 78
1
 53
45.0
 43
0.0
 44
0.0
 45
-0.0883883476483184
 46
0.0883883476483185
 79
0
 98
0
1001
ACAD
1010
0.0
1020
0.0
1030
0
  0
HATCH
  5
1C4
  8
hdmi
 62
256
370
-1
 48
1.0
  6
ByLayer
100
AcDbEntity
100
AcDbHatch
 10
0.0
 20
0.0
 30
0.0
210
0.0
220
0.0
230
1.0
  2
ANSI37
 70
0
 71
0
 91
1
 92
1
 93
4
 72
1
 10
8.5
 20
7.7000000000000002
 11
20.3000000000000007
 21
7.7000000000000002
 72
1
 10
20.3000000000000007
 20
7.7000000000000002
 11
20.3000000000000007
 21
-0.5
 72
1
 10
20.3000000000000007
 20
-0.5
 11
8.5
 21
-0.5
 72
1
 10
8.5
 20
-0.5
 11
8.5
 21
7.7000000000000002
 97
0
 75
0
 76
1
 52
90.0
 41
0.4
 77
0
 78
1
 53
45.0
 43
0.0
 44
0.0
 45
-0.0883883476483184
 46
0.0883883476483185
 79
0
 98
0
1001
ACAD
1010
0.0
1020
0.0
1030
0
  0
MTEXT
  5
1C5
100
AcDbEntity
100
AcDbMText
  8
help
 62
256
370
-1
 48
1.0
  6
ByLayer
 10
72.0
 20
22.0
 30
0.0
 40
2.0
 41
0.0
 71
1
 72
1
  1
Jig for underside alignment
  7
textstyle1
 50
0.0
 73
2
 44
1.0
  0
LINE
  5
1C6
100
AcDbEntity
100
AcDbLine
  8
help
 62
256
370
-1
 48
1.0
  6
ByLayer
 10
67.0
 20
9.0
 30
0.0
 11
71.0
 21
10.0
 31
0.0
  0
LINE
  5
1C7
100
AcDbEntity
100
AcDbLine
  8
help
 62
256
370
-1
 48
1.0
  6
ByLayer
 10
71.0
 20
20.0
 30
0.0
 11
69.0
 21
19.0
 31
0.0
  0
MTEXT
  5
1C8
100
AcDbEntity
100
AcDbMText
  8
help
 62
256
370
-1
 48
1.0
  6
ByLayer
 10
57.0
 20
-4.0
 30
0.0
 40
2.0
 41
0.0
 71
1
 72
1
  1
Underside:\PEngrave to 1.1mm depth
  7
textstyle2
 50
0.0
 73
2
 44
1.0
  0
MTEXT
  5
1C9
100
AcDbEntity
100
AcDbMText
  8
help
 62
256
370
-1
 48
1.0
  6
ByLayer
 10
15.0
 20
-4.0
 30
0.0
 40
2.0
 41
0.0
 71
1
 72
1
  1
Underside:\PEngrave to 1.5mm depth
  7
textstyle3
 50
0.0
 73
2
 44
1.0
  0
LINE
  5
1CA
100
AcDbEntity
100
AcDbLine
  8
help
 62
256
370
-1
 48
1.0
  6
ByLayer
 10
14.0
 20
-4.0
 30
0.0
 11
10.0
 21
2.0
 31
0.0
  0
LINE
  5
1CB
100
AcDbEntity
100
AcDbLine
  8
help
 62
256
370
-1
 48
1.0
  6
ByLayer
 10
56.0
 20
-4.0
 30
0.0
 11
53.0
 21
2.0
 31
0.0
  0
MTEXT
  5
1CC
100
AcDbEntity
100
AcDbMText
  8
help
 62
256
370
-1
 48
1.0
  6
ByLayer
 10
30.0
 20
33.0
 30
0.0
 40
2.0
 41
0.0
 71
1
 72
1
  1
Topside:\PSurface mark only
  7
textstyle4
 50
0.0
 73
2
 44
1.0
  0
LINE
  5
1CD
100
AcDbEntity
100
AcDbLine
  8
help
 62
256
370
-1
 48
1.0
  6
ByLayer
 10
29.0
 20
28.0
 30
0.0
 11
24.3400010000000009
 21
12.3000160000000012
 31
0.0
  0
ENDSEC
  0
SECTION
  2
OBJECTS
  0
DICTIONARY
  5
C
100
AcDbDictionary
280
0
281
1
  3
ACAD_GROUP
350
D
  3
ACAD_LAYOUT
350
1A
  3
ACAD_MLINESTYLE
350
17
  3
ACAD_PLOTSETTINGS
350
19
  3
ACAD_PLOTSTYLENAME
350
E
  3
AcDbVariableDictionary
350
1CE
  3
QCAD_OBJECTS
350
1CF
  0
DICTIONARY
  5
D
100
AcDbDictionary
280
0
281
1
  0
ACDBDICTIONARYWDFLT
  5
E
100
AcDbDictionary
281
1
  3
Normal
350
F
100
AcDbDictionaryWithDefault
340
F
  0
ACDBPLACEHOLDER
  5
F
  0
DICTIONARY
  5
17
100
AcDbDictionary
280
0
281
1
  3
Standard
350
18
  0
MLINESTYLE
  5
18
100
AcDbMlineStyle
  2
STANDARD
 70
0
  3

 62
256
 51
90.0
 52
90.0
 71
2
 49
0.5
 62
256
  6
BYLAYER
 49
-0.5
 62
256
  6
BYLAYER
  0
DICTIONARY
  5
19
100
AcDbDictionary
280
0
281
1
  0
DICTIONARY
  5
1A
100
AcDbDictionary
281
1
  3
Layout1
350
1E
  3
Layout2
350
26
  3
Model
350
22
  0
LAYOUT
  5
1E
100
AcDbPlotSettings
  1

  2
none_device
  4

  6

 40
0.0
 41
0.0
 42
0.0
 43
0.0
 44
0.0
 45
0.0
 46
0.0
 47
0.0
 48
0.0
 49
0.0
140
0.0
141
0.0
142
1.0
143
1.0
 70
688
 72
0
 73
0
 74
5
  7

 75
16
147
1.0
148
0.0
149
0.0
100
AcDbLayout
  1
Layout1
 70
1
 71
1
 10
0.0
 20
0.0
 11
420.0
 21
297.0
 12
0.0
 22
0.0
 32
0.0
 14
100000000000000000000.0
 24
100000000000000000000.0
 34
100000000000000000000.0
 15
-100000000000000000000.0
 25
-100000000000000000000.0
 35
-100000000000000000000.0
146
0.0
 13
0.0
 23
0.0
 33
0.0
 16
1.0
 26
0.0
 36
0.0
 17
0.0
 27
1.0
 37
0.0
 76
0
330
1B
  0
LAYOUT
  5
22
100
AcDbPlotSettings
  1

  2
none_device
  4

  6

 40
0.0
 41
0.0
 42
0.0
 43
0.0
 44
0.0
 45
0.0
 46
0.0
 47
0.0
 48
0.0
 49
0.0
140
0.0
141
0.0
142
1.0
143
1.0
 70
1712
 72
0
 73
0
 74
0
  7

 75
0
147
1.0
148
0.0
149
0.0
100
AcDbLayout
  1
Model
 70
1
 71
0
 10
0.0
 20
0.0
 11
12.0
 21
9.0
 12
0.0
 22
0.0
 32
0.0
 14
0.0
 24
0.0
 34
0.0
 15
0.0
 25
0.0
 35
0.0
146
0.0
 13
0.0
 23
0.0
 33
0.0
 16
1.0
 26
0.0
 36
0.0
 17
0.0
 27
1.0
 37
0.0
 76
0
330
1F
  0
LAYOUT
  5
26
100
AcDbPlotSettings
  1

  2
none_device
  4

  6

 40
0.0
 41
0.0
 42
0.0
 43
0.0
 44
0.0
 45
0.0
 46
0.0
 47
0.0
 48
0.0
 49
0.0
140
0.0
141
0.0
142
1.0
143
1.0
 70
688
 72
0
 73
0
 74
5
  7

 75
16
147
1.0
148
0.0
149
0.0
100
AcDbLayout
  1
Layout2
 70
1
 71
2
 10
0.0
 20
0.0
 11
12.0
 21
9.0
 12
0.0
 22
0.0
 32
0.0
 14
0.0
 24
0.0
 34
0.0
 15
0.0
 25
0.0
 35
0.0
146
0.0
 13
0.0
 23
0.0
 33
0.0
 16
1.0
 26
0.0
 36
0.0
 17
0.0
 27
1.0
 37
0.0
 76
0
330
23
  0
DICTIONARY
  5
1CE
100
AcDbDictionary
281
1
  3
DIMASSOC
350
1D1
  3
HIDETEXT
350
1D0
  0
DICTIONARYVAR
  5
1D0
100
DictionaryVariables
280
0
  1
2
  0
DICTIONARYVAR
  5
1D1
100
DictionaryVariables
280
0
  1
1
  0
DICTIONARY
  5
1CF
100
AcDbDictionary
281
1
  3
ColorSettings/BackgroundColor
350
1D2
  3
ColorSettings/ColorMode
350
1D3
  3
Grid/DisplayGrid00
350
1D4
  3
Grid/DisplayGrid01
350
1D5
  3
Grid/DisplayGrid02
350
1D6
  3
Grid/DisplayGrid03
350
1D7
  3
Grid/GridSpacingX00
350
1D8
  3
Grid/GridSpacingX01
350
1D9
  3
Grid/GridSpacingX02
350
1DA
  3
Grid/GridSpacingX03
350
1DB
  3
Grid/GridSpacingY00
350
1DC
  3
Grid/GridSpacingY01
350
1DD
  3
Grid/GridSpacingY02
350
1DE
  3
Grid/GridSpacingY03
350
1DF
  3
Grid/IsometricGrid00
350
1E0
  3
Grid/IsometricGrid01
350
1E1
  3
Grid/IsometricGrid02
350
1E2
  3
Grid/IsometricGrid03
350
1E3
  3
Grid/IsometricProjection00
350
1E4
  3
Grid/IsometricProjection01
350
1E5
  3
Grid/IsometricProjection02
350
1E6
  3
Grid/IsometricProjection03
350
1E7
  3
Grid/MetaGridSpacingX00
350
1E8
  3
Grid/MetaGridSpacingX01
350
1E9
  3
Grid/MetaGridSpacingX02
350
1EA
  3
Grid/MetaGridSpacingX03
350
1EB
  3
Grid/MetaGridSpacingY00
350
1EC
  3
Grid/MetaGridSpacingY01
350
1ED
  3
Grid/MetaGridSpacingY02
350
1EE
  3
Grid/MetaGridSpacingY03
350
1EF
  3
MultiPageSettings/Columns
350
1F0
  3
MultiPageSettings/GlueMarginsBottom
350
1F1
  3
MultiPageSettings/GlueMarginsLeft
350
1F2
  3
MultiPageSettings/GlueMarginsRight
350
1F3
  3
MultiPageSettings/GlueMarginsTop
350
1F4
  3
MultiPageSettings/PrintCropMarks
350
1F5
  3
MultiPageSettings/Rows
350
1F6
  3
PageSettings/OffsetX
350
1F7
  3
PageSettings/OffsetY
350
1F8
  3
PageSettings/PageOrientation
350
1F9
  3
PageSettings/PaperHeight
350
1FA
  3
PageSettings/PaperWidth
350
1FB
  3
PageSettings/Scale
350
1FC
  3
PageSettings/ShowPaperBorders
350
1FD
  3
QCADVersion
350
1FE
  3
UnitSettings/PaperUnit
350
1FF
  0
XRECORD
  5
1D2
330
1CF
100
AcDbXrecord
280
1
1000
White
  0
XRECORD
  5
1D3
330
1CF
100
AcDbXrecord
280
1
1000
FullColor
  0
XRECORD
  5
1D4
330
1CF
100
AcDbXrecord
280
1
290
1
  0
XRECORD
  5
1D5
330
1CF
100
AcDbXrecord
280
1
290
1
  0
XRECORD
  5
1D6
330
1CF
100
AcDbXrecord
280
1
290
1
  0
XRECORD
  5
1D7
330
1CF
100
AcDbXrecord
280
1
290
1
  0
XRECORD
  5
1D8
330
1CF
100
AcDbXrecord
280
1
1000
auto
  0
XRECORD
  5
1D9
330
1CF
100
AcDbXrecord
280
1
1000
auto
  0
XRECORD
  5
1DA
330
1CF
100
AcDbXrecord
280
1
1000
auto
  0
XRECORD
  5
1DB
330
1CF
100
AcDbXrecord
280
1
1000
auto
  0
XRECORD
  5
1DC
330
1CF
100
AcDbXrecord
280
1
1000
auto
  0
XRECORD
  5
1DD
330
1CF
100
AcDbXrecord
280
1
1000
auto
  0
XRECORD
  5
1DE
330
1CF
100
AcDbXrecord
280
1
1000
auto
  0
XRECORD
  5
1DF
330
1CF
100
AcDbXrecord
280
1
1000
auto
  0
XRECORD
  5
1E0
330
1CF
100
AcDbXrecord
280
1
290
0
  0
XRECORD
  5
1E1
330
1CF
100
AcDbXrecord
280
1
290
0
  0
XRECORD
  5
1E2
330
1CF
100
AcDbXrecord
280
1
290
0
  0
XRECORD
  5
1E3
330
1CF
100
AcDbXrecord
280
1
290
0
  0
XRECORD
  5
1E4
330
1CF
100
AcDbXrecord
280
1
 90
0
  0
XRECORD
  5
1E5
330
1CF
100
AcDbXrecord
280
1
 90
0
  0
XRECORD
  5
1E6
330
1CF
100
AcDbXrecord
280
1
 90
0
  0
XRECORD
  5
1E7
330
1CF
100
AcDbXrecord
280
1
 90
0
  0
XRECORD
  5
1E8
330
1CF
100
AcDbXrecord
280
1
1000
auto
  0
XRECORD
  5
1E9
330
1CF
100
AcDbXrecord
280
1
1000
auto
  0
XRECORD
  5
1EA
330
1CF
100
AcDbXrecord
280
1
1000
auto
  0
XRECORD
  5
1EB
330
1CF
100
AcDbXrecord
280
1
1000
auto
  0
XRECORD
  5
1EC
330
1CF
100
AcDbXrecord
280
1
1000
auto
  0
XRECORD
  5
1ED
330
1CF
100
AcDbXrecord
280
1
1000
auto
  0
XRECORD
  5
1EE
330
1CF
100
AcDbXrecord
280
1
1000
auto
  0
XRECORD
  5
1EF
330
1CF
100
AcDbXrecord
280
1
1000
auto
  0
XRECORD
  5
1F0
330
1CF
100
AcDbXrecord
280
1
 90
1
  0
XRECORD
  5
1F1
330
1CF
100
AcDbXrecord
280
1
 40
10.0
  0
XRECORD
  5
1F2
330
1CF
100
AcDbXrecord
280
1
 40
10.0
  0
XRECORD
  5
1F3
330
1CF
100
AcDbXrecord
280
1
 40
10.0
  0
XRECORD
  5
1F4
330
1CF
100
AcDbXrecord
280
1
 40
10.0
  0
XRECORD
  5
1F5
330
1CF
100
AcDbXrecord
280
1
290
0
  0
XRECORD
  5
1F6
330
1CF
100
AcDbXrecord
280
1
 90
1
  0
XRECORD
  5
1F7
330
1CF
100
AcDbXrecord
280
1
 40
0.0
  0
XRECORD
  5
1F8
330
1CF
100
AcDbXrecord
280
1
 40
0.0
  0
XRECORD
  5
1F9
330
1CF
100
AcDbXrecord
280
1
1000
Portrait
  0
XRECORD
  5
1FA
330
1CF
100
AcDbXrecord
280
1
 40
297.0
  0
XRECORD
  5
1FB
330
1CF
100
AcDbXrecord
280
1
 40
210.0
  0
XRECORD
  5
1FC
330
1CF
100
AcDbXrecord
280
1
1000
1:1
  0
XRECORD
  5
1FD
330
1CF
100
AcDbXrecord
280
1
290
1
  0
XRECORD
  5
1FE
330
1CF
100
AcDbXrecord
280
1
1000
3.12.1
  0
XRECORD
  5
1FF
330
1CF
100
AcDbXrecord
280
1
 90
4
  0
ENDSEC
  0
EOF
