  0
SECTION
  2
HEADER
  9
$ACADVER
  1
AC1014
  9
$HANDSEED
  5
FFFF
  9
$MEASUREMENT
 70
     1
  0
ENDSEC
  0
SECTION
  2
TABLES
  0
TABLE
  2
VPORT
  5
8
330
0
100
AcDbSymbolTable
 70
     4
  0
VPORT
  5
2E
330
8
100
AcDbSymbolTableRecord
100
AcDbViewportTableRecord
  2
*ACTIVE
 70
     0
 10
0.0
 20
0.0
 11
1.0
 21
1.0
 12
210.0
 22
148.5
 13
0.0
 23
0.0
 14
10.0
 24
10.0
 15
10.0
 25
10.0
 16
0.0
 26
0.0
 36
1.0
 17
0.0
 27
0.0
 37
0.0
 40
341.0
 41
1.24
 42
50.0
 43
0.0
 44
0.0
 50
0.0
 51
0.0
 71
     0
 72
   100
 73
     1
 74
     3
 75
     0
 76
     0
 77
     0
 78
     0
  0
ENDTAB
  0
TABLE
  2
LTYPE
  5
5
330
0
100
AcDbSymbolTable
 70
     1
  0
LTYPE
  5
14
330
5
100
AcDbSymbolTableRecord
100
AcDbLinetypeTableRecord
  2
BYBLOCK
 70
     0
  3

 72
    65
 73
     0
 40
0.0
  0
LTYPE
  5
15
330
5
100
AcDbSymbolTableRecord
100
AcDbLinetypeTableRecord
  2
BYLAYER
 70
     0
  3

 72
    65
 73
     0
 40
0.0
  0
LTYPE
  5
16
330
5
100
AcDbSymbolTableRecord
100
AcDbLinetypeTableRecord
  2
CONTINUOUS
 70
     0
  3
Solid line
 72
    65
 73
     0
 40
0.0
  0
ENDTAB
  0
TABLE
  2
LAYER
  5
2
100
AcDbSymbolTable
 70
4
  0
LAYER
  5
50
100
AcDbSymbolTableRecord
100
AcDbLayerTableRecord
  2
0
 70
0
  6
CONTINUOUS
  0
LAYER
  5
51
100
AcDbSymbolTableRecord
100
AcDbLayerTableRecord
  2
Side_A-1
 70
0
  6
CONTINUOUS
  0
LAYER
  5
52
100
AcDbSymbolTableRecord
100
AcDbLayerTableRecord
  2
Side_A-2
 70
0
  6
CONTINUOUS
  0
LAYER
  5
53
100
AcDbSymbolTableRecord
100
AcDbLayerTableRecord
  2
Side_A-3
 70
0
  6
CONTINUOUS
  0
ENDTAB
  0
TABLE
  2
STYLE
  5
3
330
0
100
AcDbSymbolTable
 70
     1
  0
STYLE
  5
11
330
3
100
AcDbSymbolTableRecord
100
AcDbTextStyleTableRecord
  2
STANDARD
 70
     0
 40
0.0
 41
1.0
 50
0.0
 71
     0
 42
2.5
  3
txt
  4

  0
ENDTAB
  0
TABLE
  2
VIEW
  5
6
330
0
100
AcDbSymbolTable
 70
     0
  0
ENDTAB
  0
TABLE
  2
UCS
  5
7
330
0
100
AcDbSymbolTable
 70
     0
  0
ENDTAB
  0
TABLE
  2
APPID
  5
9
330
0
100
AcDbSymbolTable
 70
     2
  0
APPID
  5
12
330
9
100
AcDbSymbolTableRecord
100
AcDbRegAppTableRecord
  2
ACAD
 70
     0
  0
ENDTAB
  0
TABLE
  2
DIMSTYLE
  5
A
330
0
100
AcDbSymbolTable
 70
     1
  0
DIMSTYLE
105
27
330
A
100
AcDbSymbolTableRecord
100
AcDbDimStyleTableRecord
  2
ISO-25
 70
     0
  3

  4

  5

  6

  7

 40
1.0
 41
2.5
 42
0.625
 43
3.75
 44
1.25
 45
0.0
 46
0.0
 47
0.0
 48
0.0
140
2.5
141
2.5
142
0.0
143
0.03937007874016
144
1.0
145
0.0
146
1.0
147
0.625
 71
     0
 72
     0
 73
     0
 74
     0
 75
     0
 76
     0
 77
     1
 78
     8
170
     0
171
     3
172
     1
173
     0
174
     0
175
     0
176
     0
177
     0
178
     0
270
     2
271
     2
272
     2
273
     2
274
     3
340
11
275
     0
280
     0
281
     0
282
     0
283
     0
284
     8
285
     0
286
     0
287
     3
288
     0
  0
ENDTAB
  0
TABLE
  2
BLOCK_RECORD
  5
1
330
0
100
AcDbSymbolTable
 70
     1
  0
BLOCK_RECORD
  5
1F
330
1
100
AcDbSymbolTableRecord
100
AcDbBlockTableRecord
  2
*MODEL_SPACE
  0
BLOCK_RECORD
  5
1B
330
1
100
AcDbSymbolTableRecord
100
AcDbBlockTableRecord
  2
*PAPER_SPACE
  0
ENDTAB
  0
ENDSEC
  0
SECTION
  2
BLOCKS
  0
BLOCK
  5
20
330
1F
100
AcDbEntity
  8
0
100
AcDbBlockBegin
  2
*MODEL_SPACE
 70
     0
 10
0.0
 20
0.0
 30
0.0
  3
*MODEL_SPACE
  1

  0
ENDBLK
  5
21
330
1F
100
AcDbEntity
  8
0
100
AcDbBlockEnd
  0
BLOCK
  5
1C
330
1B
100
AcDbEntity
 67
     1
  8
0
100
AcDbBlockBegin
  2
*PAPER_SPACE
  1

  0
ENDBLK
  5
1D
330
1B
100
AcDbEntity
 67
     1
  8
0
100
AcDbBlockEnd
  0
ENDSEC
  0
SECTION
  2
ENTITIES
  0
SPLINE
  5
100
100
AcDbEntity
  8
Side_A-1
 62
7
100
AcDbSpline
 70
8
 71
3
 72
8
 73
4
 74
0
 40
0
 40
0
 40
0
 40
0
 40
1
 40
1
 40
1
 40
1
 10
133.210129
 20
457.898663
 30
0.0
 10
79.118603
 20
340.966167
 30
0.0
 10
52.526258
 20
214.955229
 30
0.0
 10
53.433096
 20
89.096507
 30
0.0
  0
SPLINE
  5
101
100
AcDbEntity
  8
Side_A-1
 62
7
100
AcDbSpline
 70
8
 71
3
 72
8
 73
4
 74
0
 40
0
 40
0
 40
0
 40
0
 40
1
 40
1
 40
1
 40
1
 10
133.210130
 20
457.898662
 30
0.0
 10
134.073053
 20
459.764094
 30
0.0
 10
133.979718
 20
461.931822
 30
0.0
 10
132.959644
 20
463.716176
 30
0.0
  0
SPLINE
  5
102
100
AcDbEntity
  8
Side_A-1
 62
7
100
AcDbSpline
 70
8
 71
3
 72
8
 73
4
 74
0
 40
0
 40
0
 40
0
 40
0
 40
1
 40
1
 40
1
 40
1
 10
178.456822
 20
466.552992
 30
0.0
 10
183.852220
 20
479.501944
 30
0.0
 10
177.728851
 20
494.372977
 30
0.0
 10
164.779899
 20
499.768375
 30
0.0
  0
SPLINE
  5
103
100
AcDbEntity
  8
Side_A-1
 62
7
100
AcDbSpline
 70
8
 71
3
 72
8
 73
4
 74
0
 40
0
 40
0
 40
0
 40
0
 40
1
 40
1
 40
1
 40
1
 10
164.779899
 20
499.768375
 30
0.0
 10
151.830944
 20
505.163772
 30
0.0
 10
136.959911
 20
499.040407
 30
0.0
 10
131.564513
 20
486.091452
 30
0.0
  0
SPLINE
  5
104
100
AcDbEntity
  8
Side_A-1
 62
7
100
AcDbSpline
 70
8
 71
3
 72
8
 73
4
 74
0
 40
0
 40
0
 40
0
 40
0
 40
1
 40
1
 40
1
 40
1
 10
131.564513
 20
486.091452
 30
0.0
 10
128.534823
 20
478.820197
 30
0.0
 10
129.050185
 20
470.554766
 30
0.0
 10
132.959644
 20
463.716176
 30
0.0
  0
SPLINE
  5
105
100
AcDbEntity
  8
Side_A-1
 62
7
100
AcDbSpline
 70
8
 71
3
 72
8
 73
4
 74
0
 40
0
 40
0
 40
0
 40
0
 40
1
 40
1
 40
1
 40
1
 10
178.456822
 20
466.552992
 30
0.0
 10
160.538138
 20
423.548150
 30
0.0
 10
145.756619
 20
379.302387
 30
0.0
 10
134.228190
 20
334.162703
 30
0.0
  0
SPLINE
  5
106
100
AcDbEntity
  8
Side_A-1
 62
7
100
AcDbSpline
 70
8
 71
3
 72
8
 73
4
 74
0
 40
0
 40
0
 40
0
 40
0
 40
1
 40
1
 40
1
 40
1
 10
134.175397
 20
333.934092
 30
0.0
 10
134.191237
 20
334.010691
 30
0.0
 10
134.208840
 20
334.086916
 30
0.0
 10
134.228190
 20
334.162703
 30
0.0
  0
SPLINE
  5
107
100
AcDbEntity
  8
Side_A-1
 62
7
100
AcDbSpline
 70
8
 71
3
 72
8
 73
4
 74
0
 40
0
 40
0
 40
0
 40
0
 40
1
 40
1
 40
1
 40
1
 10
116.182894
 20
246.873695
 30
0.0
 10
116.195171
 20
246.950946
 30
0.0
 10
116.209247
 20
247.027901
 30
0.0
 10
116.225076
 20
247.104499
 30
0.0
  0
SPLINE
  5
108
100
AcDbEntity
  8
Side_A-1
 62
7
100
AcDbSpline
 70
8
 71
3
 72
8
 73
4
 74
0
 40
0
 40
0
 40
0
 40
0
 40
1
 40
1
 40
1
 40
1
 10
116.182892
 20
246.873687
 30
0.0
 10
107.874558
 20
194.615981
 30
0.0
 10
103.890508
 20
141.845845
 30
0.0
 10
104.230744
 20
89.096705
 30
0.0
  0
SPLINE
  5
109
100
AcDbEntity
  8
Side_A-1
 62
7
100
AcDbSpline
 70
8
 71
3
 72
8
 73
4
 74
0
 40
0
 40
0
 40
0
 40
0
 40
1
 40
1
 40
1
 40
1
 10
205.395738
 20
459.318003
 30
0.0
 10
151.100825
 20
341.945842
 30
0.0
 10
124.512280
 20
215.426851
 30
0.0
 10
125.630100
 20
89.096141
 30
0.0
  0
SPLINE
  5
10a
100
AcDbEntity
  8
Side_A-1
 62
7
100
AcDbSpline
 70
8
 71
3
 72
8
 73
4
 74
0
 40
0
 40
0
 40
0
 40
0
 40
1
 40
1
 40
1
 40
1
 10
206.361008
 20
335.353430
 30
0.0
 10
206.376848
 20
335.430033
 30
0.0
 10
206.394451
 20
335.506257
 30
0.0
 10
206.413801
 20
335.582044
 30
0.0
  0
SPLINE
  5
10b
100
AcDbEntity
  8
Side_A-1
 62
7
100
AcDbSpline
 70
8
 71
3
 72
8
 73
4
 74
0
 40
0
 40
0
 40
0
 40
0
 40
1
 40
1
 40
1
 40
1
 10
188.368502
 20
248.293036
 30
0.0
 10
188.380779
 20
248.370284
 30
0.0
 10
188.394854
 20
248.447239
 30
0.0
 10
188.410683
 20
248.523841
 30
0.0
  0
SPLINE
  5
10c
100
AcDbEntity
  8
Side_A-1
 62
7
100
AcDbSpline
 70
8
 71
3
 72
8
 73
4
 74
0
 40
0
 40
0
 40
0
 40
0
 40
1
 40
1
 40
1
 40
1
 10
250.642430
 20
467.972330
 30
0.0
 10
256.037827
 20
480.921285
 30
0.0
 10
249.914462
 20
495.792319
 30
0.0
 10
236.965510
 20
501.187716
 30
0.0
  0
SPLINE
  5
10d
100
AcDbEntity
  8
Side_A-1
 62
7
100
AcDbSpline
 70
8
 71
3
 72
8
 73
4
 74
0
 40
0
 40
0
 40
0
 40
0
 40
1
 40
1
 40
1
 40
1
 10
236.965510
 20
501.187716
 30
0.0
 10
224.016555
 20
506.583114
 30
0.0
 10
209.145522
 20
500.459745
 30
0.0
 10
203.750124
 20
487.510793
 30
0.0
  0
SPLINE
  5
10e
100
AcDbEntity
  8
Side_A-1
 62
7
100
AcDbSpline
 70
8
 71
3
 72
8
 73
4
 74
0
 40
0
 40
0
 40
0
 40
0
 40
1
 40
1
 40
1
 40
1
 10
203.750124
 20
487.510793
 30
0.0
 10
200.720434
 20
480.239535
 30
0.0
 10
201.235796
 20
471.974107
 30
0.0
 10
205.145255
 20
465.135517
 30
0.0
  0
SPLINE
  5
10f
100
AcDbEntity
  8
Side_A-1
 62
7
100
AcDbSpline
 70
8
 71
3
 72
8
 73
4
 74
0
 40
0
 40
0
 40
0
 40
0
 40
1
 40
1
 40
1
 40
1
 10
250.642430
 20
467.972330
 30
0.0
 10
232.723746
 20
424.967491
 30
0.0
 10
217.942230
 20
380.721725
 30
0.0
 10
206.413801
 20
335.582044
 30
0.0
  0
LWPOLYLINE
  5
110
100
AcDbEntity
  8
Side_A-1
 62
7
100
AcDbPolyline
 90
2
 70
0
 10
134.175397
 20
333.934092
 30
0.0
 10
116.225076
 20
247.104499
 30
0.0
  0
SPLINE
  5
111
100
AcDbEntity
  8
Side_A-1
 62
7
100
AcDbSpline
 70
8
 71
3
 72
8
 73
4
 74
0
 40
0
 40
0
 40
0
 40
0
 40
1
 40
1
 40
1
 40
1
 10
188.368501
 20
248.293039
 30
0.0
 10
179.985632
 20
195.566506
 30
0.0
 10
176.004983
 20
142.318313
 30
0.0
 10
176.426556
 20
89.096366
 30
0.0
  0
SPLINE
  5
112
100
AcDbEntity
  8
Side_A-1
 62
7
100
AcDbSpline
 70
8
 71
3
 72
8
 73
4
 74
0
 40
0
 40
0
 40
0
 40
0
 40
1
 40
1
 40
1
 40
1
 10
205.395738
 20
459.318003
 30
0.0
 10
206.258664
 20
461.183432
 30
0.0
 10
206.165329
 20
463.351160
 30
0.0
 10
205.145255
 20
465.135517
 30
0.0
  0
LWPOLYLINE
  5
113
100
AcDbEntity
  8
Side_A-1
 62
7
100
AcDbPolyline
 90
2
 70
0
 10
206.361008
 20
335.353430
 30
0.0
 10
188.410683
 20
248.523841
 30
0.0
  0
SPLINE
  5
114
100
AcDbEntity
  8
Side_A-1
 62
7
100
AcDbSpline
 70
8
 71
3
 72
8
 73
4
 74
0
 40
0
 40
0
 40
0
 40
0
 40
1
 40
1
 40
1
 40
1
 10
292.056749
 20
336.246184
 30
0.0
 10
292.154422
 20
353.079540
 30
0.0
 10
278.587471
 20
366.804853
 30
0.0
 10
261.754115
 20
366.902527
 30
0.0
  0
SPLINE
  5
115
100
AcDbEntity
  8
Side_A-1
 62
7
100
AcDbSpline
 70
8
 71
3
 72
8
 73
4
 74
0
 40
0
 40
0
 40
0
 40
0
 40
1
 40
1
 40
1
 40
1
 10
261.754115
 20
366.902527
 30
0.0
 10
245.882445
 20
366.994620
 30
0.0
 10
232.596576
 20
354.891086
 30
0.0
 10
231.213247
 20
339.079547
 30
0.0
  0
LWPOLYLINE
  5
116
100
AcDbEntity
  8
Side_A-1
 62
7
100
AcDbPolyline
 90
2
 70
0
 10
215.052828
 20
154.365117
 30
0.0
 10
231.213247
 20
339.079547
 30
0.0
  0
LWPOLYLINE
  5
117
100
AcDbEntity
  8
Side_A-1
 62
7
100
AcDbPolyline
 90
2
 70
0
 10
290.962862
 20
147.723863
 30
0.0
 10
292.056749
 20
336.246184
 30
0.0
  0
LWPOLYLINE
  5
118
100
AcDbEntity
  8
Side_A-1
 62
7
100
AcDbPolyline
 90
2
 70
0
 10
290.962862
 20
147.723863
 30
0.0
 10
215.052828
 20
154.365117
 30
0.0
  0
SPLINE
  5
119
100
AcDbEntity
  8
Side_A-2
 62
7
100
AcDbSpline
 70
8
 71
3
 72
8
 73
4
 74
0
 40
0
 40
0
 40
0
 40
0
 40
1
 40
1
 40
1
 40
1
 10
233.458601
 20
247.608594
 30
0.0
 10
234.828423
 20
230.830783
 30
0.0
 10
249.539987
 20
218.340132
 30
0.0
 10
266.317798
 20
219.709968
 30
0.0
  0
SPLINE
  5
11a
100
AcDbEntity
  8
Side_A-2
 62
7
100
AcDbSpline
 70
8
 71
3
 72
8
 73
4
 74
0
 40
0
 40
0
 40
0
 40
0
 40
1
 40
1
 40
1
 40
1
 10
266.317798
 20
219.709968
 30
0.0
 10
282.137098
 20
221.001522
 30
0.0
 10
294.317516
 20
234.216938
 30
0.0
 10
294.317516
 20
250.088876
 30
0.0
  0
LWPOLYLINE
  5
11b
100
AcDbEntity
  8
Side_A-2
 62
7
100
AcDbPolyline
 90
2
 70
0
 10
294.317516
 20
435.508876
 30
0.0
 10
294.317516
 20
250.088876
 30
0.0
  0
LWPOLYLINE
  5
11c
100
AcDbEntity
  8
Side_A-2
 62
7
100
AcDbPolyline
 90
2
 70
0
 10
218.117516
 20
435.508876
 30
0.0
 10
233.458601
 20
247.608594
 30
0.0
  0
SPLINE
  5
11d
100
AcDbEntity
  8
Side_A-2
 62
7
100
AcDbSpline
 70
8
 71
3
 72
8
 73
4
 74
0
 40
0
 40
0
 40
0
 40
0
 40
1
 40
1
 40
1
 40
1
 10
133.210127
 20
151.845788
 30
0.0
 10
80.902372
 20
264.922214
 30
0.0
 10
54.310025
 20
386.488206
 30
0.0
 10
53.433096
 20
508.196519
 30
0.0
  0
SPLINE
  5
11e
100
AcDbEntity
  8
Side_A-2
 62
7
100
AcDbSpline
 70
8
 71
3
 72
8
 73
4
 74
0
 40
0
 40
0
 40
0
 40
0
 40
1
 40
1
 40
1
 40
1
 10
116.225074
 20
362.639948
 30
0.0
 10
116.209235
 20
362.716550
 30
0.0
 10
116.195194
 20
362.793505
 30
0.0
 10
116.182893
 20
362.870753
 30
0.0
  0
LWPOLYLINE
  5
11f
100
AcDbEntity
  8
Side_A-2
 62
7
100
AcDbPolyline
 90
2
 70
0
 10
218.117516
 20
435.508876
 30
0.0
 10
294.317516
 20
435.508876
 30
0.0
  0
SPLINE
  5
120
100
AcDbEntity
  8
Side_A-2
 62
7
100
AcDbSpline
 70
8
 71
3
 72
8
 73
4
 74
0
 40
0
 40
0
 40
0
 40
0
 40
1
 40
1
 40
1
 40
1
 10
134.228192
 20
275.581748
 30
0.0
 10
134.208825
 20
275.657535
 30
0.0
 10
134.191235
 20
275.733756
 30
0.0
 10
134.175399
 20
275.810359
 30
0.0
  0
SPLINE
  5
121
100
AcDbEntity
  8
Side_A-2
 62
7
100
AcDbSpline
 70
8
 71
3
 72
8
 73
4
 74
0
 40
0
 40
0
 40
0
 40
0
 40
1
 40
1
 40
1
 40
1
 10
134.228192
 20
275.581748
 30
0.0
 10
145.756621
 20
230.442064
 30
0.0
 10
160.538140
 20
186.196290
 30
0.0
 10
178.456824
 20
143.191445
 30
0.0
  0
SPLINE
  5
122
100
AcDbEntity
  8
Side_A-2
 62
7
100
AcDbSpline
 70
8
 71
3
 72
8
 73
4
 74
0
 40
0
 40
0
 40
0
 40
0
 40
1
 40
1
 40
1
 40
1
 10
132.959646
 20
146.028272
 30
0.0
 10
125.997520
 20
133.849819
 30
0.0
 10
130.226179
 20
118.333347
 30
0.0
 10
142.404625
 20
111.371207
 30
0.0
  0
SPLINE
  5
123
100
AcDbEntity
  8
Side_A-2
 62
7
100
AcDbSpline
 70
8
 71
3
 72
8
 73
4
 74
0
 40
0
 40
0
 40
0
 40
0
 40
1
 40
1
 40
1
 40
1
 10
142.404625
 20
111.371207
 30
0.0
 10
154.583068
 20
104.409067
 30
0.0
 10
170.099564
 20
108.637743
 30
0.0
 10
177.061694
 20
120.816197
 30
0.0
  0
SPLINE
  5
124
100
AcDbEntity
  8
Side_A-2
 62
7
100
AcDbSpline
 70
8
 71
3
 72
8
 73
4
 74
0
 40
0
 40
0
 40
0
 40
0
 40
1
 40
1
 40
1
 40
1
 10
177.061694
 20
120.816197
 30
0.0
 10
180.971152
 20
127.654759
 30
0.0
 10
181.486515
 20
135.920201
 30
0.0
 10
178.456824
 20
143.191445
 30
0.0
  0
SPLINE
  5
125
100
AcDbEntity
  8
Side_A-2
 62
7
100
AcDbSpline
 70
8
 71
3
 72
8
 73
4
 74
0
 40
0
 40
0
 40
0
 40
0
 40
1
 40
1
 40
1
 40
1
 10
132.959646
 20
146.028272
 30
0.0
 10
133.979720
 20
147.812622
 30
0.0
 10
134.073055
 20
149.980371
 30
0.0
 10
133.210128
 20
151.845789
 30
0.0
  0
SPLINE
  5
126
100
AcDbEntity
  8
Side_A-2
 62
7
100
AcDbSpline
 70
8
 71
3
 72
8
 73
4
 74
0
 40
0
 40
0
 40
0
 40
0
 40
1
 40
1
 40
1
 40
1
 10
116.182893
 20
362.870752
 30
0.0
 10
108.528261
 20
411.016816
 30
0.0
 10
104.544215
 20
459.597830
 30
0.0
 10
104.230745
 20
508.196655
 30
0.0
  0
SPLINE
  5
127
100
AcDbEntity
  8
Side_A-2
 62
7
100
AcDbSpline
 70
8
 71
3
 72
8
 73
4
 74
0
 40
0
 40
0
 40
0
 40
0
 40
1
 40
1
 40
1
 40
1
 10
205.395739
 20
153.265112
 30
0.0
 10
153.291373
 20
265.901864
 30
0.0
 10
126.702828
 20
386.962288
 30
0.0
 10
125.630104
 20
508.196133
 30
0.0
  0
SPLINE
  5
128
100
AcDbEntity
  8
Side_A-2
 62
7
100
AcDbSpline
 70
8
 71
3
 72
8
 73
4
 74
0
 40
0
 40
0
 40
0
 40
0
 40
1
 40
1
 40
1
 40
1
 10
188.410685
 20
364.059290
 30
0.0
 10
188.394846
 20
364.135888
 30
0.0
 10
188.380770
 20
364.212843
 30
0.0
 10
188.368504
 20
364.290094
 30
0.0
  0
SPLINE
  5
129
100
AcDbEntity
  8
Side_A-2
 62
7
100
AcDbSpline
 70
8
 71
3
 72
8
 73
4
 74
0
 40
0
 40
0
 40
0
 40
0
 40
1
 40
1
 40
1
 40
1
 10
206.413803
 20
277.001086
 30
0.0
 10
206.394436
 20
277.076873
 30
0.0
 10
206.376846
 20
277.153098
 30
0.0
 10
206.361010
 20
277.229696
 30
0.0
  0
SPLINE
  5
12a
100
AcDbEntity
  8
Side_A-2
 62
7
100
AcDbSpline
 70
8
 71
3
 72
8
 73
4
 74
0
 40
0
 40
0
 40
0
 40
0
 40
1
 40
1
 40
1
 40
1
 10
188.368505
 20
364.290096
 30
0.0
 10
180.788408
 20
411.967352
 30
0.0
 10
176.807760
 20
460.071131
 30
0.0
 10
176.426559
 20
508.196361
 30
0.0
  0
LWPOLYLINE
  5
12b
100
AcDbEntity
  8
Side_A-2
 62
7
100
AcDbPolyline
 90
2
 70
0
 10
134.175399
 20
275.810359
 30
0.0
 10
116.225074
 20
362.639948
 30
0.0
  0
SPLINE
  5
12c
100
AcDbEntity
  8
Side_A-2
 62
7
100
AcDbSpline
 70
8
 71
3
 72
8
 73
4
 74
0
 40
0
 40
0
 40
0
 40
0
 40
1
 40
1
 40
1
 40
1
 10
206.413803
 20
277.001086
 30
0.0
 10
217.942232
 20
231.861402
 30
0.0
 10
232.723751
 20
187.615657
 30
0.0
 10
250.642432
 20
144.610811
 30
0.0
  0
SPLINE
  5
12d
100
AcDbEntity
  8
Side_A-2
 62
7
100
AcDbSpline
 70
8
 71
3
 72
8
 73
4
 74
0
 40
0
 40
0
 40
0
 40
0
 40
1
 40
1
 40
1
 40
1
 10
205.145257
 20
147.447603
 30
0.0
 10
198.183131
 20
135.269185
 30
0.0
 10
202.411790
 20
119.752677
 30
0.0
 10
214.590233
 20
112.790537
 30
0.0
  0
SPLINE
  5
12e
100
AcDbEntity
  8
Side_A-2
 62
7
100
AcDbSpline
 70
8
 71
3
 72
8
 73
4
 74
0
 40
0
 40
0
 40
0
 40
0
 40
1
 40
1
 40
1
 40
1
 10
214.590233
 20
112.790537
 30
0.0
 10
226.768679
 20
105.828433
 30
0.0
 10
242.285176
 20
110.057074
 30
0.0
 10
249.247301
 20
122.235527
 30
0.0
  0
SPLINE
  5
12f
100
AcDbEntity
  8
Side_A-2
 62
7
100
AcDbSpline
 70
8
 71
3
 72
8
 73
4
 74
0
 40
0
 40
0
 40
0
 40
0
 40
1
 40
1
 40
1
 40
1
 10
249.247301
 20
122.235527
 30
0.0
 10
253.156764
 20
129.074125
 30
0.0
 10
253.672123
 20
137.339532
 30
0.0
 10
250.642432
 20
144.610811
 30
0.0
  0
SPLINE
  5
130
100
AcDbEntity
  8
Side_A-2
 62
7
100
AcDbSpline
 70
8
 71
3
 72
8
 73
4
 74
0
 40
0
 40
0
 40
0
 40
0
 40
1
 40
1
 40
1
 40
1
 10
205.145257
 20
147.447603
 30
0.0
 10
206.165331
 20
149.231953
 30
0.0
 10
206.258666
 20
151.399702
 30
0.0
 10
205.395740
 20
153.265120
 30
0.0
  0
LWPOLYLINE
  5
131
100
AcDbEntity
  8
Side_A-2
 62
7
100
AcDbPolyline
 90
2
 70
0
 10
206.361010
 20
277.229696
 30
0.0
 10
188.410685
 20
364.059290
 30
0.0
  0
LWPOLYLINE
  5
132
100
AcDbEntity
  8
Side_A-2
 62
7
100
AcDbPolyline
 90
3
 70
0
 10
196.856252
 20
505.531744
 30
0.0
 10
273.056252
 20
505.531744
 30
0.0
 10
273.056252
 20
454.731744
 30
0.0
  0
LWPOLYLINE
  5
133
100
AcDbEntity
  8
Side_A-2
 62
7
100
AcDbPolyline
 90
2
 70
0
 10
196.856252
 20
454.731744
 30
0.0
 10
273.056252
 20
454.731744
 30
0.0
  0
SPLINE
  5
134
100
AcDbEntity
  8
Side_A-3
 62
7
100
AcDbSpline
 70
8
 71
3
 72
8
 73
4
 74
0
 40
0
 40
0
 40
0
 40
0
 40
1
 40
1
 40
1
 40
1
 10
275.304414
 20
327.887492
 30
0.0
 10
275.304414
 20
328.426229
 30
0.0
 10
275.436233
 20
328.956783
 30
0.0
 10
275.688367
 20
329.432874
 30
0.0
  0
LWPOLYLINE
  5
135
100
AcDbEntity
  8
Side_A-2
 62
7
100
AcDbPolyline
 90
2
 70
0
 10
196.856252
 20
505.531744
 30
0.0
 10
196.856252
 20
454.731744
 30
0.0
  0
SPLINE
  5
136
100
AcDbEntity
  8
Side_A-3
 62
7
100
AcDbSpline
 70
8
 71
3
 72
8
 73
4
 74
0
 40
0
 40
0
 40
0
 40
0
 40
1
 40
1
 40
1
 40
1
 10
174.689310
 20
500.573491
 30
0.0
 10
173.999234
 20
500.155280
 30
0.0
 10
173.179911
 20
500.004224
 30
0.0
 10
172.386070
 20
500.148853
 30
0.0
  0
SPLINE
  5
137
100
AcDbEntity
  8
Side_A-3
 62
7
100
AcDbSpline
 70
8
 71
3
 72
8
 73
4
 74
0
 40
0
 40
0
 40
0
 40
0
 40
1
 40
1
 40
1
 40
1
 10
191.943516
 20
497.206044
 30
0.0
 10
190.552069
 20
496.555098
 30
0.0
 10
188.895512
 20
496.949708
 30
0.0
 10
187.946971
 20
498.158064
 30
0.0
  0
SPLINE
  5
138
100
AcDbEntity
  8
Side_A-3
 62
7
100
AcDbSpline
 70
8
 71
3
 72
8
 73
4
 74
0
 40
0
 40
0
 40
0
 40
0
 40
1
 40
1
 40
1
 40
1
 10
213.201732
 20
487.674405
 30
0.0
 10
211.554235
 20
487.295736
 30
0.0
 10
209.886820
 20
488.222487
 30
0.0
 10
209.338561
 20
489.821565
 30
0.0
  0
SPLINE
  5
139
100
AcDbEntity
  8
Side_A-3
 62
7
100
AcDbSpline
 70
8
 71
3
 72
8
 73
4
 74
0
 40
0
 40
0
 40
0
 40
0
 40
1
 40
1
 40
1
 40
1
 10
232.021728
 20
474.430404
 30
0.0
 10
230.333235
 20
474.349028
 30
0.0
 10
228.855974
 20
475.556022
 30
0.0
 10
228.599113
 20
477.226852
 30
0.0
  0
SPLINE
  5
13a
100
AcDbEntity
  8
Side_A-3
 62
7
100
AcDbSpline
 70
8
 71
3
 72
8
 73
4
 74
0
 40
0
 40
0
 40
0
 40
0
 40
1
 40
1
 40
1
 40
1
 10
248.203239
 20
458.067198
 30
0.0
 10
246.526962
 20
458.285680
 30
0.0
 10
245.286412
 20
459.734877
 30
0.0
 10
245.329052
 20
461.424792
 30
0.0
  0
SPLINE
  5
13b
100
AcDbEntity
  8
Side_A-3
 62
7
100
AcDbSpline
 70
8
 71
3
 72
8
 73
4
 74
0
 40
0
 40
0
 40
0
 40
0
 40
1
 40
1
 40
1
 40
1
 10
261.236279
 20
439.100499
 30
0.0
 10
259.625051
 20
439.611950
 30
0.0
 10
258.660306
 20
441.257672
 30
0.0
 10
259.001100
 20
442.913420
 30
0.0
  0
SPLINE
  5
13c
100
AcDbEntity
  8
Side_A-3
 62
7
100
AcDbSpline
 70
8
 71
3
 72
8
 73
4
 74
0
 40
0
 40
0
 40
0
 40
0
 40
1
 40
1
 40
1
 40
1
 10
270.710084
 20
418.128069
 30
0.0
 10
269.214687
 20
418.916372
 30
0.0
 10
268.556157
 20
420.706754
 30
0.0
 10
269.184362
 20
422.276150
 30
0.0
  0
SPLINE
  5
13d
100
AcDbEntity
  8
Side_A-3
 62
7
100
AcDbSpline
 70
8
 71
3
 72
8
 73
4
 74
0
 40
0
 40
0
 40
0
 40
0
 40
1
 40
1
 40
1
 40
1
 10
276.326080
 20
395.810891
 30
0.0
 10
274.993638
 20
396.851201
 30
0.0
 10
274.662080
 20
398.729817
 30
0.0
 10
275.557899
 20
400.163397
 30
0.0
  0
SPLINE
  5
13e
100
AcDbEntity
  8
Side_A-3
 62
7
100
AcDbSpline
 70
8
 71
3
 72
8
 73
4
 74
0
 40
0
 40
0
 40
0
 40
0
 40
1
 40
1
 40
1
 40
1
 10
277.397607
 20
350.793787
 30
0.0
 10
276.513038
 20
352.115338
 30
0.0
 10
276.696109
 20
353.879668
 30
0.0
 10
277.833168
 20
354.991451
 30
0.0
  0
SPLINE
  5
13f
100
AcDbEntity
  8
Side_A-3
 62
7
100
AcDbSpline
 70
8
 71
3
 72
8
 73
4
 74
0
 40
0
 40
0
 40
0
 40
0
 40
1
 40
1
 40
1
 40
1
 10
276.167489
 20
335.455958
 30
0.0
 10
275.796187
 20
336.546091
 30
0.0
 10
276.019668
 20
337.750922
 30
0.0
 10
276.757238
 20
338.635368
 30
0.0
  0
LWPOLYLINE
  5
140
100
AcDbEntity
  8
Side_A-3
 62
7
100
AcDbPolyline
 90
2
 70
0
 10
275.304414
 20
170.977210
 30
0.0
 10
205.454414
 20
170.977210
 30
0.0
  0
SPLINE
  5
141
100
AcDbEntity
  8
Side_A-3
 62
7
100
AcDbSpline
 70
8
 71
3
 72
8
 73
4
 74
0
 40
0
 40
0
 40
0
 40
0
 40
1
 40
1
 40
1
 40
1
 10
131.727186
 20
227.922695
 30
0.0
 10
140.487332
 20
194.379289
 30
0.0
 10
170.785993
 20
170.977210
 30
0.0
 10
205.454414
 20
170.977210
 30
0.0
  0
LWPOLYLINE
  5
142
100
AcDbEntity
  8
Side_A-3
 62
7
100
AcDbPolyline
 90
2
 70
0
 10
275.304414
 20
327.887492
 30
0.0
 10
275.304414
 20
170.977210
 30
0.0
  0
SPLINE
  5
143
100
AcDbEntity
  8
Side_A-3
 62
7
100
AcDbSpline
 70
8
 71
3
 72
8
 73
4
 74
0
 40
0
 40
0
 40
0
 40
0
 40
1
 40
1
 40
1
 40
1
 10
134.053469
 20
258.252863
 30
0.0
 10
129.444498
 20
250.852086
 30
0.0
 10
128.081686
 20
241.881646
 30
0.0
 10
130.284737
 20
233.445967
 30
0.0
  0
LWPOLYLINE
  5
144
100
AcDbEntity
  8
Side_A-3
 62
7
100
AcDbPolyline
 90
2
 70
0
 10
130.284737
 20
233.445967
 30
0.0
 10
131.727186
 20
227.922695
 30
0.0
  0
SPLINE
  5
145
100
AcDbEntity
  8
Side_A-3
 62
7
100
AcDbSpline
 70
8
 71
3
 72
8
 73
4
 74
0
 40
0
 40
0
 40
0
 40
0
 40
1
 40
1
 40
1
 40
1
 10
154.180786
 20
290.571985
 30
0.0
 10
157.888646
 20
296.525823
 30
0.0
 10
156.067921
 20
304.358177
 30
0.0
 10
150.114080
 20
308.066037
 30
0.0
  0
SPLINE
  5
146
100
AcDbEntity
  8
Side_A-3
 62
7
100
AcDbSpline
 70
8
 71
3
 72
8
 73
4
 74
0
 40
0
 40
0
 40
0
 40
0
 40
1
 40
1
 40
1
 40
1
 10
150.114080
 20
308.066037
 30
0.0
 10
149.886856
 20
308.207547
 30
0.0
 10
149.655215
 20
308.341836
 30
0.0
 10
149.419503
 20
308.468702
 30
0.0
  0
SPLINE
  5
147
100
AcDbEntity
  8
Side_A-3
 62
7
100
AcDbSpline
 70
8
 71
3
 72
8
 73
4
 74
0
 40
0
 40
0
 40
0
 40
0
 40
1
 40
1
 40
1
 40
1
 10
149.419503
 20
308.468702
 30
0.0
 10
147.813686
 20
309.333011
 30
0.0
 10
145.811253
 20
308.731895
 30
0.0
 10
144.946947
 20
307.126079
 30
0.0
  0
SPLINE
  5
148
100
AcDbEntity
  8
Side_A-3
 62
7
100
AcDbSpline
 70
8
 71
3
 72
8
 73
4
 74
0
 40
0
 40
0
 40
0
 40
0
 40
1
 40
1
 40
1
 40
1
 10
144.946947
 20
307.126079
 30
0.0
 10
144.859081
 20
306.962831
 30
0.0
 10
144.785121
 20
306.792471
 30
0.0
 10
144.725847
 20
306.616812
 30
0.0
  0
SPLINE
  5
149
100
AcDbEntity
  8
Side_A-3
 62
7
100
AcDbSpline
 70
8
 71
3
 72
8
 73
4
 74
0
 40
0
 40
0
 40
0
 40
0
 40
1
 40
1
 40
1
 40
1
 10
123.556923
 20
319.499474
 30
0.0
 10
118.684515
 20
314.454078
 30
0.0
 10
118.824748
 20
306.414103
 30
0.0
 10
123.870144
 20
301.541695
 30
0.0
  0
SPLINE
  5
14a
100
AcDbEntity
  8
Side_A-3
 62
7
100
AcDbSpline
 70
8
 71
3
 72
8
 73
4
 74
0
 40
0
 40
0
 40
0
 40
0
 40
1
 40
1
 40
1
 40
1
 10
123.870144
 20
301.541695
 30
0.0
 10
128.915543
 20
296.669283
 30
0.0
 10
136.955514
 20
296.809516
 30
0.0
 10
141.827926
 20
301.854916
 30
0.0
  0
SPLINE
  5
14b
100
AcDbEntity
  8
Side_A-3
 62
7
100
AcDbSpline
 70
8
 71
3
 72
8
 73
4
 74
0
 40
0
 40
0
 40
0
 40
0
 40
1
 40
1
 40
1
 40
1
 10
141.827926
 20
301.854916
 30
0.0
 10
143.134632
 20
303.208016
 30
0.0
 10
144.124446
 20
304.834487
 30
0.0
 10
144.725847
 20
306.616812
 30
0.0
  0
SPLINE
  5
14c
100
AcDbEntity
  8
Side_A-3
 62
7
100
AcDbSpline
 70
8
 71
3
 72
8
 73
4
 74
0
 40
0
 40
0
 40
0
 40
0
 40
1
 40
1
 40
1
 40
1
 10
123.556923
 20
319.499474
 30
0.0
 10
124.823751
 20
320.811278
 30
0.0
 10
124.787288
 20
322.901669
 30
0.0
 10
123.475488
 20
324.168498
 30
0.0
  0
SPLINE
  5
14d
100
AcDbEntity
  8
Side_A-3
 62
7
100
AcDbSpline
 70
8
 71
3
 72
8
 73
4
 74
0
 40
0
 40
0
 40
0
 40
0
 40
1
 40
1
 40
1
 40
1
 10
123.475488
 20
324.168498
 30
0.0
 10
122.163683
 20
325.435323
 30
0.0
 10
120.073288
 20
325.398863
 30
0.0
 10
118.806463
 20
324.087059
 30
0.0
  0
SPLINE
  5
14e
100
AcDbEntity
  8
Side_A-3
 62
7
100
AcDbSpline
 70
8
 71
3
 72
8
 73
4
 74
0
 40
0
 40
0
 40
0
 40
0
 40
1
 40
1
 40
1
 40
1
 10
81.476972
 20
358.522510
 30
0.0
 10
72.203619
 20
347.996795
 30
0.0
 10
73.218857
 20
331.946482
 30
0.0
 10
83.744571
 20
322.673129
 30
0.0
  0
SPLINE
  5
14f
100
AcDbEntity
  8
Side_A-3
 62
7
100
AcDbSpline
 70
8
 71
3
 72
8
 73
4
 74
0
 40
0
 40
0
 40
0
 40
0
 40
1
 40
1
 40
1
 40
1
 10
83.744571
 20
322.673129
 30
0.0
 10
93.931520
 20
313.698233
 30
0.0
 10
109.375270
 20
314.321027
 30
0.0
 10
118.806463
 20
324.087059
 30
0.0
  0
SPLINE
  5
150
100
AcDbEntity
  8
Side_A-3
 62
7
100
AcDbSpline
 70
8
 71
3
 72
8
 73
4
 74
0
 40
0
 40
0
 40
0
 40
0
 40
1
 40
1
 40
1
 40
1
 10
81.476972
 20
358.522510
 30
0.0
 10
97.375520
 20
376.568148
 30
0.0
 10
103.821712
 20
401.060292
 30
0.0
 10
98.866729
 20
424.594461
 30
0.0
  0
SPLINE
  5
151
100
AcDbEntity
  8
Side_A-3
 62
7
100
AcDbSpline
 70
8
 71
3
 72
8
 73
4
 74
0
 40
0
 40
0
 40
0
 40
0
 40
1
 40
1
 40
1
 40
1
 10
172.386070
 20
500.148853
 30
0.0
 10
137.883923
 20
506.434767
 30
0.0
 10
104.818672
 20
483.560991
 30
0.0
 10
98.532758
 20
449.058848
 30
0.0
  0
SPLINE
  5
152
100
AcDbEntity
  8
Side_A-3
 62
7
100
AcDbSpline
 70
8
 71
3
 72
8
 73
4
 74
0
 40
0
 40
0
 40
0
 40
0
 40
1
 40
1
 40
1
 40
1
 10
98.532758
 20
449.058848
 30
0.0
 10
97.057145
 20
440.959508
 30
0.0
 10
97.170574
 20
432.650505
 30
0.0
 10
98.866729
 20
424.594461
 30
0.0
  0
SPLINE
  5
153
100
AcDbEntity
  8
Side_A-3
 62
7
100
AcDbSpline
 70
8
 71
3
 72
8
 73
4
 74
0
 40
0
 40
0
 40
0
 40
0
 40
1
 40
1
 40
1
 40
1
 10
187.946971
 20
498.158064
 30
0.0
 10
184.774302
 20
502.199769
 30
0.0
 10
179.083531
 20
503.236575
 30
0.0
 10
174.689310
 20
500.573491
 30
0.0
  0
SPLINE
  5
154
100
AcDbEntity
  8
Side_A-3
 62
7
100
AcDbSpline
 70
8
 71
3
 72
8
 73
4
 74
0
 40
0
 40
0
 40
0
 40
0
 40
1
 40
1
 40
1
 40
1
 10
209.338561
 20
489.821565
 30
0.0
 10
207.063723
 20
496.456440
 30
0.0
 10
199.840979
 20
499.990949
 30
0.0
 10
193.206104
 20
497.716111
 30
0.0
  0
SPLINE
  5
155
100
AcDbEntity
  8
Side_A-3
 62
7
100
AcDbSpline
 70
8
 71
3
 72
8
 73
4
 74
0
 40
0
 40
0
 40
0
 40
0
 40
1
 40
1
 40
1
 40
1
 10
193.206104
 20
497.716111
 30
0.0
 10
192.776424
 20
497.568791
 30
0.0
 10
192.354954
 20
497.398523
 30
0.0
 10
191.943516
 20
497.206044
 30
0.0
  0
SPLINE
  5
156
100
AcDbEntity
  8
Side_A-3
 62
7
100
AcDbSpline
 70
8
 71
3
 72
8
 73
4
 74
0
 40
0
 40
0
 40
0
 40
0
 40
1
 40
1
 40
1
 40
1
 10
228.599113
 20
477.226852
 30
0.0
 10
227.533361
 20
484.159426
 30
0.0
 10
221.049436
 20
488.915424
 30
0.0
 10
214.116859
 20
487.849668
 30
0.0
  0
SPLINE
  5
157
100
AcDbEntity
  8
Side_A-3
 62
7
100
AcDbSpline
 70
8
 71
3
 72
8
 73
4
 74
0
 40
0
 40
0
 40
0
 40
0
 40
1
 40
1
 40
1
 40
1
 10
214.116859
 20
487.849668
 30
0.0
 10
213.809776
 20
487.802459
 30
0.0
 10
213.504528
 20
487.744001
 30
0.0
 10
213.201732
 20
487.674405
 30
0.0
  0
SPLINE
  5
158
100
AcDbEntity
  8
Side_A-3
 62
7
100
AcDbSpline
 70
8
 71
3
 72
8
 73
4
 74
0
 40
0
 40
0
 40
0
 40
0
 40
1
 40
1
 40
1
 40
1
 10
245.329052
 20
461.424792
 30
0.0
 10
245.505967
 20
468.436579
 30
0.0
 10
239.965214
 20
474.264171
 30
0.0
 10
232.953428
 20
474.441089
 30
0.0
  0
SPLINE
  5
159
100
AcDbEntity
  8
Side_A-3
 62
7
100
AcDbSpline
 70
8
 71
3
 72
8
 73
4
 74
0
 40
0
 40
0
 40
0
 40
0
 40
1
 40
1
 40
1
 40
1
 10
232.953428
 20
474.441089
 30
0.0
 10
232.642835
 20
474.448921
 30
0.0
 10
232.332059
 20
474.445358
 30
0.0
 10
232.021728
 20
474.430400
 30
0.0
  0
SPLINE
  5
15a
100
AcDbEntity
  8
Side_A-3
 62
7
100
AcDbSpline
 70
8
 71
3
 72
8
 73
4
 74
0
 40
0
 40
0
 40
0
 40
0
 40
1
 40
1
 40
1
 40
1
 10
259.001100
 20
442.913420
 30
0.0
 10
260.415111
 20
449.783429
 30
0.0
 10
255.992152
 20
456.498953
 30
0.0
 10
249.122147
 20
457.912964
 30
0.0
  0
SPLINE
  5
15b
100
AcDbEntity
  8
Side_A-3
 62
7
100
AcDbSpline
 70
8
 71
3
 72
8
 73
4
 74
0
 40
0
 40
0
 40
0
 40
0
 40
1
 40
1
 40
1
 40
1
 10
249.122147
 20
457.912964
 30
0.0
 10
248.817834
 20
457.975599
 30
0.0
 10
248.511327
 20
458.027045
 30
0.0
 10
248.203239
 20
458.067198
 30
0.0
  0
SPLINE
  5
15c
100
AcDbEntity
  8
Side_A-3
 62
7
100
AcDbSpline
 70
8
 71
3
 72
8
 73
4
 74
0
 40
0
 40
0
 40
0
 40
0
 40
1
 40
1
 40
1
 40
1
 10
269.184362
 20
422.276150
 30
0.0
 10
271.790903
 20
428.787860
 30
0.0
 10
268.625139
 20
436.179662
 30
0.0
 10
262.113432
 20
438.786203
 30
0.0
  0
SPLINE
  5
15d
100
AcDbEntity
  8
Side_A-3
 62
7
100
AcDbSpline
 70
8
 71
3
 72
8
 73
4
 74
0
 40
0
 40
0
 40
0
 40
0
 40
1
 40
1
 40
1
 40
1
 10
262.113432
 20
438.786203
 30
0.0
 10
261.824991
 20
438.901663
 30
0.0
 10
261.532407
 20
439.006498
 30
0.0
 10
261.236279
 20
439.100499
 30
0.0
  0
SPLINE
  5
15e
100
AcDbEntity
  8
Side_A-3
 62
7
100
AcDbSpline
 70
8
 71
3
 72
8
 73
4
 74
0
 40
0
 40
0
 40
0
 40
0
 40
1
 40
1
 40
1
 40
1
 10
275.557899
 20
400.163397
 30
0.0
 10
279.274819
 20
406.111583
 30
0.0
 10
277.466025
 20
413.946699
 30
0.0
 10
271.517839
 20
417.663623
 30
0.0
  0
SPLINE
  5
15f
100
AcDbEntity
  8
Side_A-3
 62
7
100
AcDbSpline
 70
8
 71
3
 72
8
 73
4
 74
0
 40
0
 40
0
 40
0
 40
0
 40
1
 40
1
 40
1
 40
1
 10
271.517839
 20
417.663623
 30
0.0
 10
271.254360
 20
417.828268
 30
0.0
 10
270.984926
 20
417.983186
 30
0.0
 10
270.710084
 20
418.128069
 30
0.0
  0
SPLINE
  5
160
100
AcDbEntity
  8
Side_A-3
 62
7
100
AcDbSpline
 70
8
 71
3
 72
8
 73
4
 74
0
 40
0
 40
0
 40
0
 40
0
 40
1
 40
1
 40
1
 40
1
 10
278.007405
 20
377.368586
 30
0.0
 10
282.664262
 20
382.613595
 30
0.0
 10
282.187476
 20
390.640640
 30
0.0
 10
276.942471
 20
395.297501
 30
0.0
  0
SPLINE
  5
161
100
AcDbEntity
  8
Side_A-3
 62
7
100
AcDbSpline
 70
8
 71
3
 72
8
 73
4
 74
0
 40
0
 40
0
 40
0
 40
0
 40
1
 40
1
 40
1
 40
1
 10
276.942471
 20
395.297501
 30
0.0
 10
276.742464
 20
395.475079
 30
0.0
 10
276.536896
 20
395.646296
 30
0.0
 10
276.326080
 20
395.810891
 30
0.0
  0
SPLINE
  5
162
100
AcDbEntity
  8
Side_A-3
 62
7
100
AcDbSpline
 70
8
 71
3
 72
8
 73
4
 74
0
 40
0
 40
0
 40
0
 40
0
 40
1
 40
1
 40
1
 40
1
 10
277.833168
 20
354.991451
 30
0.0
 10
282.822631
 20
359.869994
 30
0.0
 10
282.941344
 20
367.860315
 30
0.0
 10
278.099011
 20
372.884929
 30
0.0
  0
SPLINE
  5
163
100
AcDbEntity
  8
Side_A-3
 62
7
100
AcDbSpline
 70
8
 71
3
 72
8
 73
4
 74
0
 40
0
 40
0
 40
0
 40
0
 40
1
 40
1
 40
1
 40
1
 10
276.757238
 20
338.635368
 30
0.0
 10
279.644297
 20
342.097346
 30
0.0
 10
279.905025
 20
347.047689
 30
0.0
 10
277.397607
 20
350.793787
 30
0.0
  0
SPLINE
  5
164
100
AcDbEntity
  8
Side_A-3
 62
7
100
AcDbSpline
 70
8
 71
3
 72
8
 73
4
 74
0
 40
0
 40
0
 40
0
 40
0
 40
1
 40
1
 40
1
 40
1
 10
275.688367
 20
329.432874
 30
0.0
 10
276.671238
 20
331.288767
 30
0.0
 10
276.844593
 20
333.468020
 30
0.0
 10
276.167489
 20
335.455958
 30
0.0
  0
SPLINE
  5
165
100
AcDbEntity
  8
Side_A-3
 62
7
100
AcDbSpline
 70
8
 71
3
 72
8
 73
4
 74
0
 40
0
 40
0
 40
0
 40
0
 40
1
 40
1
 40
1
 40
1
 10
278.099011
 20
372.884929
 30
0.0
 10
276.902607
 20
374.126368
 30
0.0
 10
276.862704
 20
376.079318
 30
0.0
 10
278.007405
 20
377.368586
 30
0.0
  0
SPLINE
  5
166
100
AcDbEntity
  8
Side_A-3
 62
7
100
AcDbSpline
 70
8
 71
3
 72
8
 73
4
 74
0
 40
0
 40
0
 40
0
 40
0
 40
1
 40
1
 40
1
 40
1
 10
205.454414
 20
447.202196
 30
0.0
 10
200.193902
 20
447.202196
 30
0.0
 10
195.929414
 20
442.937706
 30
0.0
 10
195.929414
 20
437.677196
 30
0.0
  0
SPLINE
  5
167
100
AcDbEntity
  8
Side_A-3
 62
7
100
AcDbSpline
 70
8
 71
3
 72
8
 73
4
 74
0
 40
0
 40
0
 40
0
 40
0
 40
1
 40
1
 40
1
 40
1
 10
195.929414
 20
437.677196
 30
0.0
 10
195.929414
 20
432.416683
 30
0.0
 10
200.193902
 20
428.152196
 30
0.0
 10
205.454414
 20
428.152196
 30
0.0
  0
SPLINE
  5
168
100
AcDbEntity
  8
Side_A-3
 62
7
100
AcDbSpline
 70
8
 71
3
 72
8
 73
4
 74
0
 40
0
 40
0
 40
0
 40
0
 40
1
 40
1
 40
1
 40
1
 10
205.454414
 20
428.152196
 30
0.0
 10
210.714927
 20
428.152196
 30
0.0
 10
214.979414
 20
432.416683
 30
0.0
 10
214.979414
 20
437.677196
 30
0.0
  0
SPLINE
  5
169
100
AcDbEntity
  8
Side_A-3
 62
7
100
AcDbSpline
 70
8
 71
3
 72
8
 73
4
 74
0
 40
0
 40
0
 40
0
 40
0
 40
1
 40
1
 40
1
 40
1
 10
214.979414
 20
437.677196
 30
0.0
 10
214.979414
 20
442.937706
 30
0.0
 10
210.714927
 20
447.202196
 30
0.0
 10
205.454414
 20
447.202196
 30
0.0
  0
LWPOLYLINE
  5
16a
100
AcDbEntity
  8
Side_A-3
 62
7
100
AcDbPolyline
 90
2
 70
0
 10
134.053469
 20
258.252863
 30
0.0
 10
154.180786
 20
290.571985
 30
0.0
  0
LWPOLYLINE
  5
16b
100
AcDbEntity
  8
Side_A-3
 62
7
100
AcDbPolyline
 90
2
 70
0
 10
91.641216
 20
190.289783
 30
0.0
 10
97.185923
 20
182.658141
 30
0.0
  0
SPLINE
  5
16c
100
AcDbEntity
  8
Side_A-3
 62
7
100
AcDbSpline
 70
8
 71
3
 72
8
 73
4
 74
0
 40
0
 40
0
 40
0
 40
0
 40
1
 40
1
 40
1
 40
1
 10
73.298331
 20
196.391604
 30
0.0
 10
71.649239
 20
194.121832
 30
0.0
 10
72.152406
 20
190.944927
 30
0.0
 10
74.422189
 20
189.295832
 30
0.0
  0
SPLINE
  5
16d
100
AcDbEntity
  8
Side_A-3
 62
7
100
AcDbSpline
 70
8
 71
3
 72
8
 73
4
 74
0
 40
0
 40
0
 40
0
 40
0
 40
1
 40
1
 40
1
 40
1
 10
74.422189
 20
189.295832
 30
0.0
 10
75.737757
 20
188.340015
 30
0.0
 10
77.431401
 20
188.071798
 30
0.0
 10
78.977944
 20
188.574295
 30
0.0
  0
LWPOLYLINE
  5
16e
100
AcDbEntity
  8
Side_A-3
 62
7
100
AcDbPolyline
 90
2
 70
0
 10
87.949471
 20
191.489298
 30
0.0
 10
78.977944
 20
188.574295
 30
0.0
  0
SPLINE
  5
16f
100
AcDbEntity
  8
Side_A-3
 62
7
100
AcDbSpline
 70
8
 71
3
 72
8
 73
4
 74
0
 40
0
 40
0
 40
0
 40
0
 40
1
 40
1
 40
1
 40
1
 10
94.693365
 20
215.489088
 30
0.0
 10
89.432852
 20
215.489088
 30
0.0
 10
85.168365
 20
211.224604
 30
0.0
 10
85.168365
 20
205.964088
 30
0.0
  0
SPLINE
  5
170
100
AcDbEntity
  8
Side_A-3
 62
7
100
AcDbSpline
 70
8
 71
3
 72
8
 73
4
 74
0
 40
0
 40
0
 40
0
 40
0
 40
1
 40
1
 40
1
 40
1
 10
85.168365
 20
205.964088
 30
0.0
 10
85.168365
 20
200.703607
 30
0.0
 10
89.432852
 20
196.439088
 30
0.0
 10
94.693365
 20
196.439088
 30
0.0
  0
SPLINE
  5
171
100
AcDbEntity
  8
Side_A-3
 62
7
100
AcDbSpline
 70
8
 71
3
 72
8
 73
4
 74
0
 40
0
 40
0
 40
0
 40
0
 40
1
 40
1
 40
1
 40
1
 10
94.693365
 20
196.439088
 30
0.0
 10
99.953874
 20
196.439088
 30
0.0
 10
104.218365
 20
200.703607
 30
0.0
 10
104.218365
 20
205.964088
 30
0.0
  0
SPLINE
  5
172
100
AcDbEntity
  8
Side_A-3
 62
7
100
AcDbSpline
 70
8
 71
3
 72
8
 73
4
 74
0
 40
0
 40
0
 40
0
 40
0
 40
1
 40
1
 40
1
 40
1
 10
104.218365
 20
205.964088
 30
0.0
 10
104.218365
 20
211.224604
 30
0.0
 10
99.953874
 20
215.489088
 30
0.0
 10
94.693365
 20
215.489088
 30
0.0
  0
SPLINE
  5
173
100
AcDbEntity
  8
Side_A-3
 62
7
100
AcDbSpline
 70
8
 71
3
 72
8
 73
4
 74
0
 40
0
 40
0
 40
0
 40
0
 40
1
 40
1
 40
1
 40
1
 10
106.375731
 20
216.850880
 30
0.0
 10
106.375731
 20
215.420367
 30
0.0
 10
107.296859
 20
214.152554
 30
0.0
 10
108.657357
 20
213.710488
 30
0.0
  0
SPLINE
  5
174
100
AcDbEntity
  8
Side_A-3
 62
7
100
AcDbSpline
 70
8
 71
3
 72
8
 73
4
 74
0
 40
0
 40
0
 40
0
 40
0
 40
1
 40
1
 40
1
 40
1
 10
117.628880
 20
201.132725
 30
0.0
 10
120.297171
 20
201.999712
 30
0.0
 10
121.757421
 20
204.865608
 30
0.0
 10
120.890441
 20
207.533913
 30
0.0
  0
SPLINE
  5
175
100
AcDbEntity
  8
Side_A-3
 62
7
100
AcDbSpline
 70
8
 71
3
 72
8
 73
4
 74
0
 40
0
 40
0
 40
0
 40
0
 40
1
 40
1
 40
1
 40
1
 10
120.890441
 20
207.533913
 30
0.0
 10
120.387938
 20
209.080456
 30
0.0
 10
119.175426
 20
210.292953
 30
0.0
 10
117.628880
 20
210.795485
 30
0.0
  0
LWPOLYLINE
  5
176
100
AcDbEntity
  8
Side_A-3
 62
7
100
AcDbPolyline
 90
2
 70
0
 10
73.298331
 20
196.391604
 30
0.0
 10
78.843038
 20
204.023245
 30
0.0
  0
SPLINE
  5
177
100
AcDbEntity
  8
Side_A-3
 62
7
100
AcDbSpline
 70
8
 71
3
 72
8
 73
4
 74
0
 40
0
 40
0
 40
0
 40
0
 40
1
 40
1
 40
1
 40
1
 10
108.657357
 20
198.217723
 30
0.0
 10
107.296859
 20
197.775657
 30
0.0
 10
106.375731
 20
196.507844
 30
0.0
 10
106.375731
 20
195.077330
 30
0.0
  0
SPLINE
  5
178
100
AcDbEntity
  8
Side_A-3
 62
7
100
AcDbSpline
 70
8
 71
3
 72
8
 73
4
 74
0
 40
0
 40
0
 40
0
 40
0
 40
1
 40
1
 40
1
 40
1
 10
78.843038
 20
204.023245
 30
0.0
 10
79.683873
 20
205.180533
 30
0.0
 10
79.683873
 20
206.747678
 30
0.0
 10
78.843038
 20
207.904965
 30
0.0
  0
LWPOLYLINE
  5
179
100
AcDbEntity
  8
Side_A-3
 62
7
100
AcDbPolyline
 90
2
 70
0
 10
117.628880
 20
201.132725
 30
0.0
 10
108.657357
 20
198.217723
 30
0.0
  0
LWPOLYLINE
  5
17a
100
AcDbEntity
  8
Side_A-3
 62
7
100
AcDbPolyline
 90
2
 70
0
 10
73.298331
 20
215.536607
 30
0.0
 10
78.843038
 20
207.904965
 30
0.0
  0
SPLINE
  5
17b
100
AcDbEntity
  8
Side_A-3
 62
7
100
AcDbSpline
 70
8
 71
3
 72
8
 73
4
 74
0
 40
0
 40
0
 40
0
 40
0
 40
1
 40
1
 40
1
 40
1
 10
91.641216
 20
190.289783
 30
0.0
 10
90.800384
 20
191.447106
 30
0.0
 10
89.309969
 20
191.931364
 30
0.0
 10
87.949471
 20
191.489298
 30
0.0
  0
LWPOLYLINE
  5
17c
100
AcDbEntity
  8
Side_A-3
 62
7
100
AcDbPolyline
 90
2
 70
0
 10
117.628880
 20
210.795485
 30
0.0
 10
108.657357
 20
213.710488
 30
0.0
  0
SPLINE
  5
17d
100
AcDbEntity
  8
Side_A-3
 62
7
100
AcDbSpline
 70
8
 71
3
 72
8
 73
4
 74
0
 40
0
 40
0
 40
0
 40
0
 40
1
 40
1
 40
1
 40
1
 10
87.949471
 20
220.438913
 30
0.0
 10
89.309969
 20
219.996847
 30
0.0
 10
90.800384
 20
220.481105
 30
0.0
 10
91.641216
 20
221.638428
 30
0.0
  0
LWPOLYLINE
  5
17e
100
AcDbEntity
  8
Side_A-3
 62
7
100
AcDbPolyline
 90
2
 70
0
 10
87.949471
 20
220.438913
 30
0.0
 10
78.977944
 20
223.353915
 30
0.0
  0
SPLINE
  5
17f
100
AcDbEntity
  8
Side_A-3
 62
7
100
AcDbSpline
 70
8
 71
3
 72
8
 73
4
 74
0
 40
0
 40
0
 40
0
 40
0
 40
1
 40
1
 40
1
 40
1
 10
97.185923
 20
182.658141
 30
0.0
 10
98.835018
 20
180.388369
 30
0.0
 10
102.011898
 20
179.885202
 30
0.0
 10
104.281681
 20
181.534297
 30
0.0
  0
SPLINE
  5
180
100
AcDbEntity
  8
Side_A-3
 62
7
100
AcDbSpline
 70
8
 71
3
 72
8
 73
4
 74
0
 40
0
 40
0
 40
0
 40
0
 40
1
 40
1
 40
1
 40
1
 10
104.281681
 20
181.534297
 30
0.0
 10
105.597250
 20
182.490113
 30
0.0
 10
106.375731
 20
184.017958
 30
0.0
 10
106.375731
 20
185.644088
 30
0.0
  0
SPLINE
  5
181
100
AcDbEntity
  8
Side_A-3
 62
7
100
AcDbSpline
 70
8
 71
3
 72
8
 73
4
 74
0
 40
0
 40
0
 40
0
 40
0
 40
1
 40
1
 40
1
 40
1
 10
78.977944
 20
223.353915
 30
0.0
 10
76.309653
 20
224.220902
 30
0.0
 10
73.443753
 20
222.760649
 30
0.0
 10
72.576770
 20
220.092379
 30
0.0
  0
SPLINE
  5
182
100
AcDbEntity
  8
Side_A-3
 62
7
100
AcDbSpline
 70
8
 71
3
 72
8
 73
4
 74
0
 40
0
 40
0
 40
0
 40
0
 40
1
 40
1
 40
1
 40
1
 10
72.576770
 20
220.092379
 30
0.0
 10
72.074270
 20
218.545801
 30
0.0
 10
72.342515
 20
216.852186
 30
0.0
 10
73.298331
 20
215.536607
 30
0.0
  0
LWPOLYLINE
  5
183
100
AcDbEntity
  8
Side_A-3
 62
7
100
AcDbPolyline
 90
2
 70
0
 10
106.375731
 20
195.077330
 30
0.0
 10
106.375731
 20
185.644088
 30
0.0
  0
LWPOLYLINE
  5
184
100
AcDbEntity
  8
Side_A-3
 62
7
100
AcDbPolyline
 90
2
 70
0
 10
106.375731
 20
226.284123
 30
0.0
 10
106.375731
 20
216.850880
 30
0.0
  0
SPLINE
  5
185
100
AcDbEntity
  8
Side_A-3
 62
7
100
AcDbSpline
 70
8
 71
3
 72
8
 73
4
 74
0
 40
0
 40
0
 40
0
 40
0
 40
1
 40
1
 40
1
 40
1
 10
106.375731
 20
226.284123
 30
0.0
 10
106.375731
 20
229.089712
 30
0.0
 10
104.101338
 20
231.364105
 30
0.0
 10
101.295731
 20
231.364105
 30
0.0
  0
SPLINE
  5
186
100
AcDbEntity
  8
Side_A-3
 62
7
100
AcDbSpline
 70
8
 71
3
 72
8
 73
4
 74
0
 40
0
 40
0
 40
0
 40
0
 40
1
 40
1
 40
1
 40
1
 10
101.295731
 20
231.364105
 30
0.0
 10
99.669599
 20
231.364105
 30
0.0
 10
98.141743
 20
230.585623
 30
0.0
 10
97.185923
 20
229.270055
 30
0.0
  0
SPLINE
  5
187
100
AcDbEntity
  8
Side_A-3
 62
7
100
AcDbSpline
 70
8
 71
3
 72
8
 73
4
 74
0
 40
0
 40
0
 40
0
 40
0
 40
1
 40
1
 40
1
 40
1
 10
73.380126
 20
280.289201
 30
0.0
 10
68.119613
 20
280.289201
 30
0.0
 10
63.855126
 20
276.024714
 30
0.0
 10
63.855126
 20
270.764201
 30
0.0
  0
SPLINE
  5
188
100
AcDbEntity
  8
Side_A-3
 62
7
100
AcDbSpline
 70
8
 71
3
 72
8
 73
4
 74
0
 40
0
 40
0
 40
0
 40
0
 40
1
 40
1
 40
1
 40
1
 10
63.855126
 20
270.764201
 30
0.0
 10
63.855126
 20
265.503688
 30
0.0
 10
68.119613
 20
261.239201
 30
0.0
 10
73.380126
 20
261.239201
 30
0.0
  0
SPLINE
  5
189
100
AcDbEntity
  8
Side_A-3
 62
7
100
AcDbSpline
 70
8
 71
3
 72
8
 73
4
 74
0
 40
0
 40
0
 40
0
 40
0
 40
1
 40
1
 40
1
 40
1
 10
73.380126
 20
261.239201
 30
0.0
 10
78.640639
 20
261.239201
 30
0.0
 10
82.905126
 20
265.503688
 30
0.0
 10
82.905126
 20
270.764201
 30
0.0
  0
SPLINE
  5
18a
100
AcDbEntity
  8
Side_A-3
 62
7
100
AcDbSpline
 70
8
 71
3
 72
8
 73
4
 74
0
 40
0
 40
0
 40
0
 40
0
 40
1
 40
1
 40
1
 40
1
 10
82.905126
 20
270.764201
 30
0.0
 10
82.905126
 20
276.024714
 30
0.0
 10
78.640639
 20
280.289201
 30
0.0
 10
73.380126
 20
280.289201
 30
0.0
  0
SPLINE
  5
18b
100
AcDbEntity
  8
Side_A-3
 62
7
100
AcDbSpline
 70
8
 71
3
 72
8
 73
4
 74
0
 40
0
 40
0
 40
0
 40
0
 40
1
 40
1
 40
1
 40
1
 10
85.062493
 20
281.650983
 30
0.0
 10
85.062493
 20
280.220469
 30
0.0
 10
85.983620
 20
278.952646
 30
0.0
 10
87.344118
 20
278.510594
 30
0.0
  0
LWPOLYLINE
  5
18c
100
AcDbEntity
  8
Side_A-3
 62
7
100
AcDbPolyline
 90
2
 70
0
 10
91.641216
 20
221.638428
 30
0.0
 10
97.185923
 20
229.270055
 30
0.0
  0
SPLINE
  5
18d
100
AcDbEntity
  8
Side_A-3
 62
7
100
AcDbSpline
 70
8
 71
3
 72
8
 73
4
 74
0
 40
0
 40
0
 40
0
 40
0
 40
1
 40
1
 40
1
 40
1
 10
96.315645
 20
265.932835
 30
0.0
 10
98.983933
 20
266.799815
 30
0.0
 10
100.444186
 20
269.665718
 30
0.0
 10
99.577203
 20
272.334005
 30
0.0
  0
SPLINE
  5
18e
100
AcDbEntity
  8
Side_A-3
 62
7
100
AcDbSpline
 70
8
 71
3
 72
8
 73
4
 74
0
 40
0
 40
0
 40
0
 40
0
 40
1
 40
1
 40
1
 40
1
 10
99.577203
 20
272.334005
 30
0.0
 10
99.074702
 20
273.880551
 30
0.0
 10
97.862188
 20
275.093066
 30
0.0
 10
96.315645
 20
275.595566
 30
0.0
  0
LWPOLYLINE
  5
18f
100
AcDbEntity
  8
Side_A-3
 62
7
100
AcDbPolyline
 90
2
 70
0
 10
96.315645
 20
275.595566
 30
0.0
 10
87.344118
 20
278.510594
 30
0.0
  0
SPLINE
  5
190
100
AcDbEntity
  8
Side_A-3
 62
7
100
AcDbSpline
 70
8
 71
3
 72
8
 73
4
 74
0
 40
0
 40
0
 40
0
 40
0
 40
1
 40
1
 40
1
 40
1
 10
87.344118
 20
263.017808
 30
0.0
 10
85.983620
 20
262.575756
 30
0.0
 10
85.062493
 20
261.307932
 30
0.0
 10
85.062493
 20
259.877419
 30
0.0
  0
LWPOLYLINE
  5
191
100
AcDbEntity
  8
Side_A-3
 62
7
100
AcDbPolyline
 90
2
 70
0
 10
96.315645
 20
265.932835
 30
0.0
 10
87.344118
 20
263.017808
 30
0.0
  0
SPLINE
  5
192
100
AcDbEntity
  8
Side_A-3
 62
7
100
AcDbSpline
 70
8
 71
3
 72
8
 73
4
 74
0
 40
0
 40
0
 40
0
 40
0
 40
1
 40
1
 40
1
 40
1
 10
75.872688
 20
247.458251
 30
0.0
 10
77.521779
 20
245.188468
 30
0.0
 10
80.698660
 20
244.685301
 30
0.0
 10
82.968442
 20
246.334393
 30
0.0
  0
SPLINE
  5
193
100
AcDbEntity
  8
Side_A-3
 62
7
100
AcDbSpline
 70
8
 71
3
 72
8
 73
4
 74
0
 40
0
 40
0
 40
0
 40
0
 40
1
 40
1
 40
1
 40
1
 10
82.968442
 20
246.334393
 30
0.0
 10
84.284011
 20
247.290212
 30
0.0
 10
85.062493
 20
248.818068
 30
0.0
 10
85.062493
 20
250.444201
 30
0.0
  0
LWPOLYLINE
  5
194
100
AcDbEntity
  8
Side_A-3
 62
7
100
AcDbPolyline
 90
2
 70
0
 10
85.062493
 20
259.877419
 30
0.0
 10
85.062493
 20
250.444201
 30
0.0
  0
SPLINE
  5
195
100
AcDbEntity
  8
Side_A-3
 62
7
100
AcDbSpline
 70
8
 71
3
 72
8
 73
4
 74
0
 40
0
 40
0
 40
0
 40
0
 40
1
 40
1
 40
1
 40
1
 10
70.327981
 20
255.089885
 30
0.0
 10
69.487145
 20
256.247194
 30
0.0
 10
67.996730
 20
256.731459
 30
0.0
 10
66.636232
 20
256.289407
 30
0.0
  0
LWPOLYLINE
  5
196
100
AcDbEntity
  8
Side_A-3
 62
7
100
AcDbPolyline
 90
2
 70
0
 10
70.327981
 20
255.089885
 30
0.0
 10
75.872688
 20
247.458251
 30
0.0
  0
SPLINE
  5
197
100
AcDbEntity
  8
Side_A-3
 62
7
100
AcDbSpline
 70
8
 71
3
 72
8
 73
4
 74
0
 40
0
 40
0
 40
0
 40
0
 40
1
 40
1
 40
1
 40
1
 10
51.985096
 20
261.191699
 30
0.0
 10
50.336001
 20
258.921916
 30
0.0
 10
50.839168
 20
255.745040
 30
0.0
 10
53.108950
 20
254.095945
 30
0.0
  0
SPLINE
  5
198
100
AcDbEntity
  8
Side_A-3
 62
7
100
AcDbSpline
 70
8
 71
3
 72
8
 73
4
 74
0
 40
0
 40
0
 40
0
 40
0
 40
1
 40
1
 40
1
 40
1
 10
53.108950
 20
254.095945
 30
0.0
 10
54.424522
 20
253.140125
 30
0.0
 10
56.118162
 20
252.871880
 30
0.0
 10
57.664708
 20
253.374384
 30
0.0
  0
LWPOLYLINE
  5
199
100
AcDbEntity
  8
Side_A-3
 62
7
100
AcDbPolyline
 90
2
 70
0
 10
66.636232
 20
256.289407
 30
0.0
 10
57.664708
 20
253.374384
 30
0.0
  0
SPLINE
  5
19a
100
AcDbEntity
  8
Side_A-3
 62
7
100
AcDbSpline
 70
8
 71
3
 72
8
 73
4
 74
0
 40
0
 40
0
 40
0
 40
0
 40
1
 40
1
 40
1
 40
1
 10
57.529803
 20
268.823334
 30
0.0
 10
58.370634
 20
269.980642
 30
0.0
 10
58.370634
 20
271.547759
 30
0.0
 10
57.529803
 20
272.705068
 30
0.0
  0
LWPOLYLINE
  5
19b
100
AcDbEntity
  8
Side_A-3
 62
7
100
AcDbPolyline
 90
2
 70
0
 10
51.985096
 20
261.191699
 30
0.0
 10
57.529803
 20
268.823334
 30
0.0
  0
SPLINE
  5
19c
100
AcDbEntity
  8
Side_A-3
 62
7
100
AcDbSpline
 70
8
 71
3
 72
8
 73
4
 74
0
 40
0
 40
0
 40
0
 40
0
 40
1
 40
1
 40
1
 40
1
 10
57.664708
 20
288.154018
 30
0.0
 10
54.996417
 20
289.020998
 30
0.0
 10
52.130514
 20
287.560748
 30
0.0
 10
51.263534
 20
284.892457
 30
0.0
  0
SPLINE
  5
19d
100
AcDbEntity
  8
Side_A-3
 62
7
100
AcDbSpline
 70
8
 71
3
 72
8
 73
4
 74
0
 40
0
 40
0
 40
0
 40
0
 40
1
 40
1
 40
1
 40
1
 10
51.263534
 20
284.892457
 30
0.0
 10
50.761031
 20
283.345914
 30
0.0
 10
51.029276
 20
281.652271
 30
0.0
 10
51.985096
 20
280.336702
 30
0.0
  0
LWPOLYLINE
  5
19e
100
AcDbEntity
  8
Side_A-3
 62
7
100
AcDbPolyline
 90
2
 70
0
 10
51.985096
 20
280.336702
 30
0.0
 10
57.529803
 20
272.705068
 30
0.0
  0
SPLINE
  5
19f
100
AcDbEntity
  8
Side_A-3
 62
7
100
AcDbSpline
 70
8
 71
3
 72
8
 73
4
 74
0
 40
0
 40
0
 40
0
 40
0
 40
1
 40
1
 40
1
 40
1
 10
66.636232
 20
285.238994
 30
0.0
 10
67.996730
 20
284.796942
 30
0.0
 10
69.487145
 20
285.281204
 30
0.0
 10
70.327981
 20
286.438516
 30
0.0
  0
LWPOLYLINE
  5
1a0
100
AcDbEntity
  8
Side_A-3
 62
7
100
AcDbPolyline
 90
2
 70
0
 10
66.636232
 20
285.238994
 30
0.0
 10
57.664708
 20
288.154018
 30
0.0
  0
SPLINE
  5
1a1
100
AcDbEntity
  8
Side_A-3
 62
7
100
AcDbSpline
 70
8
 71
3
 72
8
 73
4
 74
0
 40
0
 40
0
 40
0
 40
0
 40
1
 40
1
 40
1
 40
1
 10
85.062493
 20
291.084201
 30
0.0
 10
85.062493
 20
293.889807
 30
0.0
 10
82.788099
 20
296.164201
 30
0.0
 10
79.982493
 20
296.164201
 30
0.0
  0
SPLINE
  5
1a2
100
AcDbEntity
  8
Side_A-3
 62
7
100
AcDbSpline
 70
8
 71
3
 72
8
 73
4
 74
0
 40
0
 40
0
 40
0
 40
0
 40
1
 40
1
 40
1
 40
1
 10
79.982493
 20
296.164201
 30
0.0
 10
78.356360
 20
296.164201
 30
0.0
 10
76.828504
 20
295.385719
 30
0.0
 10
75.872688
 20
294.070151
 30
0.0
  0
LWPOLYLINE
  5
1a3
100
AcDbEntity
  8
Side_A-3
 62
7
100
AcDbPolyline
 90
2
 70
0
 10
70.327981
 20
286.438516
 30
0.0
 10
75.872688
 20
294.070151
 30
0.0
  0
LWPOLYLINE
  5
1a4
100
AcDbEntity
  8
Side_A-3
 62
7
100
AcDbPolyline
 90
2
 70
0
 10
85.062493
 20
291.084201
 30
0.0
 10
85.062493
 20
281.650983
 30
0.0
  0
ENDSEC
  0
SECTION
  2
OBJECTS
  0
DICTIONARY
  5
C
330
0
100
AcDbDictionary
  3
ACAD_GROUP
350
D
  3
ACAD_MLINESTYLE
350
17
  0
DICTIONARY
  5
D
330
C
100
AcDbDictionary
  0
DICTIONARY
  5
1A
330
C
100
AcDbDictionary
  0
DICTIONARY
  5
17
330
C
100
AcDbDictionary
  3
STANDARD
350
18
  0
DICTIONARY
  5
19
330
C
100
AcDbDictionary
  0
ENDSEC
  0
EOF
