  0
SECTION
  2
HEADER
  9
$ACADVER
  1
AC1014
  9
$HANDSEED
  5
FFFF
  9
$MEASUREMENT
 70
     1
  0
ENDSEC
  0
SECTION
  2
TABLES
  0
TABLE
  2
VPORT
  5
8
330
0
100
AcDbSymbolTable
 70
     4
  0
VPORT
  5
2E
330
8
100
AcDbSymbolTableRecord
100
AcDbViewportTableRecord
  2
*ACTIVE
 70
     0
 10
0.0
 20
0.0
 11
1.0
 21
1.0
 12
210.0
 22
148.5
 13
0.0
 23
0.0
 14
10.0
 24
10.0
 15
10.0
 25
10.0
 16
0.0
 26
0.0
 36
1.0
 17
0.0
 27
0.0
 37
0.0
 40
341.0
 41
1.24
 42
50.0
 43
0.0
 44
0.0
 50
0.0
 51
0.0
 71
     0
 72
   100
 73
     1
 74
     3
 75
     0
 76
     0
 77
     0
 78
     0
  0
ENDTAB
  0
TABLE
  2
LTYPE
  5
5
330
0
100
AcDbSymbolTable
 70
     1
  0
LTYPE
  5
14
330
5
100
AcDbSymbolTableRecord
100
AcDbLinetypeTableRecord
  2
BYBLOCK
 70
     0
  3

 72
    65
 73
     0
 40
0.0
  0
LTYPE
  5
15
330
5
100
AcDbSymbolTableRecord
100
AcDbLinetypeTableRecord
  2
BYLAYER
 70
     0
  3

 72
    65
 73
     0
 40
0.0
  0
LTYPE
  5
16
330
5
100
AcDbSymbolTableRecord
100
AcDbLinetypeTableRecord
  2
CONTINUOUS
 70
     0
  3
Solid line
 72
    65
 73
     0
 40
0.0
  0
ENDTAB
  0
TABLE
  2
LAYER
  5
2
100
AcDbSymbolTable
 70
4
  0
LAYER
  5
50
100
AcDbSymbolTableRecord
100
AcDbLayerTableRecord
  2
0
 70
0
  6
CONTINUOUS
  0
LAYER
  5
51
100
AcDbSymbolTableRecord
100
AcDbLayerTableRecord
  2
SideB-4
 70
0
  6
CONTINUOUS
  0
LAYER
  5
52
100
AcDbSymbolTableRecord
100
AcDbLayerTableRecord
  2
SideB-5
 70
0
  6
CONTINUOUS
  0
LAYER
  5
53
100
AcDbSymbolTableRecord
100
AcDbLayerTableRecord
  2
SideB-6
 70
0
  6
CONTINUOUS
  0
ENDTAB
  0
TABLE
  2
STYLE
  5
3
330
0
100
AcDbSymbolTable
 70
     1
  0
STYLE
  5
11
330
3
100
AcDbSymbolTableRecord
100
AcDbTextStyleTableRecord
  2
STANDARD
 70
     0
 40
0.0
 41
1.0
 50
0.0
 71
     0
 42
2.5
  3
txt
  4

  0
ENDTAB
  0
TABLE
  2
VIEW
  5
6
330
0
100
AcDbSymbolTable
 70
     0
  0
ENDTAB
  0
TABLE
  2
UCS
  5
7
330
0
100
AcDbSymbolTable
 70
     0
  0
ENDTAB
  0
TABLE
  2
APPID
  5
9
330
0
100
AcDbSymbolTable
 70
     2
  0
APPID
  5
12
330
9
100
AcDbSymbolTableRecord
100
AcDbRegAppTableRecord
  2
ACAD
 70
     0
  0
ENDTAB
  0
TABLE
  2
DIMSTYLE
  5
A
330
0
100
AcDbSymbolTable
 70
     1
  0
DIMSTYLE
105
27
330
A
100
AcDbSymbolTableRecord
100
AcDbDimStyleTableRecord
  2
ISO-25
 70
     0
  3

  4

  5

  6

  7

 40
1.0
 41
2.5
 42
0.625
 43
3.75
 44
1.25
 45
0.0
 46
0.0
 47
0.0
 48
0.0
140
2.5
141
2.5
142
0.0
143
0.03937007874016
144
1.0
145
0.0
146
1.0
147
0.625
 71
     0
 72
     0
 73
     0
 74
     0
 75
     0
 76
     0
 77
     1
 78
     8
170
     0
171
     3
172
     1
173
     0
174
     0
175
     0
176
     0
177
     0
178
     0
270
     2
271
     2
272
     2
273
     2
274
     3
340
11
275
     0
280
     0
281
     0
282
     0
283
     0
284
     8
285
     0
286
     0
287
     3
288
     0
  0
ENDTAB
  0
TABLE
  2
BLOCK_RECORD
  5
1
330
0
100
AcDbSymbolTable
 70
     1
  0
BLOCK_RECORD
  5
1F
330
1
100
AcDbSymbolTableRecord
100
AcDbBlockTableRecord
  2
*MODEL_SPACE
  0
BLOCK_RECORD
  5
1B
330
1
100
AcDbSymbolTableRecord
100
AcDbBlockTableRecord
  2
*PAPER_SPACE
  0
ENDTAB
  0
ENDSEC
  0
SECTION
  2
BLOCKS
  0
BLOCK
  5
20
330
1F
100
AcDbEntity
  8
0
100
AcDbBlockBegin
  2
*MODEL_SPACE
 70
     0
 10
0.0
 20
0.0
 30
0.0
  3
*MODEL_SPACE
  1

  0
ENDBLK
  5
21
330
1F
100
AcDbEntity
  8
0
100
AcDbBlockEnd
  0
BLOCK
  5
1C
330
1B
100
AcDbEntity
 67
     1
  8
0
100
AcDbBlockBegin
  2
*PAPER_SPACE
  1

  0
ENDBLK
  5
1D
330
1B
100
AcDbEntity
 67
     1
  8
0
100
AcDbBlockEnd
  0
ENDSEC
  0
SECTION
  2
ENTITIES
  0
LWPOLYLINE
  5
100
100
AcDbEntity
  8
SideB-4
 62
7
100
AcDbPolyline
 90
2
 70
0
 10
259.750141
 20
500.240513
 30
0.0
 10
259.750141
 20
201.790513
 30
0.0
  0
LWPOLYLINE
  5
101
100
AcDbEntity
  8
SideB-4
 62
7
100
AcDbPolyline
 90
2
 70
0
 10
183.550141
 20
201.790513
 30
0.0
 10
259.750141
 20
201.790513
 30
0.0
  0
LWPOLYLINE
  5
102
100
AcDbEntity
  8
SideB-4
 62
7
100
AcDbPolyline
 90
2
 70
0
 10
183.550141
 20
500.240513
 30
0.0
 10
183.550141
 20
201.790513
 30
0.0
  0
LWPOLYLINE
  5
103
100
AcDbEntity
  8
SideB-4
 62
7
100
AcDbPolyline
 90
2
 70
0
 10
183.550141
 20
500.240513
 30
0.0
 10
259.750141
 20
500.240513
 30
0.0
  0
SPLINE
  5
104
100
AcDbEntity
  8
SideB-4
 62
7
100
AcDbSpline
 70
8
 71
3
 72
8
 73
4
 74
0
 40
0
 40
0
 40
0
 40
0
 40
1
 40
1
 40
1
 40
1
 10
89.613469
 20
156.232438
 30
0.0
 10
72.835658
 20
154.862602
 30
0.0
 10
60.345014
 20
140.151028
 30
0.0
 10
61.714836
 20
123.373234
 30
0.0
  0
SPLINE
  5
105
100
AcDbEntity
  8
SideB-4
 62
7
100
AcDbSpline
 70
8
 71
3
 72
8
 73
4
 74
0
 40
0
 40
0
 40
0
 40
0
 40
1
 40
1
 40
1
 40
1
 10
61.714836
 20
123.373234
 30
0.0
 10
63.006397
 20
107.553938
 30
0.0
 10
76.221816
 20
95.373509
 30
0.0
 10
92.093751
 20
95.373509
 30
0.0
  0
LWPOLYLINE
  5
106
100
AcDbEntity
  8
SideB-4
 62
7
100
AcDbPolyline
 90
2
 70
0
 10
277.513751
 20
95.373509
 30
0.0
 10
92.093751
 20
95.373509
 30
0.0
  0
LWPOLYLINE
  5
107
100
AcDbEntity
  8
SideB-4
 62
7
100
AcDbPolyline
 90
2
 70
0
 10
277.513751
 20
171.573509
 30
0.0
 10
89.613469
 20
156.232438
 30
0.0
  0
LWPOLYLINE
  5
108
100
AcDbEntity
  8
SideB-4
 62
7
100
AcDbPolyline
 90
2
 70
0
 10
277.513751
 20
171.573509
 30
0.0
 10
277.513751
 20
95.373509
 30
0.0
  0
LWPOLYLINE
  5
109
100
AcDbEntity
  8
SideB-4
 62
7
100
AcDbPolyline
 90
2
 70
0
 10
156.962588
 20
500.039888
 30
0.0
 10
156.962588
 20
201.589888
 30
0.0
  0
LWPOLYLINE
  5
10a
100
AcDbEntity
  8
SideB-4
 62
7
100
AcDbPolyline
 90
2
 70
0
 10
80.762588
 20
201.589888
 30
0.0
 10
156.962588
 20
201.589888
 30
0.0
  0
LWPOLYLINE
  5
10b
100
AcDbEntity
  8
SideB-4
 62
7
100
AcDbPolyline
 90
2
 70
0
 10
80.762588
 20
500.039888
 30
0.0
 10
80.762588
 20
201.589888
 30
0.0
  0
SPLINE
  5
10c
100
AcDbEntity
  8
SideB-5
 62
7
100
AcDbSpline
 70
8
 71
3
 72
8
 73
4
 74
0
 40
0
 40
0
 40
0
 40
0
 40
1
 40
1
 40
1
 40
1
 10
109.323859
 20
493.085509
 30
0.0
 10
75.780464
 20
484.325367
 30
0.0
 10
52.378361
 20
454.026730
 30
0.0
 10
52.378361
 20
419.358305
 30
0.0
  0
LWPOLYLINE
  5
10d
100
AcDbEntity
  8
SideB-4
 62
7
100
AcDbPolyline
 90
2
 70
0
 10
80.762588
 20
500.039888
 30
0.0
 10
156.962588
 20
500.039888
 30
0.0
  0
SPLINE
  5
10e
100
AcDbEntity
  8
SideB-5
 62
7
100
AcDbSpline
 70
8
 71
3
 72
8
 73
4
 74
0
 40
0
 40
0
 40
0
 40
0
 40
1
 40
1
 40
1
 40
1
 10
153.978361
 20
470.158305
 30
0.0
 10
150.471351
 20
487.339042
 30
0.0
 10
133.700599
 20
498.423813
 30
0.0
 10
116.519838
 20
494.916814
 30
0.0
  0
SPLINE
  5
10f
100
AcDbEntity
  8
SideB-5
 62
7
100
AcDbSpline
 70
8
 71
3
 72
8
 73
4
 74
0
 40
0
 40
0
 40
0
 40
0
 40
1
 40
1
 40
1
 40
1
 10
116.519838
 20
494.916814
 30
0.0
 10
115.958865
 20
494.802302
 30
0.0
 10
115.401092
 20
494.672657
 30
0.0
 10
114.847132
 20
494.527982
 30
0.0
  0
LWPOLYLINE
  5
110
100
AcDbEntity
  8
SideB-5
 62
7
100
AcDbPolyline
 90
2
 70
0
 10
114.847132
 20
494.527982
 30
0.0
 10
109.323859
 20
493.085509
 30
0.0
  0
SPLINE
  5
111
100
AcDbEntity
  8
SideB-5
 62
7
100
AcDbSpline
 70
8
 71
3
 72
8
 73
4
 74
0
 40
0
 40
0
 40
0
 40
0
 40
1
 40
1
 40
1
 40
1
 10
76.164230
 20
102.830561
 30
0.0
 10
77.175951
 20
102.195279
 30
0.0
 10
78.346358
 20
101.858305
 30
0.0
 10
79.540998
 20
101.858305
 30
0.0
  0
SPLINE
  5
112
100
AcDbEntity
  8
SideB-5
 62
7
100
AcDbSpline
 70
8
 71
3
 72
8
 73
4
 74
0
 40
0
 40
0
 40
0
 40
0
 40
1
 40
1
 40
1
 40
1
 10
52.378361
 20
145.852375
 30
0.0
 10
52.378361
 20
128.374882
 30
0.0
 10
61.362782
 20
112.124632
 30
0.0
 10
76.164230
 20
102.830561
 30
0.0
  0
LWPOLYLINE
  5
113
100
AcDbEntity
  8
SideB-5
 62
7
100
AcDbPolyline
 90
3
 70
0
 10
153.978361
 20
470.158305
 30
0.0
 10
153.978361
 20
101.858305
 30
0.0
 10
79.540998
 20
101.858305
 30
0.0
  0
LWPOLYLINE
  5
114
100
AcDbEntity
  8
SideB-5
 62
7
100
AcDbPolyline
 90
2
 70
0
 10
52.378361
 20
145.852375
 30
0.0
 10
52.378361
 20
419.358305
 30
0.0
  0
SPLINE
  5
115
100
AcDbEntity
  8
SideB-5
 62
7
100
AcDbSpline
 70
8
 71
3
 72
8
 73
4
 74
0
 40
0
 40
0
 40
0
 40
0
 40
1
 40
1
 40
1
 40
1
 10
199.621879
 20
108.264291
 30
0.0
 10
200.633600
 20
107.629009
 30
0.0
 10
201.804007
 20
107.292036
 30
0.0
 10
202.998643
 20
107.292036
 30
0.0
  0
SPLINE
  5
116
100
AcDbEntity
  8
SideB-5
 62
7
100
AcDbSpline
 70
8
 71
3
 72
8
 73
4
 74
0
 40
0
 40
0
 40
0
 40
0
 40
1
 40
1
 40
1
 40
1
 10
175.836007
 20
151.286106
 30
0.0
 10
175.836007
 20
133.808612
 30
0.0
 10
184.820431
 20
117.558363
 30
0.0
 10
199.621879
 20
108.264291
 30
0.0
  0
LWPOLYLINE
  5
117
100
AcDbEntity
  8
SideB-5
 62
7
100
AcDbPolyline
 90
2
 70
0
 10
277.436007
 20
107.292036
 30
0.0
 10
202.998643
 20
107.292036
 30
0.0
  0
SPLINE
  5
118
100
AcDbEntity
  8
SideB-5
 62
7
100
AcDbSpline
 70
8
 71
3
 72
8
 73
4
 74
0
 40
0
 40
0
 40
0
 40
0
 40
1
 40
1
 40
1
 40
1
 10
232.781508
 20
498.519240
 30
0.0
 10
199.238113
 20
489.759097
 30
0.0
 10
175.836007
 20
459.460460
 30
0.0
 10
175.836007
 20
424.792036
 30
0.0
  0
LWPOLYLINE
  5
119
100
AcDbEntity
  8
SideB-5
 62
7
100
AcDbPolyline
 90
2
 70
0
 10
175.836007
 20
151.286106
 30
0.0
 10
175.836007
 20
424.792036
 30
0.0
  0
SPLINE
  5
11a
100
AcDbEntity
  8
SideB-5
 62
7
100
AcDbSpline
 70
8
 71
3
 72
8
 73
4
 74
0
 40
0
 40
0
 40
0
 40
0
 40
1
 40
1
 40
1
 40
1
 10
277.436007
 20
475.592036
 30
0.0
 10
273.929000
 20
492.772772
 30
0.0
 10
257.158248
 20
503.857551
 30
0.0
 10
239.977487
 20
500.350544
 30
0.0
  0
SPLINE
  5
11b
100
AcDbEntity
  8
SideB-5
 62
7
100
AcDbSpline
 70
8
 71
3
 72
8
 73
4
 74
0
 40
0
 40
0
 40
0
 40
0
 40
1
 40
1
 40
1
 40
1
 10
239.977487
 20
500.350544
 30
0.0
 10
239.416514
 20
500.236033
 30
0.0
 10
238.858741
 20
500.106387
 30
0.0
 10
238.304781
 20
499.961713
 30
0.0
  0
LWPOLYLINE
  5
11c
100
AcDbEntity
  8
SideB-5
 62
7
100
AcDbPolyline
 90
2
 70
0
 10
238.304781
 20
499.961713
 30
0.0
 10
232.781508
 20
498.519240
 30
0.0
  0
SPLINE
  5
11d
100
AcDbEntity
  8
SideB-6
 62
7
100
AcDbSpline
 70
8
 71
3
 72
8
 73
4
 74
0
 40
0
 40
0
 40
0
 40
0
 40
1
 40
1
 40
1
 40
1
 10
138.928204
 20
302.818202
 30
0.0
 10
143.980578
 20
302.818202
 30
0.0
 10
148.826019
 20
304.825260
 30
0.0
 10
152.398589
 20
308.397841
 30
0.0
  0
LWPOLYLINE
  5
11e
100
AcDbEntity
  8
SideB-5
 62
7
100
AcDbPolyline
 90
2
 70
0
 10
277.436007
 20
475.592036
 30
0.0
 10
277.436007
 20
107.292036
 30
0.0
  0
SPLINE
  5
11f
100
AcDbEntity
  8
SideB-6
 62
7
100
AcDbSpline
 70
8
 71
3
 72
8
 73
4
 74
0
 40
0
 40
0
 40
0
 40
0
 40
1
 40
1
 40
1
 40
1
 10
184.554742
 20
332.663202
 30
0.0
 10
179.502365
 20
332.663202
 30
0.0
 10
174.656923
 20
330.656178
 30
0.0
 10
171.084357
 20
327.083598
 30
0.0
  0
LWPOLYLINE
  5
120
100
AcDbEntity
  8
SideB-6
 62
7
100
AcDbPolyline
 90
2
 70
0
 10
152.398589
 20
308.397841
 30
0.0
 10
171.084357
 20
327.083598
 30
0.0
  0
SPLINE
  5
121
100
AcDbEntity
  8
SideB-6
 62
7
100
AcDbSpline
 70
8
 71
3
 72
8
 73
4
 74
0
 40
0
 40
0
 40
0
 40
0
 40
1
 40
1
 40
1
 40
1
 10
303.663971
 20
313.613202
 30
0.0
 10
303.663971
 20
324.134234
 30
0.0
 10
295.134997
 20
332.663202
 30
0.0
 10
284.613971
 20
332.663202
 30
0.0
  0
LWPOLYLINE
  5
122
100
AcDbEntity
  8
SideB-6
 62
7
100
AcDbPolyline
 90
2
 70
0
 10
184.554742
 20
332.663202
 30
0.0
 10
284.613971
 20
332.663202
 30
0.0
  0
SPLINE
  5
123
100
AcDbEntity
  8
SideB-6
 62
7
100
AcDbSpline
 70
8
 71
3
 72
8
 73
4
 74
0
 40
0
 40
0
 40
0
 40
0
 40
1
 40
1
 40
1
 40
1
 10
284.613971
 20
192.963202
 30
0.0
 10
295.134997
 20
192.963202
 30
0.0
 10
303.663971
 20
201.492169
 30
0.0
 10
303.663971
 20
212.013202
 30
0.0
  0
LWPOLYLINE
  5
124
100
AcDbEntity
  8
SideB-6
 62
7
100
AcDbPolyline
 90
2
 70
0
 10
303.663971
 20
313.613202
 30
0.0
 10
303.663971
 20
212.013202
 30
0.0
  0
SPLINE
  5
125
100
AcDbEntity
  8
SideB-6
 62
7
100
AcDbSpline
 70
8
 71
3
 72
8
 73
4
 74
0
 40
0
 40
0
 40
0
 40
0
 40
1
 40
1
 40
1
 40
1
 10
171.084357
 20
198.542841
 30
0.0
 10
174.656923
 20
194.970260
 30
0.0
 10
179.502365
 20
192.963202
 30
0.0
 10
184.554742
 20
192.963202
 30
0.0
  0
LWPOLYLINE
  5
126
100
AcDbEntity
  8
SideB-6
 62
7
100
AcDbPolyline
 90
2
 70
0
 10
184.554742
 20
192.963202
 30
0.0
 10
284.613971
 20
192.963202
 30
0.0
  0
SPLINE
  5
127
100
AcDbEntity
  8
SideB-6
 62
7
100
AcDbSpline
 70
8
 71
3
 72
8
 73
4
 74
0
 40
0
 40
0
 40
0
 40
0
 40
1
 40
1
 40
1
 40
1
 10
152.398589
 20
217.228598
 30
0.0
 10
148.826019
 20
220.801178
 30
0.0
 10
143.980578
 20
222.808202
 30
0.0
 10
138.928204
 20
222.808202
 30
0.0
  0
LWPOLYLINE
  5
128
100
AcDbEntity
  8
SideB-6
 62
7
100
AcDbPolyline
 90
2
 70
0
 10
152.398589
 20
217.228598
 30
0.0
 10
171.084357
 20
198.542841
 30
0.0
  0
SPLINE
  5
129
100
AcDbEntity
  8
SideB-6
 62
7
100
AcDbSpline
 70
8
 71
3
 72
8
 73
4
 74
0
 40
0
 40
0
 40
0
 40
0
 40
1
 40
1
 40
1
 40
1
 10
36.963971
 20
241.858202
 30
0.0
 10
36.963971
 20
231.337169
 30
0.0
 10
45.492949
 20
222.808202
 30
0.0
 10
56.013971
 20
222.808202
 30
0.0
  0
LWPOLYLINE
  5
12a
100
AcDbEntity
  8
SideB-6
 62
7
100
AcDbPolyline
 90
2
 70
0
 10
56.013971
 20
222.808202
 30
0.0
 10
138.928204
 20
222.808202
 30
0.0
  0
SPLINE
  5
12b
100
AcDbEntity
  8
SideB-6
 62
7
100
AcDbSpline
 70
8
 71
3
 72
8
 73
4
 74
0
 40
0
 40
0
 40
0
 40
0
 40
1
 40
1
 40
1
 40
1
 10
56.013971
 20
302.818202
 30
0.0
 10
45.492949
 20
302.818202
 30
0.0
 10
36.963971
 20
294.289234
 30
0.0
 10
36.963971
 20
283.768202
 30
0.0
  0
LWPOLYLINE
  5
12c
100
AcDbEntity
  8
SideB-6
 62
7
100
AcDbPolyline
 90
2
 70
0
 10
36.963971
 20
283.768202
 30
0.0
 10
36.963971
 20
241.858202
 30
0.0
  0
LWPOLYLINE
  5
12d
100
AcDbEntity
  8
SideB-6
 62
7
100
AcDbPolyline
 90
2
 70
0
 10
56.013971
 20
302.818202
 30
0.0
 10
138.928204
 20
302.818202
 30
0.0
  0
SPLINE
  5
12e
100
AcDbEntity
  8
SideB-6
 62
7
100
AcDbSpline
 70
8
 71
3
 72
8
 73
4
 74
0
 40
0
 40
0
 40
0
 40
0
 40
1
 40
1
 40
1
 40
1
 10
251.557046
 20
374.475800
 30
0.0
 10
268.334857
 20
375.845601
 30
0.0
 10
280.825505
 20
390.557175
 30
0.0
 10
279.455683
 20
407.334968
 30
0.0
  0
SPLINE
  5
12f
100
AcDbEntity
  8
SideB-6
 62
7
100
AcDbSpline
 70
8
 71
3
 72
8
 73
4
 74
0
 40
0
 40
0
 40
0
 40
0
 40
1
 40
1
 40
1
 40
1
 10
279.455683
 20
407.334968
 30
0.0
 10
278.164117
 20
423.154265
 30
0.0
 10
264.948702
 20
435.334694
 30
0.0
 10
249.076764
 20
435.334694
 30
0.0
  0
LWPOLYLINE
  5
130
100
AcDbEntity
  8
SideB-6
 62
7
100
AcDbPolyline
 90
2
 70
0
 10
63.656764
 20
435.334694
 30
0.0
 10
249.076764
 20
435.334694
 30
0.0
  0
LWPOLYLINE
  5
131
100
AcDbEntity
  8
SideB-6
 62
7
100
AcDbPolyline
 90
2
 70
0
 10
63.656764
 20
359.134694
 30
0.0
 10
251.557046
 20
374.475800
 30
0.0
  0
LWPOLYLINE
  5
132
100
AcDbEntity
  8
SideB-6
 62
7
100
AcDbPolyline
 90
2
 70
0
 10
63.656764
 20
359.134694
 30
0.0
 10
63.656764
 20
435.334694
 30
0.0
  0
ENDSEC
  0
SECTION
  2
OBJECTS
  0
DICTIONARY
  5
C
330
0
100
AcDbDictionary
  3
ACAD_GROUP
350
D
  3
ACAD_MLINESTYLE
350
17
  0
DICTIONARY
  5
D
330
C
100
AcDbDictionary
  0
DICTIONARY
  5
1A
330
C
100
AcDbDictionary
  0
DICTIONARY
  5
17
330
C
100
AcDbDictionary
  3
STANDARD
350
18
  0
DICTIONARY
  5
19
330
C
100
AcDbDictionary
  0
ENDSEC
  0
EOF
