  0
SECTION
  2
HEADER
  9
$ACADVER
  1
AC1014
  9
$HANDSEED
  5
FFFF
  9
$MEASUREMENT
 70
     1
  0
ENDSEC
  0
SECTION
  2
TABLES
  0
TABLE
  2
VPORT
  5
8
330
0
100
AcDbSymbolTable
 70
     4
  0
VPORT
  5
2E
330
8
100
AcDbSymbolTableRecord
100
AcDbViewportTableRecord
  2
*ACTIVE
 70
     0
 10
0.0
 20
0.0
 11
1.0
 21
1.0
 12
210.0
 22
148.5
 13
0.0
 23
0.0
 14
10.0
 24
10.0
 15
10.0
 25
10.0
 16
0.0
 26
0.0
 36
1.0
 17
0.0
 27
0.0
 37
0.0
 40
341.0
 41
1.24
 42
50.0
 43
0.0
 44
0.0
 50
0.0
 51
0.0
 71
     0
 72
   100
 73
     1
 74
     3
 75
     0
 76
     0
 77
     0
 78
     0
  0
ENDTAB
  0
TABLE
  2
LTYPE
  5
5
330
0
100
AcDbSymbolTable
 70
     1
  0
LTYPE
  5
14
330
5
100
AcDbSymbolTableRecord
100
AcDbLinetypeTableRecord
  2
BYBLOCK
 70
     0
  3

 72
    65
 73
     0
 40
0.0
  0
LTYPE
  5
15
330
5
100
AcDbSymbolTableRecord
100
AcDbLinetypeTableRecord
  2
BYLAYER
 70
     0
  3

 72
    65
 73
     0
 40
0.0
  0
LTYPE
  5
16
330
5
100
AcDbSymbolTableRecord
100
AcDbLinetypeTableRecord
  2
CONTINUOUS
 70
     0
  3
Solid line
 72
    65
 73
     0
 40
0.0
  0
ENDTAB
  0
TABLE
  2
LAYER
  5
2
100
AcDbSymbolTable
 70
2
  0
LAYER
  5
50
100
AcDbSymbolTableRecord
100
AcDbLayerTableRecord
  2
0
 70
0
  6
CONTINUOUS
  0
LAYER
  5
51
100
AcDbSymbolTableRecord
100
AcDbLayerTableRecord
  2
Layer_1
 70
0
  6
CONTINUOUS
  0
ENDTAB
  0
TABLE
  2
STYLE
  5
3
330
0
100
AcDbSymbolTable
 70
     1
  0
STYLE
  5
11
330
3
100
AcDbSymbolTableRecord
100
AcDbTextStyleTableRecord
  2
STANDARD
 70
     0
 40
0.0
 41
1.0
 50
0.0
 71
     0
 42
2.5
  3
txt
  4

  0
ENDTAB
  0
TABLE
  2
VIEW
  5
6
330
0
100
AcDbSymbolTable
 70
     0
  0
ENDTAB
  0
TABLE
  2
UCS
  5
7
330
0
100
AcDbSymbolTable
 70
     0
  0
ENDTAB
  0
TABLE
  2
APPID
  5
9
330
0
100
AcDbSymbolTable
 70
     2
  0
APPID
  5
12
330
9
100
AcDbSymbolTableRecord
100
AcDbRegAppTableRecord
  2
ACAD
 70
     0
  0
ENDTAB
  0
TABLE
  2
DIMSTYLE
  5
A
330
0
100
AcDbSymbolTable
 70
     1
  0
DIMSTYLE
105
27
330
A
100
AcDbSymbolTableRecord
100
AcDbDimStyleTableRecord
  2
ISO-25
 70
     0
  3

  4

  5

  6

  7

 40
1.0
 41
2.5
 42
0.625
 43
3.75
 44
1.25
 45
0.0
 46
0.0
 47
0.0
 48
0.0
140
2.5
141
2.5
142
0.0
143
0.03937007874016
144
1.0
145
0.0
146
1.0
147
0.625
 71
     0
 72
     0
 73
     0
 74
     0
 75
     0
 76
     0
 77
     1
 78
     8
170
     0
171
     3
172
     1
173
     0
174
     0
175
     0
176
     0
177
     0
178
     0
270
     2
271
     2
272
     2
273
     2
274
     3
340
11
275
     0
280
     0
281
     0
282
     0
283
     0
284
     8
285
     0
286
     0
287
     3
288
     0
  0
ENDTAB
  0
TABLE
  2
BLOCK_RECORD
  5
1
330
0
100
AcDbSymbolTable
 70
     1
  0
BLOCK_RECORD
  5
1F
330
1
100
AcDbSymbolTableRecord
100
AcDbBlockTableRecord
  2
*MODEL_SPACE
  0
BLOCK_RECORD
  5
1B
330
1
100
AcDbSymbolTableRecord
100
AcDbBlockTableRecord
  2
*PAPER_SPACE
  0
ENDTAB
  0
ENDSEC
  0
SECTION
  2
BLOCKS
  0
BLOCK
  5
20
330
1F
100
AcDbEntity
  8
0
100
AcDbBlockBegin
  2
*MODEL_SPACE
 70
     0
 10
0.0
 20
0.0
 30
0.0
  3
*MODEL_SPACE
  1

  0
ENDBLK
  5
21
330
1F
100
AcDbEntity
  8
0
100
AcDbBlockEnd
  0
BLOCK
  5
1C
330
1B
100
AcDbEntity
 67
     1
  8
0
100
AcDbBlockBegin
  2
*PAPER_SPACE
  1

  0
ENDBLK
  5
1D
330
1B
100
AcDbEntity
 67
     1
  8
0
100
AcDbBlockEnd
  0
ENDSEC
  0
SECTION
  2
ENTITIES
  0
SPLINE
  5
100
100
AcDbEntity
  8
Layer_1
 62
7
100
AcDbSpline
 70
8
 71
3
 72
8
 73
4
 74
0
 40
0
 40
0
 40
0
 40
0
 40
1
 40
1
 40
1
 40
1
 10
5.805712
 20
84.831339
 30
0.0
 10
4.563155
 20
85.483605
 30
0.0
 10
2.881949
 20
87.166172
 30
0.0
 10
2.183466
 20
88.456515
 30
0.0
  0
LINE
  5
101
100
AcDbEntity
  8
Layer_1
 62
7
100
AcDbLine
 10
2.183466
 20
88.456515
 30
0.0
 11
1.572379
 21
89.585403
 31
0.0
  0
LINE
  5
102
100
AcDbEntity
  8
Layer_1
 62
7
100
AcDbLine
 10
1.572379
 20
89.585403
 30
0.0
 11
1.572379
 21
129.096515
 31
0.0
  0
LINE
  5
103
100
AcDbEntity
  8
Layer_1
 62
7
100
AcDbLine
 10
1.572379
 20
129.096515
 30
0.0
 11
1.572379
 21
168.607626
 31
0.0
  0
LINE
  5
104
100
AcDbEntity
  8
Layer_1
 62
7
100
AcDbLine
 10
1.572379
 20
168.607626
 30
0.0
 11
4.734620
 21
174.393181
 31
0.0
  0
SPLINE
  5
105
100
AcDbEntity
  8
Layer_1
 62
7
100
AcDbSpline
 70
8
 71
3
 72
8
 73
4
 74
0
 40
0
 40
0
 40
0
 40
0
 40
1
 40
1
 40
1
 40
1
 10
4.734620
 20
174.393181
 30
0.0
 10
6.473854
 20
177.575237
 30
0.0
 10
8.066222
 20
180.496237
 30
0.0
 10
8.273218
 20
180.884292
 30
0.0
  0
LINE
  5
106
100
AcDbEntity
  8
Layer_1
 62
7
100
AcDbLine
 10
8.273218
 20
180.884292
 30
0.0
 11
8.649575
 21
181.589848
 31
0.0
  0
LINE
  5
107
100
AcDbEntity
  8
Layer_1
 62
7
100
AcDbLine
 10
8.649575
 20
181.589848
 30
0.0
 11
110.379866
 21
181.671867
 31
0.0
  0
SPLINE
  5
108
100
AcDbEntity
  8
Layer_1
 62
7
100
AcDbSpline
 70
8
 71
3
 72
8
 73
4
 74
0
 40
0
 40
0
 40
0
 40
0
 40
1
 40
1
 40
1
 40
1
 10
110.379866
 20
181.671867
 30
0.0
 10
184.302925
 20
181.731467
 30
0.0
 10
212.406984
 20
181.668255
 30
0.0
 10
213.196049
 20
181.440617
 30
0.0
  0
SPLINE
  5
109
100
AcDbEntity
  8
Layer_1
 62
7
100
AcDbSpline
 70
8
 71
3
 72
8
 73
4
 74
0
 40
0
 40
0
 40
0
 40
0
 40
1
 40
1
 40
1
 40
1
 10
213.196049
 20
181.440617
 30
0.0
 10
214.509144
 20
181.061799
 30
0.0
 10
216.614296
 20
179.185247
 30
0.0
 10
217.355045
 20
177.733222
 30
0.0
  0
SPLINE
  5
10a
100
AcDbEntity
  8
Layer_1
 62
7
100
AcDbSpline
 70
8
 71
3
 72
8
 73
4
 74
0
 40
0
 40
0
 40
0
 40
0
 40
1
 40
1
 40
1
 40
1
 10
217.355045
 20
177.733222
 30
0.0
 10
217.880881
 20
176.702518
 30
0.0
 10
217.895726
 20
175.476694
 30
0.0
 10
217.895726
 20
133.047626
 30
0.0
  0
SPLINE
  5
10b
100
AcDbEntity
  8
Layer_1
 62
7
100
AcDbSpline
 70
8
 71
3
 72
8
 73
4
 74
0
 40
0
 40
0
 40
0
 40
0
 40
1
 40
1
 40
1
 40
1
 10
217.895726
 20
133.047626
 30
0.0
 10
217.895726
 20
90.617784
 30
0.0
 10
217.880768
 20
89.393100
 30
0.0
 10
217.355186
 20
88.374715
 30
0.0
  0
SPLINE
  5
10c
100
AcDbEntity
  8
Layer_1
 62
7
100
AcDbSpline
 70
8
 71
3
 72
8
 73
4
 74
0
 40
0
 40
0
 40
0
 40
0
 40
1
 40
1
 40
1
 40
1
 10
217.355186
 20
88.374715
 30
0.0
 10
216.714598
 20
87.133790
 30
0.0
 10
215.010653
 20
85.454534
 30
0.0
 10
213.746946
 20
84.818721
 30
0.0
  0
SPLINE
  5
10d
100
AcDbEntity
  8
Layer_1
 62
7
100
AcDbSpline
 70
8
 71
3
 72
8
 73
4
 74
0
 40
0
 40
0
 40
0
 40
0
 40
1
 40
1
 40
1
 40
1
 10
213.746946
 20
84.818721
 30
0.0
 10
212.921418
 20
84.403380
 30
0.0
 10
203.976131
 20
84.365263
 30
0.0
 10
109.748060
 20
84.375592
 30
0.0
  0
SPLINE
  5
10e
100
AcDbEntity
  8
Layer_1
 62
7
100
AcDbSpline
 70
8
 71
3
 72
8
 73
4
 74
0
 40
0
 40
0
 40
0
 40
0
 40
1
 40
1
 40
1
 40
1
 10
109.748060
 20
84.375592
 30
0.0
 10
16.491234
 20
84.385809
 30
0.0
 10
6.571579
 20
84.429308
 30
0.0
 10
5.805712
 20
84.831339
 30
0.0
  0
LINE
  5
10f
100
AcDbEntity
  8
Layer_1
 62
7
100
AcDbLine
 10
5.805712
 20
84.831339
 30
0.0
 11
5.805712
 21
84.831339
 31
0.0
  0
SPLINE
  5
110
100
AcDbEntity
  8
Layer_1
 62
7
100
AcDbSpline
 70
8
 71
3
 72
8
 73
4
 74
0
 40
0
 40
0
 40
0
 40
0
 40
1
 40
1
 40
1
 40
1
 10
9.897934
 20
91.419848
 30
0.0
 10
9.897934
 20
93.037921
 30
0.0
 10
9.866577
 20
93.113181
 30
0.0
 10
9.192379
 20
93.113181
 30
0.0
  0
SPLINE
  5
111
100
AcDbEntity
  8
Layer_1
 62
7
100
AcDbSpline
 70
8
 71
3
 72
8
 73
4
 74
0
 40
0
 40
0
 40
0
 40
0
 40
1
 40
1
 40
1
 40
1
 10
9.192379
 20
93.113181
 30
0.0
 10
8.518181
 20
93.113181
 30
0.0
 10
8.486823
 20
93.037921
 30
0.0
 10
8.486823
 20
91.419848
 30
0.0
  0
SPLINE
  5
112
100
AcDbEntity
  8
Layer_1
 62
7
100
AcDbSpline
 70
8
 71
3
 72
8
 73
4
 74
0
 40
0
 40
0
 40
0
 40
0
 40
1
 40
1
 40
1
 40
1
 10
8.486823
 20
91.419848
 30
0.0
 10
8.486823
 20
89.801775
 30
0.0
 10
8.518181
 20
89.726515
 30
0.0
 10
9.192379
 20
89.726515
 30
0.0
  0
SPLINE
  5
113
100
AcDbEntity
  8
Layer_1
 62
7
100
AcDbSpline
 70
8
 71
3
 72
8
 73
4
 74
0
 40
0
 40
0
 40
0
 40
0
 40
1
 40
1
 40
1
 40
1
 10
9.192379
 20
89.726515
 30
0.0
 10
9.866577
 20
89.726515
 30
0.0
 10
9.897934
 20
89.801775
 30
0.0
 10
9.897934
 20
91.419848
 30
0.0
  0
LINE
  5
114
100
AcDbEntity
  8
Layer_1
 62
7
100
AcDbLine
 10
9.897934
 20
91.419848
 30
0.0
 11
9.897934
 21
91.419848
 31
0.0
  0
SPLINE
  5
115
100
AcDbEntity
  8
Layer_1
 62
7
100
AcDbSpline
 70
8
 71
3
 72
8
 73
4
 74
0
 40
0
 40
0
 40
0
 40
0
 40
1
 40
1
 40
1
 40
1
 10
50.537934
 20
91.419848
 30
0.0
 10
50.537934
 20
93.037921
 30
0.0
 10
50.506576
 20
93.113181
 30
0.0
 10
49.832379
 20
93.113181
 30
0.0
  0
SPLINE
  5
116
100
AcDbEntity
  8
Layer_1
 62
7
100
AcDbSpline
 70
8
 71
3
 72
8
 73
4
 74
0
 40
0
 40
0
 40
0
 40
0
 40
1
 40
1
 40
1
 40
1
 10
49.832379
 20
93.113181
 30
0.0
 10
49.158181
 20
93.113181
 30
0.0
 10
49.126823
 20
93.037921
 30
0.0
 10
49.126823
 20
91.419848
 30
0.0
  0
SPLINE
  5
117
100
AcDbEntity
  8
Layer_1
 62
7
100
AcDbSpline
 70
8
 71
3
 72
8
 73
4
 74
0
 40
0
 40
0
 40
0
 40
0
 40
1
 40
1
 40
1
 40
1
 10
49.126823
 20
91.419848
 30
0.0
 10
49.126823
 20
89.801775
 30
0.0
 10
49.158181
 20
89.726515
 30
0.0
 10
49.832379
 20
89.726515
 30
0.0
  0
SPLINE
  5
118
100
AcDbEntity
  8
Layer_1
 62
7
100
AcDbSpline
 70
8
 71
3
 72
8
 73
4
 74
0
 40
0
 40
0
 40
0
 40
0
 40
1
 40
1
 40
1
 40
1
 10
49.832379
 20
89.726515
 30
0.0
 10
50.506576
 20
89.726515
 30
0.0
 10
50.537934
 20
89.801775
 30
0.0
 10
50.537934
 20
91.419848
 30
0.0
  0
LINE
  5
119
100
AcDbEntity
  8
Layer_1
 62
7
100
AcDbLine
 10
50.537934
 20
91.419848
 30
0.0
 11
50.537934
 21
91.419848
 31
0.0
  0
SPLINE
  5
11a
100
AcDbEntity
  8
Layer_1
 62
7
100
AcDbSpline
 70
8
 71
3
 72
8
 73
4
 74
0
 40
0
 40
0
 40
0
 40
0
 40
1
 40
1
 40
1
 40
1
 10
60.697934
 20
91.419848
 30
0.0
 10
60.697934
 20
93.037921
 30
0.0
 10
60.666576
 20
93.113181
 30
0.0
 10
59.992379
 20
93.113181
 30
0.0
  0
SPLINE
  5
11b
100
AcDbEntity
  8
Layer_1
 62
7
100
AcDbSpline
 70
8
 71
3
 72
8
 73
4
 74
0
 40
0
 40
0
 40
0
 40
0
 40
1
 40
1
 40
1
 40
1
 10
59.992379
 20
93.113181
 30
0.0
 10
59.318181
 20
93.113181
 30
0.0
 10
59.286823
 20
93.037921
 30
0.0
 10
59.286823
 20
91.419848
 30
0.0
  0
SPLINE
  5
11c
100
AcDbEntity
  8
Layer_1
 62
7
100
AcDbSpline
 70
8
 71
3
 72
8
 73
4
 74
0
 40
0
 40
0
 40
0
 40
0
 40
1
 40
1
 40
1
 40
1
 10
59.286823
 20
91.419848
 30
0.0
 10
59.286823
 20
89.801775
 30
0.0
 10
59.318181
 20
89.726515
 30
0.0
 10
59.992379
 20
89.726515
 30
0.0
  0
SPLINE
  5
11d
100
AcDbEntity
  8
Layer_1
 62
7
100
AcDbSpline
 70
8
 71
3
 72
8
 73
4
 74
0
 40
0
 40
0
 40
0
 40
0
 40
1
 40
1
 40
1
 40
1
 10
59.992379
 20
89.726515
 30
0.0
 10
60.666576
 20
89.726515
 30
0.0
 10
60.697934
 20
89.801775
 30
0.0
 10
60.697934
 20
91.419848
 30
0.0
  0
LINE
  5
11e
100
AcDbEntity
  8
Layer_1
 62
7
100
AcDbLine
 10
60.697934
 20
91.419848
 30
0.0
 11
60.697934
 21
91.419848
 31
0.0
  0
SPLINE
  5
11f
100
AcDbEntity
  8
Layer_1
 62
7
100
AcDbSpline
 70
8
 71
3
 72
8
 73
4
 74
0
 40
0
 40
0
 40
0
 40
0
 40
1
 40
1
 40
1
 40
1
 10
88.637934
 20
91.419848
 30
0.0
 10
88.637934
 20
93.037921
 30
0.0
 10
88.606576
 20
93.113181
 30
0.0
 10
87.932379
 20
93.113181
 30
0.0
  0
SPLINE
  5
120
100
AcDbEntity
  8
Layer_1
 62
7
100
AcDbSpline
 70
8
 71
3
 72
8
 73
4
 74
0
 40
0
 40
0
 40
0
 40
0
 40
1
 40
1
 40
1
 40
1
 10
87.932379
 20
93.113181
 30
0.0
 10
87.258181
 20
93.113181
 30
0.0
 10
87.226823
 20
93.037921
 30
0.0
 10
87.226823
 20
91.419848
 30
0.0
  0
SPLINE
  5
121
100
AcDbEntity
  8
Layer_1
 62
7
100
AcDbSpline
 70
8
 71
3
 72
8
 73
4
 74
0
 40
0
 40
0
 40
0
 40
0
 40
1
 40
1
 40
1
 40
1
 10
87.226823
 20
91.419848
 30
0.0
 10
87.226823
 20
89.801775
 30
0.0
 10
87.258181
 20
89.726515
 30
0.0
 10
87.932379
 20
89.726515
 30
0.0
  0
SPLINE
  5
122
100
AcDbEntity
  8
Layer_1
 62
7
100
AcDbSpline
 70
8
 71
3
 72
8
 73
4
 74
0
 40
0
 40
0
 40
0
 40
0
 40
1
 40
1
 40
1
 40
1
 10
87.932379
 20
89.726515
 30
0.0
 10
88.606576
 20
89.726515
 30
0.0
 10
88.637934
 20
89.801775
 30
0.0
 10
88.637934
 20
91.419848
 30
0.0
  0
LINE
  5
123
100
AcDbEntity
  8
Layer_1
 62
7
100
AcDbLine
 10
88.637934
 20
91.419848
 30
0.0
 11
88.637934
 21
91.419848
 31
0.0
  0
SPLINE
  5
124
100
AcDbEntity
  8
Layer_1
 62
7
100
AcDbSpline
 70
8
 71
3
 72
8
 73
4
 74
0
 40
0
 40
0
 40
0
 40
0
 40
1
 40
1
 40
1
 40
1
 10
96.257934
 20
91.419848
 30
0.0
 10
96.257934
 20
93.037921
 30
0.0
 10
96.226576
 20
93.113181
 30
0.0
 10
95.552379
 20
93.113181
 30
0.0
  0
SPLINE
  5
125
100
AcDbEntity
  8
Layer_1
 62
7
100
AcDbSpline
 70
8
 71
3
 72
8
 73
4
 74
0
 40
0
 40
0
 40
0
 40
0
 40
1
 40
1
 40
1
 40
1
 10
95.552379
 20
93.113181
 30
0.0
 10
94.878181
 20
93.113181
 30
0.0
 10
94.846823
 20
93.037921
 30
0.0
 10
94.846823
 20
91.419848
 30
0.0
  0
SPLINE
  5
126
100
AcDbEntity
  8
Layer_1
 62
7
100
AcDbSpline
 70
8
 71
3
 72
8
 73
4
 74
0
 40
0
 40
0
 40
0
 40
0
 40
1
 40
1
 40
1
 40
1
 10
94.846823
 20
91.419848
 30
0.0
 10
94.846823
 20
89.801775
 30
0.0
 10
94.878181
 20
89.726515
 30
0.0
 10
95.552379
 20
89.726515
 30
0.0
  0
SPLINE
  5
127
100
AcDbEntity
  8
Layer_1
 62
7
100
AcDbSpline
 70
8
 71
3
 72
8
 73
4
 74
0
 40
0
 40
0
 40
0
 40
0
 40
1
 40
1
 40
1
 40
1
 10
95.552379
 20
89.726515
 30
0.0
 10
96.226576
 20
89.726515
 30
0.0
 10
96.257934
 20
89.801775
 30
0.0
 10
96.257934
 20
91.419848
 30
0.0
  0
LINE
  5
128
100
AcDbEntity
  8
Layer_1
 62
7
100
AcDbLine
 10
96.257934
 20
91.419848
 30
0.0
 11
96.257934
 21
91.419848
 31
0.0
  0
SPLINE
  5
129
100
AcDbEntity
  8
Layer_1
 62
7
100
AcDbSpline
 70
8
 71
3
 72
8
 73
4
 74
0
 40
0
 40
0
 40
0
 40
0
 40
1
 40
1
 40
1
 40
1
 10
114.037934
 20
91.419848
 30
0.0
 10
114.037934
 20
93.037921
 30
0.0
 10
114.006576
 20
93.113181
 30
0.0
 10
113.332379
 20
93.113181
 30
0.0
  0
SPLINE
  5
12a
100
AcDbEntity
  8
Layer_1
 62
7
100
AcDbSpline
 70
8
 71
3
 72
8
 73
4
 74
0
 40
0
 40
0
 40
0
 40
0
 40
1
 40
1
 40
1
 40
1
 10
113.332379
 20
93.113181
 30
0.0
 10
112.658181
 20
93.113181
 30
0.0
 10
112.626823
 20
93.037921
 30
0.0
 10
112.626823
 20
91.419848
 30
0.0
  0
SPLINE
  5
12b
100
AcDbEntity
  8
Layer_1
 62
7
100
AcDbSpline
 70
8
 71
3
 72
8
 73
4
 74
0
 40
0
 40
0
 40
0
 40
0
 40
1
 40
1
 40
1
 40
1
 10
112.626823
 20
91.419848
 30
0.0
 10
112.626823
 20
89.801775
 30
0.0
 10
112.658181
 20
89.726515
 30
0.0
 10
113.332379
 20
89.726515
 30
0.0
  0
SPLINE
  5
12c
100
AcDbEntity
  8
Layer_1
 62
7
100
AcDbSpline
 70
8
 71
3
 72
8
 73
4
 74
0
 40
0
 40
0
 40
0
 40
0
 40
1
 40
1
 40
1
 40
1
 10
113.332379
 20
89.726515
 30
0.0
 10
114.006576
 20
89.726515
 30
0.0
 10
114.037934
 20
89.801775
 30
0.0
 10
114.037934
 20
91.419848
 30
0.0
  0
LINE
  5
12d
100
AcDbEntity
  8
Layer_1
 62
7
100
AcDbLine
 10
114.037934
 20
91.419848
 30
0.0
 11
114.037934
 21
91.419848
 31
0.0
  0
SPLINE
  5
12e
100
AcDbEntity
  8
Layer_1
 62
7
100
AcDbSpline
 70
8
 71
3
 72
8
 73
4
 74
0
 40
0
 40
0
 40
0
 40
0
 40
1
 40
1
 40
1
 40
1
 10
154.677934
 20
91.419848
 30
0.0
 10
154.677934
 20
93.037921
 30
0.0
 10
154.646576
 20
93.113181
 30
0.0
 10
153.972379
 20
93.113181
 30
0.0
  0
SPLINE
  5
12f
100
AcDbEntity
  8
Layer_1
 62
7
100
AcDbSpline
 70
8
 71
3
 72
8
 73
4
 74
0
 40
0
 40
0
 40
0
 40
0
 40
1
 40
1
 40
1
 40
1
 10
153.972379
 20
93.113181
 30
0.0
 10
153.298181
 20
93.113181
 30
0.0
 10
153.266823
 20
93.037921
 30
0.0
 10
153.266823
 20
91.419848
 30
0.0
  0
SPLINE
  5
130
100
AcDbEntity
  8
Layer_1
 62
7
100
AcDbSpline
 70
8
 71
3
 72
8
 73
4
 74
0
 40
0
 40
0
 40
0
 40
0
 40
1
 40
1
 40
1
 40
1
 10
153.266823
 20
91.419848
 30
0.0
 10
153.266823
 20
89.801775
 30
0.0
 10
153.298181
 20
89.726515
 30
0.0
 10
153.972379
 20
89.726515
 30
0.0
  0
SPLINE
  5
131
100
AcDbEntity
  8
Layer_1
 62
7
100
AcDbSpline
 70
8
 71
3
 72
8
 73
4
 74
0
 40
0
 40
0
 40
0
 40
0
 40
1
 40
1
 40
1
 40
1
 10
153.972379
 20
89.726515
 30
0.0
 10
154.646576
 20
89.726515
 30
0.0
 10
154.677934
 20
89.801775
 30
0.0
 10
154.677934
 20
91.419848
 30
0.0
  0
LINE
  5
132
100
AcDbEntity
  8
Layer_1
 62
7
100
AcDbLine
 10
154.677934
 20
91.419848
 30
0.0
 11
154.677934
 21
91.419848
 31
0.0
  0
SPLINE
  5
133
100
AcDbEntity
  8
Layer_1
 62
7
100
AcDbSpline
 70
8
 71
3
 72
8
 73
4
 74
0
 40
0
 40
0
 40
0
 40
0
 40
1
 40
1
 40
1
 40
1
 10
177.537934
 20
91.419848
 30
0.0
 10
177.537934
 20
93.037921
 30
0.0
 10
177.506576
 20
93.113181
 30
0.0
 10
176.832379
 20
93.113181
 30
0.0
  0
SPLINE
  5
134
100
AcDbEntity
  8
Layer_1
 62
7
100
AcDbSpline
 70
8
 71
3
 72
8
 73
4
 74
0
 40
0
 40
0
 40
0
 40
0
 40
1
 40
1
 40
1
 40
1
 10
176.832379
 20
93.113181
 30
0.0
 10
176.158181
 20
93.113181
 30
0.0
 10
176.126823
 20
93.037921
 30
0.0
 10
176.126823
 20
91.419848
 30
0.0
  0
SPLINE
  5
135
100
AcDbEntity
  8
Layer_1
 62
7
100
AcDbSpline
 70
8
 71
3
 72
8
 73
4
 74
0
 40
0
 40
0
 40
0
 40
0
 40
1
 40
1
 40
1
 40
1
 10
176.126823
 20
91.419848
 30
0.0
 10
176.126823
 20
89.801775
 30
0.0
 10
176.158181
 20
89.726515
 30
0.0
 10
176.832379
 20
89.726515
 30
0.0
  0
SPLINE
  5
136
100
AcDbEntity
  8
Layer_1
 62
7
100
AcDbSpline
 70
8
 71
3
 72
8
 73
4
 74
0
 40
0
 40
0
 40
0
 40
0
 40
1
 40
1
 40
1
 40
1
 10
176.832379
 20
89.726515
 30
0.0
 10
177.506576
 20
89.726515
 30
0.0
 10
177.537934
 20
89.801775
 30
0.0
 10
177.537934
 20
91.419848
 30
0.0
  0
LINE
  5
137
100
AcDbEntity
  8
Layer_1
 62
7
100
AcDbLine
 10
177.537934
 20
91.419848
 30
0.0
 11
177.537934
 21
91.419848
 31
0.0
  0
SPLINE
  5
138
100
AcDbEntity
  8
Layer_1
 62
7
100
AcDbSpline
 70
8
 71
3
 72
8
 73
4
 74
0
 40
0
 40
0
 40
0
 40
0
 40
1
 40
1
 40
1
 40
1
 10
30.217934
 20
98.757626
 30
0.0
 10
30.217934
 20
100.375699
 30
0.0
 10
30.186576
 20
100.450959
 30
0.0
 10
29.512379
 20
100.450959
 30
0.0
  0
SPLINE
  5
139
100
AcDbEntity
  8
Layer_1
 62
7
100
AcDbSpline
 70
8
 71
3
 72
8
 73
4
 74
0
 40
0
 40
0
 40
0
 40
0
 40
1
 40
1
 40
1
 40
1
 10
29.512379
 20
100.450959
 30
0.0
 10
28.838181
 20
100.450959
 30
0.0
 10
28.806823
 20
100.375699
 30
0.0
 10
28.806823
 20
98.757626
 30
0.0
  0
SPLINE
  5
13a
100
AcDbEntity
  8
Layer_1
 62
7
100
AcDbSpline
 70
8
 71
3
 72
8
 73
4
 74
0
 40
0
 40
0
 40
0
 40
0
 40
1
 40
1
 40
1
 40
1
 10
28.806823
 20
98.757626
 30
0.0
 10
28.806823
 20
97.139552
 30
0.0
 10
28.838181
 20
97.064292
 30
0.0
 10
29.512379
 20
97.064292
 30
0.0
  0
SPLINE
  5
13b
100
AcDbEntity
  8
Layer_1
 62
7
100
AcDbSpline
 70
8
 71
3
 72
8
 73
4
 74
0
 40
0
 40
0
 40
0
 40
0
 40
1
 40
1
 40
1
 40
1
 10
29.512379
 20
97.064292
 30
0.0
 10
30.186576
 20
97.064292
 30
0.0
 10
30.217934
 20
97.139552
 30
0.0
 10
30.217934
 20
98.757626
 30
0.0
  0
LINE
  5
13c
100
AcDbEntity
  8
Layer_1
 62
7
100
AcDbLine
 10
30.217934
 20
98.757626
 30
0.0
 11
30.217934
 21
98.757626
 31
0.0
  0
SPLINE
  5
13d
100
AcDbEntity
  8
Layer_1
 62
7
100
AcDbSpline
 70
8
 71
3
 72
8
 73
4
 74
0
 40
0
 40
0
 40
0
 40
0
 40
1
 40
1
 40
1
 40
1
 10
37.837934
 20
98.757626
 30
0.0
 10
37.837934
 20
100.375699
 30
0.0
 10
37.806576
 20
100.450959
 30
0.0
 10
37.132379
 20
100.450959
 30
0.0
  0
SPLINE
  5
13e
100
AcDbEntity
  8
Layer_1
 62
7
100
AcDbSpline
 70
8
 71
3
 72
8
 73
4
 74
0
 40
0
 40
0
 40
0
 40
0
 40
1
 40
1
 40
1
 40
1
 10
37.132379
 20
100.450959
 30
0.0
 10
36.458181
 20
100.450959
 30
0.0
 10
36.426823
 20
100.375699
 30
0.0
 10
36.426823
 20
98.757626
 30
0.0
  0
SPLINE
  5
13f
100
AcDbEntity
  8
Layer_1
 62
7
100
AcDbSpline
 70
8
 71
3
 72
8
 73
4
 74
0
 40
0
 40
0
 40
0
 40
0
 40
1
 40
1
 40
1
 40
1
 10
36.426823
 20
98.757626
 30
0.0
 10
36.426823
 20
97.139552
 30
0.0
 10
36.458181
 20
97.064292
 30
0.0
 10
37.132379
 20
97.064292
 30
0.0
  0
SPLINE
  5
140
100
AcDbEntity
  8
Layer_1
 62
7
100
AcDbSpline
 70
8
 71
3
 72
8
 73
4
 74
0
 40
0
 40
0
 40
0
 40
0
 40
1
 40
1
 40
1
 40
1
 10
37.132379
 20
97.064292
 30
0.0
 10
37.806576
 20
97.064292
 30
0.0
 10
37.837934
 20
97.139552
 30
0.0
 10
37.837934
 20
98.757626
 30
0.0
  0
LINE
  5
141
100
AcDbEntity
  8
Layer_1
 62
7
100
AcDbLine
 10
37.837934
 20
98.757626
 30
0.0
 11
37.837934
 21
98.757626
 31
0.0
  0
SPLINE
  5
142
100
AcDbEntity
  8
Layer_1
 62
7
100
AcDbSpline
 70
8
 71
3
 72
8
 73
4
 74
0
 40
0
 40
0
 40
0
 40
0
 40
1
 40
1
 40
1
 40
1
 10
63.237934
 20
98.757626
 30
0.0
 10
63.237934
 20
100.375699
 30
0.0
 10
63.206576
 20
100.450959
 30
0.0
 10
62.532379
 20
100.450959
 30
0.0
  0
SPLINE
  5
143
100
AcDbEntity
  8
Layer_1
 62
7
100
AcDbSpline
 70
8
 71
3
 72
8
 73
4
 74
0
 40
0
 40
0
 40
0
 40
0
 40
1
 40
1
 40
1
 40
1
 10
62.532379
 20
100.450959
 30
0.0
 10
61.858181
 20
100.450959
 30
0.0
 10
61.826823
 20
100.375699
 30
0.0
 10
61.826823
 20
98.757626
 30
0.0
  0
SPLINE
  5
144
100
AcDbEntity
  8
Layer_1
 62
7
100
AcDbSpline
 70
8
 71
3
 72
8
 73
4
 74
0
 40
0
 40
0
 40
0
 40
0
 40
1
 40
1
 40
1
 40
1
 10
61.826823
 20
98.757626
 30
0.0
 10
61.826823
 20
97.139552
 30
0.0
 10
61.858181
 20
97.064292
 30
0.0
 10
62.532379
 20
97.064292
 30
0.0
  0
SPLINE
  5
145
100
AcDbEntity
  8
Layer_1
 62
7
100
AcDbSpline
 70
8
 71
3
 72
8
 73
4
 74
0
 40
0
 40
0
 40
0
 40
0
 40
1
 40
1
 40
1
 40
1
 10
62.532379
 20
97.064292
 30
0.0
 10
63.206576
 20
97.064292
 30
0.0
 10
63.237934
 20
97.139552
 30
0.0
 10
63.237934
 20
98.757626
 30
0.0
  0
LINE
  5
146
100
AcDbEntity
  8
Layer_1
 62
7
100
AcDbLine
 10
63.237934
 20
98.757626
 30
0.0
 11
63.237934
 21
98.757626
 31
0.0
  0
SPLINE
  5
147
100
AcDbEntity
  8
Layer_1
 62
7
100
AcDbSpline
 70
8
 71
3
 72
8
 73
4
 74
0
 40
0
 40
0
 40
0
 40
0
 40
1
 40
1
 40
1
 40
1
 10
139.437934
 20
98.757626
 30
0.0
 10
139.437934
 20
100.375699
 30
0.0
 10
139.406576
 20
100.450959
 30
0.0
 10
138.732379
 20
100.450959
 30
0.0
  0
SPLINE
  5
148
100
AcDbEntity
  8
Layer_1
 62
7
100
AcDbSpline
 70
8
 71
3
 72
8
 73
4
 74
0
 40
0
 40
0
 40
0
 40
0
 40
1
 40
1
 40
1
 40
1
 10
138.732379
 20
100.450959
 30
0.0
 10
138.058181
 20
100.450959
 30
0.0
 10
138.026823
 20
100.375699
 30
0.0
 10
138.026823
 20
98.757626
 30
0.0
  0
SPLINE
  5
149
100
AcDbEntity
  8
Layer_1
 62
7
100
AcDbSpline
 70
8
 71
3
 72
8
 73
4
 74
0
 40
0
 40
0
 40
0
 40
0
 40
1
 40
1
 40
1
 40
1
 10
138.026823
 20
98.757626
 30
0.0
 10
138.026823
 20
97.139552
 30
0.0
 10
138.058181
 20
97.064292
 30
0.0
 10
138.732379
 20
97.064292
 30
0.0
  0
SPLINE
  5
14a
100
AcDbEntity
  8
Layer_1
 62
7
100
AcDbSpline
 70
8
 71
3
 72
8
 73
4
 74
0
 40
0
 40
0
 40
0
 40
0
 40
1
 40
1
 40
1
 40
1
 10
138.732379
 20
97.064292
 30
0.0
 10
139.406576
 20
97.064292
 30
0.0
 10
139.437934
 20
97.139552
 30
0.0
 10
139.437934
 20
98.757626
 30
0.0
  0
LINE
  5
14b
100
AcDbEntity
  8
Layer_1
 62
7
100
AcDbLine
 10
139.437934
 20
98.757626
 30
0.0
 11
139.437934
 21
98.757626
 31
0.0
  0
SPLINE
  5
14c
100
AcDbEntity
  8
Layer_1
 62
7
100
AcDbSpline
 70
8
 71
3
 72
8
 73
4
 74
0
 40
0
 40
0
 40
0
 40
0
 40
1
 40
1
 40
1
 40
1
 10
162.297934
 20
98.757626
 30
0.0
 10
162.297934
 20
100.375699
 30
0.0
 10
162.266576
 20
100.450959
 30
0.0
 10
161.592379
 20
100.450959
 30
0.0
  0
SPLINE
  5
14d
100
AcDbEntity
  8
Layer_1
 62
7
100
AcDbSpline
 70
8
 71
3
 72
8
 73
4
 74
0
 40
0
 40
0
 40
0
 40
0
 40
1
 40
1
 40
1
 40
1
 10
161.592379
 20
100.450959
 30
0.0
 10
160.918181
 20
100.450959
 30
0.0
 10
160.886823
 20
100.375699
 30
0.0
 10
160.886823
 20
98.757626
 30
0.0
  0
SPLINE
  5
14e
100
AcDbEntity
  8
Layer_1
 62
7
100
AcDbSpline
 70
8
 71
3
 72
8
 73
4
 74
0
 40
0
 40
0
 40
0
 40
0
 40
1
 40
1
 40
1
 40
1
 10
160.886823
 20
98.757626
 30
0.0
 10
160.886823
 20
97.139552
 30
0.0
 10
160.918181
 20
97.064292
 30
0.0
 10
161.592379
 20
97.064292
 30
0.0
  0
SPLINE
  5
14f
100
AcDbEntity
  8
Layer_1
 62
7
100
AcDbSpline
 70
8
 71
3
 72
8
 73
4
 74
0
 40
0
 40
0
 40
0
 40
0
 40
1
 40
1
 40
1
 40
1
 10
161.592379
 20
97.064292
 30
0.0
 10
162.266576
 20
97.064292
 30
0.0
 10
162.297934
 20
97.139552
 30
0.0
 10
162.297934
 20
98.757626
 30
0.0
  0
LINE
  5
150
100
AcDbEntity
  8
Layer_1
 62
7
100
AcDbLine
 10
162.297934
 20
98.757626
 30
0.0
 11
162.297934
 21
98.757626
 31
0.0
  0
SPLINE
  5
151
100
AcDbEntity
  8
Layer_1
 62
7
100
AcDbSpline
 70
8
 71
3
 72
8
 73
4
 74
0
 40
0
 40
0
 40
0
 40
0
 40
1
 40
1
 40
1
 40
1
 10
174.997934
 20
98.757626
 30
0.0
 10
174.997934
 20
100.375699
 30
0.0
 10
174.966576
 20
100.450959
 30
0.0
 10
174.292379
 20
100.450959
 30
0.0
  0
SPLINE
  5
152
100
AcDbEntity
  8
Layer_1
 62
7
100
AcDbSpline
 70
8
 71
3
 72
8
 73
4
 74
0
 40
0
 40
0
 40
0
 40
0
 40
1
 40
1
 40
1
 40
1
 10
174.292379
 20
100.450959
 30
0.0
 10
173.618181
 20
100.450959
 30
0.0
 10
173.586823
 20
100.375699
 30
0.0
 10
173.586823
 20
98.757626
 30
0.0
  0
SPLINE
  5
153
100
AcDbEntity
  8
Layer_1
 62
7
100
AcDbSpline
 70
8
 71
3
 72
8
 73
4
 74
0
 40
0
 40
0
 40
0
 40
0
 40
1
 40
1
 40
1
 40
1
 10
173.586823
 20
98.757626
 30
0.0
 10
173.586823
 20
97.139552
 30
0.0
 10
173.618181
 20
97.064292
 30
0.0
 10
174.292379
 20
97.064292
 30
0.0
  0
SPLINE
  5
154
100
AcDbEntity
  8
Layer_1
 62
7
100
AcDbSpline
 70
8
 71
3
 72
8
 73
4
 74
0
 40
0
 40
0
 40
0
 40
0
 40
1
 40
1
 40
1
 40
1
 10
174.292379
 20
97.064292
 30
0.0
 10
174.966576
 20
97.064292
 30
0.0
 10
174.997934
 20
97.139552
 30
0.0
 10
174.997934
 20
98.757626
 30
0.0
  0
LINE
  5
155
100
AcDbEntity
  8
Layer_1
 62
7
100
AcDbLine
 10
174.997934
 20
98.757626
 30
0.0
 11
174.997934
 21
98.757626
 31
0.0
  0
SPLINE
  5
156
100
AcDbEntity
  8
Layer_1
 62
7
100
AcDbSpline
 70
8
 71
3
 72
8
 73
4
 74
0
 40
0
 40
0
 40
0
 40
0
 40
1
 40
1
 40
1
 40
1
 10
192.777934
 20
98.757626
 30
0.0
 10
192.777934
 20
100.375699
 30
0.0
 10
192.746576
 20
100.450959
 30
0.0
 10
192.072379
 20
100.450959
 30
0.0
  0
SPLINE
  5
157
100
AcDbEntity
  8
Layer_1
 62
7
100
AcDbSpline
 70
8
 71
3
 72
8
 73
4
 74
0
 40
0
 40
0
 40
0
 40
0
 40
1
 40
1
 40
1
 40
1
 10
192.072379
 20
100.450959
 30
0.0
 10
191.398181
 20
100.450959
 30
0.0
 10
191.366823
 20
100.375699
 30
0.0
 10
191.366823
 20
98.757626
 30
0.0
  0
SPLINE
  5
158
100
AcDbEntity
  8
Layer_1
 62
7
100
AcDbSpline
 70
8
 71
3
 72
8
 73
4
 74
0
 40
0
 40
0
 40
0
 40
0
 40
1
 40
1
 40
1
 40
1
 10
191.366823
 20
98.757626
 30
0.0
 10
191.366823
 20
97.139552
 30
0.0
 10
191.398181
 20
97.064292
 30
0.0
 10
192.072379
 20
97.064292
 30
0.0
  0
SPLINE
  5
159
100
AcDbEntity
  8
Layer_1
 62
7
100
AcDbSpline
 70
8
 71
3
 72
8
 73
4
 74
0
 40
0
 40
0
 40
0
 40
0
 40
1
 40
1
 40
1
 40
1
 10
192.072379
 20
97.064292
 30
0.0
 10
192.746576
 20
97.064292
 30
0.0
 10
192.777934
 20
97.139552
 30
0.0
 10
192.777934
 20
98.757626
 30
0.0
  0
LINE
  5
15a
100
AcDbEntity
  8
Layer_1
 62
7
100
AcDbLine
 10
192.777934
 20
98.757626
 30
0.0
 11
192.777934
 21
98.757626
 31
0.0
  0
SPLINE
  5
15b
100
AcDbEntity
  8
Layer_1
 62
7
100
AcDbSpline
 70
8
 71
3
 72
8
 73
4
 74
0
 40
0
 40
0
 40
0
 40
0
 40
1
 40
1
 40
1
 40
1
 10
200.397934
 20
98.757626
 30
0.0
 10
200.397934
 20
100.375699
 30
0.0
 10
200.366576
 20
100.450959
 30
0.0
 10
199.692379
 20
100.450959
 30
0.0
  0
SPLINE
  5
15c
100
AcDbEntity
  8
Layer_1
 62
7
100
AcDbSpline
 70
8
 71
3
 72
8
 73
4
 74
0
 40
0
 40
0
 40
0
 40
0
 40
1
 40
1
 40
1
 40
1
 10
199.692379
 20
100.450959
 30
0.0
 10
199.018181
 20
100.450959
 30
0.0
 10
198.986823
 20
100.375699
 30
0.0
 10
198.986823
 20
98.757626
 30
0.0
  0
SPLINE
  5
15d
100
AcDbEntity
  8
Layer_1
 62
7
100
AcDbSpline
 70
8
 71
3
 72
8
 73
4
 74
0
 40
0
 40
0
 40
0
 40
0
 40
1
 40
1
 40
1
 40
1
 10
198.986823
 20
98.757626
 30
0.0
 10
198.986823
 20
97.139552
 30
0.0
 10
199.018181
 20
97.064292
 30
0.0
 10
199.692379
 20
97.064292
 30
0.0
  0
SPLINE
  5
15e
100
AcDbEntity
  8
Layer_1
 62
7
100
AcDbSpline
 70
8
 71
3
 72
8
 73
4
 74
0
 40
0
 40
0
 40
0
 40
0
 40
1
 40
1
 40
1
 40
1
 10
199.692379
 20
97.064292
 30
0.0
 10
200.366576
 20
97.064292
 30
0.0
 10
200.397934
 20
97.139552
 30
0.0
 10
200.397934
 20
98.757626
 30
0.0
  0
LINE
  5
15f
100
AcDbEntity
  8
Layer_1
 62
7
100
AcDbLine
 10
200.397934
 20
98.757626
 30
0.0
 11
200.397934
 21
98.757626
 31
0.0
  0
SPLINE
  5
160
100
AcDbEntity
  8
Layer_1
 62
7
100
AcDbSpline
 70
8
 71
3
 72
8
 73
4
 74
0
 40
0
 40
0
 40
0
 40
0
 40
1
 40
1
 40
1
 40
1
 10
78.477934
 20
106.377626
 30
0.0
 10
78.477934
 20
107.995699
 30
0.0
 10
78.446576
 20
108.070959
 30
0.0
 10
77.772379
 20
108.070959
 30
0.0
  0
SPLINE
  5
161
100
AcDbEntity
  8
Layer_1
 62
7
100
AcDbSpline
 70
8
 71
3
 72
8
 73
4
 74
0
 40
0
 40
0
 40
0
 40
0
 40
1
 40
1
 40
1
 40
1
 10
77.772379
 20
108.070959
 30
0.0
 10
77.098181
 20
108.070959
 30
0.0
 10
77.066823
 20
107.995699
 30
0.0
 10
77.066823
 20
106.377626
 30
0.0
  0
SPLINE
  5
162
100
AcDbEntity
  8
Layer_1
 62
7
100
AcDbSpline
 70
8
 71
3
 72
8
 73
4
 74
0
 40
0
 40
0
 40
0
 40
0
 40
1
 40
1
 40
1
 40
1
 10
77.066823
 20
106.377626
 30
0.0
 10
77.066823
 20
104.759552
 30
0.0
 10
77.098181
 20
104.684292
 30
0.0
 10
77.772379
 20
104.684292
 30
0.0
  0
SPLINE
  5
163
100
AcDbEntity
  8
Layer_1
 62
7
100
AcDbSpline
 70
8
 71
3
 72
8
 73
4
 74
0
 40
0
 40
0
 40
0
 40
0
 40
1
 40
1
 40
1
 40
1
 10
77.772379
 20
104.684292
 30
0.0
 10
78.446576
 20
104.684292
 30
0.0
 10
78.477934
 20
104.759552
 30
0.0
 10
78.477934
 20
106.377626
 30
0.0
  0
LINE
  5
164
100
AcDbEntity
  8
Layer_1
 62
7
100
AcDbLine
 10
78.477934
 20
106.377626
 30
0.0
 11
78.477934
 21
106.377626
 31
0.0
  0
SPLINE
  5
165
100
AcDbEntity
  8
Layer_1
 62
7
100
AcDbSpline
 70
8
 71
3
 72
8
 73
4
 74
0
 40
0
 40
0
 40
0
 40
0
 40
1
 40
1
 40
1
 40
1
 10
129.277934
 20
106.377626
 30
0.0
 10
129.277934
 20
107.995699
 30
0.0
 10
129.246576
 20
108.070959
 30
0.0
 10
128.572379
 20
108.070959
 30
0.0
  0
SPLINE
  5
166
100
AcDbEntity
  8
Layer_1
 62
7
100
AcDbSpline
 70
8
 71
3
 72
8
 73
4
 74
0
 40
0
 40
0
 40
0
 40
0
 40
1
 40
1
 40
1
 40
1
 10
128.572379
 20
108.070959
 30
0.0
 10
127.898181
 20
108.070959
 30
0.0
 10
127.866823
 20
107.995699
 30
0.0
 10
127.866823
 20
106.377626
 30
0.0
  0
SPLINE
  5
167
100
AcDbEntity
  8
Layer_1
 62
7
100
AcDbSpline
 70
8
 71
3
 72
8
 73
4
 74
0
 40
0
 40
0
 40
0
 40
0
 40
1
 40
1
 40
1
 40
1
 10
127.866823
 20
106.377626
 30
0.0
 10
127.866823
 20
104.759552
 30
0.0
 10
127.898181
 20
104.684292
 30
0.0
 10
128.572379
 20
104.684292
 30
0.0
  0
SPLINE
  5
168
100
AcDbEntity
  8
Layer_1
 62
7
100
AcDbSpline
 70
8
 71
3
 72
8
 73
4
 74
0
 40
0
 40
0
 40
0
 40
0
 40
1
 40
1
 40
1
 40
1
 10
128.572379
 20
104.684292
 30
0.0
 10
129.246576
 20
104.684292
 30
0.0
 10
129.277934
 20
104.759552
 30
0.0
 10
129.277934
 20
106.377626
 30
0.0
  0
LINE
  5
169
100
AcDbEntity
  8
Layer_1
 62
7
100
AcDbLine
 10
129.277934
 20
106.377626
 30
0.0
 11
129.277934
 21
106.377626
 31
0.0
  0
SPLINE
  5
16a
100
AcDbEntity
  8
Layer_1
 62
7
100
AcDbSpline
 70
8
 71
3
 72
8
 73
4
 74
0
 40
0
 40
0
 40
0
 40
0
 40
1
 40
1
 40
1
 40
1
 10
40.377934
 20
113.997626
 30
0.0
 10
40.377934
 20
115.615699
 30
0.0
 10
40.346576
 20
115.690959
 30
0.0
 10
39.672379
 20
115.690959
 30
0.0
  0
SPLINE
  5
16b
100
AcDbEntity
  8
Layer_1
 62
7
100
AcDbSpline
 70
8
 71
3
 72
8
 73
4
 74
0
 40
0
 40
0
 40
0
 40
0
 40
1
 40
1
 40
1
 40
1
 10
39.672379
 20
115.690959
 30
0.0
 10
38.998181
 20
115.690959
 30
0.0
 10
38.966823
 20
115.615699
 30
0.0
 10
38.966823
 20
113.997626
 30
0.0
  0
SPLINE
  5
16c
100
AcDbEntity
  8
Layer_1
 62
7
100
AcDbSpline
 70
8
 71
3
 72
8
 73
4
 74
0
 40
0
 40
0
 40
0
 40
0
 40
1
 40
1
 40
1
 40
1
 10
38.966823
 20
113.997626
 30
0.0
 10
38.966823
 20
112.379552
 30
0.0
 10
38.998181
 20
112.304292
 30
0.0
 10
39.672379
 20
112.304292
 30
0.0
  0
SPLINE
  5
16d
100
AcDbEntity
  8
Layer_1
 62
7
100
AcDbSpline
 70
8
 71
3
 72
8
 73
4
 74
0
 40
0
 40
0
 40
0
 40
0
 40
1
 40
1
 40
1
 40
1
 10
39.672379
 20
112.304292
 30
0.0
 10
40.346576
 20
112.304292
 30
0.0
 10
40.377934
 20
112.379552
 30
0.0
 10
40.377934
 20
113.997626
 30
0.0
  0
LINE
  5
16e
100
AcDbEntity
  8
Layer_1
 62
7
100
AcDbLine
 10
40.377934
 20
113.997626
 30
0.0
 11
40.377934
 21
113.997626
 31
0.0
  0
SPLINE
  5
16f
100
AcDbEntity
  8
Layer_1
 62
7
100
AcDbSpline
 70
8
 71
3
 72
8
 73
4
 74
0
 40
0
 40
0
 40
0
 40
0
 40
1
 40
1
 40
1
 40
1
 10
55.617934
 20
113.997626
 30
0.0
 10
55.617934
 20
115.615699
 30
0.0
 10
55.586576
 20
115.690959
 30
0.0
 10
54.912379
 20
115.690959
 30
0.0
  0
SPLINE
  5
170
100
AcDbEntity
  8
Layer_1
 62
7
100
AcDbSpline
 70
8
 71
3
 72
8
 73
4
 74
0
 40
0
 40
0
 40
0
 40
0
 40
1
 40
1
 40
1
 40
1
 10
54.912379
 20
115.690959
 30
0.0
 10
54.238181
 20
115.690959
 30
0.0
 10
54.206823
 20
115.615699
 30
0.0
 10
54.206823
 20
113.997626
 30
0.0
  0
SPLINE
  5
171
100
AcDbEntity
  8
Layer_1
 62
7
100
AcDbSpline
 70
8
 71
3
 72
8
 73
4
 74
0
 40
0
 40
0
 40
0
 40
0
 40
1
 40
1
 40
1
 40
1
 10
54.206823
 20
113.997626
 30
0.0
 10
54.206823
 20
112.379552
 30
0.0
 10
54.238181
 20
112.304292
 30
0.0
 10
54.912379
 20
112.304292
 30
0.0
  0
SPLINE
  5
172
100
AcDbEntity
  8
Layer_1
 62
7
100
AcDbSpline
 70
8
 71
3
 72
8
 73
4
 74
0
 40
0
 40
0
 40
0
 40
0
 40
1
 40
1
 40
1
 40
1
 10
54.912379
 20
112.304292
 30
0.0
 10
55.586576
 20
112.304292
 30
0.0
 10
55.617934
 20
112.379552
 30
0.0
 10
55.617934
 20
113.997626
 30
0.0
  0
LINE
  5
173
100
AcDbEntity
  8
Layer_1
 62
7
100
AcDbLine
 10
55.617934
 20
113.997626
 30
0.0
 11
55.617934
 21
113.997626
 31
0.0
  0
SPLINE
  5
174
100
AcDbEntity
  8
Layer_1
 62
7
100
AcDbSpline
 70
8
 71
3
 72
8
 73
4
 74
0
 40
0
 40
0
 40
0
 40
0
 40
1
 40
1
 40
1
 40
1
 10
73.397934
 20
113.997626
 30
0.0
 10
73.397934
 20
115.615699
 30
0.0
 10
73.366576
 20
115.690959
 30
0.0
 10
72.692379
 20
115.690959
 30
0.0
  0
SPLINE
  5
175
100
AcDbEntity
  8
Layer_1
 62
7
100
AcDbSpline
 70
8
 71
3
 72
8
 73
4
 74
0
 40
0
 40
0
 40
0
 40
0
 40
1
 40
1
 40
1
 40
1
 10
72.692379
 20
115.690959
 30
0.0
 10
72.018181
 20
115.690959
 30
0.0
 10
71.986823
 20
115.615699
 30
0.0
 10
71.986823
 20
113.997626
 30
0.0
  0
SPLINE
  5
176
100
AcDbEntity
  8
Layer_1
 62
7
100
AcDbSpline
 70
8
 71
3
 72
8
 73
4
 74
0
 40
0
 40
0
 40
0
 40
0
 40
1
 40
1
 40
1
 40
1
 10
71.986823
 20
113.997626
 30
0.0
 10
71.986823
 20
112.379552
 30
0.0
 10
72.018181
 20
112.304292
 30
0.0
 10
72.692379
 20
112.304292
 30
0.0
  0
SPLINE
  5
177
100
AcDbEntity
  8
Layer_1
 62
7
100
AcDbSpline
 70
8
 71
3
 72
8
 73
4
 74
0
 40
0
 40
0
 40
0
 40
0
 40
1
 40
1
 40
1
 40
1
 10
72.692379
 20
112.304292
 30
0.0
 10
73.366576
 20
112.304292
 30
0.0
 10
73.397934
 20
112.379552
 30
0.0
 10
73.397934
 20
113.997626
 30
0.0
  0
LINE
  5
178
100
AcDbEntity
  8
Layer_1
 62
7
100
AcDbLine
 10
73.397934
 20
113.997626
 30
0.0
 11
73.397934
 21
113.997626
 31
0.0
  0
SPLINE
  5
179
100
AcDbEntity
  8
Layer_1
 62
7
100
AcDbSpline
 70
8
 71
3
 72
8
 73
4
 74
0
 40
0
 40
0
 40
0
 40
0
 40
1
 40
1
 40
1
 40
1
 10
106.417934
 20
113.997626
 30
0.0
 10
106.417934
 20
115.615699
 30
0.0
 10
106.386576
 20
115.690959
 30
0.0
 10
105.712379
 20
115.690959
 30
0.0
  0
SPLINE
  5
17a
100
AcDbEntity
  8
Layer_1
 62
7
100
AcDbSpline
 70
8
 71
3
 72
8
 73
4
 74
0
 40
0
 40
0
 40
0
 40
0
 40
1
 40
1
 40
1
 40
1
 10
105.712379
 20
115.690959
 30
0.0
 10
105.038181
 20
115.690959
 30
0.0
 10
105.006823
 20
115.615699
 30
0.0
 10
105.006823
 20
113.997626
 30
0.0
  0
SPLINE
  5
17b
100
AcDbEntity
  8
Layer_1
 62
7
100
AcDbSpline
 70
8
 71
3
 72
8
 73
4
 74
0
 40
0
 40
0
 40
0
 40
0
 40
1
 40
1
 40
1
 40
1
 10
105.006823
 20
113.997626
 30
0.0
 10
105.006823
 20
112.379552
 30
0.0
 10
105.038181
 20
112.304292
 30
0.0
 10
105.712379
 20
112.304292
 30
0.0
  0
SPLINE
  5
17c
100
AcDbEntity
  8
Layer_1
 62
7
100
AcDbSpline
 70
8
 71
3
 72
8
 73
4
 74
0
 40
0
 40
0
 40
0
 40
0
 40
1
 40
1
 40
1
 40
1
 10
105.712379
 20
112.304292
 30
0.0
 10
106.386576
 20
112.304292
 30
0.0
 10
106.417934
 20
112.379552
 30
0.0
 10
106.417934
 20
113.997626
 30
0.0
  0
LINE
  5
17d
100
AcDbEntity
  8
Layer_1
 62
7
100
AcDbLine
 10
106.417934
 20
113.997626
 30
0.0
 11
106.417934
 21
113.997626
 31
0.0
  0
SPLINE
  5
17e
100
AcDbEntity
  8
Layer_1
 62
7
100
AcDbSpline
 70
8
 71
3
 72
8
 73
4
 74
0
 40
0
 40
0
 40
0
 40
0
 40
1
 40
1
 40
1
 40
1
 10
108.957934
 20
113.997626
 30
0.0
 10
108.957934
 20
115.615699
 30
0.0
 10
108.926576
 20
115.690959
 30
0.0
 10
108.252379
 20
115.690959
 30
0.0
  0
SPLINE
  5
17f
100
AcDbEntity
  8
Layer_1
 62
7
100
AcDbSpline
 70
8
 71
3
 72
8
 73
4
 74
0
 40
0
 40
0
 40
0
 40
0
 40
1
 40
1
 40
1
 40
1
 10
108.252379
 20
115.690959
 30
0.0
 10
107.578181
 20
115.690959
 30
0.0
 10
107.546823
 20
115.615699
 30
0.0
 10
107.546823
 20
113.997626
 30
0.0
  0
SPLINE
  5
180
100
AcDbEntity
  8
Layer_1
 62
7
100
AcDbSpline
 70
8
 71
3
 72
8
 73
4
 74
0
 40
0
 40
0
 40
0
 40
0
 40
1
 40
1
 40
1
 40
1
 10
107.546823
 20
113.997626
 30
0.0
 10
107.546823
 20
112.379552
 30
0.0
 10
107.578181
 20
112.304292
 30
0.0
 10
108.252379
 20
112.304292
 30
0.0
  0
SPLINE
  5
181
100
AcDbEntity
  8
Layer_1
 62
7
100
AcDbSpline
 70
8
 71
3
 72
8
 73
4
 74
0
 40
0
 40
0
 40
0
 40
0
 40
1
 40
1
 40
1
 40
1
 10
108.252379
 20
112.304292
 30
0.0
 10
108.926576
 20
112.304292
 30
0.0
 10
108.957934
 20
112.379552
 30
0.0
 10
108.957934
 20
113.997626
 30
0.0
  0
LINE
  5
182
100
AcDbEntity
  8
Layer_1
 62
7
100
AcDbLine
 10
108.957934
 20
113.997626
 30
0.0
 11
108.957934
 21
113.997626
 31
0.0
  0
SPLINE
  5
183
100
AcDbEntity
  8
Layer_1
 62
7
100
AcDbSpline
 70
8
 71
3
 72
8
 73
4
 74
0
 40
0
 40
0
 40
0
 40
0
 40
1
 40
1
 40
1
 40
1
 10
167.377934
 20
113.997626
 30
0.0
 10
167.377934
 20
115.615699
 30
0.0
 10
167.346576
 20
115.690959
 30
0.0
 10
166.672379
 20
115.690959
 30
0.0
  0
SPLINE
  5
184
100
AcDbEntity
  8
Layer_1
 62
7
100
AcDbSpline
 70
8
 71
3
 72
8
 73
4
 74
0
 40
0
 40
0
 40
0
 40
0
 40
1
 40
1
 40
1
 40
1
 10
166.672379
 20
115.690959
 30
0.0
 10
165.998181
 20
115.690959
 30
0.0
 10
165.966823
 20
115.615699
 30
0.0
 10
165.966823
 20
113.997626
 30
0.0
  0
SPLINE
  5
185
100
AcDbEntity
  8
Layer_1
 62
7
100
AcDbSpline
 70
8
 71
3
 72
8
 73
4
 74
0
 40
0
 40
0
 40
0
 40
0
 40
1
 40
1
 40
1
 40
1
 10
165.966823
 20
113.997626
 30
0.0
 10
165.966823
 20
112.379552
 30
0.0
 10
165.998181
 20
112.304292
 30
0.0
 10
166.672379
 20
112.304292
 30
0.0
  0
SPLINE
  5
186
100
AcDbEntity
  8
Layer_1
 62
7
100
AcDbSpline
 70
8
 71
3
 72
8
 73
4
 74
0
 40
0
 40
0
 40
0
 40
0
 40
1
 40
1
 40
1
 40
1
 10
166.672379
 20
112.304292
 30
0.0
 10
167.346576
 20
112.304292
 30
0.0
 10
167.377934
 20
112.379552
 30
0.0
 10
167.377934
 20
113.997626
 30
0.0
  0
LINE
  5
187
100
AcDbEntity
  8
Layer_1
 62
7
100
AcDbLine
 10
167.377934
 20
113.997626
 30
0.0
 11
167.377934
 21
113.997626
 31
0.0
  0
SPLINE
  5
188
100
AcDbEntity
  8
Layer_1
 62
7
100
AcDbSpline
 70
8
 71
3
 72
8
 73
4
 74
0
 40
0
 40
0
 40
0
 40
0
 40
1
 40
1
 40
1
 40
1
 10
169.917934
 20
113.997626
 30
0.0
 10
169.917934
 20
115.615699
 30
0.0
 10
169.886576
 20
115.690959
 30
0.0
 10
169.212379
 20
115.690959
 30
0.0
  0
SPLINE
  5
189
100
AcDbEntity
  8
Layer_1
 62
7
100
AcDbSpline
 70
8
 71
3
 72
8
 73
4
 74
0
 40
0
 40
0
 40
0
 40
0
 40
1
 40
1
 40
1
 40
1
 10
169.212379
 20
115.690959
 30
0.0
 10
168.538181
 20
115.690959
 30
0.0
 10
168.506823
 20
115.615699
 30
0.0
 10
168.506823
 20
113.997626
 30
0.0
  0
SPLINE
  5
18a
100
AcDbEntity
  8
Layer_1
 62
7
100
AcDbSpline
 70
8
 71
3
 72
8
 73
4
 74
0
 40
0
 40
0
 40
0
 40
0
 40
1
 40
1
 40
1
 40
1
 10
168.506823
 20
113.997626
 30
0.0
 10
168.506823
 20
112.379552
 30
0.0
 10
168.538181
 20
112.304292
 30
0.0
 10
169.212379
 20
112.304292
 30
0.0
  0
SPLINE
  5
18b
100
AcDbEntity
  8
Layer_1
 62
7
100
AcDbSpline
 70
8
 71
3
 72
8
 73
4
 74
0
 40
0
 40
0
 40
0
 40
0
 40
1
 40
1
 40
1
 40
1
 10
169.212379
 20
112.304292
 30
0.0
 10
169.886576
 20
112.304292
 30
0.0
 10
169.917934
 20
112.379552
 30
0.0
 10
169.917934
 20
113.997626
 30
0.0
  0
LINE
  5
18c
100
AcDbEntity
  8
Layer_1
 62
7
100
AcDbLine
 10
169.917934
 20
113.997626
 30
0.0
 11
169.917934
 21
113.997626
 31
0.0
  0
SPLINE
  5
18d
100
AcDbEntity
  8
Layer_1
 62
7
100
AcDbSpline
 70
8
 71
3
 72
8
 73
4
 74
0
 40
0
 40
0
 40
0
 40
0
 40
1
 40
1
 40
1
 40
1
 10
172.457934
 20
113.997626
 30
0.0
 10
172.457934
 20
115.615699
 30
0.0
 10
172.426576
 20
115.690959
 30
0.0
 10
171.752379
 20
115.690959
 30
0.0
  0
SPLINE
  5
18e
100
AcDbEntity
  8
Layer_1
 62
7
100
AcDbSpline
 70
8
 71
3
 72
8
 73
4
 74
0
 40
0
 40
0
 40
0
 40
0
 40
1
 40
1
 40
1
 40
1
 10
171.752379
 20
115.690959
 30
0.0
 10
171.078181
 20
115.690959
 30
0.0
 10
171.046823
 20
115.615699
 30
0.0
 10
171.046823
 20
113.997626
 30
0.0
  0
SPLINE
  5
18f
100
AcDbEntity
  8
Layer_1
 62
7
100
AcDbSpline
 70
8
 71
3
 72
8
 73
4
 74
0
 40
0
 40
0
 40
0
 40
0
 40
1
 40
1
 40
1
 40
1
 10
171.046823
 20
113.997626
 30
0.0
 10
171.046823
 20
112.379552
 30
0.0
 10
171.078181
 20
112.304292
 30
0.0
 10
171.752379
 20
112.304292
 30
0.0
  0
SPLINE
  5
190
100
AcDbEntity
  8
Layer_1
 62
7
100
AcDbSpline
 70
8
 71
3
 72
8
 73
4
 74
0
 40
0
 40
0
 40
0
 40
0
 40
1
 40
1
 40
1
 40
1
 10
171.752379
 20
112.304292
 30
0.0
 10
172.426576
 20
112.304292
 30
0.0
 10
172.457934
 20
112.379552
 30
0.0
 10
172.457934
 20
113.997626
 30
0.0
  0
LINE
  5
191
100
AcDbEntity
  8
Layer_1
 62
7
100
AcDbLine
 10
172.457934
 20
113.997626
 30
0.0
 11
172.457934
 21
113.997626
 31
0.0
  0
SPLINE
  5
192
100
AcDbEntity
  8
Layer_1
 62
7
100
AcDbSpline
 70
8
 71
3
 72
8
 73
4
 74
0
 40
0
 40
0
 40
0
 40
0
 40
1
 40
1
 40
1
 40
1
 10
197.857934
 20
113.997626
 30
0.0
 10
197.857934
 20
115.615699
 30
0.0
 10
197.826576
 20
115.690959
 30
0.0
 10
197.152379
 20
115.690959
 30
0.0
  0
SPLINE
  5
193
100
AcDbEntity
  8
Layer_1
 62
7
100
AcDbSpline
 70
8
 71
3
 72
8
 73
4
 74
0
 40
0
 40
0
 40
0
 40
0
 40
1
 40
1
 40
1
 40
1
 10
197.152379
 20
115.690959
 30
0.0
 10
196.478181
 20
115.690959
 30
0.0
 10
196.446823
 20
115.615699
 30
0.0
 10
196.446823
 20
113.997626
 30
0.0
  0
SPLINE
  5
194
100
AcDbEntity
  8
Layer_1
 62
7
100
AcDbSpline
 70
8
 71
3
 72
8
 73
4
 74
0
 40
0
 40
0
 40
0
 40
0
 40
1
 40
1
 40
1
 40
1
 10
196.446823
 20
113.997626
 30
0.0
 10
196.446823
 20
112.379552
 30
0.0
 10
196.478181
 20
112.304292
 30
0.0
 10
197.152379
 20
112.304292
 30
0.0
  0
SPLINE
  5
195
100
AcDbEntity
  8
Layer_1
 62
7
100
AcDbSpline
 70
8
 71
3
 72
8
 73
4
 74
0
 40
0
 40
0
 40
0
 40
0
 40
1
 40
1
 40
1
 40
1
 10
197.152379
 20
112.304292
 30
0.0
 10
197.826576
 20
112.304292
 30
0.0
 10
197.857934
 20
112.379552
 30
0.0
 10
197.857934
 20
113.997626
 30
0.0
  0
LINE
  5
196
100
AcDbEntity
  8
Layer_1
 62
7
100
AcDbLine
 10
197.857934
 20
113.997626
 30
0.0
 11
197.857934
 21
113.997626
 31
0.0
  0
SPLINE
  5
197
100
AcDbEntity
  8
Layer_1
 62
7
100
AcDbSpline
 70
8
 71
3
 72
8
 73
4
 74
0
 40
0
 40
0
 40
0
 40
0
 40
1
 40
1
 40
1
 40
1
 10
32.757934
 20
121.335403
 30
0.0
 10
32.757934
 20
122.953477
 30
0.0
 10
32.726576
 20
123.028737
 30
0.0
 10
32.052379
 20
123.028737
 30
0.0
  0
SPLINE
  5
198
100
AcDbEntity
  8
Layer_1
 62
7
100
AcDbSpline
 70
8
 71
3
 72
8
 73
4
 74
0
 40
0
 40
0
 40
0
 40
0
 40
1
 40
1
 40
1
 40
1
 10
32.052379
 20
123.028737
 30
0.0
 10
31.378181
 20
123.028737
 30
0.0
 10
31.346823
 20
122.953477
 30
0.0
 10
31.346823
 20
121.335403
 30
0.0
  0
SPLINE
  5
199
100
AcDbEntity
  8
Layer_1
 62
7
100
AcDbSpline
 70
8
 71
3
 72
8
 73
4
 74
0
 40
0
 40
0
 40
0
 40
0
 40
1
 40
1
 40
1
 40
1
 10
31.346823
 20
121.335403
 30
0.0
 10
31.346823
 20
119.717330
 30
0.0
 10
31.378181
 20
119.642070
 30
0.0
 10
32.052379
 20
119.642070
 30
0.0
  0
SPLINE
  5
19a
100
AcDbEntity
  8
Layer_1
 62
7
100
AcDbSpline
 70
8
 71
3
 72
8
 73
4
 74
0
 40
0
 40
0
 40
0
 40
0
 40
1
 40
1
 40
1
 40
1
 10
32.052379
 20
119.642070
 30
0.0
 10
32.726576
 20
119.642070
 30
0.0
 10
32.757934
 20
119.717330
 30
0.0
 10
32.757934
 20
121.335403
 30
0.0
  0
LINE
  5
19b
100
AcDbEntity
  8
Layer_1
 62
7
100
AcDbLine
 10
32.757934
 20
121.335403
 30
0.0
 11
32.757934
 21
121.335403
 31
0.0
  0
SPLINE
  5
19c
100
AcDbEntity
  8
Layer_1
 62
7
100
AcDbSpline
 70
8
 71
3
 72
8
 73
4
 74
0
 40
0
 40
0
 40
0
 40
0
 40
1
 40
1
 40
1
 40
1
 10
45.457934
 20
121.335403
 30
0.0
 10
45.457934
 20
122.953477
 30
0.0
 10
45.426576
 20
123.028737
 30
0.0
 10
44.752379
 20
123.028737
 30
0.0
  0
SPLINE
  5
19d
100
AcDbEntity
  8
Layer_1
 62
7
100
AcDbSpline
 70
8
 71
3
 72
8
 73
4
 74
0
 40
0
 40
0
 40
0
 40
0
 40
1
 40
1
 40
1
 40
1
 10
44.752379
 20
123.028737
 30
0.0
 10
44.078181
 20
123.028737
 30
0.0
 10
44.046823
 20
122.953477
 30
0.0
 10
44.046823
 20
121.335403
 30
0.0
  0
SPLINE
  5
19e
100
AcDbEntity
  8
Layer_1
 62
7
100
AcDbSpline
 70
8
 71
3
 72
8
 73
4
 74
0
 40
0
 40
0
 40
0
 40
0
 40
1
 40
1
 40
1
 40
1
 10
44.046823
 20
121.335403
 30
0.0
 10
44.046823
 20
119.717330
 30
0.0
 10
44.078181
 20
119.642070
 30
0.0
 10
44.752379
 20
119.642070
 30
0.0
  0
SPLINE
  5
19f
100
AcDbEntity
  8
Layer_1
 62
7
100
AcDbSpline
 70
8
 71
3
 72
8
 73
4
 74
0
 40
0
 40
0
 40
0
 40
0
 40
1
 40
1
 40
1
 40
1
 10
44.752379
 20
119.642070
 30
0.0
 10
45.426576
 20
119.642070
 30
0.0
 10
45.457934
 20
119.717330
 30
0.0
 10
45.457934
 20
121.335403
 30
0.0
  0
LINE
  5
1a0
100
AcDbEntity
  8
Layer_1
 62
7
100
AcDbLine
 10
45.457934
 20
121.335403
 30
0.0
 11
45.457934
 21
121.335403
 31
0.0
  0
SPLINE
  5
1a1
100
AcDbEntity
  8
Layer_1
 62
7
100
AcDbSpline
 70
8
 71
3
 72
8
 73
4
 74
0
 40
0
 40
0
 40
0
 40
0
 40
1
 40
1
 40
1
 40
1
 10
53.077934
 20
121.335403
 30
0.0
 10
53.077934
 20
122.953477
 30
0.0
 10
53.046576
 20
123.028737
 30
0.0
 10
52.372379
 20
123.028737
 30
0.0
  0
SPLINE
  5
1a2
100
AcDbEntity
  8
Layer_1
 62
7
100
AcDbSpline
 70
8
 71
3
 72
8
 73
4
 74
0
 40
0
 40
0
 40
0
 40
0
 40
1
 40
1
 40
1
 40
1
 10
52.372379
 20
123.028737
 30
0.0
 10
51.698181
 20
123.028737
 30
0.0
 10
51.666823
 20
122.953477
 30
0.0
 10
51.666823
 20
121.335403
 30
0.0
  0
SPLINE
  5
1a3
100
AcDbEntity
  8
Layer_1
 62
7
100
AcDbSpline
 70
8
 71
3
 72
8
 73
4
 74
0
 40
0
 40
0
 40
0
 40
0
 40
1
 40
1
 40
1
 40
1
 10
51.666823
 20
121.335403
 30
0.0
 10
51.666823
 20
119.717330
 30
0.0
 10
51.698181
 20
119.642070
 30
0.0
 10
52.372379
 20
119.642070
 30
0.0
  0
SPLINE
  5
1a4
100
AcDbEntity
  8
Layer_1
 62
7
100
AcDbSpline
 70
8
 71
3
 72
8
 73
4
 74
0
 40
0
 40
0
 40
0
 40
0
 40
1
 40
1
 40
1
 40
1
 10
52.372379
 20
119.642070
 30
0.0
 10
53.046576
 20
119.642070
 30
0.0
 10
53.077934
 20
119.717330
 30
0.0
 10
53.077934
 20
121.335403
 30
0.0
  0
LINE
  5
1a5
100
AcDbEntity
  8
Layer_1
 62
7
100
AcDbLine
 10
53.077934
 20
121.335403
 30
0.0
 11
53.077934
 21
121.335403
 31
0.0
  0
SPLINE
  5
1a6
100
AcDbEntity
  8
Layer_1
 62
7
100
AcDbSpline
 70
8
 71
3
 72
8
 73
4
 74
0
 40
0
 40
0
 40
0
 40
0
 40
1
 40
1
 40
1
 40
1
 10
86.097934
 20
121.335403
 30
0.0
 10
86.097934
 20
122.953477
 30
0.0
 10
86.066576
 20
123.028737
 30
0.0
 10
85.392379
 20
123.028737
 30
0.0
  0
SPLINE
  5
1a7
100
AcDbEntity
  8
Layer_1
 62
7
100
AcDbSpline
 70
8
 71
3
 72
8
 73
4
 74
0
 40
0
 40
0
 40
0
 40
0
 40
1
 40
1
 40
1
 40
1
 10
85.392379
 20
123.028737
 30
0.0
 10
84.718181
 20
123.028737
 30
0.0
 10
84.686823
 20
122.953477
 30
0.0
 10
84.686823
 20
121.335403
 30
0.0
  0
SPLINE
  5
1a8
100
AcDbEntity
  8
Layer_1
 62
7
100
AcDbSpline
 70
8
 71
3
 72
8
 73
4
 74
0
 40
0
 40
0
 40
0
 40
0
 40
1
 40
1
 40
1
 40
1
 10
84.686823
 20
121.335403
 30
0.0
 10
84.686823
 20
119.717330
 30
0.0
 10
84.718181
 20
119.642070
 30
0.0
 10
85.392379
 20
119.642070
 30
0.0
  0
SPLINE
  5
1a9
100
AcDbEntity
  8
Layer_1
 62
7
100
AcDbSpline
 70
8
 71
3
 72
8
 73
4
 74
0
 40
0
 40
0
 40
0
 40
0
 40
1
 40
1
 40
1
 40
1
 10
85.392379
 20
119.642070
 30
0.0
 10
86.066576
 20
119.642070
 30
0.0
 10
86.097934
 20
119.717330
 30
0.0
 10
86.097934
 20
121.335403
 30
0.0
  0
LINE
  5
1aa
100
AcDbEntity
  8
Layer_1
 62
7
100
AcDbLine
 10
86.097934
 20
121.335403
 30
0.0
 11
86.097934
 21
121.335403
 31
0.0
  0
SPLINE
  5
1ab
100
AcDbEntity
  8
Layer_1
 62
7
100
AcDbSpline
 70
8
 71
3
 72
8
 73
4
 74
0
 40
0
 40
0
 40
0
 40
0
 40
1
 40
1
 40
1
 40
1
 10
103.877934
 20
121.335403
 30
0.0
 10
103.877934
 20
122.953477
 30
0.0
 10
103.846576
 20
123.028737
 30
0.0
 10
103.172379
 20
123.028737
 30
0.0
  0
SPLINE
  5
1ac
100
AcDbEntity
  8
Layer_1
 62
7
100
AcDbSpline
 70
8
 71
3
 72
8
 73
4
 74
0
 40
0
 40
0
 40
0
 40
0
 40
1
 40
1
 40
1
 40
1
 10
103.172379
 20
123.028737
 30
0.0
 10
102.498181
 20
123.028737
 30
0.0
 10
102.466823
 20
122.953477
 30
0.0
 10
102.466823
 20
121.335403
 30
0.0
  0
SPLINE
  5
1ad
100
AcDbEntity
  8
Layer_1
 62
7
100
AcDbSpline
 70
8
 71
3
 72
8
 73
4
 74
0
 40
0
 40
0
 40
0
 40
0
 40
1
 40
1
 40
1
 40
1
 10
102.466823
 20
121.335403
 30
0.0
 10
102.466823
 20
119.717330
 30
0.0
 10
102.498181
 20
119.642070
 30
0.0
 10
103.172379
 20
119.642070
 30
0.0
  0
SPLINE
  5
1ae
100
AcDbEntity
  8
Layer_1
 62
7
100
AcDbSpline
 70
8
 71
3
 72
8
 73
4
 74
0
 40
0
 40
0
 40
0
 40
0
 40
1
 40
1
 40
1
 40
1
 10
103.172379
 20
119.642070
 30
0.0
 10
103.846576
 20
119.642070
 30
0.0
 10
103.877934
 20
119.717330
 30
0.0
 10
103.877934
 20
121.335403
 30
0.0
  0
LINE
  5
1af
100
AcDbEntity
  8
Layer_1
 62
7
100
AcDbLine
 10
103.877934
 20
121.335403
 30
0.0
 11
103.877934
 21
121.335403
 31
0.0
  0
SPLINE
  5
1b0
100
AcDbEntity
  8
Layer_1
 62
7
100
AcDbSpline
 70
8
 71
3
 72
8
 73
4
 74
0
 40
0
 40
0
 40
0
 40
0
 40
1
 40
1
 40
1
 40
1
 10
116.577934
 20
121.335403
 30
0.0
 10
116.577934
 20
122.953477
 30
0.0
 10
116.546576
 20
123.028737
 30
0.0
 10
115.872379
 20
123.028737
 30
0.0
  0
SPLINE
  5
1b1
100
AcDbEntity
  8
Layer_1
 62
7
100
AcDbSpline
 70
8
 71
3
 72
8
 73
4
 74
0
 40
0
 40
0
 40
0
 40
0
 40
1
 40
1
 40
1
 40
1
 10
115.872379
 20
123.028737
 30
0.0
 10
115.198181
 20
123.028737
 30
0.0
 10
115.166823
 20
122.953477
 30
0.0
 10
115.166823
 20
121.335403
 30
0.0
  0
SPLINE
  5
1b2
100
AcDbEntity
  8
Layer_1
 62
7
100
AcDbSpline
 70
8
 71
3
 72
8
 73
4
 74
0
 40
0
 40
0
 40
0
 40
0
 40
1
 40
1
 40
1
 40
1
 10
115.166823
 20
121.335403
 30
0.0
 10
115.166823
 20
119.717330
 30
0.0
 10
115.198181
 20
119.642070
 30
0.0
 10
115.872379
 20
119.642070
 30
0.0
  0
SPLINE
  5
1b3
100
AcDbEntity
  8
Layer_1
 62
7
100
AcDbSpline
 70
8
 71
3
 72
8
 73
4
 74
0
 40
0
 40
0
 40
0
 40
0
 40
1
 40
1
 40
1
 40
1
 10
115.872379
 20
119.642070
 30
0.0
 10
116.546576
 20
119.642070
 30
0.0
 10
116.577934
 20
119.717330
 30
0.0
 10
116.577934
 20
121.335403
 30
0.0
  0
LINE
  5
1b4
100
AcDbEntity
  8
Layer_1
 62
7
100
AcDbLine
 10
116.577934
 20
121.335403
 30
0.0
 11
116.577934
 21
121.335403
 31
0.0
  0
SPLINE
  5
1b5
100
AcDbEntity
  8
Layer_1
 62
7
100
AcDbSpline
 70
8
 71
3
 72
8
 73
4
 74
0
 40
0
 40
0
 40
0
 40
0
 40
1
 40
1
 40
1
 40
1
 10
134.357934
 20
121.335403
 30
0.0
 10
134.357934
 20
122.953477
 30
0.0
 10
134.326576
 20
123.028737
 30
0.0
 10
133.652379
 20
123.028737
 30
0.0
  0
SPLINE
  5
1b6
100
AcDbEntity
  8
Layer_1
 62
7
100
AcDbSpline
 70
8
 71
3
 72
8
 73
4
 74
0
 40
0
 40
0
 40
0
 40
0
 40
1
 40
1
 40
1
 40
1
 10
133.652379
 20
123.028737
 30
0.0
 10
132.978181
 20
123.028737
 30
0.0
 10
132.946823
 20
122.953477
 30
0.0
 10
132.946823
 20
121.335403
 30
0.0
  0
SPLINE
  5
1b7
100
AcDbEntity
  8
Layer_1
 62
7
100
AcDbSpline
 70
8
 71
3
 72
8
 73
4
 74
0
 40
0
 40
0
 40
0
 40
0
 40
1
 40
1
 40
1
 40
1
 10
132.946823
 20
121.335403
 30
0.0
 10
132.946823
 20
119.717330
 30
0.0
 10
132.978181
 20
119.642070
 30
0.0
 10
133.652379
 20
119.642070
 30
0.0
  0
SPLINE
  5
1b8
100
AcDbEntity
  8
Layer_1
 62
7
100
AcDbSpline
 70
8
 71
3
 72
8
 73
4
 74
0
 40
0
 40
0
 40
0
 40
0
 40
1
 40
1
 40
1
 40
1
 10
133.652379
 20
119.642070
 30
0.0
 10
134.326576
 20
119.642070
 30
0.0
 10
134.357934
 20
119.717330
 30
0.0
 10
134.357934
 20
121.335403
 30
0.0
  0
LINE
  5
1b9
100
AcDbEntity
  8
Layer_1
 62
7
100
AcDbLine
 10
134.357934
 20
121.335403
 30
0.0
 11
134.357934
 21
121.335403
 31
0.0
  0
SPLINE
  5
1ba
100
AcDbEntity
  8
Layer_1
 62
7
100
AcDbSpline
 70
8
 71
3
 72
8
 73
4
 74
0
 40
0
 40
0
 40
0
 40
0
 40
1
 40
1
 40
1
 40
1
 10
141.977934
 20
121.335403
 30
0.0
 10
141.977934
 20
122.953477
 30
0.0
 10
141.946576
 20
123.028737
 30
0.0
 10
141.272379
 20
123.028737
 30
0.0
  0
SPLINE
  5
1bb
100
AcDbEntity
  8
Layer_1
 62
7
100
AcDbSpline
 70
8
 71
3
 72
8
 73
4
 74
0
 40
0
 40
0
 40
0
 40
0
 40
1
 40
1
 40
1
 40
1
 10
141.272379
 20
123.028737
 30
0.0
 10
140.598181
 20
123.028737
 30
0.0
 10
140.566823
 20
122.953477
 30
0.0
 10
140.566823
 20
121.335403
 30
0.0
  0
SPLINE
  5
1bc
100
AcDbEntity
  8
Layer_1
 62
7
100
AcDbSpline
 70
8
 71
3
 72
8
 73
4
 74
0
 40
0
 40
0
 40
0
 40
0
 40
1
 40
1
 40
1
 40
1
 10
140.566823
 20
121.335403
 30
0.0
 10
140.566823
 20
119.717330
 30
0.0
 10
140.598181
 20
119.642070
 30
0.0
 10
141.272379
 20
119.642070
 30
0.0
  0
SPLINE
  5
1bd
100
AcDbEntity
  8
Layer_1
 62
7
100
AcDbSpline
 70
8
 71
3
 72
8
 73
4
 74
0
 40
0
 40
0
 40
0
 40
0
 40
1
 40
1
 40
1
 40
1
 10
141.272379
 20
119.642070
 30
0.0
 10
141.946576
 20
119.642070
 30
0.0
 10
141.977934
 20
119.717330
 30
0.0
 10
141.977934
 20
121.335403
 30
0.0
  0
LINE
  5
1be
100
AcDbEntity
  8
Layer_1
 62
7
100
AcDbLine
 10
141.977934
 20
121.335403
 30
0.0
 11
141.977934
 21
121.335403
 31
0.0
  0
SPLINE
  5
1bf
100
AcDbEntity
  8
Layer_1
 62
7
100
AcDbSpline
 70
8
 71
3
 72
8
 73
4
 74
0
 40
0
 40
0
 40
0
 40
0
 40
1
 40
1
 40
1
 40
1
 10
22.597933
 20
128.955403
 30
0.0
 10
22.597933
 20
130.573477
 30
0.0
 10
22.566576
 20
130.648737
 30
0.0
 10
21.892378
 20
130.648737
 30
0.0
  0
SPLINE
  5
1c0
100
AcDbEntity
  8
Layer_1
 62
7
100
AcDbSpline
 70
8
 71
3
 72
8
 73
4
 74
0
 40
0
 40
0
 40
0
 40
0
 40
1
 40
1
 40
1
 40
1
 10
21.892378
 20
130.648737
 30
0.0
 10
21.218180
 20
130.648737
 30
0.0
 10
21.186822
 20
130.573477
 30
0.0
 10
21.186822
 20
128.955403
 30
0.0
  0
SPLINE
  5
1c1
100
AcDbEntity
  8
Layer_1
 62
7
100
AcDbSpline
 70
8
 71
3
 72
8
 73
4
 74
0
 40
0
 40
0
 40
0
 40
0
 40
1
 40
1
 40
1
 40
1
 10
21.186822
 20
128.955403
 30
0.0
 10
21.186822
 20
127.337330
 30
0.0
 10
21.218180
 20
127.262070
 30
0.0
 10
21.892378
 20
127.262070
 30
0.0
  0
SPLINE
  5
1c2
100
AcDbEntity
  8
Layer_1
 62
7
100
AcDbSpline
 70
8
 71
3
 72
8
 73
4
 74
0
 40
0
 40
0
 40
0
 40
0
 40
1
 40
1
 40
1
 40
1
 10
21.892378
 20
127.262070
 30
0.0
 10
22.566576
 20
127.262070
 30
0.0
 10
22.597933
 20
127.337330
 30
0.0
 10
22.597933
 20
128.955403
 30
0.0
  0
LINE
  5
1c3
100
AcDbEntity
  8
Layer_1
 62
7
100
AcDbLine
 10
22.597933
 20
128.955403
 30
0.0
 11
22.597933
 21
128.955403
 31
0.0
  0
SPLINE
  5
1c4
100
AcDbEntity
  8
Layer_1
 62
7
100
AcDbSpline
 70
8
 71
3
 72
8
 73
4
 74
0
 40
0
 40
0
 40
0
 40
0
 40
1
 40
1
 40
1
 40
1
 10
42.917934
 20
128.955403
 30
0.0
 10
42.917934
 20
130.573477
 30
0.0
 10
42.886576
 20
130.648737
 30
0.0
 10
42.212379
 20
130.648737
 30
0.0
  0
SPLINE
  5
1c5
100
AcDbEntity
  8
Layer_1
 62
7
100
AcDbSpline
 70
8
 71
3
 72
8
 73
4
 74
0
 40
0
 40
0
 40
0
 40
0
 40
1
 40
1
 40
1
 40
1
 10
42.212379
 20
130.648737
 30
0.0
 10
41.538181
 20
130.648737
 30
0.0
 10
41.506823
 20
130.573477
 30
0.0
 10
41.506823
 20
128.955403
 30
0.0
  0
SPLINE
  5
1c6
100
AcDbEntity
  8
Layer_1
 62
7
100
AcDbSpline
 70
8
 71
3
 72
8
 73
4
 74
0
 40
0
 40
0
 40
0
 40
0
 40
1
 40
1
 40
1
 40
1
 10
41.506823
 20
128.955403
 30
0.0
 10
41.506823
 20
127.337330
 30
0.0
 10
41.538181
 20
127.262070
 30
0.0
 10
42.212379
 20
127.262070
 30
0.0
  0
SPLINE
  5
1c7
100
AcDbEntity
  8
Layer_1
 62
7
100
AcDbSpline
 70
8
 71
3
 72
8
 73
4
 74
0
 40
0
 40
0
 40
0
 40
0
 40
1
 40
1
 40
1
 40
1
 10
42.212379
 20
127.262070
 30
0.0
 10
42.886576
 20
127.262070
 30
0.0
 10
42.917934
 20
127.337330
 30
0.0
 10
42.917934
 20
128.955403
 30
0.0
  0
LINE
  5
1c8
100
AcDbEntity
  8
Layer_1
 62
7
100
AcDbLine
 10
42.917934
 20
128.955403
 30
0.0
 11
42.917934
 21
128.955403
 31
0.0
  0
SPLINE
  5
1c9
100
AcDbEntity
  8
Layer_1
 62
7
100
AcDbSpline
 70
8
 71
3
 72
8
 73
4
 74
0
 40
0
 40
0
 40
0
 40
0
 40
1
 40
1
 40
1
 40
1
 10
75.937934
 20
128.955403
 30
0.0
 10
75.937934
 20
130.573477
 30
0.0
 10
75.906576
 20
130.648737
 30
0.0
 10
75.232379
 20
130.648737
 30
0.0
  0
SPLINE
  5
1ca
100
AcDbEntity
  8
Layer_1
 62
7
100
AcDbSpline
 70
8
 71
3
 72
8
 73
4
 74
0
 40
0
 40
0
 40
0
 40
0
 40
1
 40
1
 40
1
 40
1
 10
75.232379
 20
130.648737
 30
0.0
 10
74.558181
 20
130.648737
 30
0.0
 10
74.526823
 20
130.573477
 30
0.0
 10
74.526823
 20
128.955403
 30
0.0
  0
SPLINE
  5
1cb
100
AcDbEntity
  8
Layer_1
 62
7
100
AcDbSpline
 70
8
 71
3
 72
8
 73
4
 74
0
 40
0
 40
0
 40
0
 40
0
 40
1
 40
1
 40
1
 40
1
 10
74.526823
 20
128.955403
 30
0.0
 10
74.526823
 20
127.337330
 30
0.0
 10
74.558181
 20
127.262070
 30
0.0
 10
75.232379
 20
127.262070
 30
0.0
  0
SPLINE
  5
1cc
100
AcDbEntity
  8
Layer_1
 62
7
100
AcDbSpline
 70
8
 71
3
 72
8
 73
4
 74
0
 40
0
 40
0
 40
0
 40
0
 40
1
 40
1
 40
1
 40
1
 10
75.232379
 20
127.262070
 30
0.0
 10
75.906576
 20
127.262070
 30
0.0
 10
75.937934
 20
127.337330
 30
0.0
 10
75.937934
 20
128.955403
 30
0.0
  0
LINE
  5
1cd
100
AcDbEntity
  8
Layer_1
 62
7
100
AcDbLine
 10
75.937934
 20
128.955403
 30
0.0
 11
75.937934
 21
128.955403
 31
0.0
  0
SPLINE
  5
1ce
100
AcDbEntity
  8
Layer_1
 62
7
100
AcDbSpline
 70
8
 71
3
 72
8
 73
4
 74
0
 40
0
 40
0
 40
0
 40
0
 40
1
 40
1
 40
1
 40
1
 10
81.017934
 20
128.955403
 30
0.0
 10
81.017934
 20
130.573477
 30
0.0
 10
80.986576
 20
130.648737
 30
0.0
 10
80.312379
 20
130.648737
 30
0.0
  0
SPLINE
  5
1cf
100
AcDbEntity
  8
Layer_1
 62
7
100
AcDbSpline
 70
8
 71
3
 72
8
 73
4
 74
0
 40
0
 40
0
 40
0
 40
0
 40
1
 40
1
 40
1
 40
1
 10
80.312379
 20
130.648737
 30
0.0
 10
79.638181
 20
130.648737
 30
0.0
 10
79.606823
 20
130.573477
 30
0.0
 10
79.606823
 20
128.955403
 30
0.0
  0
SPLINE
  5
1d0
100
AcDbEntity
  8
Layer_1
 62
7
100
AcDbSpline
 70
8
 71
3
 72
8
 73
4
 74
0
 40
0
 40
0
 40
0
 40
0
 40
1
 40
1
 40
1
 40
1
 10
79.606823
 20
128.955403
 30
0.0
 10
79.606823
 20
127.337330
 30
0.0
 10
79.638181
 20
127.262070
 30
0.0
 10
80.312379
 20
127.262070
 30
0.0
  0
SPLINE
  5
1d1
100
AcDbEntity
  8
Layer_1
 62
7
100
AcDbSpline
 70
8
 71
3
 72
8
 73
4
 74
0
 40
0
 40
0
 40
0
 40
0
 40
1
 40
1
 40
1
 40
1
 10
80.312379
 20
127.262070
 30
0.0
 10
80.986576
 20
127.262070
 30
0.0
 10
81.017934
 20
127.337330
 30
0.0
 10
81.017934
 20
128.955403
 30
0.0
  0
LINE
  5
1d2
100
AcDbEntity
  8
Layer_1
 62
7
100
AcDbLine
 10
81.017934
 20
128.955403
 30
0.0
 11
81.017934
 21
128.955403
 31
0.0
  0
SPLINE
  5
1d3
100
AcDbEntity
  8
Layer_1
 62
7
100
AcDbSpline
 70
8
 71
3
 72
8
 73
4
 74
0
 40
0
 40
0
 40
0
 40
0
 40
1
 40
1
 40
1
 40
1
 10
121.657934
 20
128.955403
 30
0.0
 10
121.657934
 20
130.573477
 30
0.0
 10
121.626576
 20
130.648737
 30
0.0
 10
120.952379
 20
130.648737
 30
0.0
  0
SPLINE
  5
1d4
100
AcDbEntity
  8
Layer_1
 62
7
100
AcDbSpline
 70
8
 71
3
 72
8
 73
4
 74
0
 40
0
 40
0
 40
0
 40
0
 40
1
 40
1
 40
1
 40
1
 10
120.952379
 20
130.648737
 30
0.0
 10
120.278181
 20
130.648737
 30
0.0
 10
120.246823
 20
130.573477
 30
0.0
 10
120.246823
 20
128.955403
 30
0.0
  0
SPLINE
  5
1d5
100
AcDbEntity
  8
Layer_1
 62
7
100
AcDbSpline
 70
8
 71
3
 72
8
 73
4
 74
0
 40
0
 40
0
 40
0
 40
0
 40
1
 40
1
 40
1
 40
1
 10
120.246823
 20
128.955403
 30
0.0
 10
120.246823
 20
127.337330
 30
0.0
 10
120.278181
 20
127.262070
 30
0.0
 10
120.952379
 20
127.262070
 30
0.0
  0
SPLINE
  5
1d6
100
AcDbEntity
  8
Layer_1
 62
7
100
AcDbSpline
 70
8
 71
3
 72
8
 73
4
 74
0
 40
0
 40
0
 40
0
 40
0
 40
1
 40
1
 40
1
 40
1
 10
120.952379
 20
127.262070
 30
0.0
 10
121.626576
 20
127.262070
 30
0.0
 10
121.657934
 20
127.337330
 30
0.0
 10
121.657934
 20
128.955403
 30
0.0
  0
LINE
  5
1d7
100
AcDbEntity
  8
Layer_1
 62
7
100
AcDbLine
 10
121.657934
 20
128.955403
 30
0.0
 11
121.657934
 21
128.955403
 31
0.0
  0
SPLINE
  5
1d8
100
AcDbEntity
  8
Layer_1
 62
7
100
AcDbSpline
 70
8
 71
3
 72
8
 73
4
 74
0
 40
0
 40
0
 40
0
 40
0
 40
1
 40
1
 40
1
 40
1
 10
131.817934
 20
128.955403
 30
0.0
 10
131.817934
 20
130.573477
 30
0.0
 10
131.786576
 20
130.648737
 30
0.0
 10
131.112379
 20
130.648737
 30
0.0
  0
SPLINE
  5
1d9
100
AcDbEntity
  8
Layer_1
 62
7
100
AcDbSpline
 70
8
 71
3
 72
8
 73
4
 74
0
 40
0
 40
0
 40
0
 40
0
 40
1
 40
1
 40
1
 40
1
 10
131.112379
 20
130.648737
 30
0.0
 10
130.438181
 20
130.648737
 30
0.0
 10
130.406823
 20
130.573477
 30
0.0
 10
130.406823
 20
128.955403
 30
0.0
  0
SPLINE
  5
1da
100
AcDbEntity
  8
Layer_1
 62
7
100
AcDbSpline
 70
8
 71
3
 72
8
 73
4
 74
0
 40
0
 40
0
 40
0
 40
0
 40
1
 40
1
 40
1
 40
1
 10
130.406823
 20
128.955403
 30
0.0
 10
130.406823
 20
127.337330
 30
0.0
 10
130.438181
 20
127.262070
 30
0.0
 10
131.112379
 20
127.262070
 30
0.0
  0
SPLINE
  5
1db
100
AcDbEntity
  8
Layer_1
 62
7
100
AcDbSpline
 70
8
 71
3
 72
8
 73
4
 74
0
 40
0
 40
0
 40
0
 40
0
 40
1
 40
1
 40
1
 40
1
 10
131.112379
 20
127.262070
 30
0.0
 10
131.786576
 20
127.262070
 30
0.0
 10
131.817934
 20
127.337330
 30
0.0
 10
131.817934
 20
128.955403
 30
0.0
  0
LINE
  5
1dc
100
AcDbEntity
  8
Layer_1
 62
7
100
AcDbLine
 10
131.817934
 20
128.955403
 30
0.0
 11
131.817934
 21
128.955403
 31
0.0
  0
SPLINE
  5
1dd
100
AcDbEntity
  8
Layer_1
 62
7
100
AcDbSpline
 70
8
 71
3
 72
8
 73
4
 74
0
 40
0
 40
0
 40
0
 40
0
 40
1
 40
1
 40
1
 40
1
 10
144.517934
 20
128.955403
 30
0.0
 10
144.517934
 20
130.573477
 30
0.0
 10
144.486576
 20
130.648737
 30
0.0
 10
143.812379
 20
130.648737
 30
0.0
  0
SPLINE
  5
1de
100
AcDbEntity
  8
Layer_1
 62
7
100
AcDbSpline
 70
8
 71
3
 72
8
 73
4
 74
0
 40
0
 40
0
 40
0
 40
0
 40
1
 40
1
 40
1
 40
1
 10
143.812379
 20
130.648737
 30
0.0
 10
143.138181
 20
130.648737
 30
0.0
 10
143.106823
 20
130.573477
 30
0.0
 10
143.106823
 20
128.955403
 30
0.0
  0
SPLINE
  5
1df
100
AcDbEntity
  8
Layer_1
 62
7
100
AcDbSpline
 70
8
 71
3
 72
8
 73
4
 74
0
 40
0
 40
0
 40
0
 40
0
 40
1
 40
1
 40
1
 40
1
 10
143.106823
 20
128.955403
 30
0.0
 10
143.106823
 20
127.337330
 30
0.0
 10
143.138181
 20
127.262070
 30
0.0
 10
143.812379
 20
127.262070
 30
0.0
  0
SPLINE
  5
1e0
100
AcDbEntity
  8
Layer_1
 62
7
100
AcDbSpline
 70
8
 71
3
 72
8
 73
4
 74
0
 40
0
 40
0
 40
0
 40
0
 40
1
 40
1
 40
1
 40
1
 10
143.812379
 20
127.262070
 30
0.0
 10
144.486576
 20
127.262070
 30
0.0
 10
144.517934
 20
127.337330
 30
0.0
 10
144.517934
 20
128.955403
 30
0.0
  0
LINE
  5
1e1
100
AcDbEntity
  8
Layer_1
 62
7
100
AcDbLine
 10
144.517934
 20
128.955403
 30
0.0
 11
144.517934
 21
128.955403
 31
0.0
  0
SPLINE
  5
1e2
100
AcDbEntity
  8
Layer_1
 62
7
100
AcDbSpline
 70
8
 71
3
 72
8
 73
4
 74
0
 40
0
 40
0
 40
0
 40
0
 40
1
 40
1
 40
1
 40
1
 10
157.217934
 20
128.955403
 30
0.0
 10
157.217934
 20
130.573477
 30
0.0
 10
157.186576
 20
130.648737
 30
0.0
 10
156.512379
 20
130.648737
 30
0.0
  0
SPLINE
  5
1e3
100
AcDbEntity
  8
Layer_1
 62
7
100
AcDbSpline
 70
8
 71
3
 72
8
 73
4
 74
0
 40
0
 40
0
 40
0
 40
0
 40
1
 40
1
 40
1
 40
1
 10
156.512379
 20
130.648737
 30
0.0
 10
155.838181
 20
130.648737
 30
0.0
 10
155.806823
 20
130.573477
 30
0.0
 10
155.806823
 20
128.955403
 30
0.0
  0
SPLINE
  5
1e4
100
AcDbEntity
  8
Layer_1
 62
7
100
AcDbSpline
 70
8
 71
3
 72
8
 73
4
 74
0
 40
0
 40
0
 40
0
 40
0
 40
1
 40
1
 40
1
 40
1
 10
155.806823
 20
128.955403
 30
0.0
 10
155.806823
 20
127.337330
 30
0.0
 10
155.838181
 20
127.262070
 30
0.0
 10
156.512379
 20
127.262070
 30
0.0
  0
SPLINE
  5
1e5
100
AcDbEntity
  8
Layer_1
 62
7
100
AcDbSpline
 70
8
 71
3
 72
8
 73
4
 74
0
 40
0
 40
0
 40
0
 40
0
 40
1
 40
1
 40
1
 40
1
 10
156.512379
 20
127.262070
 30
0.0
 10
157.186576
 20
127.262070
 30
0.0
 10
157.217934
 20
127.337330
 30
0.0
 10
157.217934
 20
128.955403
 30
0.0
  0
LINE
  5
1e6
100
AcDbEntity
  8
Layer_1
 62
7
100
AcDbLine
 10
157.217934
 20
128.955403
 30
0.0
 11
157.217934
 21
128.955403
 31
0.0
  0
SPLINE
  5
1e7
100
AcDbEntity
  8
Layer_1
 62
7
100
AcDbSpline
 70
8
 71
3
 72
8
 73
4
 74
0
 40
0
 40
0
 40
0
 40
0
 40
1
 40
1
 40
1
 40
1
 10
190.237934
 20
128.955403
 30
0.0
 10
190.237934
 20
130.573477
 30
0.0
 10
190.206576
 20
130.648737
 30
0.0
 10
189.532379
 20
130.648737
 30
0.0
  0
SPLINE
  5
1e8
100
AcDbEntity
  8
Layer_1
 62
7
100
AcDbSpline
 70
8
 71
3
 72
8
 73
4
 74
0
 40
0
 40
0
 40
0
 40
0
 40
1
 40
1
 40
1
 40
1
 10
189.532379
 20
130.648737
 30
0.0
 10
188.858181
 20
130.648737
 30
0.0
 10
188.826823
 20
130.573477
 30
0.0
 10
188.826823
 20
128.955403
 30
0.0
  0
SPLINE
  5
1e9
100
AcDbEntity
  8
Layer_1
 62
7
100
AcDbSpline
 70
8
 71
3
 72
8
 73
4
 74
0
 40
0
 40
0
 40
0
 40
0
 40
1
 40
1
 40
1
 40
1
 10
188.826823
 20
128.955403
 30
0.0
 10
188.826823
 20
127.337330
 30
0.0
 10
188.858181
 20
127.262070
 30
0.0
 10
189.532379
 20
127.262070
 30
0.0
  0
SPLINE
  5
1ea
100
AcDbEntity
  8
Layer_1
 62
7
100
AcDbSpline
 70
8
 71
3
 72
8
 73
4
 74
0
 40
0
 40
0
 40
0
 40
0
 40
1
 40
1
 40
1
 40
1
 10
189.532379
 20
127.262070
 30
0.0
 10
190.206576
 20
127.262070
 30
0.0
 10
190.237934
 20
127.337330
 30
0.0
 10
190.237934
 20
128.955403
 30
0.0
  0
LINE
  5
1eb
100
AcDbEntity
  8
Layer_1
 62
7
100
AcDbLine
 10
190.237934
 20
128.955403
 30
0.0
 11
190.237934
 21
128.955403
 31
0.0
  0
SPLINE
  5
1ec
100
AcDbEntity
  8
Layer_1
 62
7
100
AcDbSpline
 70
8
 71
3
 72
8
 73
4
 74
0
 40
0
 40
0
 40
0
 40
0
 40
1
 40
1
 40
1
 40
1
 10
202.937920
 20
128.955403
 30
0.0
 10
202.937920
 20
130.573477
 30
0.0
 10
202.906565
 20
130.648737
 30
0.0
 10
202.232364
 20
130.648737
 30
0.0
  0
SPLINE
  5
1ed
100
AcDbEntity
  8
Layer_1
 62
7
100
AcDbSpline
 70
8
 71
3
 72
8
 73
4
 74
0
 40
0
 40
0
 40
0
 40
0
 40
1
 40
1
 40
1
 40
1
 10
202.232364
 20
130.648737
 30
0.0
 10
201.558192
 20
130.648737
 30
0.0
 10
201.526809
 20
130.573477
 30
0.0
 10
201.526809
 20
128.955403
 30
0.0
  0
SPLINE
  5
1ee
100
AcDbEntity
  8
Layer_1
 62
7
100
AcDbSpline
 70
8
 71
3
 72
8
 73
4
 74
0
 40
0
 40
0
 40
0
 40
0
 40
1
 40
1
 40
1
 40
1
 10
201.526809
 20
128.955403
 30
0.0
 10
201.526809
 20
127.337330
 30
0.0
 10
201.558192
 20
127.262070
 30
0.0
 10
202.232364
 20
127.262070
 30
0.0
  0
SPLINE
  5
1ef
100
AcDbEntity
  8
Layer_1
 62
7
100
AcDbSpline
 70
8
 71
3
 72
8
 73
4
 74
0
 40
0
 40
0
 40
0
 40
0
 40
1
 40
1
 40
1
 40
1
 10
202.232364
 20
127.262070
 30
0.0
 10
202.906565
 20
127.262070
 30
0.0
 10
202.937920
 20
127.337330
 30
0.0
 10
202.937920
 20
128.955403
 30
0.0
  0
LINE
  5
1f0
100
AcDbEntity
  8
Layer_1
 62
7
100
AcDbLine
 10
202.937920
 20
128.955403
 30
0.0
 11
202.937920
 21
128.955403
 31
0.0
  0
SPLINE
  5
1f1
100
AcDbEntity
  8
Layer_1
 62
7
100
AcDbSpline
 70
8
 71
3
 72
8
 73
4
 74
0
 40
0
 40
0
 40
0
 40
0
 40
1
 40
1
 40
1
 40
1
 10
12.437934
 20
136.575403
 30
0.0
 10
12.437934
 20
138.193477
 30
0.0
 10
12.406577
 20
138.268737
 30
0.0
 10
11.732379
 20
138.268737
 30
0.0
  0
SPLINE
  5
1f2
100
AcDbEntity
  8
Layer_1
 62
7
100
AcDbSpline
 70
8
 71
3
 72
8
 73
4
 74
0
 40
0
 40
0
 40
0
 40
0
 40
1
 40
1
 40
1
 40
1
 10
11.732379
 20
138.268737
 30
0.0
 10
11.058181
 20
138.268737
 30
0.0
 10
11.026823
 20
138.193477
 30
0.0
 10
11.026823
 20
136.575403
 30
0.0
  0
SPLINE
  5
1f3
100
AcDbEntity
  8
Layer_1
 62
7
100
AcDbSpline
 70
8
 71
3
 72
8
 73
4
 74
0
 40
0
 40
0
 40
0
 40
0
 40
1
 40
1
 40
1
 40
1
 10
11.026823
 20
136.575403
 30
0.0
 10
11.026823
 20
134.957330
 30
0.0
 10
11.058181
 20
134.882070
 30
0.0
 10
11.732379
 20
134.882070
 30
0.0
  0
SPLINE
  5
1f4
100
AcDbEntity
  8
Layer_1
 62
7
100
AcDbSpline
 70
8
 71
3
 72
8
 73
4
 74
0
 40
0
 40
0
 40
0
 40
0
 40
1
 40
1
 40
1
 40
1
 10
11.732379
 20
134.882070
 30
0.0
 10
12.406577
 20
134.882070
 30
0.0
 10
12.437934
 20
134.957330
 30
0.0
 10
12.437934
 20
136.575403
 30
0.0
  0
LINE
  5
1f5
100
AcDbEntity
  8
Layer_1
 62
7
100
AcDbLine
 10
12.437934
 20
136.575403
 30
0.0
 11
12.437934
 21
136.575403
 31
0.0
  0
SPLINE
  5
1f6
100
AcDbEntity
  8
Layer_1
 62
7
100
AcDbSpline
 70
8
 71
3
 72
8
 73
4
 74
0
 40
0
 40
0
 40
0
 40
0
 40
1
 40
1
 40
1
 40
1
 10
27.677933
 20
136.575403
 30
0.0
 10
27.677933
 20
138.193477
 30
0.0
 10
27.646576
 20
138.268737
 30
0.0
 10
26.972378
 20
138.268737
 30
0.0
  0
SPLINE
  5
1f7
100
AcDbEntity
  8
Layer_1
 62
7
100
AcDbSpline
 70
8
 71
3
 72
8
 73
4
 74
0
 40
0
 40
0
 40
0
 40
0
 40
1
 40
1
 40
1
 40
1
 10
26.972378
 20
138.268737
 30
0.0
 10
26.298180
 20
138.268737
 30
0.0
 10
26.266822
 20
138.193477
 30
0.0
 10
26.266822
 20
136.575403
 30
0.0
  0
SPLINE
  5
1f8
100
AcDbEntity
  8
Layer_1
 62
7
100
AcDbSpline
 70
8
 71
3
 72
8
 73
4
 74
0
 40
0
 40
0
 40
0
 40
0
 40
1
 40
1
 40
1
 40
1
 10
26.266822
 20
136.575403
 30
0.0
 10
26.266822
 20
134.957330
 30
0.0
 10
26.298180
 20
134.882070
 30
0.0
 10
26.972378
 20
134.882070
 30
0.0
  0
SPLINE
  5
1f9
100
AcDbEntity
  8
Layer_1
 62
7
100
AcDbSpline
 70
8
 71
3
 72
8
 73
4
 74
0
 40
0
 40
0
 40
0
 40
0
 40
1
 40
1
 40
1
 40
1
 10
26.972378
 20
134.882070
 30
0.0
 10
27.646576
 20
134.882070
 30
0.0
 10
27.677933
 20
134.957330
 30
0.0
 10
27.677933
 20
136.575403
 30
0.0
  0
LINE
  5
1fa
100
AcDbEntity
  8
Layer_1
 62
7
100
AcDbLine
 10
27.677933
 20
136.575403
 30
0.0
 11
27.677933
 21
136.575403
 31
0.0
  0
SPLINE
  5
1fb
100
AcDbEntity
  8
Layer_1
 62
7
100
AcDbSpline
 70
8
 71
3
 72
8
 73
4
 74
0
 40
0
 40
0
 40
0
 40
0
 40
1
 40
1
 40
1
 40
1
 10
70.857934
 20
136.575403
 30
0.0
 10
70.857934
 20
138.193477
 30
0.0
 10
70.826576
 20
138.268737
 30
0.0
 10
70.152379
 20
138.268737
 30
0.0
  0
SPLINE
  5
1fc
100
AcDbEntity
  8
Layer_1
 62
7
100
AcDbSpline
 70
8
 71
3
 72
8
 73
4
 74
0
 40
0
 40
0
 40
0
 40
0
 40
1
 40
1
 40
1
 40
1
 10
70.152379
 20
138.268737
 30
0.0
 10
69.478181
 20
138.268737
 30
0.0
 10
69.446823
 20
138.193477
 30
0.0
 10
69.446823
 20
136.575403
 30
0.0
  0
SPLINE
  5
1fd
100
AcDbEntity
  8
Layer_1
 62
7
100
AcDbSpline
 70
8
 71
3
 72
8
 73
4
 74
0
 40
0
 40
0
 40
0
 40
0
 40
1
 40
1
 40
1
 40
1
 10
69.446823
 20
136.575403
 30
0.0
 10
69.446823
 20
134.957330
 30
0.0
 10
69.478181
 20
134.882070
 30
0.0
 10
70.152379
 20
134.882070
 30
0.0
  0
SPLINE
  5
1fe
100
AcDbEntity
  8
Layer_1
 62
7
100
AcDbSpline
 70
8
 71
3
 72
8
 73
4
 74
0
 40
0
 40
0
 40
0
 40
0
 40
1
 40
1
 40
1
 40
1
 10
70.152379
 20
134.882070
 30
0.0
 10
70.826576
 20
134.882070
 30
0.0
 10
70.857934
 20
134.957330
 30
0.0
 10
70.857934
 20
136.575403
 30
0.0
  0
LINE
  5
1ff
100
AcDbEntity
  8
Layer_1
 62
7
100
AcDbLine
 10
70.857934
 20
136.575403
 30
0.0
 11
70.857934
 21
136.575403
 31
0.0
  0
SPLINE
  5
200
100
AcDbEntity
  8
Layer_1
 62
7
100
AcDbSpline
 70
8
 71
3
 72
8
 73
4
 74
0
 40
0
 40
0
 40
0
 40
0
 40
1
 40
1
 40
1
 40
1
 10
83.557934
 20
136.575403
 30
0.0
 10
83.557934
 20
138.193477
 30
0.0
 10
83.526576
 20
138.268737
 30
0.0
 10
82.852379
 20
138.268737
 30
0.0
  0
SPLINE
  5
201
100
AcDbEntity
  8
Layer_1
 62
7
100
AcDbSpline
 70
8
 71
3
 72
8
 73
4
 74
0
 40
0
 40
0
 40
0
 40
0
 40
1
 40
1
 40
1
 40
1
 10
82.852379
 20
138.268737
 30
0.0
 10
82.178181
 20
138.268737
 30
0.0
 10
82.146823
 20
138.193477
 30
0.0
 10
82.146823
 20
136.575403
 30
0.0
  0
SPLINE
  5
202
100
AcDbEntity
  8
Layer_1
 62
7
100
AcDbSpline
 70
8
 71
3
 72
8
 73
4
 74
0
 40
0
 40
0
 40
0
 40
0
 40
1
 40
1
 40
1
 40
1
 10
82.146823
 20
136.575403
 30
0.0
 10
82.146823
 20
134.957330
 30
0.0
 10
82.178181
 20
134.882070
 30
0.0
 10
82.852379
 20
134.882070
 30
0.0
  0
SPLINE
  5
203
100
AcDbEntity
  8
Layer_1
 62
7
100
AcDbSpline
 70
8
 71
3
 72
8
 73
4
 74
0
 40
0
 40
0
 40
0
 40
0
 40
1
 40
1
 40
1
 40
1
 10
82.852379
 20
134.882070
 30
0.0
 10
83.526576
 20
134.882070
 30
0.0
 10
83.557934
 20
134.957330
 30
0.0
 10
83.557934
 20
136.575403
 30
0.0
  0
LINE
  5
204
100
AcDbEntity
  8
Layer_1
 62
7
100
AcDbLine
 10
83.557934
 20
136.575403
 30
0.0
 11
83.557934
 21
136.575403
 31
0.0
  0
SPLINE
  5
205
100
AcDbEntity
  8
Layer_1
 62
7
100
AcDbSpline
 70
8
 71
3
 72
8
 73
4
 74
0
 40
0
 40
0
 40
0
 40
0
 40
1
 40
1
 40
1
 40
1
 10
98.797934
 20
136.575403
 30
0.0
 10
98.797934
 20
138.193477
 30
0.0
 10
98.766576
 20
138.268737
 30
0.0
 10
98.092379
 20
138.268737
 30
0.0
  0
SPLINE
  5
206
100
AcDbEntity
  8
Layer_1
 62
7
100
AcDbSpline
 70
8
 71
3
 72
8
 73
4
 74
0
 40
0
 40
0
 40
0
 40
0
 40
1
 40
1
 40
1
 40
1
 10
98.092379
 20
138.268737
 30
0.0
 10
97.418181
 20
138.268737
 30
0.0
 10
97.386823
 20
138.193477
 30
0.0
 10
97.386823
 20
136.575403
 30
0.0
  0
SPLINE
  5
207
100
AcDbEntity
  8
Layer_1
 62
7
100
AcDbSpline
 70
8
 71
3
 72
8
 73
4
 74
0
 40
0
 40
0
 40
0
 40
0
 40
1
 40
1
 40
1
 40
1
 10
97.386823
 20
136.575403
 30
0.0
 10
97.386823
 20
134.957330
 30
0.0
 10
97.418181
 20
134.882070
 30
0.0
 10
98.092379
 20
134.882070
 30
0.0
  0
SPLINE
  5
208
100
AcDbEntity
  8
Layer_1
 62
7
100
AcDbSpline
 70
8
 71
3
 72
8
 73
4
 74
0
 40
0
 40
0
 40
0
 40
0
 40
1
 40
1
 40
1
 40
1
 10
98.092379
 20
134.882070
 30
0.0
 10
98.766576
 20
134.882070
 30
0.0
 10
98.797934
 20
134.957330
 30
0.0
 10
98.797934
 20
136.575403
 30
0.0
  0
LINE
  5
209
100
AcDbEntity
  8
Layer_1
 62
7
100
AcDbLine
 10
98.797934
 20
136.575403
 30
0.0
 11
98.797934
 21
136.575403
 31
0.0
  0
SPLINE
  5
20a
100
AcDbEntity
  8
Layer_1
 62
7
100
AcDbSpline
 70
8
 71
3
 72
8
 73
4
 74
0
 40
0
 40
0
 40
0
 40
0
 40
1
 40
1
 40
1
 40
1
 10
136.897934
 20
136.575403
 30
0.0
 10
136.897934
 20
138.193477
 30
0.0
 10
136.866576
 20
138.268737
 30
0.0
 10
136.192379
 20
138.268737
 30
0.0
  0
SPLINE
  5
20b
100
AcDbEntity
  8
Layer_1
 62
7
100
AcDbSpline
 70
8
 71
3
 72
8
 73
4
 74
0
 40
0
 40
0
 40
0
 40
0
 40
1
 40
1
 40
1
 40
1
 10
136.192379
 20
138.268737
 30
0.0
 10
135.518181
 20
138.268737
 30
0.0
 10
135.486823
 20
138.193477
 30
0.0
 10
135.486823
 20
136.575403
 30
0.0
  0
SPLINE
  5
20c
100
AcDbEntity
  8
Layer_1
 62
7
100
AcDbSpline
 70
8
 71
3
 72
8
 73
4
 74
0
 40
0
 40
0
 40
0
 40
0
 40
1
 40
1
 40
1
 40
1
 10
135.486823
 20
136.575403
 30
0.0
 10
135.486823
 20
134.957330
 30
0.0
 10
135.518181
 20
134.882070
 30
0.0
 10
136.192379
 20
134.882070
 30
0.0
  0
SPLINE
  5
20d
100
AcDbEntity
  8
Layer_1
 62
7
100
AcDbSpline
 70
8
 71
3
 72
8
 73
4
 74
0
 40
0
 40
0
 40
0
 40
0
 40
1
 40
1
 40
1
 40
1
 10
136.192379
 20
134.882070
 30
0.0
 10
136.866576
 20
134.882070
 30
0.0
 10
136.897934
 20
134.957330
 30
0.0
 10
136.897934
 20
136.575403
 30
0.0
  0
LINE
  5
20e
100
AcDbEntity
  8
Layer_1
 62
7
100
AcDbLine
 10
136.897934
 20
136.575403
 30
0.0
 11
136.897934
 21
136.575403
 31
0.0
  0
SPLINE
  5
20f
100
AcDbEntity
  8
Layer_1
 62
7
100
AcDbSpline
 70
8
 71
3
 72
8
 73
4
 74
0
 40
0
 40
0
 40
0
 40
0
 40
1
 40
1
 40
1
 40
1
 10
149.597934
 20
136.575403
 30
0.0
 10
149.597934
 20
138.193477
 30
0.0
 10
149.566576
 20
138.268737
 30
0.0
 10
148.892379
 20
138.268737
 30
0.0
  0
SPLINE
  5
210
100
AcDbEntity
  8
Layer_1
 62
7
100
AcDbSpline
 70
8
 71
3
 72
8
 73
4
 74
0
 40
0
 40
0
 40
0
 40
0
 40
1
 40
1
 40
1
 40
1
 10
148.892379
 20
138.268737
 30
0.0
 10
148.218181
 20
138.268737
 30
0.0
 10
148.186823
 20
138.193477
 30
0.0
 10
148.186823
 20
136.575403
 30
0.0
  0
SPLINE
  5
211
100
AcDbEntity
  8
Layer_1
 62
7
100
AcDbSpline
 70
8
 71
3
 72
8
 73
4
 74
0
 40
0
 40
0
 40
0
 40
0
 40
1
 40
1
 40
1
 40
1
 10
148.186823
 20
136.575403
 30
0.0
 10
148.186823
 20
134.957330
 30
0.0
 10
148.218181
 20
134.882070
 30
0.0
 10
148.892379
 20
134.882070
 30
0.0
  0
SPLINE
  5
212
100
AcDbEntity
  8
Layer_1
 62
7
100
AcDbSpline
 70
8
 71
3
 72
8
 73
4
 74
0
 40
0
 40
0
 40
0
 40
0
 40
1
 40
1
 40
1
 40
1
 10
148.892379
 20
134.882070
 30
0.0
 10
149.566576
 20
134.882070
 30
0.0
 10
149.597934
 20
134.957330
 30
0.0
 10
149.597934
 20
136.575403
 30
0.0
  0
LINE
  5
213
100
AcDbEntity
  8
Layer_1
 62
7
100
AcDbLine
 10
149.597934
 20
136.575403
 30
0.0
 11
149.597934
 21
136.575403
 31
0.0
  0
SPLINE
  5
214
100
AcDbEntity
  8
Layer_1
 62
7
100
AcDbSpline
 70
8
 71
3
 72
8
 73
4
 74
0
 40
0
 40
0
 40
0
 40
0
 40
1
 40
1
 40
1
 40
1
 10
174.997934
 20
136.575403
 30
0.0
 10
174.997934
 20
138.193477
 30
0.0
 10
174.966576
 20
138.268737
 30
0.0
 10
174.292379
 20
138.268737
 30
0.0
  0
SPLINE
  5
215
100
AcDbEntity
  8
Layer_1
 62
7
100
AcDbSpline
 70
8
 71
3
 72
8
 73
4
 74
0
 40
0
 40
0
 40
0
 40
0
 40
1
 40
1
 40
1
 40
1
 10
174.292379
 20
138.268737
 30
0.0
 10
173.618181
 20
138.268737
 30
0.0
 10
173.586823
 20
138.193477
 30
0.0
 10
173.586823
 20
136.575403
 30
0.0
  0
SPLINE
  5
216
100
AcDbEntity
  8
Layer_1
 62
7
100
AcDbSpline
 70
8
 71
3
 72
8
 73
4
 74
0
 40
0
 40
0
 40
0
 40
0
 40
1
 40
1
 40
1
 40
1
 10
173.586823
 20
136.575403
 30
0.0
 10
173.586823
 20
134.957330
 30
0.0
 10
173.618181
 20
134.882070
 30
0.0
 10
174.292379
 20
134.882070
 30
0.0
  0
SPLINE
  5
217
100
AcDbEntity
  8
Layer_1
 62
7
100
AcDbSpline
 70
8
 71
3
 72
8
 73
4
 74
0
 40
0
 40
0
 40
0
 40
0
 40
1
 40
1
 40
1
 40
1
 10
174.292379
 20
134.882070
 30
0.0
 10
174.966576
 20
134.882070
 30
0.0
 10
174.997934
 20
134.957330
 30
0.0
 10
174.997934
 20
136.575403
 30
0.0
  0
LINE
  5
218
100
AcDbEntity
  8
Layer_1
 62
7
100
AcDbLine
 10
174.997934
 20
136.575403
 30
0.0
 11
174.997934
 21
136.575403
 31
0.0
  0
SPLINE
  5
219
100
AcDbEntity
  8
Layer_1
 62
7
100
AcDbSpline
 70
8
 71
3
 72
8
 73
4
 74
0
 40
0
 40
0
 40
0
 40
0
 40
1
 40
1
 40
1
 40
1
 10
180.077934
 20
136.575403
 30
0.0
 10
180.077934
 20
138.193477
 30
0.0
 10
180.046576
 20
138.268737
 30
0.0
 10
179.372379
 20
138.268737
 30
0.0
  0
SPLINE
  5
21a
100
AcDbEntity
  8
Layer_1
 62
7
100
AcDbSpline
 70
8
 71
3
 72
8
 73
4
 74
0
 40
0
 40
0
 40
0
 40
0
 40
1
 40
1
 40
1
 40
1
 10
179.372379
 20
138.268737
 30
0.0
 10
178.698181
 20
138.268737
 30
0.0
 10
178.666823
 20
138.193477
 30
0.0
 10
178.666823
 20
136.575403
 30
0.0
  0
SPLINE
  5
21b
100
AcDbEntity
  8
Layer_1
 62
7
100
AcDbSpline
 70
8
 71
3
 72
8
 73
4
 74
0
 40
0
 40
0
 40
0
 40
0
 40
1
 40
1
 40
1
 40
1
 10
178.666823
 20
136.575403
 30
0.0
 10
178.666823
 20
134.957330
 30
0.0
 10
178.698181
 20
134.882070
 30
0.0
 10
179.372379
 20
134.882070
 30
0.0
  0
SPLINE
  5
21c
100
AcDbEntity
  8
Layer_1
 62
7
100
AcDbSpline
 70
8
 71
3
 72
8
 73
4
 74
0
 40
0
 40
0
 40
0
 40
0
 40
1
 40
1
 40
1
 40
1
 10
179.372379
 20
134.882070
 30
0.0
 10
180.046576
 20
134.882070
 30
0.0
 10
180.077934
 20
134.957330
 30
0.0
 10
180.077934
 20
136.575403
 30
0.0
  0
LINE
  5
21d
100
AcDbEntity
  8
Layer_1
 62
7
100
AcDbLine
 10
180.077934
 20
136.575403
 30
0.0
 11
180.077934
 21
136.575403
 31
0.0
  0
SPLINE
  5
21e
100
AcDbEntity
  8
Layer_1
 62
7
100
AcDbSpline
 70
8
 71
3
 72
8
 73
4
 74
0
 40
0
 40
0
 40
0
 40
0
 40
1
 40
1
 40
1
 40
1
 10
192.777934
 20
136.575403
 30
0.0
 10
192.777934
 20
138.193477
 30
0.0
 10
192.746576
 20
138.268737
 30
0.0
 10
192.072379
 20
138.268737
 30
0.0
  0
SPLINE
  5
21f
100
AcDbEntity
  8
Layer_1
 62
7
100
AcDbSpline
 70
8
 71
3
 72
8
 73
4
 74
0
 40
0
 40
0
 40
0
 40
0
 40
1
 40
1
 40
1
 40
1
 10
192.072379
 20
138.268737
 30
0.0
 10
191.398181
 20
138.268737
 30
0.0
 10
191.366823
 20
138.193477
 30
0.0
 10
191.366823
 20
136.575403
 30
0.0
  0
SPLINE
  5
220
100
AcDbEntity
  8
Layer_1
 62
7
100
AcDbSpline
 70
8
 71
3
 72
8
 73
4
 74
0
 40
0
 40
0
 40
0
 40
0
 40
1
 40
1
 40
1
 40
1
 10
191.366823
 20
136.575403
 30
0.0
 10
191.366823
 20
134.957330
 30
0.0
 10
191.398181
 20
134.882070
 30
0.0
 10
192.072379
 20
134.882070
 30
0.0
  0
SPLINE
  5
221
100
AcDbEntity
  8
Layer_1
 62
7
100
AcDbSpline
 70
8
 71
3
 72
8
 73
4
 74
0
 40
0
 40
0
 40
0
 40
0
 40
1
 40
1
 40
1
 40
1
 10
192.072379
 20
134.882070
 30
0.0
 10
192.746576
 20
134.882070
 30
0.0
 10
192.777934
 20
134.957330
 30
0.0
 10
192.777934
 20
136.575403
 30
0.0
  0
LINE
  5
222
100
AcDbEntity
  8
Layer_1
 62
7
100
AcDbLine
 10
192.777934
 20
136.575403
 30
0.0
 11
192.777934
 21
136.575403
 31
0.0
  0
SPLINE
  5
223
100
AcDbEntity
  8
Layer_1
 62
7
100
AcDbSpline
 70
8
 71
3
 72
8
 73
4
 74
0
 40
0
 40
0
 40
0
 40
0
 40
1
 40
1
 40
1
 40
1
 10
195.317934
 20
136.575403
 30
0.0
 10
195.317934
 20
138.193477
 30
0.0
 10
195.286576
 20
138.268737
 30
0.0
 10
194.612379
 20
138.268737
 30
0.0
  0
SPLINE
  5
224
100
AcDbEntity
  8
Layer_1
 62
7
100
AcDbSpline
 70
8
 71
3
 72
8
 73
4
 74
0
 40
0
 40
0
 40
0
 40
0
 40
1
 40
1
 40
1
 40
1
 10
194.612379
 20
138.268737
 30
0.0
 10
193.938181
 20
138.268737
 30
0.0
 10
193.906823
 20
138.193477
 30
0.0
 10
193.906823
 20
136.575403
 30
0.0
  0
SPLINE
  5
225
100
AcDbEntity
  8
Layer_1
 62
7
100
AcDbSpline
 70
8
 71
3
 72
8
 73
4
 74
0
 40
0
 40
0
 40
0
 40
0
 40
1
 40
1
 40
1
 40
1
 10
193.906823
 20
136.575403
 30
0.0
 10
193.906823
 20
134.957330
 30
0.0
 10
193.938181
 20
134.882070
 30
0.0
 10
194.612379
 20
134.882070
 30
0.0
  0
SPLINE
  5
226
100
AcDbEntity
  8
Layer_1
 62
7
100
AcDbSpline
 70
8
 71
3
 72
8
 73
4
 74
0
 40
0
 40
0
 40
0
 40
0
 40
1
 40
1
 40
1
 40
1
 10
194.612379
 20
134.882070
 30
0.0
 10
195.286576
 20
134.882070
 30
0.0
 10
195.317934
 20
134.957330
 30
0.0
 10
195.317934
 20
136.575403
 30
0.0
  0
LINE
  5
227
100
AcDbEntity
  8
Layer_1
 62
7
100
AcDbLine
 10
195.317934
 20
136.575403
 30
0.0
 11
195.317934
 21
136.575403
 31
0.0
  0
SPLINE
  5
228
100
AcDbEntity
  8
Layer_1
 62
7
100
AcDbSpline
 70
8
 71
3
 72
8
 73
4
 74
0
 40
0
 40
0
 40
0
 40
0
 40
1
 40
1
 40
1
 40
1
 10
200.397934
 20
136.575403
 30
0.0
 10
200.397934
 20
138.193477
 30
0.0
 10
200.366576
 20
138.268737
 30
0.0
 10
199.692379
 20
138.268737
 30
0.0
  0
SPLINE
  5
229
100
AcDbEntity
  8
Layer_1
 62
7
100
AcDbSpline
 70
8
 71
3
 72
8
 73
4
 74
0
 40
0
 40
0
 40
0
 40
0
 40
1
 40
1
 40
1
 40
1
 10
199.692379
 20
138.268737
 30
0.0
 10
199.018181
 20
138.268737
 30
0.0
 10
198.986823
 20
138.193477
 30
0.0
 10
198.986823
 20
136.575403
 30
0.0
  0
SPLINE
  5
22a
100
AcDbEntity
  8
Layer_1
 62
7
100
AcDbSpline
 70
8
 71
3
 72
8
 73
4
 74
0
 40
0
 40
0
 40
0
 40
0
 40
1
 40
1
 40
1
 40
1
 10
198.986823
 20
136.575403
 30
0.0
 10
198.986823
 20
134.957330
 30
0.0
 10
199.018181
 20
134.882070
 30
0.0
 10
199.692379
 20
134.882070
 30
0.0
  0
SPLINE
  5
22b
100
AcDbEntity
  8
Layer_1
 62
7
100
AcDbSpline
 70
8
 71
3
 72
8
 73
4
 74
0
 40
0
 40
0
 40
0
 40
0
 40
1
 40
1
 40
1
 40
1
 10
199.692379
 20
134.882070
 30
0.0
 10
200.366576
 20
134.882070
 30
0.0
 10
200.397934
 20
134.957330
 30
0.0
 10
200.397934
 20
136.575403
 30
0.0
  0
LINE
  5
22c
100
AcDbEntity
  8
Layer_1
 62
7
100
AcDbLine
 10
200.397934
 20
136.575403
 30
0.0
 11
200.397934
 21
136.575403
 31
0.0
  0
SPLINE
  5
22d
100
AcDbEntity
  8
Layer_1
 62
7
100
AcDbSpline
 70
8
 71
3
 72
8
 73
4
 74
0
 40
0
 40
0
 40
0
 40
0
 40
1
 40
1
 40
1
 40
1
 10
14.977934
 20
144.195403
 30
0.0
 10
14.977934
 20
145.813477
 30
0.0
 10
14.946577
 20
145.888737
 30
0.0
 10
14.272379
 20
145.888737
 30
0.0
  0
SPLINE
  5
22e
100
AcDbEntity
  8
Layer_1
 62
7
100
AcDbSpline
 70
8
 71
3
 72
8
 73
4
 74
0
 40
0
 40
0
 40
0
 40
0
 40
1
 40
1
 40
1
 40
1
 10
14.272379
 20
145.888737
 30
0.0
 10
13.598181
 20
145.888737
 30
0.0
 10
13.566823
 20
145.813477
 30
0.0
 10
13.566823
 20
144.195403
 30
0.0
  0
SPLINE
  5
22f
100
AcDbEntity
  8
Layer_1
 62
7
100
AcDbSpline
 70
8
 71
3
 72
8
 73
4
 74
0
 40
0
 40
0
 40
0
 40
0
 40
1
 40
1
 40
1
 40
1
 10
13.566823
 20
144.195403
 30
0.0
 10
13.566823
 20
142.577330
 30
0.0
 10
13.598181
 20
142.502070
 30
0.0
 10
14.272379
 20
142.502070
 30
0.0
  0
SPLINE
  5
230
100
AcDbEntity
  8
Layer_1
 62
7
100
AcDbSpline
 70
8
 71
3
 72
8
 73
4
 74
0
 40
0
 40
0
 40
0
 40
0
 40
1
 40
1
 40
1
 40
1
 10
14.272379
 20
142.502070
 30
0.0
 10
14.946577
 20
142.502070
 30
0.0
 10
14.977934
 20
142.577330
 30
0.0
 10
14.977934
 20
144.195403
 30
0.0
  0
LINE
  5
231
100
AcDbEntity
  8
Layer_1
 62
7
100
AcDbLine
 10
14.977934
 20
144.195403
 30
0.0
 11
14.977934
 21
144.195403
 31
0.0
  0
SPLINE
  5
232
100
AcDbEntity
  8
Layer_1
 62
7
100
AcDbSpline
 70
8
 71
3
 72
8
 73
4
 74
0
 40
0
 40
0
 40
0
 40
0
 40
1
 40
1
 40
1
 40
1
 10
47.997934
 20
144.195403
 30
0.0
 10
47.997934
 20
145.813477
 30
0.0
 10
47.966576
 20
145.888737
 30
0.0
 10
47.292379
 20
145.888737
 30
0.0
  0
SPLINE
  5
233
100
AcDbEntity
  8
Layer_1
 62
7
100
AcDbSpline
 70
8
 71
3
 72
8
 73
4
 74
0
 40
0
 40
0
 40
0
 40
0
 40
1
 40
1
 40
1
 40
1
 10
47.292379
 20
145.888737
 30
0.0
 10
46.618181
 20
145.888737
 30
0.0
 10
46.586823
 20
145.813477
 30
0.0
 10
46.586823
 20
144.195403
 30
0.0
  0
SPLINE
  5
234
100
AcDbEntity
  8
Layer_1
 62
7
100
AcDbSpline
 70
8
 71
3
 72
8
 73
4
 74
0
 40
0
 40
0
 40
0
 40
0
 40
1
 40
1
 40
1
 40
1
 10
46.586823
 20
144.195403
 30
0.0
 10
46.586823
 20
142.577330
 30
0.0
 10
46.618181
 20
142.502070
 30
0.0
 10
47.292379
 20
142.502070
 30
0.0
  0
SPLINE
  5
235
100
AcDbEntity
  8
Layer_1
 62
7
100
AcDbSpline
 70
8
 71
3
 72
8
 73
4
 74
0
 40
0
 40
0
 40
0
 40
0
 40
1
 40
1
 40
1
 40
1
 10
47.292379
 20
142.502070
 30
0.0
 10
47.966576
 20
142.502070
 30
0.0
 10
47.997934
 20
142.577330
 30
0.0
 10
47.997934
 20
144.195403
 30
0.0
  0
LINE
  5
236
100
AcDbEntity
  8
Layer_1
 62
7
100
AcDbLine
 10
47.997934
 20
144.195403
 30
0.0
 11
47.997934
 21
144.195403
 31
0.0
  0
SPLINE
  5
237
100
AcDbEntity
  8
Layer_1
 62
7
100
AcDbSpline
 70
8
 71
3
 72
8
 73
4
 74
0
 40
0
 40
0
 40
0
 40
0
 40
1
 40
1
 40
1
 40
1
 10
93.717934
 20
144.195403
 30
0.0
 10
93.717934
 20
145.813477
 30
0.0
 10
93.686576
 20
145.888737
 30
0.0
 10
93.012379
 20
145.888737
 30
0.0
  0
SPLINE
  5
238
100
AcDbEntity
  8
Layer_1
 62
7
100
AcDbSpline
 70
8
 71
3
 72
8
 73
4
 74
0
 40
0
 40
0
 40
0
 40
0
 40
1
 40
1
 40
1
 40
1
 10
93.012379
 20
145.888737
 30
0.0
 10
92.338181
 20
145.888737
 30
0.0
 10
92.306823
 20
145.813477
 30
0.0
 10
92.306823
 20
144.195403
 30
0.0
  0
SPLINE
  5
239
100
AcDbEntity
  8
Layer_1
 62
7
100
AcDbSpline
 70
8
 71
3
 72
8
 73
4
 74
0
 40
0
 40
0
 40
0
 40
0
 40
1
 40
1
 40
1
 40
1
 10
92.306823
 20
144.195403
 30
0.0
 10
92.306823
 20
142.577330
 30
0.0
 10
92.338181
 20
142.502070
 30
0.0
 10
93.012379
 20
142.502070
 30
0.0
  0
SPLINE
  5
23a
100
AcDbEntity
  8
Layer_1
 62
7
100
AcDbSpline
 70
8
 71
3
 72
8
 73
4
 74
0
 40
0
 40
0
 40
0
 40
0
 40
1
 40
1
 40
1
 40
1
 10
93.012379
 20
142.502070
 30
0.0
 10
93.686576
 20
142.502070
 30
0.0
 10
93.717934
 20
142.577330
 30
0.0
 10
93.717934
 20
144.195403
 30
0.0
  0
LINE
  5
23b
100
AcDbEntity
  8
Layer_1
 62
7
100
AcDbLine
 10
93.717934
 20
144.195403
 30
0.0
 11
93.717934
 21
144.195403
 31
0.0
  0
SPLINE
  5
23c
100
AcDbEntity
  8
Layer_1
 62
7
100
AcDbSpline
 70
8
 71
3
 72
8
 73
4
 74
0
 40
0
 40
0
 40
0
 40
0
 40
1
 40
1
 40
1
 40
1
 10
124.197934
 20
144.195403
 30
0.0
 10
124.197934
 20
145.813477
 30
0.0
 10
124.166576
 20
145.888737
 30
0.0
 10
123.492379
 20
145.888737
 30
0.0
  0
SPLINE
  5
23d
100
AcDbEntity
  8
Layer_1
 62
7
100
AcDbSpline
 70
8
 71
3
 72
8
 73
4
 74
0
 40
0
 40
0
 40
0
 40
0
 40
1
 40
1
 40
1
 40
1
 10
123.492379
 20
145.888737
 30
0.0
 10
122.818181
 20
145.888737
 30
0.0
 10
122.786823
 20
145.813477
 30
0.0
 10
122.786823
 20
144.195403
 30
0.0
  0
SPLINE
  5
23e
100
AcDbEntity
  8
Layer_1
 62
7
100
AcDbSpline
 70
8
 71
3
 72
8
 73
4
 74
0
 40
0
 40
0
 40
0
 40
0
 40
1
 40
1
 40
1
 40
1
 10
122.786823
 20
144.195403
 30
0.0
 10
122.786823
 20
142.577330
 30
0.0
 10
122.818181
 20
142.502070
 30
0.0
 10
123.492379
 20
142.502070
 30
0.0
  0
SPLINE
  5
23f
100
AcDbEntity
  8
Layer_1
 62
7
100
AcDbSpline
 70
8
 71
3
 72
8
 73
4
 74
0
 40
0
 40
0
 40
0
 40
0
 40
1
 40
1
 40
1
 40
1
 10
123.492379
 20
142.502070
 30
0.0
 10
124.166576
 20
142.502070
 30
0.0
 10
124.197934
 20
142.577330
 30
0.0
 10
124.197934
 20
144.195403
 30
0.0
  0
LINE
  5
240
100
AcDbEntity
  8
Layer_1
 62
7
100
AcDbLine
 10
124.197934
 20
144.195403
 30
0.0
 11
124.197934
 21
144.195403
 31
0.0
  0
SPLINE
  5
241
100
AcDbEntity
  8
Layer_1
 62
7
100
AcDbSpline
 70
8
 71
3
 72
8
 73
4
 74
0
 40
0
 40
0
 40
0
 40
0
 40
1
 40
1
 40
1
 40
1
 10
159.757934
 20
144.195403
 30
0.0
 10
159.757934
 20
145.813477
 30
0.0
 10
159.726576
 20
145.888737
 30
0.0
 10
159.052379
 20
145.888737
 30
0.0
  0
SPLINE
  5
242
100
AcDbEntity
  8
Layer_1
 62
7
100
AcDbSpline
 70
8
 71
3
 72
8
 73
4
 74
0
 40
0
 40
0
 40
0
 40
0
 40
1
 40
1
 40
1
 40
1
 10
159.052379
 20
145.888737
 30
0.0
 10
158.378181
 20
145.888737
 30
0.0
 10
158.346823
 20
145.813477
 30
0.0
 10
158.346823
 20
144.195403
 30
0.0
  0
SPLINE
  5
243
100
AcDbEntity
  8
Layer_1
 62
7
100
AcDbSpline
 70
8
 71
3
 72
8
 73
4
 74
0
 40
0
 40
0
 40
0
 40
0
 40
1
 40
1
 40
1
 40
1
 10
158.346823
 20
144.195403
 30
0.0
 10
158.346823
 20
142.577330
 30
0.0
 10
158.378181
 20
142.502070
 30
0.0
 10
159.052379
 20
142.502070
 30
0.0
  0
SPLINE
  5
244
100
AcDbEntity
  8
Layer_1
 62
7
100
AcDbSpline
 70
8
 71
3
 72
8
 73
4
 74
0
 40
0
 40
0
 40
0
 40
0
 40
1
 40
1
 40
1
 40
1
 10
159.052379
 20
142.502070
 30
0.0
 10
159.726576
 20
142.502070
 30
0.0
 10
159.757934
 20
142.577330
 30
0.0
 10
159.757934
 20
144.195403
 30
0.0
  0
LINE
  5
245
100
AcDbEntity
  8
Layer_1
 62
7
100
AcDbLine
 10
159.757934
 20
144.195403
 30
0.0
 11
159.757934
 21
144.195403
 31
0.0
  0
SPLINE
  5
246
100
AcDbEntity
  8
Layer_1
 62
7
100
AcDbSpline
 70
8
 71
3
 72
8
 73
4
 74
0
 40
0
 40
0
 40
0
 40
0
 40
1
 40
1
 40
1
 40
1
 10
162.297934
 20
144.195403
 30
0.0
 10
162.297934
 20
145.813477
 30
0.0
 10
162.266576
 20
145.888737
 30
0.0
 10
161.592379
 20
145.888737
 30
0.0
  0
SPLINE
  5
247
100
AcDbEntity
  8
Layer_1
 62
7
100
AcDbSpline
 70
8
 71
3
 72
8
 73
4
 74
0
 40
0
 40
0
 40
0
 40
0
 40
1
 40
1
 40
1
 40
1
 10
161.592379
 20
145.888737
 30
0.0
 10
160.918181
 20
145.888737
 30
0.0
 10
160.886823
 20
145.813477
 30
0.0
 10
160.886823
 20
144.195403
 30
0.0
  0
SPLINE
  5
248
100
AcDbEntity
  8
Layer_1
 62
7
100
AcDbSpline
 70
8
 71
3
 72
8
 73
4
 74
0
 40
0
 40
0
 40
0
 40
0
 40
1
 40
1
 40
1
 40
1
 10
160.886823
 20
144.195403
 30
0.0
 10
160.886823
 20
142.577330
 30
0.0
 10
160.918181
 20
142.502070
 30
0.0
 10
161.592379
 20
142.502070
 30
0.0
  0
SPLINE
  5
249
100
AcDbEntity
  8
Layer_1
 62
7
100
AcDbSpline
 70
8
 71
3
 72
8
 73
4
 74
0
 40
0
 40
0
 40
0
 40
0
 40
1
 40
1
 40
1
 40
1
 10
161.592379
 20
142.502070
 30
0.0
 10
162.266576
 20
142.502070
 30
0.0
 10
162.297934
 20
142.577330
 30
0.0
 10
162.297934
 20
144.195403
 30
0.0
  0
LINE
  5
24a
100
AcDbEntity
  8
Layer_1
 62
7
100
AcDbLine
 10
162.297934
 20
144.195403
 30
0.0
 11
162.297934
 21
144.195403
 31
0.0
  0
SPLINE
  5
24b
100
AcDbEntity
  8
Layer_1
 62
7
100
AcDbSpline
 70
8
 71
3
 72
8
 73
4
 74
0
 40
0
 40
0
 40
0
 40
0
 40
1
 40
1
 40
1
 40
1
 10
182.617934
 20
144.195403
 30
0.0
 10
182.617934
 20
145.813477
 30
0.0
 10
182.586576
 20
145.888737
 30
0.0
 10
181.912379
 20
145.888737
 30
0.0
  0
SPLINE
  5
24c
100
AcDbEntity
  8
Layer_1
 62
7
100
AcDbSpline
 70
8
 71
3
 72
8
 73
4
 74
0
 40
0
 40
0
 40
0
 40
0
 40
1
 40
1
 40
1
 40
1
 10
181.912379
 20
145.888737
 30
0.0
 10
181.238181
 20
145.888737
 30
0.0
 10
181.206823
 20
145.813477
 30
0.0
 10
181.206823
 20
144.195403
 30
0.0
  0
SPLINE
  5
24d
100
AcDbEntity
  8
Layer_1
 62
7
100
AcDbSpline
 70
8
 71
3
 72
8
 73
4
 74
0
 40
0
 40
0
 40
0
 40
0
 40
1
 40
1
 40
1
 40
1
 10
181.206823
 20
144.195403
 30
0.0
 10
181.206823
 20
142.577330
 30
0.0
 10
181.238181
 20
142.502070
 30
0.0
 10
181.912379
 20
142.502070
 30
0.0
  0
SPLINE
  5
24e
100
AcDbEntity
  8
Layer_1
 62
7
100
AcDbSpline
 70
8
 71
3
 72
8
 73
4
 74
0
 40
0
 40
0
 40
0
 40
0
 40
1
 40
1
 40
1
 40
1
 10
181.912379
 20
142.502070
 30
0.0
 10
182.586576
 20
142.502070
 30
0.0
 10
182.617934
 20
142.577330
 30
0.0
 10
182.617934
 20
144.195403
 30
0.0
  0
LINE
  5
24f
100
AcDbEntity
  8
Layer_1
 62
7
100
AcDbLine
 10
182.617934
 20
144.195403
 30
0.0
 11
182.617934
 21
144.195403
 31
0.0
  0
SPLINE
  5
250
100
AcDbEntity
  8
Layer_1
 62
7
100
AcDbSpline
 70
8
 71
3
 72
8
 73
4
 74
0
 40
0
 40
0
 40
0
 40
0
 40
1
 40
1
 40
1
 40
1
 10
205.477920
 20
144.195403
 30
0.0
 10
205.477920
 20
145.813477
 30
0.0
 10
205.446565
 20
145.888737
 30
0.0
 10
204.772364
 20
145.888737
 30
0.0
  0
SPLINE
  5
251
100
AcDbEntity
  8
Layer_1
 62
7
100
AcDbSpline
 70
8
 71
3
 72
8
 73
4
 74
0
 40
0
 40
0
 40
0
 40
0
 40
1
 40
1
 40
1
 40
1
 10
204.772364
 20
145.888737
 30
0.0
 10
204.098192
 20
145.888737
 30
0.0
 10
204.066809
 20
145.813477
 30
0.0
 10
204.066809
 20
144.195403
 30
0.0
  0
SPLINE
  5
252
100
AcDbEntity
  8
Layer_1
 62
7
100
AcDbSpline
 70
8
 71
3
 72
8
 73
4
 74
0
 40
0
 40
0
 40
0
 40
0
 40
1
 40
1
 40
1
 40
1
 10
204.066809
 20
144.195403
 30
0.0
 10
204.066809
 20
142.577330
 30
0.0
 10
204.098192
 20
142.502070
 30
0.0
 10
204.772364
 20
142.502070
 30
0.0
  0
SPLINE
  5
253
100
AcDbEntity
  8
Layer_1
 62
7
100
AcDbSpline
 70
8
 71
3
 72
8
 73
4
 74
0
 40
0
 40
0
 40
0
 40
0
 40
1
 40
1
 40
1
 40
1
 10
204.772364
 20
142.502070
 30
0.0
 10
205.446565
 20
142.502070
 30
0.0
 10
205.477920
 20
142.577330
 30
0.0
 10
205.477920
 20
144.195403
 30
0.0
  0
LINE
  5
254
100
AcDbEntity
  8
Layer_1
 62
7
100
AcDbLine
 10
205.477920
 20
144.195403
 30
0.0
 11
205.477920
 21
144.195403
 31
0.0
  0
SPLINE
  5
255
100
AcDbEntity
  8
Layer_1
 62
7
100
AcDbSpline
 70
8
 71
3
 72
8
 73
4
 74
0
 40
0
 40
0
 40
0
 40
0
 40
1
 40
1
 40
1
 40
1
 10
20.057933
 20
151.533181
 30
0.0
 10
20.057933
 20
153.151254
 30
0.0
 10
20.026576
 20
153.226515
 30
0.0
 10
19.352378
 20
153.226515
 30
0.0
  0
SPLINE
  5
256
100
AcDbEntity
  8
Layer_1
 62
7
100
AcDbSpline
 70
8
 71
3
 72
8
 73
4
 74
0
 40
0
 40
0
 40
0
 40
0
 40
1
 40
1
 40
1
 40
1
 10
19.352378
 20
153.226515
 30
0.0
 10
18.678180
 20
153.226515
 30
0.0
 10
18.646822
 20
153.151254
 30
0.0
 10
18.646822
 20
151.533181
 30
0.0
  0
SPLINE
  5
257
100
AcDbEntity
  8
Layer_1
 62
7
100
AcDbSpline
 70
8
 71
3
 72
8
 73
4
 74
0
 40
0
 40
0
 40
0
 40
0
 40
1
 40
1
 40
1
 40
1
 10
18.646822
 20
151.533181
 30
0.0
 10
18.646822
 20
149.915108
 30
0.0
 10
18.678180
 20
149.839848
 30
0.0
 10
19.352378
 20
149.839848
 30
0.0
  0
SPLINE
  5
258
100
AcDbEntity
  8
Layer_1
 62
7
100
AcDbSpline
 70
8
 71
3
 72
8
 73
4
 74
0
 40
0
 40
0
 40
0
 40
0
 40
1
 40
1
 40
1
 40
1
 10
19.352378
 20
149.839848
 30
0.0
 10
20.026576
 20
149.839848
 30
0.0
 10
20.057933
 20
149.915108
 30
0.0
 10
20.057933
 20
151.533181
 30
0.0
  0
LINE
  5
259
100
AcDbEntity
  8
Layer_1
 62
7
100
AcDbLine
 10
20.057933
 20
151.533181
 30
0.0
 11
20.057933
 21
151.533181
 31
0.0
  0
SPLINE
  5
25a
100
AcDbEntity
  8
Layer_1
 62
7
100
AcDbSpline
 70
8
 71
3
 72
8
 73
4
 74
0
 40
0
 40
0
 40
0
 40
0
 40
1
 40
1
 40
1
 40
1
 10
119.117934
 20
151.533181
 30
0.0
 10
119.117934
 20
153.151254
 30
0.0
 10
119.086576
 20
153.226515
 30
0.0
 10
118.412379
 20
153.226515
 30
0.0
  0
SPLINE
  5
25b
100
AcDbEntity
  8
Layer_1
 62
7
100
AcDbSpline
 70
8
 71
3
 72
8
 73
4
 74
0
 40
0
 40
0
 40
0
 40
0
 40
1
 40
1
 40
1
 40
1
 10
118.412379
 20
153.226515
 30
0.0
 10
117.738181
 20
153.226515
 30
0.0
 10
117.706823
 20
153.151254
 30
0.0
 10
117.706823
 20
151.533181
 30
0.0
  0
SPLINE
  5
25c
100
AcDbEntity
  8
Layer_1
 62
7
100
AcDbSpline
 70
8
 71
3
 72
8
 73
4
 74
0
 40
0
 40
0
 40
0
 40
0
 40
1
 40
1
 40
1
 40
1
 10
117.706823
 20
151.533181
 30
0.0
 10
117.706823
 20
149.915108
 30
0.0
 10
117.738181
 20
149.839848
 30
0.0
 10
118.412379
 20
149.839848
 30
0.0
  0
SPLINE
  5
25d
100
AcDbEntity
  8
Layer_1
 62
7
100
AcDbSpline
 70
8
 71
3
 72
8
 73
4
 74
0
 40
0
 40
0
 40
0
 40
0
 40
1
 40
1
 40
1
 40
1
 10
118.412379
 20
149.839848
 30
0.0
 10
119.086576
 20
149.839848
 30
0.0
 10
119.117934
 20
149.915108
 30
0.0
 10
119.117934
 20
151.533181
 30
0.0
  0
LINE
  5
25e
100
AcDbEntity
  8
Layer_1
 62
7
100
AcDbLine
 10
119.117934
 20
151.533181
 30
0.0
 11
119.117934
 21
151.533181
 31
0.0
  0
SPLINE
  5
25f
100
AcDbEntity
  8
Layer_1
 62
7
100
AcDbSpline
 70
8
 71
3
 72
8
 73
4
 74
0
 40
0
 40
0
 40
0
 40
0
 40
1
 40
1
 40
1
 40
1
 10
152.137934
 20
151.533181
 30
0.0
 10
152.137934
 20
153.151254
 30
0.0
 10
152.106576
 20
153.226515
 30
0.0
 10
151.432379
 20
153.226515
 30
0.0
  0
SPLINE
  5
260
100
AcDbEntity
  8
Layer_1
 62
7
100
AcDbSpline
 70
8
 71
3
 72
8
 73
4
 74
0
 40
0
 40
0
 40
0
 40
0
 40
1
 40
1
 40
1
 40
1
 10
151.432379
 20
153.226515
 30
0.0
 10
150.758181
 20
153.226515
 30
0.0
 10
150.726823
 20
153.151254
 30
0.0
 10
150.726823
 20
151.533181
 30
0.0
  0
SPLINE
  5
261
100
AcDbEntity
  8
Layer_1
 62
7
100
AcDbSpline
 70
8
 71
3
 72
8
 73
4
 74
0
 40
0
 40
0
 40
0
 40
0
 40
1
 40
1
 40
1
 40
1
 10
150.726823
 20
151.533181
 30
0.0
 10
150.726823
 20
149.915108
 30
0.0
 10
150.758181
 20
149.839848
 30
0.0
 10
151.432379
 20
149.839848
 30
0.0
  0
SPLINE
  5
262
100
AcDbEntity
  8
Layer_1
 62
7
100
AcDbSpline
 70
8
 71
3
 72
8
 73
4
 74
0
 40
0
 40
0
 40
0
 40
0
 40
1
 40
1
 40
1
 40
1
 10
151.432379
 20
149.839848
 30
0.0
 10
152.106576
 20
149.839848
 30
0.0
 10
152.137934
 20
149.915108
 30
0.0
 10
152.137934
 20
151.533181
 30
0.0
  0
LINE
  5
263
100
AcDbEntity
  8
Layer_1
 62
7
100
AcDbLine
 10
152.137934
 20
151.533181
 30
0.0
 11
152.137934
 21
151.533181
 31
0.0
  0
SPLINE
  5
264
100
AcDbEntity
  8
Layer_1
 62
7
100
AcDbSpline
 70
8
 71
3
 72
8
 73
4
 74
0
 40
0
 40
0
 40
0
 40
0
 40
1
 40
1
 40
1
 40
1
 10
187.697934
 20
151.533181
 30
0.0
 10
187.697934
 20
153.151254
 30
0.0
 10
187.666576
 20
153.226515
 30
0.0
 10
186.992379
 20
153.226515
 30
0.0
  0
SPLINE
  5
265
100
AcDbEntity
  8
Layer_1
 62
7
100
AcDbSpline
 70
8
 71
3
 72
8
 73
4
 74
0
 40
0
 40
0
 40
0
 40
0
 40
1
 40
1
 40
1
 40
1
 10
186.992379
 20
153.226515
 30
0.0
 10
186.318181
 20
153.226515
 30
0.0
 10
186.286823
 20
153.151254
 30
0.0
 10
186.286823
 20
151.533181
 30
0.0
  0
SPLINE
  5
266
100
AcDbEntity
  8
Layer_1
 62
7
100
AcDbSpline
 70
8
 71
3
 72
8
 73
4
 74
0
 40
0
 40
0
 40
0
 40
0
 40
1
 40
1
 40
1
 40
1
 10
186.286823
 20
151.533181
 30
0.0
 10
186.286823
 20
149.915108
 30
0.0
 10
186.318181
 20
149.839848
 30
0.0
 10
186.992379
 20
149.839848
 30
0.0
  0
SPLINE
  5
267
100
AcDbEntity
  8
Layer_1
 62
7
100
AcDbSpline
 70
8
 71
3
 72
8
 73
4
 74
0
 40
0
 40
0
 40
0
 40
0
 40
1
 40
1
 40
1
 40
1
 10
186.992379
 20
149.839848
 30
0.0
 10
187.666576
 20
149.839848
 30
0.0
 10
187.697934
 20
149.915108
 30
0.0
 10
187.697934
 20
151.533181
 30
0.0
  0
LINE
  5
268
100
AcDbEntity
  8
Layer_1
 62
7
100
AcDbLine
 10
187.697934
 20
151.533181
 30
0.0
 11
187.697934
 21
151.533181
 31
0.0
  0
SPLINE
  5
269
100
AcDbEntity
  8
Layer_1
 62
7
100
AcDbSpline
 70
8
 71
3
 72
8
 73
4
 74
0
 40
0
 40
0
 40
0
 40
0
 40
1
 40
1
 40
1
 40
1
 10
17.517933
 20
159.153181
 30
0.0
 10
17.517933
 20
160.771254
 30
0.0
 10
17.486576
 20
160.846515
 30
0.0
 10
16.812378
 20
160.846515
 30
0.0
  0
SPLINE
  5
26a
100
AcDbEntity
  8
Layer_1
 62
7
100
AcDbSpline
 70
8
 71
3
 72
8
 73
4
 74
0
 40
0
 40
0
 40
0
 40
0
 40
1
 40
1
 40
1
 40
1
 10
16.812378
 20
160.846515
 30
0.0
 10
16.138180
 20
160.846515
 30
0.0
 10
16.106823
 20
160.771254
 30
0.0
 10
16.106823
 20
159.153181
 30
0.0
  0
SPLINE
  5
26b
100
AcDbEntity
  8
Layer_1
 62
7
100
AcDbSpline
 70
8
 71
3
 72
8
 73
4
 74
0
 40
0
 40
0
 40
0
 40
0
 40
1
 40
1
 40
1
 40
1
 10
16.106823
 20
159.153181
 30
0.0
 10
16.106823
 20
157.535108
 30
0.0
 10
16.138180
 20
157.459848
 30
0.0
 10
16.812378
 20
157.459848
 30
0.0
  0
SPLINE
  5
26c
100
AcDbEntity
  8
Layer_1
 62
7
100
AcDbSpline
 70
8
 71
3
 72
8
 73
4
 74
0
 40
0
 40
0
 40
0
 40
0
 40
1
 40
1
 40
1
 40
1
 10
16.812378
 20
157.459848
 30
0.0
 10
17.486576
 20
157.459848
 30
0.0
 10
17.517933
 20
157.535108
 30
0.0
 10
17.517933
 20
159.153181
 30
0.0
  0
LINE
  5
26d
100
AcDbEntity
  8
Layer_1
 62
7
100
AcDbLine
 10
17.517933
 20
159.153181
 30
0.0
 11
17.517933
 21
159.153181
 31
0.0
  0
SPLINE
  5
26e
100
AcDbEntity
  8
Layer_1
 62
7
100
AcDbSpline
 70
8
 71
3
 72
8
 73
4
 74
0
 40
0
 40
0
 40
0
 40
0
 40
1
 40
1
 40
1
 40
1
 10
27.677933
 20
159.153181
 30
0.0
 10
27.677933
 20
160.771254
 30
0.0
 10
27.646576
 20
160.846515
 30
0.0
 10
26.972378
 20
160.846515
 30
0.0
  0
SPLINE
  5
26f
100
AcDbEntity
  8
Layer_1
 62
7
100
AcDbSpline
 70
8
 71
3
 72
8
 73
4
 74
0
 40
0
 40
0
 40
0
 40
0
 40
1
 40
1
 40
1
 40
1
 10
26.972378
 20
160.846515
 30
0.0
 10
26.298180
 20
160.846515
 30
0.0
 10
26.266822
 20
160.771254
 30
0.0
 10
26.266822
 20
159.153181
 30
0.0
  0
SPLINE
  5
270
100
AcDbEntity
  8
Layer_1
 62
7
100
AcDbSpline
 70
8
 71
3
 72
8
 73
4
 74
0
 40
0
 40
0
 40
0
 40
0
 40
1
 40
1
 40
1
 40
1
 10
26.266822
 20
159.153181
 30
0.0
 10
26.266822
 20
157.535108
 30
0.0
 10
26.298180
 20
157.459848
 30
0.0
 10
26.972378
 20
157.459848
 30
0.0
  0
SPLINE
  5
271
100
AcDbEntity
  8
Layer_1
 62
7
100
AcDbSpline
 70
8
 71
3
 72
8
 73
4
 74
0
 40
0
 40
0
 40
0
 40
0
 40
1
 40
1
 40
1
 40
1
 10
26.972378
 20
157.459848
 30
0.0
 10
27.646576
 20
157.459848
 30
0.0
 10
27.677933
 20
157.535108
 30
0.0
 10
27.677933
 20
159.153181
 30
0.0
  0
LINE
  5
272
100
AcDbEntity
  8
Layer_1
 62
7
100
AcDbLine
 10
27.677933
 20
159.153181
 30
0.0
 11
27.677933
 21
159.153181
 31
0.0
  0
SPLINE
  5
273
100
AcDbEntity
  8
Layer_1
 62
7
100
AcDbSpline
 70
8
 71
3
 72
8
 73
4
 74
0
 40
0
 40
0
 40
0
 40
0
 40
1
 40
1
 40
1
 40
1
 10
55.617934
 20
159.153181
 30
0.0
 10
55.617934
 20
160.771254
 30
0.0
 10
55.586576
 20
160.846515
 30
0.0
 10
54.912379
 20
160.846515
 30
0.0
  0
SPLINE
  5
274
100
AcDbEntity
  8
Layer_1
 62
7
100
AcDbSpline
 70
8
 71
3
 72
8
 73
4
 74
0
 40
0
 40
0
 40
0
 40
0
 40
1
 40
1
 40
1
 40
1
 10
54.912379
 20
160.846515
 30
0.0
 10
54.238181
 20
160.846515
 30
0.0
 10
54.206823
 20
160.771254
 30
0.0
 10
54.206823
 20
159.153181
 30
0.0
  0
SPLINE
  5
275
100
AcDbEntity
  8
Layer_1
 62
7
100
AcDbSpline
 70
8
 71
3
 72
8
 73
4
 74
0
 40
0
 40
0
 40
0
 40
0
 40
1
 40
1
 40
1
 40
1
 10
54.206823
 20
159.153181
 30
0.0
 10
54.206823
 20
157.535108
 30
0.0
 10
54.238181
 20
157.459848
 30
0.0
 10
54.912379
 20
157.459848
 30
0.0
  0
SPLINE
  5
276
100
AcDbEntity
  8
Layer_1
 62
7
100
AcDbSpline
 70
8
 71
3
 72
8
 73
4
 74
0
 40
0
 40
0
 40
0
 40
0
 40
1
 40
1
 40
1
 40
1
 10
54.912379
 20
157.459848
 30
0.0
 10
55.586576
 20
157.459848
 30
0.0
 10
55.617934
 20
157.535108
 30
0.0
 10
55.617934
 20
159.153181
 30
0.0
  0
LINE
  5
277
100
AcDbEntity
  8
Layer_1
 62
7
100
AcDbLine
 10
55.617934
 20
159.153181
 30
0.0
 11
55.617934
 21
159.153181
 31
0.0
  0
SPLINE
  5
278
100
AcDbEntity
  8
Layer_1
 62
7
100
AcDbSpline
 70
8
 71
3
 72
8
 73
4
 74
0
 40
0
 40
0
 40
0
 40
0
 40
1
 40
1
 40
1
 40
1
 10
60.697934
 20
159.153181
 30
0.0
 10
60.697934
 20
160.771254
 30
0.0
 10
60.666576
 20
160.846515
 30
0.0
 10
59.992379
 20
160.846515
 30
0.0
  0
SPLINE
  5
279
100
AcDbEntity
  8
Layer_1
 62
7
100
AcDbSpline
 70
8
 71
3
 72
8
 73
4
 74
0
 40
0
 40
0
 40
0
 40
0
 40
1
 40
1
 40
1
 40
1
 10
59.992379
 20
160.846515
 30
0.0
 10
59.318181
 20
160.846515
 30
0.0
 10
59.286823
 20
160.771254
 30
0.0
 10
59.286823
 20
159.153181
 30
0.0
  0
SPLINE
  5
27a
100
AcDbEntity
  8
Layer_1
 62
7
100
AcDbSpline
 70
8
 71
3
 72
8
 73
4
 74
0
 40
0
 40
0
 40
0
 40
0
 40
1
 40
1
 40
1
 40
1
 10
59.286823
 20
159.153181
 30
0.0
 10
59.286823
 20
157.535108
 30
0.0
 10
59.318181
 20
157.459848
 30
0.0
 10
59.992379
 20
157.459848
 30
0.0
  0
SPLINE
  5
27b
100
AcDbEntity
  8
Layer_1
 62
7
100
AcDbSpline
 70
8
 71
3
 72
8
 73
4
 74
0
 40
0
 40
0
 40
0
 40
0
 40
1
 40
1
 40
1
 40
1
 10
59.992379
 20
157.459848
 30
0.0
 10
60.666576
 20
157.459848
 30
0.0
 10
60.697934
 20
157.535108
 30
0.0
 10
60.697934
 20
159.153181
 30
0.0
  0
LINE
  5
27c
100
AcDbEntity
  8
Layer_1
 62
7
100
AcDbLine
 10
60.697934
 20
159.153181
 30
0.0
 11
60.697934
 21
159.153181
 31
0.0
  0
SPLINE
  5
27d
100
AcDbEntity
  8
Layer_1
 62
7
100
AcDbSpline
 70
8
 71
3
 72
8
 73
4
 74
0
 40
0
 40
0
 40
0
 40
0
 40
1
 40
1
 40
1
 40
1
 10
65.777934
 20
159.153181
 30
0.0
 10
65.777934
 20
160.771254
 30
0.0
 10
65.746576
 20
160.846515
 30
0.0
 10
65.072379
 20
160.846515
 30
0.0
  0
SPLINE
  5
27e
100
AcDbEntity
  8
Layer_1
 62
7
100
AcDbSpline
 70
8
 71
3
 72
8
 73
4
 74
0
 40
0
 40
0
 40
0
 40
0
 40
1
 40
1
 40
1
 40
1
 10
65.072379
 20
160.846515
 30
0.0
 10
64.398181
 20
160.846515
 30
0.0
 10
64.366823
 20
160.771254
 30
0.0
 10
64.366823
 20
159.153181
 30
0.0
  0
SPLINE
  5
27f
100
AcDbEntity
  8
Layer_1
 62
7
100
AcDbSpline
 70
8
 71
3
 72
8
 73
4
 74
0
 40
0
 40
0
 40
0
 40
0
 40
1
 40
1
 40
1
 40
1
 10
64.366823
 20
159.153181
 30
0.0
 10
64.366823
 20
157.535108
 30
0.0
 10
64.398181
 20
157.459848
 30
0.0
 10
65.072379
 20
157.459848
 30
0.0
  0
SPLINE
  5
280
100
AcDbEntity
  8
Layer_1
 62
7
100
AcDbSpline
 70
8
 71
3
 72
8
 73
4
 74
0
 40
0
 40
0
 40
0
 40
0
 40
1
 40
1
 40
1
 40
1
 10
65.072379
 20
157.459848
 30
0.0
 10
65.746576
 20
157.459848
 30
0.0
 10
65.777934
 20
157.535108
 30
0.0
 10
65.777934
 20
159.153181
 30
0.0
  0
LINE
  5
281
100
AcDbEntity
  8
Layer_1
 62
7
100
AcDbLine
 10
65.777934
 20
159.153181
 30
0.0
 11
65.777934
 21
159.153181
 31
0.0
  0
SPLINE
  5
282
100
AcDbEntity
  8
Layer_1
 62
7
100
AcDbSpline
 70
8
 71
3
 72
8
 73
4
 74
0
 40
0
 40
0
 40
0
 40
0
 40
1
 40
1
 40
1
 40
1
 10
81.017934
 20
159.153181
 30
0.0
 10
81.017934
 20
160.771254
 30
0.0
 10
80.986576
 20
160.846515
 30
0.0
 10
80.312379
 20
160.846515
 30
0.0
  0
SPLINE
  5
283
100
AcDbEntity
  8
Layer_1
 62
7
100
AcDbSpline
 70
8
 71
3
 72
8
 73
4
 74
0
 40
0
 40
0
 40
0
 40
0
 40
1
 40
1
 40
1
 40
1
 10
80.312379
 20
160.846515
 30
0.0
 10
79.638181
 20
160.846515
 30
0.0
 10
79.606823
 20
160.771254
 30
0.0
 10
79.606823
 20
159.153181
 30
0.0
  0
SPLINE
  5
284
100
AcDbEntity
  8
Layer_1
 62
7
100
AcDbSpline
 70
8
 71
3
 72
8
 73
4
 74
0
 40
0
 40
0
 40
0
 40
0
 40
1
 40
1
 40
1
 40
1
 10
79.606823
 20
159.153181
 30
0.0
 10
79.606823
 20
157.535108
 30
0.0
 10
79.638181
 20
157.459848
 30
0.0
 10
80.312379
 20
157.459848
 30
0.0
  0
SPLINE
  5
285
100
AcDbEntity
  8
Layer_1
 62
7
100
AcDbSpline
 70
8
 71
3
 72
8
 73
4
 74
0
 40
0
 40
0
 40
0
 40
0
 40
1
 40
1
 40
1
 40
1
 10
80.312379
 20
157.459848
 30
0.0
 10
80.986576
 20
157.459848
 30
0.0
 10
81.017934
 20
157.535108
 30
0.0
 10
81.017934
 20
159.153181
 30
0.0
  0
LINE
  5
286
100
AcDbEntity
  8
Layer_1
 62
7
100
AcDbLine
 10
81.017934
 20
159.153181
 30
0.0
 11
81.017934
 21
159.153181
 31
0.0
  0
SPLINE
  5
287
100
AcDbEntity
  8
Layer_1
 62
7
100
AcDbSpline
 70
8
 71
3
 72
8
 73
4
 74
0
 40
0
 40
0
 40
0
 40
0
 40
1
 40
1
 40
1
 40
1
 10
83.557934
 20
159.153181
 30
0.0
 10
83.557934
 20
160.771254
 30
0.0
 10
83.526576
 20
160.846515
 30
0.0
 10
82.852379
 20
160.846515
 30
0.0
  0
SPLINE
  5
288
100
AcDbEntity
  8
Layer_1
 62
7
100
AcDbSpline
 70
8
 71
3
 72
8
 73
4
 74
0
 40
0
 40
0
 40
0
 40
0
 40
1
 40
1
 40
1
 40
1
 10
82.852379
 20
160.846515
 30
0.0
 10
82.178181
 20
160.846515
 30
0.0
 10
82.146823
 20
160.771254
 30
0.0
 10
82.146823
 20
159.153181
 30
0.0
  0
SPLINE
  5
289
100
AcDbEntity
  8
Layer_1
 62
7
100
AcDbSpline
 70
8
 71
3
 72
8
 73
4
 74
0
 40
0
 40
0
 40
0
 40
0
 40
1
 40
1
 40
1
 40
1
 10
82.146823
 20
159.153181
 30
0.0
 10
82.146823
 20
157.535108
 30
0.0
 10
82.178181
 20
157.459848
 30
0.0
 10
82.852379
 20
157.459848
 30
0.0
  0
SPLINE
  5
28a
100
AcDbEntity
  8
Layer_1
 62
7
100
AcDbSpline
 70
8
 71
3
 72
8
 73
4
 74
0
 40
0
 40
0
 40
0
 40
0
 40
1
 40
1
 40
1
 40
1
 10
82.852379
 20
157.459848
 30
0.0
 10
83.526576
 20
157.459848
 30
0.0
 10
83.557934
 20
157.535108
 30
0.0
 10
83.557934
 20
159.153181
 30
0.0
  0
LINE
  5
28b
100
AcDbEntity
  8
Layer_1
 62
7
100
AcDbLine
 10
83.557934
 20
159.153181
 30
0.0
 11
83.557934
 21
159.153181
 31
0.0
  0
SPLINE
  5
28c
100
AcDbEntity
  8
Layer_1
 62
7
100
AcDbSpline
 70
8
 71
3
 72
8
 73
4
 74
0
 40
0
 40
0
 40
0
 40
0
 40
1
 40
1
 40
1
 40
1
 10
98.797934
 20
159.153181
 30
0.0
 10
98.797934
 20
160.771254
 30
0.0
 10
98.766576
 20
160.846515
 30
0.0
 10
98.092379
 20
160.846515
 30
0.0
  0
SPLINE
  5
28d
100
AcDbEntity
  8
Layer_1
 62
7
100
AcDbSpline
 70
8
 71
3
 72
8
 73
4
 74
0
 40
0
 40
0
 40
0
 40
0
 40
1
 40
1
 40
1
 40
1
 10
98.092379
 20
160.846515
 30
0.0
 10
97.418181
 20
160.846515
 30
0.0
 10
97.386823
 20
160.771254
 30
0.0
 10
97.386823
 20
159.153181
 30
0.0
  0
SPLINE
  5
28e
100
AcDbEntity
  8
Layer_1
 62
7
100
AcDbSpline
 70
8
 71
3
 72
8
 73
4
 74
0
 40
0
 40
0
 40
0
 40
0
 40
1
 40
1
 40
1
 40
1
 10
97.386823
 20
159.153181
 30
0.0
 10
97.386823
 20
157.535108
 30
0.0
 10
97.418181
 20
157.459848
 30
0.0
 10
98.092379
 20
157.459848
 30
0.0
  0
SPLINE
  5
28f
100
AcDbEntity
  8
Layer_1
 62
7
100
AcDbSpline
 70
8
 71
3
 72
8
 73
4
 74
0
 40
0
 40
0
 40
0
 40
0
 40
1
 40
1
 40
1
 40
1
 10
98.092379
 20
157.459848
 30
0.0
 10
98.766576
 20
157.459848
 30
0.0
 10
98.797934
 20
157.535108
 30
0.0
 10
98.797934
 20
159.153181
 30
0.0
  0
LINE
  5
290
100
AcDbEntity
  8
Layer_1
 62
7
100
AcDbLine
 10
98.797934
 20
159.153181
 30
0.0
 11
98.797934
 21
159.153181
 31
0.0
  0
SPLINE
  5
291
100
AcDbEntity
  8
Layer_1
 62
7
100
AcDbSpline
 70
8
 71
3
 72
8
 73
4
 74
0
 40
0
 40
0
 40
0
 40
0
 40
1
 40
1
 40
1
 40
1
 10
108.957934
 20
159.153181
 30
0.0
 10
108.957934
 20
160.771254
 30
0.0
 10
108.926576
 20
160.846515
 30
0.0
 10
108.252379
 20
160.846515
 30
0.0
  0
SPLINE
  5
292
100
AcDbEntity
  8
Layer_1
 62
7
100
AcDbSpline
 70
8
 71
3
 72
8
 73
4
 74
0
 40
0
 40
0
 40
0
 40
0
 40
1
 40
1
 40
1
 40
1
 10
108.252379
 20
160.846515
 30
0.0
 10
107.578181
 20
160.846515
 30
0.0
 10
107.546823
 20
160.771254
 30
0.0
 10
107.546823
 20
159.153181
 30
0.0
  0
SPLINE
  5
293
100
AcDbEntity
  8
Layer_1
 62
7
100
AcDbSpline
 70
8
 71
3
 72
8
 73
4
 74
0
 40
0
 40
0
 40
0
 40
0
 40
1
 40
1
 40
1
 40
1
 10
107.546823
 20
159.153181
 30
0.0
 10
107.546823
 20
157.535108
 30
0.0
 10
107.578181
 20
157.459848
 30
0.0
 10
108.252379
 20
157.459848
 30
0.0
  0
SPLINE
  5
294
100
AcDbEntity
  8
Layer_1
 62
7
100
AcDbSpline
 70
8
 71
3
 72
8
 73
4
 74
0
 40
0
 40
0
 40
0
 40
0
 40
1
 40
1
 40
1
 40
1
 10
108.252379
 20
157.459848
 30
0.0
 10
108.926576
 20
157.459848
 30
0.0
 10
108.957934
 20
157.535108
 30
0.0
 10
108.957934
 20
159.153181
 30
0.0
  0
LINE
  5
295
100
AcDbEntity
  8
Layer_1
 62
7
100
AcDbLine
 10
108.957934
 20
159.153181
 30
0.0
 11
108.957934
 21
159.153181
 31
0.0
  0
SPLINE
  5
296
100
AcDbEntity
  8
Layer_1
 62
7
100
AcDbSpline
 70
8
 71
3
 72
8
 73
4
 74
0
 40
0
 40
0
 40
0
 40
0
 40
1
 40
1
 40
1
 40
1
 10
124.197934
 20
159.153181
 30
0.0
 10
124.197934
 20
160.771254
 30
0.0
 10
124.166576
 20
160.846515
 30
0.0
 10
123.492379
 20
160.846515
 30
0.0
  0
SPLINE
  5
297
100
AcDbEntity
  8
Layer_1
 62
7
100
AcDbSpline
 70
8
 71
3
 72
8
 73
4
 74
0
 40
0
 40
0
 40
0
 40
0
 40
1
 40
1
 40
1
 40
1
 10
123.492379
 20
160.846515
 30
0.0
 10
122.818181
 20
160.846515
 30
0.0
 10
122.786823
 20
160.771254
 30
0.0
 10
122.786823
 20
159.153181
 30
0.0
  0
SPLINE
  5
298
100
AcDbEntity
  8
Layer_1
 62
7
100
AcDbSpline
 70
8
 71
3
 72
8
 73
4
 74
0
 40
0
 40
0
 40
0
 40
0
 40
1
 40
1
 40
1
 40
1
 10
122.786823
 20
159.153181
 30
0.0
 10
122.786823
 20
157.535108
 30
0.0
 10
122.818181
 20
157.459848
 30
0.0
 10
123.492379
 20
157.459848
 30
0.0
  0
SPLINE
  5
299
100
AcDbEntity
  8
Layer_1
 62
7
100
AcDbSpline
 70
8
 71
3
 72
8
 73
4
 74
0
 40
0
 40
0
 40
0
 40
0
 40
1
 40
1
 40
1
 40
1
 10
123.492379
 20
157.459848
 30
0.0
 10
124.166576
 20
157.459848
 30
0.0
 10
124.197934
 20
157.535108
 30
0.0
 10
124.197934
 20
159.153181
 30
0.0
  0
LINE
  5
29a
100
AcDbEntity
  8
Layer_1
 62
7
100
AcDbLine
 10
124.197934
 20
159.153181
 30
0.0
 11
124.197934
 21
159.153181
 31
0.0
  0
SPLINE
  5
29b
100
AcDbEntity
  8
Layer_1
 62
7
100
AcDbSpline
 70
8
 71
3
 72
8
 73
4
 74
0
 40
0
 40
0
 40
0
 40
0
 40
1
 40
1
 40
1
 40
1
 10
131.817934
 20
159.153181
 30
0.0
 10
131.817934
 20
160.771254
 30
0.0
 10
131.786576
 20
160.846515
 30
0.0
 10
131.112379
 20
160.846515
 30
0.0
  0
SPLINE
  5
29c
100
AcDbEntity
  8
Layer_1
 62
7
100
AcDbSpline
 70
8
 71
3
 72
8
 73
4
 74
0
 40
0
 40
0
 40
0
 40
0
 40
1
 40
1
 40
1
 40
1
 10
131.112379
 20
160.846515
 30
0.0
 10
130.438181
 20
160.846515
 30
0.0
 10
130.406823
 20
160.771254
 30
0.0
 10
130.406823
 20
159.153181
 30
0.0
  0
SPLINE
  5
29d
100
AcDbEntity
  8
Layer_1
 62
7
100
AcDbSpline
 70
8
 71
3
 72
8
 73
4
 74
0
 40
0
 40
0
 40
0
 40
0
 40
1
 40
1
 40
1
 40
1
 10
130.406823
 20
159.153181
 30
0.0
 10
130.406823
 20
157.535108
 30
0.0
 10
130.438181
 20
157.459848
 30
0.0
 10
131.112379
 20
157.459848
 30
0.0
  0
SPLINE
  5
29e
100
AcDbEntity
  8
Layer_1
 62
7
100
AcDbSpline
 70
8
 71
3
 72
8
 73
4
 74
0
 40
0
 40
0
 40
0
 40
0
 40
1
 40
1
 40
1
 40
1
 10
131.112379
 20
157.459848
 30
0.0
 10
131.786576
 20
157.459848
 30
0.0
 10
131.817934
 20
157.535108
 30
0.0
 10
131.817934
 20
159.153181
 30
0.0
  0
LINE
  5
29f
100
AcDbEntity
  8
Layer_1
 62
7
100
AcDbLine
 10
131.817934
 20
159.153181
 30
0.0
 11
131.817934
 21
159.153181
 31
0.0
  0
SPLINE
  5
2a0
100
AcDbEntity
  8
Layer_1
 62
7
100
AcDbSpline
 70
8
 71
3
 72
8
 73
4
 74
0
 40
0
 40
0
 40
0
 40
0
 40
1
 40
1
 40
1
 40
1
 10
159.757934
 20
159.153181
 30
0.0
 10
159.757934
 20
160.771254
 30
0.0
 10
159.726576
 20
160.846515
 30
0.0
 10
159.052379
 20
160.846515
 30
0.0
  0
SPLINE
  5
2a1
100
AcDbEntity
  8
Layer_1
 62
7
100
AcDbSpline
 70
8
 71
3
 72
8
 73
4
 74
0
 40
0
 40
0
 40
0
 40
0
 40
1
 40
1
 40
1
 40
1
 10
159.052379
 20
160.846515
 30
0.0
 10
158.378181
 20
160.846515
 30
0.0
 10
158.346823
 20
160.771254
 30
0.0
 10
158.346823
 20
159.153181
 30
0.0
  0
SPLINE
  5
2a2
100
AcDbEntity
  8
Layer_1
 62
7
100
AcDbSpline
 70
8
 71
3
 72
8
 73
4
 74
0
 40
0
 40
0
 40
0
 40
0
 40
1
 40
1
 40
1
 40
1
 10
158.346823
 20
159.153181
 30
0.0
 10
158.346823
 20
157.535108
 30
0.0
 10
158.378181
 20
157.459848
 30
0.0
 10
159.052379
 20
157.459848
 30
0.0
  0
SPLINE
  5
2a3
100
AcDbEntity
  8
Layer_1
 62
7
100
AcDbSpline
 70
8
 71
3
 72
8
 73
4
 74
0
 40
0
 40
0
 40
0
 40
0
 40
1
 40
1
 40
1
 40
1
 10
159.052379
 20
157.459848
 30
0.0
 10
159.726576
 20
157.459848
 30
0.0
 10
159.757934
 20
157.535108
 30
0.0
 10
159.757934
 20
159.153181
 30
0.0
  0
LINE
  5
2a4
100
AcDbEntity
  8
Layer_1
 62
7
100
AcDbLine
 10
159.757934
 20
159.153181
 30
0.0
 11
159.757934
 21
159.153181
 31
0.0
  0
SPLINE
  5
2a5
100
AcDbEntity
  8
Layer_1
 62
7
100
AcDbSpline
 70
8
 71
3
 72
8
 73
4
 74
0
 40
0
 40
0
 40
0
 40
0
 40
1
 40
1
 40
1
 40
1
 10
167.377934
 20
159.153181
 30
0.0
 10
167.377934
 20
160.771254
 30
0.0
 10
167.346576
 20
160.846515
 30
0.0
 10
166.672379
 20
160.846515
 30
0.0
  0
SPLINE
  5
2a6
100
AcDbEntity
  8
Layer_1
 62
7
100
AcDbSpline
 70
8
 71
3
 72
8
 73
4
 74
0
 40
0
 40
0
 40
0
 40
0
 40
1
 40
1
 40
1
 40
1
 10
166.672379
 20
160.846515
 30
0.0
 10
165.998181
 20
160.846515
 30
0.0
 10
165.966823
 20
160.771254
 30
0.0
 10
165.966823
 20
159.153181
 30
0.0
  0
SPLINE
  5
2a7
100
AcDbEntity
  8
Layer_1
 62
7
100
AcDbSpline
 70
8
 71
3
 72
8
 73
4
 74
0
 40
0
 40
0
 40
0
 40
0
 40
1
 40
1
 40
1
 40
1
 10
165.966823
 20
159.153181
 30
0.0
 10
165.966823
 20
157.535108
 30
0.0
 10
165.998181
 20
157.459848
 30
0.0
 10
166.672379
 20
157.459848
 30
0.0
  0
SPLINE
  5
2a8
100
AcDbEntity
  8
Layer_1
 62
7
100
AcDbSpline
 70
8
 71
3
 72
8
 73
4
 74
0
 40
0
 40
0
 40
0
 40
0
 40
1
 40
1
 40
1
 40
1
 10
166.672379
 20
157.459848
 30
0.0
 10
167.346576
 20
157.459848
 30
0.0
 10
167.377934
 20
157.535108
 30
0.0
 10
167.377934
 20
159.153181
 30
0.0
  0
LINE
  5
2a9
100
AcDbEntity
  8
Layer_1
 62
7
100
AcDbLine
 10
167.377934
 20
159.153181
 30
0.0
 11
167.377934
 21
159.153181
 31
0.0
  0
SPLINE
  5
2aa
100
AcDbEntity
  8
Layer_1
 62
7
100
AcDbSpline
 70
8
 71
3
 72
8
 73
4
 74
0
 40
0
 40
0
 40
0
 40
0
 40
1
 40
1
 40
1
 40
1
 10
169.917934
 20
159.153181
 30
0.0
 10
169.917934
 20
160.771254
 30
0.0
 10
169.886576
 20
160.846515
 30
0.0
 10
169.212379
 20
160.846515
 30
0.0
  0
SPLINE
  5
2ab
100
AcDbEntity
  8
Layer_1
 62
7
100
AcDbSpline
 70
8
 71
3
 72
8
 73
4
 74
0
 40
0
 40
0
 40
0
 40
0
 40
1
 40
1
 40
1
 40
1
 10
169.212379
 20
160.846515
 30
0.0
 10
168.538181
 20
160.846515
 30
0.0
 10
168.506823
 20
160.771254
 30
0.0
 10
168.506823
 20
159.153181
 30
0.0
  0
SPLINE
  5
2ac
100
AcDbEntity
  8
Layer_1
 62
7
100
AcDbSpline
 70
8
 71
3
 72
8
 73
4
 74
0
 40
0
 40
0
 40
0
 40
0
 40
1
 40
1
 40
1
 40
1
 10
168.506823
 20
159.153181
 30
0.0
 10
168.506823
 20
157.535108
 30
0.0
 10
168.538181
 20
157.459848
 30
0.0
 10
169.212379
 20
157.459848
 30
0.0
  0
SPLINE
  5
2ad
100
AcDbEntity
  8
Layer_1
 62
7
100
AcDbSpline
 70
8
 71
3
 72
8
 73
4
 74
0
 40
0
 40
0
 40
0
 40
0
 40
1
 40
1
 40
1
 40
1
 10
169.212379
 20
157.459848
 30
0.0
 10
169.886576
 20
157.459848
 30
0.0
 10
169.917934
 20
157.535108
 30
0.0
 10
169.917934
 20
159.153181
 30
0.0
  0
LINE
  5
2ae
100
AcDbEntity
  8
Layer_1
 62
7
100
AcDbLine
 10
169.917934
 20
159.153181
 30
0.0
 11
169.917934
 21
159.153181
 31
0.0
  0
SPLINE
  5
2af
100
AcDbEntity
  8
Layer_1
 62
7
100
AcDbSpline
 70
8
 71
3
 72
8
 73
4
 74
0
 40
0
 40
0
 40
0
 40
0
 40
1
 40
1
 40
1
 40
1
 10
172.457934
 20
159.153181
 30
0.0
 10
172.457934
 20
160.771254
 30
0.0
 10
172.426576
 20
160.846515
 30
0.0
 10
171.752379
 20
160.846515
 30
0.0
  0
SPLINE
  5
2b0
100
AcDbEntity
  8
Layer_1
 62
7
100
AcDbSpline
 70
8
 71
3
 72
8
 73
4
 74
0
 40
0
 40
0
 40
0
 40
0
 40
1
 40
1
 40
1
 40
1
 10
171.752379
 20
160.846515
 30
0.0
 10
171.078181
 20
160.846515
 30
0.0
 10
171.046823
 20
160.771254
 30
0.0
 10
171.046823
 20
159.153181
 30
0.0
  0
SPLINE
  5
2b1
100
AcDbEntity
  8
Layer_1
 62
7
100
AcDbSpline
 70
8
 71
3
 72
8
 73
4
 74
0
 40
0
 40
0
 40
0
 40
0
 40
1
 40
1
 40
1
 40
1
 10
171.046823
 20
159.153181
 30
0.0
 10
171.046823
 20
157.535108
 30
0.0
 10
171.078181
 20
157.459848
 30
0.0
 10
171.752379
 20
157.459848
 30
0.0
  0
SPLINE
  5
2b2
100
AcDbEntity
  8
Layer_1
 62
7
100
AcDbSpline
 70
8
 71
3
 72
8
 73
4
 74
0
 40
0
 40
0
 40
0
 40
0
 40
1
 40
1
 40
1
 40
1
 10
171.752379
 20
157.459848
 30
0.0
 10
172.426576
 20
157.459848
 30
0.0
 10
172.457934
 20
157.535108
 30
0.0
 10
172.457934
 20
159.153181
 30
0.0
  0
LINE
  5
2b3
100
AcDbEntity
  8
Layer_1
 62
7
100
AcDbLine
 10
172.457934
 20
159.153181
 30
0.0
 11
172.457934
 21
159.153181
 31
0.0
  0
SPLINE
  5
2b4
100
AcDbEntity
  8
Layer_1
 62
7
100
AcDbSpline
 70
8
 71
3
 72
8
 73
4
 74
0
 40
0
 40
0
 40
0
 40
0
 40
1
 40
1
 40
1
 40
1
 10
185.157934
 20
159.153181
 30
0.0
 10
185.157934
 20
160.771254
 30
0.0
 10
185.126576
 20
160.846515
 30
0.0
 10
184.452379
 20
160.846515
 30
0.0
  0
SPLINE
  5
2b5
100
AcDbEntity
  8
Layer_1
 62
7
100
AcDbSpline
 70
8
 71
3
 72
8
 73
4
 74
0
 40
0
 40
0
 40
0
 40
0
 40
1
 40
1
 40
1
 40
1
 10
184.452379
 20
160.846515
 30
0.0
 10
183.778181
 20
160.846515
 30
0.0
 10
183.746823
 20
160.771254
 30
0.0
 10
183.746823
 20
159.153181
 30
0.0
  0
SPLINE
  5
2b6
100
AcDbEntity
  8
Layer_1
 62
7
100
AcDbSpline
 70
8
 71
3
 72
8
 73
4
 74
0
 40
0
 40
0
 40
0
 40
0
 40
1
 40
1
 40
1
 40
1
 10
183.746823
 20
159.153181
 30
0.0
 10
183.746823
 20
157.535108
 30
0.0
 10
183.778181
 20
157.459848
 30
0.0
 10
184.452379
 20
157.459848
 30
0.0
  0
SPLINE
  5
2b7
100
AcDbEntity
  8
Layer_1
 62
7
100
AcDbSpline
 70
8
 71
3
 72
8
 73
4
 74
0
 40
0
 40
0
 40
0
 40
0
 40
1
 40
1
 40
1
 40
1
 10
184.452379
 20
157.459848
 30
0.0
 10
185.126576
 20
157.459848
 30
0.0
 10
185.157934
 20
157.535108
 30
0.0
 10
185.157934
 20
159.153181
 30
0.0
  0
LINE
  5
2b8
100
AcDbEntity
  8
Layer_1
 62
7
100
AcDbLine
 10
185.157934
 20
159.153181
 30
0.0
 11
185.157934
 21
159.153181
 31
0.0
  0
SPLINE
  5
2b9
100
AcDbEntity
  8
Layer_1
 62
7
100
AcDbSpline
 70
8
 71
3
 72
8
 73
4
 74
0
 40
0
 40
0
 40
0
 40
0
 40
1
 40
1
 40
1
 40
1
 10
202.937920
 20
159.153181
 30
0.0
 10
202.937920
 20
160.771254
 30
0.0
 10
202.906565
 20
160.846515
 30
0.0
 10
202.232364
 20
160.846515
 30
0.0
  0
SPLINE
  5
2ba
100
AcDbEntity
  8
Layer_1
 62
7
100
AcDbSpline
 70
8
 71
3
 72
8
 73
4
 74
0
 40
0
 40
0
 40
0
 40
0
 40
1
 40
1
 40
1
 40
1
 10
202.232364
 20
160.846515
 30
0.0
 10
201.558192
 20
160.846515
 30
0.0
 10
201.526809
 20
160.771254
 30
0.0
 10
201.526809
 20
159.153181
 30
0.0
  0
SPLINE
  5
2bb
100
AcDbEntity
  8
Layer_1
 62
7
100
AcDbSpline
 70
8
 71
3
 72
8
 73
4
 74
0
 40
0
 40
0
 40
0
 40
0
 40
1
 40
1
 40
1
 40
1
 10
201.526809
 20
159.153181
 30
0.0
 10
201.526809
 20
157.535108
 30
0.0
 10
201.558192
 20
157.459848
 30
0.0
 10
202.232364
 20
157.459848
 30
0.0
  0
SPLINE
  5
2bc
100
AcDbEntity
  8
Layer_1
 62
7
100
AcDbSpline
 70
8
 71
3
 72
8
 73
4
 74
0
 40
0
 40
0
 40
0
 40
0
 40
1
 40
1
 40
1
 40
1
 10
202.232364
 20
157.459848
 30
0.0
 10
202.906565
 20
157.459848
 30
0.0
 10
202.937920
 20
157.535108
 30
0.0
 10
202.937920
 20
159.153181
 30
0.0
  0
LINE
  5
2bd
100
AcDbEntity
  8
Layer_1
 62
7
100
AcDbLine
 10
202.937920
 20
159.153181
 30
0.0
 11
202.937920
 21
159.153181
 31
0.0
  0
SPLINE
  5
2be
100
AcDbEntity
  8
Layer_1
 62
7
100
AcDbSpline
 70
8
 71
3
 72
8
 73
4
 74
0
 40
0
 40
0
 40
0
 40
0
 40
1
 40
1
 40
1
 40
1
 10
9.897934
 20
166.773181
 30
0.0
 10
9.897934
 20
168.391254
 30
0.0
 10
9.866577
 20
168.466515
 30
0.0
 10
9.192379
 20
168.466515
 30
0.0
  0
SPLINE
  5
2bf
100
AcDbEntity
  8
Layer_1
 62
7
100
AcDbSpline
 70
8
 71
3
 72
8
 73
4
 74
0
 40
0
 40
0
 40
0
 40
0
 40
1
 40
1
 40
1
 40
1
 10
9.192379
 20
168.466515
 30
0.0
 10
8.518181
 20
168.466515
 30
0.0
 10
8.486823
 20
168.391254
 30
0.0
 10
8.486823
 20
166.773181
 30
0.0
  0
SPLINE
  5
2c0
100
AcDbEntity
  8
Layer_1
 62
7
100
AcDbSpline
 70
8
 71
3
 72
8
 73
4
 74
0
 40
0
 40
0
 40
0
 40
0
 40
1
 40
1
 40
1
 40
1
 10
8.486823
 20
166.773181
 30
0.0
 10
8.486823
 20
165.155108
 30
0.0
 10
8.518181
 20
165.079848
 30
0.0
 10
9.192379
 20
165.079848
 30
0.0
  0
SPLINE
  5
2c1
100
AcDbEntity
  8
Layer_1
 62
7
100
AcDbSpline
 70
8
 71
3
 72
8
 73
4
 74
0
 40
0
 40
0
 40
0
 40
0
 40
1
 40
1
 40
1
 40
1
 10
9.192379
 20
165.079848
 30
0.0
 10
9.866577
 20
165.079848
 30
0.0
 10
9.897934
 20
165.155108
 30
0.0
 10
9.897934
 20
166.773181
 30
0.0
  0
LINE
  5
2c2
100
AcDbEntity
  8
Layer_1
 62
7
100
AcDbLine
 10
9.897934
 20
166.773181
 30
0.0
 11
9.897934
 21
166.773181
 31
0.0
  0
SPLINE
  5
2c3
100
AcDbEntity
  8
Layer_1
 62
7
100
AcDbSpline
 70
8
 71
3
 72
8
 73
4
 74
0
 40
0
 40
0
 40
0
 40
0
 40
1
 40
1
 40
1
 40
1
 10
40.377934
 20
166.773181
 30
0.0
 10
40.377934
 20
168.391254
 30
0.0
 10
40.346576
 20
168.466515
 30
0.0
 10
39.672379
 20
168.466515
 30
0.0
  0
SPLINE
  5
2c4
100
AcDbEntity
  8
Layer_1
 62
7
100
AcDbSpline
 70
8
 71
3
 72
8
 73
4
 74
0
 40
0
 40
0
 40
0
 40
0
 40
1
 40
1
 40
1
 40
1
 10
39.672379
 20
168.466515
 30
0.0
 10
38.998181
 20
168.466515
 30
0.0
 10
38.966823
 20
168.391254
 30
0.0
 10
38.966823
 20
166.773181
 30
0.0
  0
SPLINE
  5
2c5
100
AcDbEntity
  8
Layer_1
 62
7
100
AcDbSpline
 70
8
 71
3
 72
8
 73
4
 74
0
 40
0
 40
0
 40
0
 40
0
 40
1
 40
1
 40
1
 40
1
 10
38.966823
 20
166.773181
 30
0.0
 10
38.966823
 20
165.155108
 30
0.0
 10
38.998181
 20
165.079848
 30
0.0
 10
39.672379
 20
165.079848
 30
0.0
  0
SPLINE
  5
2c6
100
AcDbEntity
  8
Layer_1
 62
7
100
AcDbSpline
 70
8
 71
3
 72
8
 73
4
 74
0
 40
0
 40
0
 40
0
 40
0
 40
1
 40
1
 40
1
 40
1
 10
39.672379
 20
165.079848
 30
0.0
 10
40.346576
 20
165.079848
 30
0.0
 10
40.377934
 20
165.155108
 30
0.0
 10
40.377934
 20
166.773181
 30
0.0
  0
LINE
  5
2c7
100
AcDbEntity
  8
Layer_1
 62
7
100
AcDbLine
 10
40.377934
 20
166.773181
 30
0.0
 11
40.377934
 21
166.773181
 31
0.0
  0
SPLINE
  5
2c8
100
AcDbEntity
  8
Layer_1
 62
7
100
AcDbSpline
 70
8
 71
3
 72
8
 73
4
 74
0
 40
0
 40
0
 40
0
 40
0
 40
1
 40
1
 40
1
 40
1
 10
42.917934
 20
166.773181
 30
0.0
 10
42.917934
 20
168.391254
 30
0.0
 10
42.886576
 20
168.466515
 30
0.0
 10
42.212379
 20
168.466515
 30
0.0
  0
SPLINE
  5
2c9
100
AcDbEntity
  8
Layer_1
 62
7
100
AcDbSpline
 70
8
 71
3
 72
8
 73
4
 74
0
 40
0
 40
0
 40
0
 40
0
 40
1
 40
1
 40
1
 40
1
 10
42.212379
 20
168.466515
 30
0.0
 10
41.538181
 20
168.466515
 30
0.0
 10
41.506823
 20
168.391254
 30
0.0
 10
41.506823
 20
166.773181
 30
0.0
  0
SPLINE
  5
2ca
100
AcDbEntity
  8
Layer_1
 62
7
100
AcDbSpline
 70
8
 71
3
 72
8
 73
4
 74
0
 40
0
 40
0
 40
0
 40
0
 40
1
 40
1
 40
1
 40
1
 10
41.506823
 20
166.773181
 30
0.0
 10
41.506823
 20
165.155108
 30
0.0
 10
41.538181
 20
165.079848
 30
0.0
 10
42.212379
 20
165.079848
 30
0.0
  0
SPLINE
  5
2cb
100
AcDbEntity
  8
Layer_1
 62
7
100
AcDbSpline
 70
8
 71
3
 72
8
 73
4
 74
0
 40
0
 40
0
 40
0
 40
0
 40
1
 40
1
 40
1
 40
1
 10
42.212379
 20
165.079848
 30
0.0
 10
42.886576
 20
165.079848
 30
0.0
 10
42.917934
 20
165.155108
 30
0.0
 10
42.917934
 20
166.773181
 30
0.0
  0
LINE
  5
2cc
100
AcDbEntity
  8
Layer_1
 62
7
100
AcDbLine
 10
42.917934
 20
166.773181
 30
0.0
 11
42.917934
 21
166.773181
 31
0.0
  0
SPLINE
  5
2cd
100
AcDbEntity
  8
Layer_1
 62
7
100
AcDbSpline
 70
8
 71
3
 72
8
 73
4
 74
0
 40
0
 40
0
 40
0
 40
0
 40
1
 40
1
 40
1
 40
1
 10
50.537934
 20
166.773181
 30
0.0
 10
50.537934
 20
168.391254
 30
0.0
 10
50.506576
 20
168.466515
 30
0.0
 10
49.832379
 20
168.466515
 30
0.0
  0
SPLINE
  5
2ce
100
AcDbEntity
  8
Layer_1
 62
7
100
AcDbSpline
 70
8
 71
3
 72
8
 73
4
 74
0
 40
0
 40
0
 40
0
 40
0
 40
1
 40
1
 40
1
 40
1
 10
49.832379
 20
168.466515
 30
0.0
 10
49.158181
 20
168.466515
 30
0.0
 10
49.126823
 20
168.391254
 30
0.0
 10
49.126823
 20
166.773181
 30
0.0
  0
SPLINE
  5
2cf
100
AcDbEntity
  8
Layer_1
 62
7
100
AcDbSpline
 70
8
 71
3
 72
8
 73
4
 74
0
 40
0
 40
0
 40
0
 40
0
 40
1
 40
1
 40
1
 40
1
 10
49.126823
 20
166.773181
 30
0.0
 10
49.126823
 20
165.155108
 30
0.0
 10
49.158181
 20
165.079848
 30
0.0
 10
49.832379
 20
165.079848
 30
0.0
  0
SPLINE
  5
2d0
100
AcDbEntity
  8
Layer_1
 62
7
100
AcDbSpline
 70
8
 71
3
 72
8
 73
4
 74
0
 40
0
 40
0
 40
0
 40
0
 40
1
 40
1
 40
1
 40
1
 10
49.832379
 20
165.079848
 30
0.0
 10
50.506576
 20
165.079848
 30
0.0
 10
50.537934
 20
165.155108
 30
0.0
 10
50.537934
 20
166.773181
 30
0.0
  0
LINE
  5
2d1
100
AcDbEntity
  8
Layer_1
 62
7
100
AcDbLine
 10
50.537934
 20
166.773181
 30
0.0
 11
50.537934
 21
166.773181
 31
0.0
  0
SPLINE
  5
2d2
100
AcDbEntity
  8
Layer_1
 62
7
100
AcDbSpline
 70
8
 71
3
 72
8
 73
4
 74
0
 40
0
 40
0
 40
0
 40
0
 40
1
 40
1
 40
1
 40
1
 10
73.397934
 20
166.773181
 30
0.0
 10
73.397934
 20
168.391254
 30
0.0
 10
73.366576
 20
168.466515
 30
0.0
 10
72.692379
 20
168.466515
 30
0.0
  0
SPLINE
  5
2d3
100
AcDbEntity
  8
Layer_1
 62
7
100
AcDbSpline
 70
8
 71
3
 72
8
 73
4
 74
0
 40
0
 40
0
 40
0
 40
0
 40
1
 40
1
 40
1
 40
1
 10
72.692379
 20
168.466515
 30
0.0
 10
72.018181
 20
168.466515
 30
0.0
 10
71.986823
 20
168.391254
 30
0.0
 10
71.986823
 20
166.773181
 30
0.0
  0
SPLINE
  5
2d4
100
AcDbEntity
  8
Layer_1
 62
7
100
AcDbSpline
 70
8
 71
3
 72
8
 73
4
 74
0
 40
0
 40
0
 40
0
 40
0
 40
1
 40
1
 40
1
 40
1
 10
71.986823
 20
166.773181
 30
0.0
 10
71.986823
 20
165.155108
 30
0.0
 10
72.018181
 20
165.079848
 30
0.0
 10
72.692379
 20
165.079848
 30
0.0
  0
SPLINE
  5
2d5
100
AcDbEntity
  8
Layer_1
 62
7
100
AcDbSpline
 70
8
 71
3
 72
8
 73
4
 74
0
 40
0
 40
0
 40
0
 40
0
 40
1
 40
1
 40
1
 40
1
 10
72.692379
 20
165.079848
 30
0.0
 10
73.366576
 20
165.079848
 30
0.0
 10
73.397934
 20
165.155108
 30
0.0
 10
73.397934
 20
166.773181
 30
0.0
  0
LINE
  5
2d6
100
AcDbEntity
  8
Layer_1
 62
7
100
AcDbLine
 10
73.397934
 20
166.773181
 30
0.0
 11
73.397934
 21
166.773181
 31
0.0
  0
SPLINE
  5
2d7
100
AcDbEntity
  8
Layer_1
 62
7
100
AcDbSpline
 70
8
 71
3
 72
8
 73
4
 74
0
 40
0
 40
0
 40
0
 40
0
 40
1
 40
1
 40
1
 40
1
 10
75.937934
 20
166.773181
 30
0.0
 10
75.937934
 20
168.391254
 30
0.0
 10
75.906576
 20
168.466515
 30
0.0
 10
75.232379
 20
168.466515
 30
0.0
  0
SPLINE
  5
2d8
100
AcDbEntity
  8
Layer_1
 62
7
100
AcDbSpline
 70
8
 71
3
 72
8
 73
4
 74
0
 40
0
 40
0
 40
0
 40
0
 40
1
 40
1
 40
1
 40
1
 10
75.232379
 20
168.466515
 30
0.0
 10
74.558181
 20
168.466515
 30
0.0
 10
74.526823
 20
168.391254
 30
0.0
 10
74.526823
 20
166.773181
 30
0.0
  0
SPLINE
  5
2d9
100
AcDbEntity
  8
Layer_1
 62
7
100
AcDbSpline
 70
8
 71
3
 72
8
 73
4
 74
0
 40
0
 40
0
 40
0
 40
0
 40
1
 40
1
 40
1
 40
1
 10
74.526823
 20
166.773181
 30
0.0
 10
74.526823
 20
165.155108
 30
0.0
 10
74.558181
 20
165.079848
 30
0.0
 10
75.232379
 20
165.079848
 30
0.0
  0
SPLINE
  5
2da
100
AcDbEntity
  8
Layer_1
 62
7
100
AcDbSpline
 70
8
 71
3
 72
8
 73
4
 74
0
 40
0
 40
0
 40
0
 40
0
 40
1
 40
1
 40
1
 40
1
 10
75.232379
 20
165.079848
 30
0.0
 10
75.906576
 20
165.079848
 30
0.0
 10
75.937934
 20
165.155108
 30
0.0
 10
75.937934
 20
166.773181
 30
0.0
  0
LINE
  5
2db
100
AcDbEntity
  8
Layer_1
 62
7
100
AcDbLine
 10
75.937934
 20
166.773181
 30
0.0
 11
75.937934
 21
166.773181
 31
0.0
  0
SPLINE
  5
2dc
100
AcDbEntity
  8
Layer_1
 62
7
100
AcDbSpline
 70
8
 71
3
 72
8
 73
4
 74
0
 40
0
 40
0
 40
0
 40
0
 40
1
 40
1
 40
1
 40
1
 10
78.477934
 20
166.773181
 30
0.0
 10
78.477934
 20
168.391254
 30
0.0
 10
78.446576
 20
168.466515
 30
0.0
 10
77.772379
 20
168.466515
 30
0.0
  0
SPLINE
  5
2dd
100
AcDbEntity
  8
Layer_1
 62
7
100
AcDbSpline
 70
8
 71
3
 72
8
 73
4
 74
0
 40
0
 40
0
 40
0
 40
0
 40
1
 40
1
 40
1
 40
1
 10
77.772379
 20
168.466515
 30
0.0
 10
77.098181
 20
168.466515
 30
0.0
 10
77.066823
 20
168.391254
 30
0.0
 10
77.066823
 20
166.773181
 30
0.0
  0
SPLINE
  5
2de
100
AcDbEntity
  8
Layer_1
 62
7
100
AcDbSpline
 70
8
 71
3
 72
8
 73
4
 74
0
 40
0
 40
0
 40
0
 40
0
 40
1
 40
1
 40
1
 40
1
 10
77.066823
 20
166.773181
 30
0.0
 10
77.066823
 20
165.155108
 30
0.0
 10
77.098181
 20
165.079848
 30
0.0
 10
77.772379
 20
165.079848
 30
0.0
  0
SPLINE
  5
2df
100
AcDbEntity
  8
Layer_1
 62
7
100
AcDbSpline
 70
8
 71
3
 72
8
 73
4
 74
0
 40
0
 40
0
 40
0
 40
0
 40
1
 40
1
 40
1
 40
1
 10
77.772379
 20
165.079848
 30
0.0
 10
78.446576
 20
165.079848
 30
0.0
 10
78.477934
 20
165.155108
 30
0.0
 10
78.477934
 20
166.773181
 30
0.0
  0
LINE
  5
2e0
100
AcDbEntity
  8
Layer_1
 62
7
100
AcDbLine
 10
78.477934
 20
166.773181
 30
0.0
 11
78.477934
 21
166.773181
 31
0.0
  0
SPLINE
  5
2e1
100
AcDbEntity
  8
Layer_1
 62
7
100
AcDbSpline
 70
8
 71
3
 72
8
 73
4
 74
0
 40
0
 40
0
 40
0
 40
0
 40
1
 40
1
 40
1
 40
1
 10
88.637934
 20
166.773181
 30
0.0
 10
88.637934
 20
168.391254
 30
0.0
 10
88.606576
 20
168.466515
 30
0.0
 10
87.932379
 20
168.466515
 30
0.0
  0
SPLINE
  5
2e2
100
AcDbEntity
  8
Layer_1
 62
7
100
AcDbSpline
 70
8
 71
3
 72
8
 73
4
 74
0
 40
0
 40
0
 40
0
 40
0
 40
1
 40
1
 40
1
 40
1
 10
87.932379
 20
168.466515
 30
0.0
 10
87.258181
 20
168.466515
 30
0.0
 10
87.226823
 20
168.391254
 30
0.0
 10
87.226823
 20
166.773181
 30
0.0
  0
SPLINE
  5
2e3
100
AcDbEntity
  8
Layer_1
 62
7
100
AcDbSpline
 70
8
 71
3
 72
8
 73
4
 74
0
 40
0
 40
0
 40
0
 40
0
 40
1
 40
1
 40
1
 40
1
 10
87.226823
 20
166.773181
 30
0.0
 10
87.226823
 20
165.155108
 30
0.0
 10
87.258181
 20
165.079848
 30
0.0
 10
87.932379
 20
165.079848
 30
0.0
  0
SPLINE
  5
2e4
100
AcDbEntity
  8
Layer_1
 62
7
100
AcDbSpline
 70
8
 71
3
 72
8
 73
4
 74
0
 40
0
 40
0
 40
0
 40
0
 40
1
 40
1
 40
1
 40
1
 10
87.932379
 20
165.079848
 30
0.0
 10
88.606576
 20
165.079848
 30
0.0
 10
88.637934
 20
165.155108
 30
0.0
 10
88.637934
 20
166.773181
 30
0.0
  0
LINE
  5
2e5
100
AcDbEntity
  8
Layer_1
 62
7
100
AcDbLine
 10
88.637934
 20
166.773181
 30
0.0
 11
88.637934
 21
166.773181
 31
0.0
  0
SPLINE
  5
2e6
100
AcDbEntity
  8
Layer_1
 62
7
100
AcDbSpline
 70
8
 71
3
 72
8
 73
4
 74
0
 40
0
 40
0
 40
0
 40
0
 40
1
 40
1
 40
1
 40
1
 10
93.717934
 20
166.773181
 30
0.0
 10
93.717934
 20
168.391254
 30
0.0
 10
93.686576
 20
168.466515
 30
0.0
 10
93.012379
 20
168.466515
 30
0.0
  0
SPLINE
  5
2e7
100
AcDbEntity
  8
Layer_1
 62
7
100
AcDbSpline
 70
8
 71
3
 72
8
 73
4
 74
0
 40
0
 40
0
 40
0
 40
0
 40
1
 40
1
 40
1
 40
1
 10
93.012379
 20
168.466515
 30
0.0
 10
92.338181
 20
168.466515
 30
0.0
 10
92.306823
 20
168.391254
 30
0.0
 10
92.306823
 20
166.773181
 30
0.0
  0
SPLINE
  5
2e8
100
AcDbEntity
  8
Layer_1
 62
7
100
AcDbSpline
 70
8
 71
3
 72
8
 73
4
 74
0
 40
0
 40
0
 40
0
 40
0
 40
1
 40
1
 40
1
 40
1
 10
92.306823
 20
166.773181
 30
0.0
 10
92.306823
 20
165.155108
 30
0.0
 10
92.338181
 20
165.079848
 30
0.0
 10
93.012379
 20
165.079848
 30
0.0
  0
SPLINE
  5
2e9
100
AcDbEntity
  8
Layer_1
 62
7
100
AcDbSpline
 70
8
 71
3
 72
8
 73
4
 74
0
 40
0
 40
0
 40
0
 40
0
 40
1
 40
1
 40
1
 40
1
 10
93.012379
 20
165.079848
 30
0.0
 10
93.686576
 20
165.079848
 30
0.0
 10
93.717934
 20
165.155108
 30
0.0
 10
93.717934
 20
166.773181
 30
0.0
  0
LINE
  5
2ea
100
AcDbEntity
  8
Layer_1
 62
7
100
AcDbLine
 10
93.717934
 20
166.773181
 30
0.0
 11
93.717934
 21
166.773181
 31
0.0
  0
SPLINE
  5
2eb
100
AcDbEntity
  8
Layer_1
 62
7
100
AcDbSpline
 70
8
 71
3
 72
8
 73
4
 74
0
 40
0
 40
0
 40
0
 40
0
 40
1
 40
1
 40
1
 40
1
 10
103.877934
 20
166.773181
 30
0.0
 10
103.877934
 20
168.391254
 30
0.0
 10
103.846576
 20
168.466515
 30
0.0
 10
103.172379
 20
168.466515
 30
0.0
  0
SPLINE
  5
2ec
100
AcDbEntity
  8
Layer_1
 62
7
100
AcDbSpline
 70
8
 71
3
 72
8
 73
4
 74
0
 40
0
 40
0
 40
0
 40
0
 40
1
 40
1
 40
1
 40
1
 10
103.172379
 20
168.466515
 30
0.0
 10
102.498181
 20
168.466515
 30
0.0
 10
102.466823
 20
168.391254
 30
0.0
 10
102.466823
 20
166.773181
 30
0.0
  0
SPLINE
  5
2ed
100
AcDbEntity
  8
Layer_1
 62
7
100
AcDbSpline
 70
8
 71
3
 72
8
 73
4
 74
0
 40
0
 40
0
 40
0
 40
0
 40
1
 40
1
 40
1
 40
1
 10
102.466823
 20
166.773181
 30
0.0
 10
102.466823
 20
165.155108
 30
0.0
 10
102.498181
 20
165.079848
 30
0.0
 10
103.172379
 20
165.079848
 30
0.0
  0
SPLINE
  5
2ee
100
AcDbEntity
  8
Layer_1
 62
7
100
AcDbSpline
 70
8
 71
3
 72
8
 73
4
 74
0
 40
0
 40
0
 40
0
 40
0
 40
1
 40
1
 40
1
 40
1
 10
103.172379
 20
165.079848
 30
0.0
 10
103.846576
 20
165.079848
 30
0.0
 10
103.877934
 20
165.155108
 30
0.0
 10
103.877934
 20
166.773181
 30
0.0
  0
LINE
  5
2ef
100
AcDbEntity
  8
Layer_1
 62
7
100
AcDbLine
 10
103.877934
 20
166.773181
 30
0.0
 11
103.877934
 21
166.773181
 31
0.0
  0
SPLINE
  5
2f0
100
AcDbEntity
  8
Layer_1
 62
7
100
AcDbSpline
 70
8
 71
3
 72
8
 73
4
 74
0
 40
0
 40
0
 40
0
 40
0
 40
1
 40
1
 40
1
 40
1
 10
106.417934
 20
166.773181
 30
0.0
 10
106.417934
 20
168.391254
 30
0.0
 10
106.386576
 20
168.466515
 30
0.0
 10
105.712379
 20
168.466515
 30
0.0
  0
SPLINE
  5
2f1
100
AcDbEntity
  8
Layer_1
 62
7
100
AcDbSpline
 70
8
 71
3
 72
8
 73
4
 74
0
 40
0
 40
0
 40
0
 40
0
 40
1
 40
1
 40
1
 40
1
 10
105.712379
 20
168.466515
 30
0.0
 10
105.038181
 20
168.466515
 30
0.0
 10
105.006823
 20
168.391254
 30
0.0
 10
105.006823
 20
166.773181
 30
0.0
  0
SPLINE
  5
2f2
100
AcDbEntity
  8
Layer_1
 62
7
100
AcDbSpline
 70
8
 71
3
 72
8
 73
4
 74
0
 40
0
 40
0
 40
0
 40
0
 40
1
 40
1
 40
1
 40
1
 10
105.006823
 20
166.773181
 30
0.0
 10
105.006823
 20
165.155108
 30
0.0
 10
105.038181
 20
165.079848
 30
0.0
 10
105.712379
 20
165.079848
 30
0.0
  0
SPLINE
  5
2f3
100
AcDbEntity
  8
Layer_1
 62
7
100
AcDbSpline
 70
8
 71
3
 72
8
 73
4
 74
0
 40
0
 40
0
 40
0
 40
0
 40
1
 40
1
 40
1
 40
1
 10
105.712379
 20
165.079848
 30
0.0
 10
106.386576
 20
165.079848
 30
0.0
 10
106.417934
 20
165.155108
 30
0.0
 10
106.417934
 20
166.773181
 30
0.0
  0
LINE
  5
2f4
100
AcDbEntity
  8
Layer_1
 62
7
100
AcDbLine
 10
106.417934
 20
166.773181
 30
0.0
 11
106.417934
 21
166.773181
 31
0.0
  0
SPLINE
  5
2f5
100
AcDbEntity
  8
Layer_1
 62
7
100
AcDbSpline
 70
8
 71
3
 72
8
 73
4
 74
0
 40
0
 40
0
 40
0
 40
0
 40
1
 40
1
 40
1
 40
1
 10
114.037934
 20
166.773181
 30
0.0
 10
114.037934
 20
168.391254
 30
0.0
 10
114.006576
 20
168.466515
 30
0.0
 10
113.332379
 20
168.466515
 30
0.0
  0
SPLINE
  5
2f6
100
AcDbEntity
  8
Layer_1
 62
7
100
AcDbSpline
 70
8
 71
3
 72
8
 73
4
 74
0
 40
0
 40
0
 40
0
 40
0
 40
1
 40
1
 40
1
 40
1
 10
113.332379
 20
168.466515
 30
0.0
 10
112.658181
 20
168.466515
 30
0.0
 10
112.626823
 20
168.391254
 30
0.0
 10
112.626823
 20
166.773181
 30
0.0
  0
SPLINE
  5
2f7
100
AcDbEntity
  8
Layer_1
 62
7
100
AcDbSpline
 70
8
 71
3
 72
8
 73
4
 74
0
 40
0
 40
0
 40
0
 40
0
 40
1
 40
1
 40
1
 40
1
 10
112.626823
 20
166.773181
 30
0.0
 10
112.626823
 20
165.155108
 30
0.0
 10
112.658181
 20
165.079848
 30
0.0
 10
113.332379
 20
165.079848
 30
0.0
  0
SPLINE
  5
2f8
100
AcDbEntity
  8
Layer_1
 62
7
100
AcDbSpline
 70
8
 71
3
 72
8
 73
4
 74
0
 40
0
 40
0
 40
0
 40
0
 40
1
 40
1
 40
1
 40
1
 10
113.332379
 20
165.079848
 30
0.0
 10
114.006576
 20
165.079848
 30
0.0
 10
114.037934
 20
165.155108
 30
0.0
 10
114.037934
 20
166.773181
 30
0.0
  0
LINE
  5
2f9
100
AcDbEntity
  8
Layer_1
 62
7
100
AcDbLine
 10
114.037934
 20
166.773181
 30
0.0
 11
114.037934
 21
166.773181
 31
0.0
  0
SPLINE
  5
2fa
100
AcDbEntity
  8
Layer_1
 62
7
100
AcDbSpline
 70
8
 71
3
 72
8
 73
4
 74
0
 40
0
 40
0
 40
0
 40
0
 40
1
 40
1
 40
1
 40
1
 10
129.277934
 20
166.773181
 30
0.0
 10
129.277934
 20
168.391254
 30
0.0
 10
129.246576
 20
168.466515
 30
0.0
 10
128.572379
 20
168.466515
 30
0.0
  0
SPLINE
  5
2fb
100
AcDbEntity
  8
Layer_1
 62
7
100
AcDbSpline
 70
8
 71
3
 72
8
 73
4
 74
0
 40
0
 40
0
 40
0
 40
0
 40
1
 40
1
 40
1
 40
1
 10
128.572379
 20
168.466515
 30
0.0
 10
127.898181
 20
168.466515
 30
0.0
 10
127.866823
 20
168.391254
 30
0.0
 10
127.866823
 20
166.773181
 30
0.0
  0
SPLINE
  5
2fc
100
AcDbEntity
  8
Layer_1
 62
7
100
AcDbSpline
 70
8
 71
3
 72
8
 73
4
 74
0
 40
0
 40
0
 40
0
 40
0
 40
1
 40
1
 40
1
 40
1
 10
127.866823
 20
166.773181
 30
0.0
 10
127.866823
 20
165.155108
 30
0.0
 10
127.898181
 20
165.079848
 30
0.0
 10
128.572379
 20
165.079848
 30
0.0
  0
SPLINE
  5
2fd
100
AcDbEntity
  8
Layer_1
 62
7
100
AcDbSpline
 70
8
 71
3
 72
8
 73
4
 74
0
 40
0
 40
0
 40
0
 40
0
 40
1
 40
1
 40
1
 40
1
 10
128.572379
 20
165.079848
 30
0.0
 10
129.246576
 20
165.079848
 30
0.0
 10
129.277934
 20
165.155108
 30
0.0
 10
129.277934
 20
166.773181
 30
0.0
  0
LINE
  5
2fe
100
AcDbEntity
  8
Layer_1
 62
7
100
AcDbLine
 10
129.277934
 20
166.773181
 30
0.0
 11
129.277934
 21
166.773181
 31
0.0
  0
SPLINE
  5
2ff
100
AcDbEntity
  8
Layer_1
 62
7
100
AcDbSpline
 70
8
 71
3
 72
8
 73
4
 74
0
 40
0
 40
0
 40
0
 40
0
 40
1
 40
1
 40
1
 40
1
 10
134.357934
 20
166.773181
 30
0.0
 10
134.357934
 20
168.391254
 30
0.0
 10
134.326576
 20
168.466515
 30
0.0
 10
133.652379
 20
168.466515
 30
0.0
  0
SPLINE
  5
300
100
AcDbEntity
  8
Layer_1
 62
7
100
AcDbSpline
 70
8
 71
3
 72
8
 73
4
 74
0
 40
0
 40
0
 40
0
 40
0
 40
1
 40
1
 40
1
 40
1
 10
133.652379
 20
168.466515
 30
0.0
 10
132.978181
 20
168.466515
 30
0.0
 10
132.946823
 20
168.391254
 30
0.0
 10
132.946823
 20
166.773181
 30
0.0
  0
SPLINE
  5
301
100
AcDbEntity
  8
Layer_1
 62
7
100
AcDbSpline
 70
8
 71
3
 72
8
 73
4
 74
0
 40
0
 40
0
 40
0
 40
0
 40
1
 40
1
 40
1
 40
1
 10
132.946823
 20
166.773181
 30
0.0
 10
132.946823
 20
165.155108
 30
0.0
 10
132.978181
 20
165.079848
 30
0.0
 10
133.652379
 20
165.079848
 30
0.0
  0
SPLINE
  5
302
100
AcDbEntity
  8
Layer_1
 62
7
100
AcDbSpline
 70
8
 71
3
 72
8
 73
4
 74
0
 40
0
 40
0
 40
0
 40
0
 40
1
 40
1
 40
1
 40
1
 10
133.652379
 20
165.079848
 30
0.0
 10
134.326576
 20
165.079848
 30
0.0
 10
134.357934
 20
165.155108
 30
0.0
 10
134.357934
 20
166.773181
 30
0.0
  0
LINE
  5
303
100
AcDbEntity
  8
Layer_1
 62
7
100
AcDbLine
 10
134.357934
 20
166.773181
 30
0.0
 11
134.357934
 21
166.773181
 31
0.0
  0
SPLINE
  5
304
100
AcDbEntity
  8
Layer_1
 62
7
100
AcDbSpline
 70
8
 71
3
 72
8
 73
4
 74
0
 40
0
 40
0
 40
0
 40
0
 40
1
 40
1
 40
1
 40
1
 10
154.677934
 20
166.773181
 30
0.0
 10
154.677934
 20
168.391254
 30
0.0
 10
154.646576
 20
168.466515
 30
0.0
 10
153.972379
 20
168.466515
 30
0.0
  0
SPLINE
  5
305
100
AcDbEntity
  8
Layer_1
 62
7
100
AcDbSpline
 70
8
 71
3
 72
8
 73
4
 74
0
 40
0
 40
0
 40
0
 40
0
 40
1
 40
1
 40
1
 40
1
 10
153.972379
 20
168.466515
 30
0.0
 10
153.298181
 20
168.466515
 30
0.0
 10
153.266823
 20
168.391254
 30
0.0
 10
153.266823
 20
166.773181
 30
0.0
  0
SPLINE
  5
306
100
AcDbEntity
  8
Layer_1
 62
7
100
AcDbSpline
 70
8
 71
3
 72
8
 73
4
 74
0
 40
0
 40
0
 40
0
 40
0
 40
1
 40
1
 40
1
 40
1
 10
153.266823
 20
166.773181
 30
0.0
 10
153.266823
 20
165.155108
 30
0.0
 10
153.298181
 20
165.079848
 30
0.0
 10
153.972379
 20
165.079848
 30
0.0
  0
SPLINE
  5
307
100
AcDbEntity
  8
Layer_1
 62
7
100
AcDbSpline
 70
8
 71
3
 72
8
 73
4
 74
0
 40
0
 40
0
 40
0
 40
0
 40
1
 40
1
 40
1
 40
1
 10
153.972379
 20
165.079848
 30
0.0
 10
154.646576
 20
165.079848
 30
0.0
 10
154.677934
 20
165.155108
 30
0.0
 10
154.677934
 20
166.773181
 30
0.0
  0
LINE
  5
308
100
AcDbEntity
  8
Layer_1
 62
7
100
AcDbLine
 10
154.677934
 20
166.773181
 30
0.0
 11
154.677934
 21
166.773181
 31
0.0
  0
SPLINE
  5
309
100
AcDbEntity
  8
Layer_1
 62
7
100
AcDbSpline
 70
8
 71
3
 72
8
 73
4
 74
0
 40
0
 40
0
 40
0
 40
0
 40
1
 40
1
 40
1
 40
1
 10
162.297934
 20
166.773181
 30
0.0
 10
162.297934
 20
168.391254
 30
0.0
 10
162.266576
 20
168.466515
 30
0.0
 10
161.592379
 20
168.466515
 30
0.0
  0
SPLINE
  5
30a
100
AcDbEntity
  8
Layer_1
 62
7
100
AcDbSpline
 70
8
 71
3
 72
8
 73
4
 74
0
 40
0
 40
0
 40
0
 40
0
 40
1
 40
1
 40
1
 40
1
 10
161.592379
 20
168.466515
 30
0.0
 10
160.918181
 20
168.466515
 30
0.0
 10
160.886823
 20
168.391254
 30
0.0
 10
160.886823
 20
166.773181
 30
0.0
  0
SPLINE
  5
30b
100
AcDbEntity
  8
Layer_1
 62
7
100
AcDbSpline
 70
8
 71
3
 72
8
 73
4
 74
0
 40
0
 40
0
 40
0
 40
0
 40
1
 40
1
 40
1
 40
1
 10
160.886823
 20
166.773181
 30
0.0
 10
160.886823
 20
165.155108
 30
0.0
 10
160.918181
 20
165.079848
 30
0.0
 10
161.592379
 20
165.079848
 30
0.0
  0
SPLINE
  5
30c
100
AcDbEntity
  8
Layer_1
 62
7
100
AcDbSpline
 70
8
 71
3
 72
8
 73
4
 74
0
 40
0
 40
0
 40
0
 40
0
 40
1
 40
1
 40
1
 40
1
 10
161.592379
 20
165.079848
 30
0.0
 10
162.266576
 20
165.079848
 30
0.0
 10
162.297934
 20
165.155108
 30
0.0
 10
162.297934
 20
166.773181
 30
0.0
  0
LINE
  5
30d
100
AcDbEntity
  8
Layer_1
 62
7
100
AcDbLine
 10
162.297934
 20
166.773181
 30
0.0
 11
162.297934
 21
166.773181
 31
0.0
  0
SPLINE
  5
30e
100
AcDbEntity
  8
Layer_1
 62
7
100
AcDbSpline
 70
8
 71
3
 72
8
 73
4
 74
0
 40
0
 40
0
 40
0
 40
0
 40
1
 40
1
 40
1
 40
1
 10
177.537934
 20
166.773181
 30
0.0
 10
177.537934
 20
168.391254
 30
0.0
 10
177.506576
 20
168.466515
 30
0.0
 10
176.832379
 20
168.466515
 30
0.0
  0
SPLINE
  5
30f
100
AcDbEntity
  8
Layer_1
 62
7
100
AcDbSpline
 70
8
 71
3
 72
8
 73
4
 74
0
 40
0
 40
0
 40
0
 40
0
 40
1
 40
1
 40
1
 40
1
 10
176.832379
 20
168.466515
 30
0.0
 10
176.158181
 20
168.466515
 30
0.0
 10
176.126823
 20
168.391254
 30
0.0
 10
176.126823
 20
166.773181
 30
0.0
  0
SPLINE
  5
310
100
AcDbEntity
  8
Layer_1
 62
7
100
AcDbSpline
 70
8
 71
3
 72
8
 73
4
 74
0
 40
0
 40
0
 40
0
 40
0
 40
1
 40
1
 40
1
 40
1
 10
176.126823
 20
166.773181
 30
0.0
 10
176.126823
 20
165.155108
 30
0.0
 10
176.158181
 20
165.079848
 30
0.0
 10
176.832379
 20
165.079848
 30
0.0
  0
SPLINE
  5
311
100
AcDbEntity
  8
Layer_1
 62
7
100
AcDbSpline
 70
8
 71
3
 72
8
 73
4
 74
0
 40
0
 40
0
 40
0
 40
0
 40
1
 40
1
 40
1
 40
1
 10
176.832379
 20
165.079848
 30
0.0
 10
177.506576
 20
165.079848
 30
0.0
 10
177.537934
 20
165.155108
 30
0.0
 10
177.537934
 20
166.773181
 30
0.0
  0
LINE
  5
312
100
AcDbEntity
  8
Layer_1
 62
7
100
AcDbLine
 10
177.537934
 20
166.773181
 30
0.0
 11
177.537934
 21
166.773181
 31
0.0
  0
SPLINE
  5
313
100
AcDbEntity
  8
Layer_1
 62
7
100
AcDbSpline
 70
8
 71
3
 72
8
 73
4
 74
0
 40
0
 40
0
 40
0
 40
0
 40
1
 40
1
 40
1
 40
1
 10
197.857934
 20
166.773181
 30
0.0
 10
197.857934
 20
168.391254
 30
0.0
 10
197.826576
 20
168.466515
 30
0.0
 10
197.152379
 20
168.466515
 30
0.0
  0
SPLINE
  5
314
100
AcDbEntity
  8
Layer_1
 62
7
100
AcDbSpline
 70
8
 71
3
 72
8
 73
4
 74
0
 40
0
 40
0
 40
0
 40
0
 40
1
 40
1
 40
1
 40
1
 10
197.152379
 20
168.466515
 30
0.0
 10
196.478181
 20
168.466515
 30
0.0
 10
196.446823
 20
168.391254
 30
0.0
 10
196.446823
 20
166.773181
 30
0.0
  0
SPLINE
  5
315
100
AcDbEntity
  8
Layer_1
 62
7
100
AcDbSpline
 70
8
 71
3
 72
8
 73
4
 74
0
 40
0
 40
0
 40
0
 40
0
 40
1
 40
1
 40
1
 40
1
 10
196.446823
 20
166.773181
 30
0.0
 10
196.446823
 20
165.155108
 30
0.0
 10
196.478181
 20
165.079848
 30
0.0
 10
197.152379
 20
165.079848
 30
0.0
  0
SPLINE
  5
316
100
AcDbEntity
  8
Layer_1
 62
7
100
AcDbSpline
 70
8
 71
3
 72
8
 73
4
 74
0
 40
0
 40
0
 40
0
 40
0
 40
1
 40
1
 40
1
 40
1
 10
197.152379
 20
165.079848
 30
0.0
 10
197.826576
 20
165.079848
 30
0.0
 10
197.857934
 20
165.155108
 30
0.0
 10
197.857934
 20
166.773181
 30
0.0
  0
LINE
  5
317
100
AcDbEntity
  8
Layer_1
 62
7
100
AcDbLine
 10
197.857934
 20
166.773181
 30
0.0
 11
197.857934
 21
166.773181
 31
0.0
  0
SPLINE
  5
318
100
AcDbEntity
  8
Layer_1
 62
7
100
AcDbSpline
 70
8
 71
3
 72
8
 73
4
 74
0
 40
0
 40
0
 40
0
 40
0
 40
1
 40
1
 40
1
 40
1
 10
205.477920
 20
166.773181
 30
0.0
 10
205.477920
 20
168.391254
 30
0.0
 10
205.446565
 20
168.466515
 30
0.0
 10
204.772364
 20
168.466515
 30
0.0
  0
SPLINE
  5
319
100
AcDbEntity
  8
Layer_1
 62
7
100
AcDbSpline
 70
8
 71
3
 72
8
 73
4
 74
0
 40
0
 40
0
 40
0
 40
0
 40
1
 40
1
 40
1
 40
1
 10
204.772364
 20
168.466515
 30
0.0
 10
204.098192
 20
168.466515
 30
0.0
 10
204.066809
 20
168.391254
 30
0.0
 10
204.066809
 20
166.773181
 30
0.0
  0
SPLINE
  5
31a
100
AcDbEntity
  8
Layer_1
 62
7
100
AcDbSpline
 70
8
 71
3
 72
8
 73
4
 74
0
 40
0
 40
0
 40
0
 40
0
 40
1
 40
1
 40
1
 40
1
 10
204.066809
 20
166.773181
 30
0.0
 10
204.066809
 20
165.155108
 30
0.0
 10
204.098192
 20
165.079848
 30
0.0
 10
204.772364
 20
165.079848
 30
0.0
  0
SPLINE
  5
31b
100
AcDbEntity
  8
Layer_1
 62
7
100
AcDbSpline
 70
8
 71
3
 72
8
 73
4
 74
0
 40
0
 40
0
 40
0
 40
0
 40
1
 40
1
 40
1
 40
1
 10
204.772364
 20
165.079848
 30
0.0
 10
205.446565
 20
165.079848
 30
0.0
 10
205.477920
 20
165.155108
 30
0.0
 10
205.477920
 20
166.773181
 30
0.0
  0
LINE
  5
31c
100
AcDbEntity
  8
Layer_1
 62
7
100
AcDbLine
 10
205.477920
 20
166.773181
 30
0.0
 11
205.477920
 21
166.773181
 31
0.0
  0
SPLINE
  5
31d
100
AcDbEntity
  8
Layer_1
 62
7
100
AcDbSpline
 70
8
 71
3
 72
8
 73
4
 74
0
 40
0
 40
0
 40
0
 40
0
 40
1
 40
1
 40
1
 40
1
 10
12.437934
 20
174.110959
 30
0.0
 10
12.437934
 20
175.729032
 30
0.0
 10
12.406577
 20
175.804292
 30
0.0
 10
11.732379
 20
175.804292
 30
0.0
  0
SPLINE
  5
31e
100
AcDbEntity
  8
Layer_1
 62
7
100
AcDbSpline
 70
8
 71
3
 72
8
 73
4
 74
0
 40
0
 40
0
 40
0
 40
0
 40
1
 40
1
 40
1
 40
1
 10
11.732379
 20
175.804292
 30
0.0
 10
11.058181
 20
175.804292
 30
0.0
 10
11.026823
 20
175.729032
 30
0.0
 10
11.026823
 20
174.110959
 30
0.0
  0
SPLINE
  5
31f
100
AcDbEntity
  8
Layer_1
 62
7
100
AcDbSpline
 70
8
 71
3
 72
8
 73
4
 74
0
 40
0
 40
0
 40
0
 40
0
 40
1
 40
1
 40
1
 40
1
 10
11.026823
 20
174.110959
 30
0.0
 10
11.026823
 20
172.492886
 30
0.0
 10
11.058181
 20
172.417626
 30
0.0
 10
11.732379
 20
172.417626
 30
0.0
  0
SPLINE
  5
320
100
AcDbEntity
  8
Layer_1
 62
7
100
AcDbSpline
 70
8
 71
3
 72
8
 73
4
 74
0
 40
0
 40
0
 40
0
 40
0
 40
1
 40
1
 40
1
 40
1
 10
11.732379
 20
172.417626
 30
0.0
 10
12.406577
 20
172.417626
 30
0.0
 10
12.437934
 20
172.492886
 30
0.0
 10
12.437934
 20
174.110959
 30
0.0
  0
LINE
  5
321
100
AcDbEntity
  8
Layer_1
 62
7
100
AcDbLine
 10
12.437934
 20
174.110959
 30
0.0
 11
12.437934
 21
174.110959
 31
0.0
  0
SPLINE
  5
322
100
AcDbEntity
  8
Layer_1
 62
7
100
AcDbSpline
 70
8
 71
3
 72
8
 73
4
 74
0
 40
0
 40
0
 40
0
 40
0
 40
1
 40
1
 40
1
 40
1
 10
30.217934
 20
174.110959
 30
0.0
 10
30.217934
 20
175.729032
 30
0.0
 10
30.186576
 20
175.804292
 30
0.0
 10
29.512379
 20
175.804292
 30
0.0
  0
SPLINE
  5
323
100
AcDbEntity
  8
Layer_1
 62
7
100
AcDbSpline
 70
8
 71
3
 72
8
 73
4
 74
0
 40
0
 40
0
 40
0
 40
0
 40
1
 40
1
 40
1
 40
1
 10
29.512379
 20
175.804292
 30
0.0
 10
28.838181
 20
175.804292
 30
0.0
 10
28.806823
 20
175.729032
 30
0.0
 10
28.806823
 20
174.110959
 30
0.0
  0
SPLINE
  5
324
100
AcDbEntity
  8
Layer_1
 62
7
100
AcDbSpline
 70
8
 71
3
 72
8
 73
4
 74
0
 40
0
 40
0
 40
0
 40
0
 40
1
 40
1
 40
1
 40
1
 10
28.806823
 20
174.110959
 30
0.0
 10
28.806823
 20
172.492886
 30
0.0
 10
28.838181
 20
172.417626
 30
0.0
 10
29.512379
 20
172.417626
 30
0.0
  0
SPLINE
  5
325
100
AcDbEntity
  8
Layer_1
 62
7
100
AcDbSpline
 70
8
 71
3
 72
8
 73
4
 74
0
 40
0
 40
0
 40
0
 40
0
 40
1
 40
1
 40
1
 40
1
 10
29.512379
 20
172.417626
 30
0.0
 10
30.186576
 20
172.417626
 30
0.0
 10
30.217934
 20
172.492886
 30
0.0
 10
30.217934
 20
174.110959
 30
0.0
  0
LINE
  5
326
100
AcDbEntity
  8
Layer_1
 62
7
100
AcDbLine
 10
30.217934
 20
174.110959
 30
0.0
 11
30.217934
 21
174.110959
 31
0.0
  0
SPLINE
  5
327
100
AcDbEntity
  8
Layer_1
 62
7
100
AcDbSpline
 70
8
 71
3
 72
8
 73
4
 74
0
 40
0
 40
0
 40
0
 40
0
 40
1
 40
1
 40
1
 40
1
 10
32.757934
 20
174.110959
 30
0.0
 10
32.757934
 20
175.729032
 30
0.0
 10
32.726576
 20
175.804292
 30
0.0
 10
32.052379
 20
175.804292
 30
0.0
  0
SPLINE
  5
328
100
AcDbEntity
  8
Layer_1
 62
7
100
AcDbSpline
 70
8
 71
3
 72
8
 73
4
 74
0
 40
0
 40
0
 40
0
 40
0
 40
1
 40
1
 40
1
 40
1
 10
32.052379
 20
175.804292
 30
0.0
 10
31.378181
 20
175.804292
 30
0.0
 10
31.346823
 20
175.729032
 30
0.0
 10
31.346823
 20
174.110959
 30
0.0
  0
SPLINE
  5
329
100
AcDbEntity
  8
Layer_1
 62
7
100
AcDbSpline
 70
8
 71
3
 72
8
 73
4
 74
0
 40
0
 40
0
 40
0
 40
0
 40
1
 40
1
 40
1
 40
1
 10
31.346823
 20
174.110959
 30
0.0
 10
31.346823
 20
172.492886
 30
0.0
 10
31.378181
 20
172.417626
 30
0.0
 10
32.052379
 20
172.417626
 30
0.0
  0
SPLINE
  5
32a
100
AcDbEntity
  8
Layer_1
 62
7
100
AcDbSpline
 70
8
 71
3
 72
8
 73
4
 74
0
 40
0
 40
0
 40
0
 40
0
 40
1
 40
1
 40
1
 40
1
 10
32.052379
 20
172.417626
 30
0.0
 10
32.726576
 20
172.417626
 30
0.0
 10
32.757934
 20
172.492886
 30
0.0
 10
32.757934
 20
174.110959
 30
0.0
  0
LINE
  5
32b
100
AcDbEntity
  8
Layer_1
 62
7
100
AcDbLine
 10
32.757934
 20
174.110959
 30
0.0
 11
32.757934
 21
174.110959
 31
0.0
  0
SPLINE
  5
32c
100
AcDbEntity
  8
Layer_1
 62
7
100
AcDbSpline
 70
8
 71
3
 72
8
 73
4
 74
0
 40
0
 40
0
 40
0
 40
0
 40
1
 40
1
 40
1
 40
1
 10
37.837934
 20
174.110959
 30
0.0
 10
37.837934
 20
175.729032
 30
0.0
 10
37.806576
 20
175.804292
 30
0.0
 10
37.132379
 20
175.804292
 30
0.0
  0
SPLINE
  5
32d
100
AcDbEntity
  8
Layer_1
 62
7
100
AcDbSpline
 70
8
 71
3
 72
8
 73
4
 74
0
 40
0
 40
0
 40
0
 40
0
 40
1
 40
1
 40
1
 40
1
 10
37.132379
 20
175.804292
 30
0.0
 10
36.458181
 20
175.804292
 30
0.0
 10
36.426823
 20
175.729032
 30
0.0
 10
36.426823
 20
174.110959
 30
0.0
  0
SPLINE
  5
32e
100
AcDbEntity
  8
Layer_1
 62
7
100
AcDbSpline
 70
8
 71
3
 72
8
 73
4
 74
0
 40
0
 40
0
 40
0
 40
0
 40
1
 40
1
 40
1
 40
1
 10
36.426823
 20
174.110959
 30
0.0
 10
36.426823
 20
172.492886
 30
0.0
 10
36.458181
 20
172.417626
 30
0.0
 10
37.132379
 20
172.417626
 30
0.0
  0
SPLINE
  5
32f
100
AcDbEntity
  8
Layer_1
 62
7
100
AcDbSpline
 70
8
 71
3
 72
8
 73
4
 74
0
 40
0
 40
0
 40
0
 40
0
 40
1
 40
1
 40
1
 40
1
 10
37.132379
 20
172.417626
 30
0.0
 10
37.806576
 20
172.417626
 30
0.0
 10
37.837934
 20
172.492886
 30
0.0
 10
37.837934
 20
174.110959
 30
0.0
  0
LINE
  5
330
100
AcDbEntity
  8
Layer_1
 62
7
100
AcDbLine
 10
37.837934
 20
174.110959
 30
0.0
 11
37.837934
 21
174.110959
 31
0.0
  0
SPLINE
  5
331
100
AcDbEntity
  8
Layer_1
 62
7
100
AcDbSpline
 70
8
 71
3
 72
8
 73
4
 74
0
 40
0
 40
0
 40
0
 40
0
 40
1
 40
1
 40
1
 40
1
 10
45.457934
 20
174.110959
 30
0.0
 10
45.457934
 20
175.729032
 30
0.0
 10
45.426576
 20
175.804292
 30
0.0
 10
44.752379
 20
175.804292
 30
0.0
  0
SPLINE
  5
332
100
AcDbEntity
  8
Layer_1
 62
7
100
AcDbSpline
 70
8
 71
3
 72
8
 73
4
 74
0
 40
0
 40
0
 40
0
 40
0
 40
1
 40
1
 40
1
 40
1
 10
44.752379
 20
175.804292
 30
0.0
 10
44.078181
 20
175.804292
 30
0.0
 10
44.046823
 20
175.729032
 30
0.0
 10
44.046823
 20
174.110959
 30
0.0
  0
SPLINE
  5
333
100
AcDbEntity
  8
Layer_1
 62
7
100
AcDbSpline
 70
8
 71
3
 72
8
 73
4
 74
0
 40
0
 40
0
 40
0
 40
0
 40
1
 40
1
 40
1
 40
1
 10
44.046823
 20
174.110959
 30
0.0
 10
44.046823
 20
172.492886
 30
0.0
 10
44.078181
 20
172.417626
 30
0.0
 10
44.752379
 20
172.417626
 30
0.0
  0
SPLINE
  5
334
100
AcDbEntity
  8
Layer_1
 62
7
100
AcDbSpline
 70
8
 71
3
 72
8
 73
4
 74
0
 40
0
 40
0
 40
0
 40
0
 40
1
 40
1
 40
1
 40
1
 10
44.752379
 20
172.417626
 30
0.0
 10
45.426576
 20
172.417626
 30
0.0
 10
45.457934
 20
172.492886
 30
0.0
 10
45.457934
 20
174.110959
 30
0.0
  0
LINE
  5
335
100
AcDbEntity
  8
Layer_1
 62
7
100
AcDbLine
 10
45.457934
 20
174.110959
 30
0.0
 11
45.457934
 21
174.110959
 31
0.0
  0
SPLINE
  5
336
100
AcDbEntity
  8
Layer_1
 62
7
100
AcDbSpline
 70
8
 71
3
 72
8
 73
4
 74
0
 40
0
 40
0
 40
0
 40
0
 40
1
 40
1
 40
1
 40
1
 10
47.997934
 20
174.110959
 30
0.0
 10
47.997934
 20
175.729032
 30
0.0
 10
47.966576
 20
175.804292
 30
0.0
 10
47.292379
 20
175.804292
 30
0.0
  0
SPLINE
  5
337
100
AcDbEntity
  8
Layer_1
 62
7
100
AcDbSpline
 70
8
 71
3
 72
8
 73
4
 74
0
 40
0
 40
0
 40
0
 40
0
 40
1
 40
1
 40
1
 40
1
 10
47.292379
 20
175.804292
 30
0.0
 10
46.618181
 20
175.804292
 30
0.0
 10
46.586823
 20
175.729032
 30
0.0
 10
46.586823
 20
174.110959
 30
0.0
  0
SPLINE
  5
338
100
AcDbEntity
  8
Layer_1
 62
7
100
AcDbSpline
 70
8
 71
3
 72
8
 73
4
 74
0
 40
0
 40
0
 40
0
 40
0
 40
1
 40
1
 40
1
 40
1
 10
46.586823
 20
174.110959
 30
0.0
 10
46.586823
 20
172.492886
 30
0.0
 10
46.618181
 20
172.417626
 30
0.0
 10
47.292379
 20
172.417626
 30
0.0
  0
SPLINE
  5
339
100
AcDbEntity
  8
Layer_1
 62
7
100
AcDbSpline
 70
8
 71
3
 72
8
 73
4
 74
0
 40
0
 40
0
 40
0
 40
0
 40
1
 40
1
 40
1
 40
1
 10
47.292379
 20
172.417626
 30
0.0
 10
47.966576
 20
172.417626
 30
0.0
 10
47.997934
 20
172.492886
 30
0.0
 10
47.997934
 20
174.110959
 30
0.0
  0
LINE
  5
33a
100
AcDbEntity
  8
Layer_1
 62
7
100
AcDbLine
 10
47.997934
 20
174.110959
 30
0.0
 11
47.997934
 21
174.110959
 31
0.0
  0
SPLINE
  5
33b
100
AcDbEntity
  8
Layer_1
 62
7
100
AcDbSpline
 70
8
 71
3
 72
8
 73
4
 74
0
 40
0
 40
0
 40
0
 40
0
 40
1
 40
1
 40
1
 40
1
 10
53.077934
 20
174.110959
 30
0.0
 10
53.077934
 20
175.729032
 30
0.0
 10
53.046576
 20
175.804292
 30
0.0
 10
52.372379
 20
175.804292
 30
0.0
  0
SPLINE
  5
33c
100
AcDbEntity
  8
Layer_1
 62
7
100
AcDbSpline
 70
8
 71
3
 72
8
 73
4
 74
0
 40
0
 40
0
 40
0
 40
0
 40
1
 40
1
 40
1
 40
1
 10
52.372379
 20
175.804292
 30
0.0
 10
51.698181
 20
175.804292
 30
0.0
 10
51.666823
 20
175.729032
 30
0.0
 10
51.666823
 20
174.110959
 30
0.0
  0
SPLINE
  5
33d
100
AcDbEntity
  8
Layer_1
 62
7
100
AcDbSpline
 70
8
 71
3
 72
8
 73
4
 74
0
 40
0
 40
0
 40
0
 40
0
 40
1
 40
1
 40
1
 40
1
 10
51.666823
 20
174.110959
 30
0.0
 10
51.666823
 20
172.492886
 30
0.0
 10
51.698181
 20
172.417626
 30
0.0
 10
52.372379
 20
172.417626
 30
0.0
  0
SPLINE
  5
33e
100
AcDbEntity
  8
Layer_1
 62
7
100
AcDbSpline
 70
8
 71
3
 72
8
 73
4
 74
0
 40
0
 40
0
 40
0
 40
0
 40
1
 40
1
 40
1
 40
1
 10
52.372379
 20
172.417626
 30
0.0
 10
53.046576
 20
172.417626
 30
0.0
 10
53.077934
 20
172.492886
 30
0.0
 10
53.077934
 20
174.110959
 30
0.0
  0
LINE
  5
33f
100
AcDbEntity
  8
Layer_1
 62
7
100
AcDbLine
 10
53.077934
 20
174.110959
 30
0.0
 11
53.077934
 21
174.110959
 31
0.0
  0
SPLINE
  5
340
100
AcDbEntity
  8
Layer_1
 62
7
100
AcDbSpline
 70
8
 71
3
 72
8
 73
4
 74
0
 40
0
 40
0
 40
0
 40
0
 40
1
 40
1
 40
1
 40
1
 10
70.857934
 20
174.110959
 30
0.0
 10
70.857934
 20
175.729032
 30
0.0
 10
70.826576
 20
175.804292
 30
0.0
 10
70.152379
 20
175.804292
 30
0.0
  0
SPLINE
  5
341
100
AcDbEntity
  8
Layer_1
 62
7
100
AcDbSpline
 70
8
 71
3
 72
8
 73
4
 74
0
 40
0
 40
0
 40
0
 40
0
 40
1
 40
1
 40
1
 40
1
 10
70.152379
 20
175.804292
 30
0.0
 10
69.478181
 20
175.804292
 30
0.0
 10
69.446823
 20
175.729032
 30
0.0
 10
69.446823
 20
174.110959
 30
0.0
  0
SPLINE
  5
342
100
AcDbEntity
  8
Layer_1
 62
7
100
AcDbSpline
 70
8
 71
3
 72
8
 73
4
 74
0
 40
0
 40
0
 40
0
 40
0
 40
1
 40
1
 40
1
 40
1
 10
69.446823
 20
174.110959
 30
0.0
 10
69.446823
 20
172.492886
 30
0.0
 10
69.478181
 20
172.417626
 30
0.0
 10
70.152379
 20
172.417626
 30
0.0
  0
SPLINE
  5
343
100
AcDbEntity
  8
Layer_1
 62
7
100
AcDbSpline
 70
8
 71
3
 72
8
 73
4
 74
0
 40
0
 40
0
 40
0
 40
0
 40
1
 40
1
 40
1
 40
1
 10
70.152379
 20
172.417626
 30
0.0
 10
70.826576
 20
172.417626
 30
0.0
 10
70.857934
 20
172.492886
 30
0.0
 10
70.857934
 20
174.110959
 30
0.0
  0
LINE
  5
344
100
AcDbEntity
  8
Layer_1
 62
7
100
AcDbLine
 10
70.857934
 20
174.110959
 30
0.0
 11
70.857934
 21
174.110959
 31
0.0
  0
SPLINE
  5
345
100
AcDbEntity
  8
Layer_1
 62
7
100
AcDbSpline
 70
8
 71
3
 72
8
 73
4
 74
0
 40
0
 40
0
 40
0
 40
0
 40
1
 40
1
 40
1
 40
1
 10
86.097934
 20
174.110959
 30
0.0
 10
86.097934
 20
175.729032
 30
0.0
 10
86.066576
 20
175.804292
 30
0.0
 10
85.392379
 20
175.804292
 30
0.0
  0
SPLINE
  5
346
100
AcDbEntity
  8
Layer_1
 62
7
100
AcDbSpline
 70
8
 71
3
 72
8
 73
4
 74
0
 40
0
 40
0
 40
0
 40
0
 40
1
 40
1
 40
1
 40
1
 10
85.392379
 20
175.804292
 30
0.0
 10
84.718181
 20
175.804292
 30
0.0
 10
84.686823
 20
175.729032
 30
0.0
 10
84.686823
 20
174.110959
 30
0.0
  0
SPLINE
  5
347
100
AcDbEntity
  8
Layer_1
 62
7
100
AcDbSpline
 70
8
 71
3
 72
8
 73
4
 74
0
 40
0
 40
0
 40
0
 40
0
 40
1
 40
1
 40
1
 40
1
 10
84.686823
 20
174.110959
 30
0.0
 10
84.686823
 20
172.492886
 30
0.0
 10
84.718181
 20
172.417626
 30
0.0
 10
85.392379
 20
172.417626
 30
0.0
  0
SPLINE
  5
348
100
AcDbEntity
  8
Layer_1
 62
7
100
AcDbSpline
 70
8
 71
3
 72
8
 73
4
 74
0
 40
0
 40
0
 40
0
 40
0
 40
1
 40
1
 40
1
 40
1
 10
85.392379
 20
172.417626
 30
0.0
 10
86.066576
 20
172.417626
 30
0.0
 10
86.097934
 20
172.492886
 30
0.0
 10
86.097934
 20
174.110959
 30
0.0
  0
LINE
  5
349
100
AcDbEntity
  8
Layer_1
 62
7
100
AcDbLine
 10
86.097934
 20
174.110959
 30
0.0
 11
86.097934
 21
174.110959
 31
0.0
  0
SPLINE
  5
34a
100
AcDbEntity
  8
Layer_1
 62
7
100
AcDbSpline
 70
8
 71
3
 72
8
 73
4
 74
0
 40
0
 40
0
 40
0
 40
0
 40
1
 40
1
 40
1
 40
1
 10
96.257934
 20
174.110959
 30
0.0
 10
96.257934
 20
175.729032
 30
0.0
 10
96.226576
 20
175.804292
 30
0.0
 10
95.552379
 20
175.804292
 30
0.0
  0
SPLINE
  5
34b
100
AcDbEntity
  8
Layer_1
 62
7
100
AcDbSpline
 70
8
 71
3
 72
8
 73
4
 74
0
 40
0
 40
0
 40
0
 40
0
 40
1
 40
1
 40
1
 40
1
 10
95.552379
 20
175.804292
 30
0.0
 10
94.878181
 20
175.804292
 30
0.0
 10
94.846823
 20
175.729032
 30
0.0
 10
94.846823
 20
174.110959
 30
0.0
  0
SPLINE
  5
34c
100
AcDbEntity
  8
Layer_1
 62
7
100
AcDbSpline
 70
8
 71
3
 72
8
 73
4
 74
0
 40
0
 40
0
 40
0
 40
0
 40
1
 40
1
 40
1
 40
1
 10
94.846823
 20
174.110959
 30
0.0
 10
94.846823
 20
172.492886
 30
0.0
 10
94.878181
 20
172.417626
 30
0.0
 10
95.552379
 20
172.417626
 30
0.0
  0
SPLINE
  5
34d
100
AcDbEntity
  8
Layer_1
 62
7
100
AcDbSpline
 70
8
 71
3
 72
8
 73
4
 74
0
 40
0
 40
0
 40
0
 40
0
 40
1
 40
1
 40
1
 40
1
 10
95.552379
 20
172.417626
 30
0.0
 10
96.226576
 20
172.417626
 30
0.0
 10
96.257934
 20
172.492886
 30
0.0
 10
96.257934
 20
174.110959
 30
0.0
  0
LINE
  5
34e
100
AcDbEntity
  8
Layer_1
 62
7
100
AcDbLine
 10
96.257934
 20
174.110959
 30
0.0
 11
96.257934
 21
174.110959
 31
0.0
  0
SPLINE
  5
34f
100
AcDbEntity
  8
Layer_1
 62
7
100
AcDbSpline
 70
8
 71
3
 72
8
 73
4
 74
0
 40
0
 40
0
 40
0
 40
0
 40
1
 40
1
 40
1
 40
1
 10
116.577934
 20
174.110959
 30
0.0
 10
116.577934
 20
175.729032
 30
0.0
 10
116.546576
 20
175.804292
 30
0.0
 10
115.872379
 20
175.804292
 30
0.0
  0
SPLINE
  5
350
100
AcDbEntity
  8
Layer_1
 62
7
100
AcDbSpline
 70
8
 71
3
 72
8
 73
4
 74
0
 40
0
 40
0
 40
0
 40
0
 40
1
 40
1
 40
1
 40
1
 10
115.872379
 20
175.804292
 30
0.0
 10
115.198181
 20
175.804292
 30
0.0
 10
115.166823
 20
175.729032
 30
0.0
 10
115.166823
 20
174.110959
 30
0.0
  0
SPLINE
  5
351
100
AcDbEntity
  8
Layer_1
 62
7
100
AcDbSpline
 70
8
 71
3
 72
8
 73
4
 74
0
 40
0
 40
0
 40
0
 40
0
 40
1
 40
1
 40
1
 40
1
 10
115.166823
 20
174.110959
 30
0.0
 10
115.166823
 20
172.492886
 30
0.0
 10
115.198181
 20
172.417626
 30
0.0
 10
115.872379
 20
172.417626
 30
0.0
  0
SPLINE
  5
352
100
AcDbEntity
  8
Layer_1
 62
7
100
AcDbSpline
 70
8
 71
3
 72
8
 73
4
 74
0
 40
0
 40
0
 40
0
 40
0
 40
1
 40
1
 40
1
 40
1
 10
115.872379
 20
172.417626
 30
0.0
 10
116.546576
 20
172.417626
 30
0.0
 10
116.577934
 20
172.492886
 30
0.0
 10
116.577934
 20
174.110959
 30
0.0
  0
LINE
  5
353
100
AcDbEntity
  8
Layer_1
 62
7
100
AcDbLine
 10
116.577934
 20
174.110959
 30
0.0
 11
116.577934
 21
174.110959
 31
0.0
  0
SPLINE
  5
354
100
AcDbEntity
  8
Layer_1
 62
7
100
AcDbSpline
 70
8
 71
3
 72
8
 73
4
 74
0
 40
0
 40
0
 40
0
 40
0
 40
1
 40
1
 40
1
 40
1
 10
119.117934
 20
174.110959
 30
0.0
 10
119.117934
 20
175.729032
 30
0.0
 10
119.086576
 20
175.804292
 30
0.0
 10
118.412379
 20
175.804292
 30
0.0
  0
SPLINE
  5
355
100
AcDbEntity
  8
Layer_1
 62
7
100
AcDbSpline
 70
8
 71
3
 72
8
 73
4
 74
0
 40
0
 40
0
 40
0
 40
0
 40
1
 40
1
 40
1
 40
1
 10
118.412379
 20
175.804292
 30
0.0
 10
117.738181
 20
175.804292
 30
0.0
 10
117.706823
 20
175.729032
 30
0.0
 10
117.706823
 20
174.110959
 30
0.0
  0
SPLINE
  5
356
100
AcDbEntity
  8
Layer_1
 62
7
100
AcDbSpline
 70
8
 71
3
 72
8
 73
4
 74
0
 40
0
 40
0
 40
0
 40
0
 40
1
 40
1
 40
1
 40
1
 10
117.706823
 20
174.110959
 30
0.0
 10
117.706823
 20
172.492886
 30
0.0
 10
117.738181
 20
172.417626
 30
0.0
 10
118.412379
 20
172.417626
 30
0.0
  0
SPLINE
  5
357
100
AcDbEntity
  8
Layer_1
 62
7
100
AcDbSpline
 70
8
 71
3
 72
8
 73
4
 74
0
 40
0
 40
0
 40
0
 40
0
 40
1
 40
1
 40
1
 40
1
 10
118.412379
 20
172.417626
 30
0.0
 10
119.086576
 20
172.417626
 30
0.0
 10
119.117934
 20
172.492886
 30
0.0
 10
119.117934
 20
174.110959
 30
0.0
  0
LINE
  5
358
100
AcDbEntity
  8
Layer_1
 62
7
100
AcDbLine
 10
119.117934
 20
174.110959
 30
0.0
 11
119.117934
 21
174.110959
 31
0.0
  0
SPLINE
  5
359
100
AcDbEntity
  8
Layer_1
 62
7
100
AcDbSpline
 70
8
 71
3
 72
8
 73
4
 74
0
 40
0
 40
0
 40
0
 40
0
 40
1
 40
1
 40
1
 40
1
 10
121.657934
 20
174.110959
 30
0.0
 10
121.657934
 20
175.729032
 30
0.0
 10
121.626576
 20
175.804292
 30
0.0
 10
120.952379
 20
175.804292
 30
0.0
  0
SPLINE
  5
35a
100
AcDbEntity
  8
Layer_1
 62
7
100
AcDbSpline
 70
8
 71
3
 72
8
 73
4
 74
0
 40
0
 40
0
 40
0
 40
0
 40
1
 40
1
 40
1
 40
1
 10
120.952379
 20
175.804292
 30
0.0
 10
120.278181
 20
175.804292
 30
0.0
 10
120.246823
 20
175.729032
 30
0.0
 10
120.246823
 20
174.110959
 30
0.0
  0
SPLINE
  5
35b
100
AcDbEntity
  8
Layer_1
 62
7
100
AcDbSpline
 70
8
 71
3
 72
8
 73
4
 74
0
 40
0
 40
0
 40
0
 40
0
 40
1
 40
1
 40
1
 40
1
 10
120.246823
 20
174.110959
 30
0.0
 10
120.246823
 20
172.492886
 30
0.0
 10
120.278181
 20
172.417626
 30
0.0
 10
120.952379
 20
172.417626
 30
0.0
  0
SPLINE
  5
35c
100
AcDbEntity
  8
Layer_1
 62
7
100
AcDbSpline
 70
8
 71
3
 72
8
 73
4
 74
0
 40
0
 40
0
 40
0
 40
0
 40
1
 40
1
 40
1
 40
1
 10
120.952379
 20
172.417626
 30
0.0
 10
121.626576
 20
172.417626
 30
0.0
 10
121.657934
 20
172.492886
 30
0.0
 10
121.657934
 20
174.110959
 30
0.0
  0
LINE
  5
35d
100
AcDbEntity
  8
Layer_1
 62
7
100
AcDbLine
 10
121.657934
 20
174.110959
 30
0.0
 11
121.657934
 21
174.110959
 31
0.0
  0
SPLINE
  5
35e
100
AcDbEntity
  8
Layer_1
 62
7
100
AcDbSpline
 70
8
 71
3
 72
8
 73
4
 74
0
 40
0
 40
0
 40
0
 40
0
 40
1
 40
1
 40
1
 40
1
 10
136.897934
 20
174.110959
 30
0.0
 10
136.897934
 20
175.729032
 30
0.0
 10
136.866576
 20
175.804292
 30
0.0
 10
136.192379
 20
175.804292
 30
0.0
  0
SPLINE
  5
35f
100
AcDbEntity
  8
Layer_1
 62
7
100
AcDbSpline
 70
8
 71
3
 72
8
 73
4
 74
0
 40
0
 40
0
 40
0
 40
0
 40
1
 40
1
 40
1
 40
1
 10
136.192379
 20
175.804292
 30
0.0
 10
135.518181
 20
175.804292
 30
0.0
 10
135.486823
 20
175.729032
 30
0.0
 10
135.486823
 20
174.110959
 30
0.0
  0
SPLINE
  5
360
100
AcDbEntity
  8
Layer_1
 62
7
100
AcDbSpline
 70
8
 71
3
 72
8
 73
4
 74
0
 40
0
 40
0
 40
0
 40
0
 40
1
 40
1
 40
1
 40
1
 10
135.486823
 20
174.110959
 30
0.0
 10
135.486823
 20
172.492886
 30
0.0
 10
135.518181
 20
172.417626
 30
0.0
 10
136.192379
 20
172.417626
 30
0.0
  0
SPLINE
  5
361
100
AcDbEntity
  8
Layer_1
 62
7
100
AcDbSpline
 70
8
 71
3
 72
8
 73
4
 74
0
 40
0
 40
0
 40
0
 40
0
 40
1
 40
1
 40
1
 40
1
 10
136.192379
 20
172.417626
 30
0.0
 10
136.866576
 20
172.417626
 30
0.0
 10
136.897934
 20
172.492886
 30
0.0
 10
136.897934
 20
174.110959
 30
0.0
  0
LINE
  5
362
100
AcDbEntity
  8
Layer_1
 62
7
100
AcDbLine
 10
136.897934
 20
174.110959
 30
0.0
 11
136.897934
 21
174.110959
 31
0.0
  0
SPLINE
  5
363
100
AcDbEntity
  8
Layer_1
 62
7
100
AcDbSpline
 70
8
 71
3
 72
8
 73
4
 74
0
 40
0
 40
0
 40
0
 40
0
 40
1
 40
1
 40
1
 40
1
 10
139.437934
 20
174.110959
 30
0.0
 10
139.437934
 20
175.729032
 30
0.0
 10
139.406576
 20
175.804292
 30
0.0
 10
138.732379
 20
175.804292
 30
0.0
  0
SPLINE
  5
364
100
AcDbEntity
  8
Layer_1
 62
7
100
AcDbSpline
 70
8
 71
3
 72
8
 73
4
 74
0
 40
0
 40
0
 40
0
 40
0
 40
1
 40
1
 40
1
 40
1
 10
138.732379
 20
175.804292
 30
0.0
 10
138.058181
 20
175.804292
 30
0.0
 10
138.026823
 20
175.729032
 30
0.0
 10
138.026823
 20
174.110959
 30
0.0
  0
SPLINE
  5
365
100
AcDbEntity
  8
Layer_1
 62
7
100
AcDbSpline
 70
8
 71
3
 72
8
 73
4
 74
0
 40
0
 40
0
 40
0
 40
0
 40
1
 40
1
 40
1
 40
1
 10
138.026823
 20
174.110959
 30
0.0
 10
138.026823
 20
172.492886
 30
0.0
 10
138.058181
 20
172.417626
 30
0.0
 10
138.732379
 20
172.417626
 30
0.0
  0
SPLINE
  5
366
100
AcDbEntity
  8
Layer_1
 62
7
100
AcDbSpline
 70
8
 71
3
 72
8
 73
4
 74
0
 40
0
 40
0
 40
0
 40
0
 40
1
 40
1
 40
1
 40
1
 10
138.732379
 20
172.417626
 30
0.0
 10
139.406576
 20
172.417626
 30
0.0
 10
139.437934
 20
172.492886
 30
0.0
 10
139.437934
 20
174.110959
 30
0.0
  0
LINE
  5
367
100
AcDbEntity
  8
Layer_1
 62
7
100
AcDbLine
 10
139.437934
 20
174.110959
 30
0.0
 11
139.437934
 21
174.110959
 31
0.0
  0
SPLINE
  5
368
100
AcDbEntity
  8
Layer_1
 62
7
100
AcDbSpline
 70
8
 71
3
 72
8
 73
4
 74
0
 40
0
 40
0
 40
0
 40
0
 40
1
 40
1
 40
1
 40
1
 10
141.977934
 20
174.110959
 30
0.0
 10
141.977934
 20
175.729032
 30
0.0
 10
141.946576
 20
175.804292
 30
0.0
 10
141.272379
 20
175.804292
 30
0.0
  0
SPLINE
  5
369
100
AcDbEntity
  8
Layer_1
 62
7
100
AcDbSpline
 70
8
 71
3
 72
8
 73
4
 74
0
 40
0
 40
0
 40
0
 40
0
 40
1
 40
1
 40
1
 40
1
 10
141.272379
 20
175.804292
 30
0.0
 10
140.598181
 20
175.804292
 30
0.0
 10
140.566823
 20
175.729032
 30
0.0
 10
140.566823
 20
174.110959
 30
0.0
  0
SPLINE
  5
36a
100
AcDbEntity
  8
Layer_1
 62
7
100
AcDbSpline
 70
8
 71
3
 72
8
 73
4
 74
0
 40
0
 40
0
 40
0
 40
0
 40
1
 40
1
 40
1
 40
1
 10
140.566823
 20
174.110959
 30
0.0
 10
140.566823
 20
172.492886
 30
0.0
 10
140.598181
 20
172.417626
 30
0.0
 10
141.272379
 20
172.417626
 30
0.0
  0
SPLINE
  5
36b
100
AcDbEntity
  8
Layer_1
 62
7
100
AcDbSpline
 70
8
 71
3
 72
8
 73
4
 74
0
 40
0
 40
0
 40
0
 40
0
 40
1
 40
1
 40
1
 40
1
 10
141.272379
 20
172.417626
 30
0.0
 10
141.946576
 20
172.417626
 30
0.0
 10
141.977934
 20
172.492886
 30
0.0
 10
141.977934
 20
174.110959
 30
0.0
  0
LINE
  5
36c
100
AcDbEntity
  8
Layer_1
 62
7
100
AcDbLine
 10
141.977934
 20
174.110959
 30
0.0
 11
141.977934
 21
174.110959
 31
0.0
  0
SPLINE
  5
36d
100
AcDbEntity
  8
Layer_1
 62
7
100
AcDbSpline
 70
8
 71
3
 72
8
 73
4
 74
0
 40
0
 40
0
 40
0
 40
0
 40
1
 40
1
 40
1
 40
1
 10
144.517934
 20
174.110959
 30
0.0
 10
144.517934
 20
175.729032
 30
0.0
 10
144.486576
 20
175.804292
 30
0.0
 10
143.812379
 20
175.804292
 30
0.0
  0
SPLINE
  5
36e
100
AcDbEntity
  8
Layer_1
 62
7
100
AcDbSpline
 70
8
 71
3
 72
8
 73
4
 74
0
 40
0
 40
0
 40
0
 40
0
 40
1
 40
1
 40
1
 40
1
 10
143.812379
 20
175.804292
 30
0.0
 10
143.138181
 20
175.804292
 30
0.0
 10
143.106823
 20
175.729032
 30
0.0
 10
143.106823
 20
174.110959
 30
0.0
  0
SPLINE
  5
36f
100
AcDbEntity
  8
Layer_1
 62
7
100
AcDbSpline
 70
8
 71
3
 72
8
 73
4
 74
0
 40
0
 40
0
 40
0
 40
0
 40
1
 40
1
 40
1
 40
1
 10
143.106823
 20
174.110959
 30
0.0
 10
143.106823
 20
172.492886
 30
0.0
 10
143.138181
 20
172.417626
 30
0.0
 10
143.812379
 20
172.417626
 30
0.0
  0
SPLINE
  5
370
100
AcDbEntity
  8
Layer_1
 62
7
100
AcDbSpline
 70
8
 71
3
 72
8
 73
4
 74
0
 40
0
 40
0
 40
0
 40
0
 40
1
 40
1
 40
1
 40
1
 10
143.812379
 20
172.417626
 30
0.0
 10
144.486576
 20
172.417626
 30
0.0
 10
144.517934
 20
172.492886
 30
0.0
 10
144.517934
 20
174.110959
 30
0.0
  0
LINE
  5
371
100
AcDbEntity
  8
Layer_1
 62
7
100
AcDbLine
 10
144.517934
 20
174.110959
 30
0.0
 11
144.517934
 21
174.110959
 31
0.0
  0
SPLINE
  5
372
100
AcDbEntity
  8
Layer_1
 62
7
100
AcDbSpline
 70
8
 71
3
 72
8
 73
4
 74
0
 40
0
 40
0
 40
0
 40
0
 40
1
 40
1
 40
1
 40
1
 10
149.597934
 20
174.110959
 30
0.0
 10
149.597934
 20
175.729032
 30
0.0
 10
149.566576
 20
175.804292
 30
0.0
 10
148.892379
 20
175.804292
 30
0.0
  0
SPLINE
  5
373
100
AcDbEntity
  8
Layer_1
 62
7
100
AcDbSpline
 70
8
 71
3
 72
8
 73
4
 74
0
 40
0
 40
0
 40
0
 40
0
 40
1
 40
1
 40
1
 40
1
 10
148.892379
 20
175.804292
 30
0.0
 10
148.218181
 20
175.804292
 30
0.0
 10
148.186823
 20
175.729032
 30
0.0
 10
148.186823
 20
174.110959
 30
0.0
  0
SPLINE
  5
374
100
AcDbEntity
  8
Layer_1
 62
7
100
AcDbSpline
 70
8
 71
3
 72
8
 73
4
 74
0
 40
0
 40
0
 40
0
 40
0
 40
1
 40
1
 40
1
 40
1
 10
148.186823
 20
174.110959
 30
0.0
 10
148.186823
 20
172.492886
 30
0.0
 10
148.218181
 20
172.417626
 30
0.0
 10
148.892379
 20
172.417626
 30
0.0
  0
SPLINE
  5
375
100
AcDbEntity
  8
Layer_1
 62
7
100
AcDbSpline
 70
8
 71
3
 72
8
 73
4
 74
0
 40
0
 40
0
 40
0
 40
0
 40
1
 40
1
 40
1
 40
1
 10
148.892379
 20
172.417626
 30
0.0
 10
149.566576
 20
172.417626
 30
0.0
 10
149.597934
 20
172.492886
 30
0.0
 10
149.597934
 20
174.110959
 30
0.0
  0
LINE
  5
376
100
AcDbEntity
  8
Layer_1
 62
7
100
AcDbLine
 10
149.597934
 20
174.110959
 30
0.0
 11
149.597934
 21
174.110959
 31
0.0
  0
SPLINE
  5
377
100
AcDbEntity
  8
Layer_1
 62
7
100
AcDbSpline
 70
8
 71
3
 72
8
 73
4
 74
0
 40
0
 40
0
 40
0
 40
0
 40
1
 40
1
 40
1
 40
1
 10
152.137934
 20
174.110959
 30
0.0
 10
152.137934
 20
175.729032
 30
0.0
 10
152.106576
 20
175.804292
 30
0.0
 10
151.432379
 20
175.804292
 30
0.0
  0
SPLINE
  5
378
100
AcDbEntity
  8
Layer_1
 62
7
100
AcDbSpline
 70
8
 71
3
 72
8
 73
4
 74
0
 40
0
 40
0
 40
0
 40
0
 40
1
 40
1
 40
1
 40
1
 10
151.432379
 20
175.804292
 30
0.0
 10
150.758181
 20
175.804292
 30
0.0
 10
150.726823
 20
175.729032
 30
0.0
 10
150.726823
 20
174.110959
 30
0.0
  0
SPLINE
  5
379
100
AcDbEntity
  8
Layer_1
 62
7
100
AcDbSpline
 70
8
 71
3
 72
8
 73
4
 74
0
 40
0
 40
0
 40
0
 40
0
 40
1
 40
1
 40
1
 40
1
 10
150.726823
 20
174.110959
 30
0.0
 10
150.726823
 20
172.492886
 30
0.0
 10
150.758181
 20
172.417626
 30
0.0
 10
151.432379
 20
172.417626
 30
0.0
  0
SPLINE
  5
37a
100
AcDbEntity
  8
Layer_1
 62
7
100
AcDbSpline
 70
8
 71
3
 72
8
 73
4
 74
0
 40
0
 40
0
 40
0
 40
0
 40
1
 40
1
 40
1
 40
1
 10
151.432379
 20
172.417626
 30
0.0
 10
152.106576
 20
172.417626
 30
0.0
 10
152.137934
 20
172.492886
 30
0.0
 10
152.137934
 20
174.110959
 30
0.0
  0
LINE
  5
37b
100
AcDbEntity
  8
Layer_1
 62
7
100
AcDbLine
 10
152.137934
 20
174.110959
 30
0.0
 11
152.137934
 21
174.110959
 31
0.0
  0
SPLINE
  5
37c
100
AcDbEntity
  8
Layer_1
 62
7
100
AcDbSpline
 70
8
 71
3
 72
8
 73
4
 74
0
 40
0
 40
0
 40
0
 40
0
 40
1
 40
1
 40
1
 40
1
 10
157.217934
 20
174.110959
 30
0.0
 10
157.217934
 20
175.729032
 30
0.0
 10
157.186576
 20
175.804292
 30
0.0
 10
156.512379
 20
175.804292
 30
0.0
  0
SPLINE
  5
37d
100
AcDbEntity
  8
Layer_1
 62
7
100
AcDbSpline
 70
8
 71
3
 72
8
 73
4
 74
0
 40
0
 40
0
 40
0
 40
0
 40
1
 40
1
 40
1
 40
1
 10
156.512379
 20
175.804292
 30
0.0
 10
155.838181
 20
175.804292
 30
0.0
 10
155.806823
 20
175.729032
 30
0.0
 10
155.806823
 20
174.110959
 30
0.0
  0
SPLINE
  5
37e
100
AcDbEntity
  8
Layer_1
 62
7
100
AcDbSpline
 70
8
 71
3
 72
8
 73
4
 74
0
 40
0
 40
0
 40
0
 40
0
 40
1
 40
1
 40
1
 40
1
 10
155.806823
 20
174.110959
 30
0.0
 10
155.806823
 20
172.492886
 30
0.0
 10
155.838181
 20
172.417626
 30
0.0
 10
156.512379
 20
172.417626
 30
0.0
  0
SPLINE
  5
37f
100
AcDbEntity
  8
Layer_1
 62
7
100
AcDbSpline
 70
8
 71
3
 72
8
 73
4
 74
0
 40
0
 40
0
 40
0
 40
0
 40
1
 40
1
 40
1
 40
1
 10
156.512379
 20
172.417626
 30
0.0
 10
157.186576
 20
172.417626
 30
0.0
 10
157.217934
 20
172.492886
 30
0.0
 10
157.217934
 20
174.110959
 30
0.0
  0
LINE
  5
380
100
AcDbEntity
  8
Layer_1
 62
7
100
AcDbLine
 10
157.217934
 20
174.110959
 30
0.0
 11
157.217934
 21
174.110959
 31
0.0
  0
SPLINE
  5
381
100
AcDbEntity
  8
Layer_1
 62
7
100
AcDbSpline
 70
8
 71
3
 72
8
 73
4
 74
0
 40
0
 40
0
 40
0
 40
0
 40
1
 40
1
 40
1
 40
1
 10
174.997934
 20
174.110959
 30
0.0
 10
174.997934
 20
175.729032
 30
0.0
 10
174.966576
 20
175.804292
 30
0.0
 10
174.292379
 20
175.804292
 30
0.0
  0
SPLINE
  5
382
100
AcDbEntity
  8
Layer_1
 62
7
100
AcDbSpline
 70
8
 71
3
 72
8
 73
4
 74
0
 40
0
 40
0
 40
0
 40
0
 40
1
 40
1
 40
1
 40
1
 10
174.292379
 20
175.804292
 30
0.0
 10
173.618181
 20
175.804292
 30
0.0
 10
173.586823
 20
175.729032
 30
0.0
 10
173.586823
 20
174.110959
 30
0.0
  0
SPLINE
  5
383
100
AcDbEntity
  8
Layer_1
 62
7
100
AcDbSpline
 70
8
 71
3
 72
8
 73
4
 74
0
 40
0
 40
0
 40
0
 40
0
 40
1
 40
1
 40
1
 40
1
 10
173.586823
 20
174.110959
 30
0.0
 10
173.586823
 20
172.492886
 30
0.0
 10
173.618181
 20
172.417626
 30
0.0
 10
174.292379
 20
172.417626
 30
0.0
  0
SPLINE
  5
384
100
AcDbEntity
  8
Layer_1
 62
7
100
AcDbSpline
 70
8
 71
3
 72
8
 73
4
 74
0
 40
0
 40
0
 40
0
 40
0
 40
1
 40
1
 40
1
 40
1
 10
174.292379
 20
172.417626
 30
0.0
 10
174.966576
 20
172.417626
 30
0.0
 10
174.997934
 20
172.492886
 30
0.0
 10
174.997934
 20
174.110959
 30
0.0
  0
LINE
  5
385
100
AcDbEntity
  8
Layer_1
 62
7
100
AcDbLine
 10
174.997934
 20
174.110959
 30
0.0
 11
174.997934
 21
174.110959
 31
0.0
  0
SPLINE
  5
386
100
AcDbEntity
  8
Layer_1
 62
7
100
AcDbSpline
 70
8
 71
3
 72
8
 73
4
 74
0
 40
0
 40
0
 40
0
 40
0
 40
1
 40
1
 40
1
 40
1
 10
180.077934
 20
174.110959
 30
0.0
 10
180.077934
 20
175.729032
 30
0.0
 10
180.046576
 20
175.804292
 30
0.0
 10
179.372379
 20
175.804292
 30
0.0
  0
SPLINE
  5
387
100
AcDbEntity
  8
Layer_1
 62
7
100
AcDbSpline
 70
8
 71
3
 72
8
 73
4
 74
0
 40
0
 40
0
 40
0
 40
0
 40
1
 40
1
 40
1
 40
1
 10
179.372379
 20
175.804292
 30
0.0
 10
178.698181
 20
175.804292
 30
0.0
 10
178.666823
 20
175.729032
 30
0.0
 10
178.666823
 20
174.110959
 30
0.0
  0
SPLINE
  5
388
100
AcDbEntity
  8
Layer_1
 62
7
100
AcDbSpline
 70
8
 71
3
 72
8
 73
4
 74
0
 40
0
 40
0
 40
0
 40
0
 40
1
 40
1
 40
1
 40
1
 10
178.666823
 20
174.110959
 30
0.0
 10
178.666823
 20
172.492886
 30
0.0
 10
178.698181
 20
172.417626
 30
0.0
 10
179.372379
 20
172.417626
 30
0.0
  0
SPLINE
  5
389
100
AcDbEntity
  8
Layer_1
 62
7
100
AcDbSpline
 70
8
 71
3
 72
8
 73
4
 74
0
 40
0
 40
0
 40
0
 40
0
 40
1
 40
1
 40
1
 40
1
 10
179.372379
 20
172.417626
 30
0.0
 10
180.046576
 20
172.417626
 30
0.0
 10
180.077934
 20
172.492886
 30
0.0
 10
180.077934
 20
174.110959
 30
0.0
  0
LINE
  5
38a
100
AcDbEntity
  8
Layer_1
 62
7
100
AcDbLine
 10
180.077934
 20
174.110959
 30
0.0
 11
180.077934
 21
174.110959
 31
0.0
  0
SPLINE
  5
38b
100
AcDbEntity
  8
Layer_1
 62
7
100
AcDbSpline
 70
8
 71
3
 72
8
 73
4
 74
0
 40
0
 40
0
 40
0
 40
0
 40
1
 40
1
 40
1
 40
1
 10
192.777934
 20
174.110959
 30
0.0
 10
192.777934
 20
175.729032
 30
0.0
 10
192.746576
 20
175.804292
 30
0.0
 10
192.072379
 20
175.804292
 30
0.0
  0
SPLINE
  5
38c
100
AcDbEntity
  8
Layer_1
 62
7
100
AcDbSpline
 70
8
 71
3
 72
8
 73
4
 74
0
 40
0
 40
0
 40
0
 40
0
 40
1
 40
1
 40
1
 40
1
 10
192.072379
 20
175.804292
 30
0.0
 10
191.398181
 20
175.804292
 30
0.0
 10
191.366823
 20
175.729032
 30
0.0
 10
191.366823
 20
174.110959
 30
0.0
  0
SPLINE
  5
38d
100
AcDbEntity
  8
Layer_1
 62
7
100
AcDbSpline
 70
8
 71
3
 72
8
 73
4
 74
0
 40
0
 40
0
 40
0
 40
0
 40
1
 40
1
 40
1
 40
1
 10
191.366823
 20
174.110959
 30
0.0
 10
191.366823
 20
172.492886
 30
0.0
 10
191.398181
 20
172.417626
 30
0.0
 10
192.072379
 20
172.417626
 30
0.0
  0
SPLINE
  5
38e
100
AcDbEntity
  8
Layer_1
 62
7
100
AcDbSpline
 70
8
 71
3
 72
8
 73
4
 74
0
 40
0
 40
0
 40
0
 40
0
 40
1
 40
1
 40
1
 40
1
 10
192.072379
 20
172.417626
 30
0.0
 10
192.746576
 20
172.417626
 30
0.0
 10
192.777934
 20
172.492886
 30
0.0
 10
192.777934
 20
174.110959
 30
0.0
  0
LINE
  5
38f
100
AcDbEntity
  8
Layer_1
 62
7
100
AcDbLine
 10
192.777934
 20
174.110959
 30
0.0
 11
192.777934
 21
174.110959
 31
0.0
  0
SPLINE
  5
390
100
AcDbEntity
  8
Layer_1
 62
7
100
AcDbSpline
 70
8
 71
3
 72
8
 73
4
 74
0
 40
0
 40
0
 40
0
 40
0
 40
1
 40
1
 40
1
 40
1
 10
195.317934
 20
174.110959
 30
0.0
 10
195.317934
 20
175.729032
 30
0.0
 10
195.286576
 20
175.804292
 30
0.0
 10
194.612379
 20
175.804292
 30
0.0
  0
SPLINE
  5
391
100
AcDbEntity
  8
Layer_1
 62
7
100
AcDbSpline
 70
8
 71
3
 72
8
 73
4
 74
0
 40
0
 40
0
 40
0
 40
0
 40
1
 40
1
 40
1
 40
1
 10
194.612379
 20
175.804292
 30
0.0
 10
193.938181
 20
175.804292
 30
0.0
 10
193.906823
 20
175.729032
 30
0.0
 10
193.906823
 20
174.110959
 30
0.0
  0
SPLINE
  5
392
100
AcDbEntity
  8
Layer_1
 62
7
100
AcDbSpline
 70
8
 71
3
 72
8
 73
4
 74
0
 40
0
 40
0
 40
0
 40
0
 40
1
 40
1
 40
1
 40
1
 10
193.906823
 20
174.110959
 30
0.0
 10
193.906823
 20
172.492886
 30
0.0
 10
193.938181
 20
172.417626
 30
0.0
 10
194.612379
 20
172.417626
 30
0.0
  0
SPLINE
  5
393
100
AcDbEntity
  8
Layer_1
 62
7
100
AcDbSpline
 70
8
 71
3
 72
8
 73
4
 74
0
 40
0
 40
0
 40
0
 40
0
 40
1
 40
1
 40
1
 40
1
 10
194.612379
 20
172.417626
 30
0.0
 10
195.286576
 20
172.417626
 30
0.0
 10
195.317934
 20
172.492886
 30
0.0
 10
195.317934
 20
174.110959
 30
0.0
  0
LINE
  5
394
100
AcDbEntity
  8
Layer_1
 62
7
100
AcDbLine
 10
195.317934
 20
174.110959
 30
0.0
 11
195.317934
 21
174.110959
 31
0.0
  0
SPLINE
  5
395
100
AcDbEntity
  8
Layer_1
 62
7
100
AcDbSpline
 70
8
 71
3
 72
8
 73
4
 74
0
 40
0
 40
0
 40
0
 40
0
 40
1
 40
1
 40
1
 40
1
 10
200.397934
 20
174.110959
 30
0.0
 10
200.397934
 20
175.729032
 30
0.0
 10
200.366576
 20
175.804292
 30
0.0
 10
199.692379
 20
175.804292
 30
0.0
  0
SPLINE
  5
396
100
AcDbEntity
  8
Layer_1
 62
7
100
AcDbSpline
 70
8
 71
3
 72
8
 73
4
 74
0
 40
0
 40
0
 40
0
 40
0
 40
1
 40
1
 40
1
 40
1
 10
199.692379
 20
175.804292
 30
0.0
 10
199.018181
 20
175.804292
 30
0.0
 10
198.986823
 20
175.729032
 30
0.0
 10
198.986823
 20
174.110959
 30
0.0
  0
SPLINE
  5
397
100
AcDbEntity
  8
Layer_1
 62
7
100
AcDbSpline
 70
8
 71
3
 72
8
 73
4
 74
0
 40
0
 40
0
 40
0
 40
0
 40
1
 40
1
 40
1
 40
1
 10
198.986823
 20
174.110959
 30
0.0
 10
198.986823
 20
172.492886
 30
0.0
 10
199.018181
 20
172.417626
 30
0.0
 10
199.692379
 20
172.417626
 30
0.0
  0
SPLINE
  5
398
100
AcDbEntity
  8
Layer_1
 62
7
100
AcDbSpline
 70
8
 71
3
 72
8
 73
4
 74
0
 40
0
 40
0
 40
0
 40
0
 40
1
 40
1
 40
1
 40
1
 10
199.692379
 20
172.417626
 30
0.0
 10
200.366576
 20
172.417626
 30
0.0
 10
200.397934
 20
172.492886
 30
0.0
 10
200.397934
 20
174.110959
 30
0.0
  0
LINE
  5
399
100
AcDbEntity
  8
Layer_1
 62
7
100
AcDbLine
 10
200.397934
 20
174.110959
 30
0.0
 11
200.397934
 21
174.110959
 31
0.0
  0
ENDSEC
  0
SECTION
  2
OBJECTS
  0
DICTIONARY
  5
C
330
0
100
AcDbDictionary
  3
ACAD_GROUP
350
D
  3
ACAD_MLINESTYLE
350
17
  0
DICTIONARY
  5
D
330
C
100
AcDbDictionary
  0
DICTIONARY
  5
1A
330
C
100
AcDbDictionary
  0
DICTIONARY
  5
17
330
C
100
AcDbDictionary
  3
STANDARD
350
18
  0
DICTIONARY
  5
19
330
C
100
AcDbDictionary
  0
ENDSEC
  0
EOF
