999
dxflib 3.12.2.0
  0
SECTION
  2
HEADER
  9
$ACADVER
  1
AC1015
  9
$HANDSEED
  5
FFFF
  9
$DIMADEC
 70
0
  9
$DIMASZ
 40
0.18
  9
$DIMAUNIT
 70
0
  9
$DIMAZIN
 70
0
  9
$DIMDEC
 70
4
  9
$DIMEXE
 40
0.18
  9
$DIMEXO
 40
0.0625
  9
$DIMGAP
 40
0.09
  9
$DIMLUNIT
 70
2
  9
$DIMSCALE
 40
1.0
  9
$DIMTSZ
 40
0.0
  9
$DIMTXT
 40
0.18
  9
$DIMZIN
 70
0
  9
$DWGCODEPAGE
  3
ANSI_1252
  9
$INSUNITS
 70
0
  9
$LTSCALE
 40
1.0
  9
$MEASUREMENT
 70
1
  9
$PDMODE
 70
0
  9
$PDSIZE
 40
0
  0
ENDSEC
  0
SECTION
  2
TABLES
  0
TABLE
  2
VPORT
  5
8
100
AcDbSymbolTable
 70
1
  0
VPORT
  5
30
100
AcDbSymbolTableRecord
100
AcDbViewportTableRecord
  2
*Active
 70
0
 10
0.0
 20
0.0
 11
1.0
 21
1.0
 12
286.3055555555554861
 22
148.5
 13
0.0
 23
0.0
 14
10.0
 24
10.0
 15
10.0
 25
10.0
 16
0.0
 26
0.0
 36
1.0
 17
0.0
 27
0.0
 37
0.0
 40
297.0
 41
1.92798353909465
 42
50.0
 43
0.0
 44
0.0
 50
0.0
 51
0.0
 71
0
 72
100
 73
1
 74
3
 75
1
 76
1
 77
0
 78
0
281
0
 65
1
110
0.0
120
0.0
130
0.0
111
1.0
121
0.0
131
0.0
112
0.0
122
1.0
132
0.0
 79
0
146
0.0
  0
ENDTAB
  0
TABLE
  2
LTYPE
  5
5
100
AcDbSymbolTable
 70
41
  0
LTYPE
  5
16
100
AcDbSymbolTableRecord
100
AcDbLinetypeTableRecord
  2
Continuous
 70
0
  3
Solid line
 72
65
 73
0
 40
0.0
  0
LTYPE
  5
31
100
AcDbSymbolTableRecord
100
AcDbLinetypeTableRecord
  2
ACAD_ISO15W100
 70
0
  3
ISO double-dash triple-dot __ __ . . . __ __ . .
 72
65
 73
10
 40
39.0000000000000071
 49
12.0
 74
0
 49
-3.0
 74
0
 49
12.0
 74
0
 49
-2.9500000000000002
 74
0
 49
0.1
 74
0
 49
-2.9000000000000004
 74
0
 49
0.1
 74
0
 49
-2.9000000000000004
 74
0
 49
0.1
 74
0
 49
-2.9500000000000002
 74
0
  0
LTYPE
  5
32
100
AcDbSymbolTableRecord
100
AcDbLinetypeTableRecord
  2
DIVIDE
 70
0
  3
Divide ____ . . ____ . . ____ . . ____ . . ____
 72
65
 73
6
 40
31.7500000000000036
 49
12.6999999999999993
 74
0
 49
-6.2999999999999998
 74
0
 49
0.1
 74
0
 49
-6.25
 74
0
 49
0.1
 74
0
 49
-6.2999999999999998
 74
0
  0
LTYPE
  5
33
100
AcDbSymbolTableRecord
100
AcDbLinetypeTableRecord
  2
ACAD_ISO10W100
 70
0
  3
ISO dash dot __ . __ . __ . __ . __ . __ . __ . 
 72
65
 73
4
 40
18.0
 49
12.0
 74
0
 49
-2.9500000000000002
 74
0
 49
0.1
 74
0
 49
-2.9500000000000002
 74
0
  0
LTYPE
  5
34
100
AcDbSymbolTableRecord
100
AcDbLinetypeTableRecord
  2
ACAD_ISO04W100
 70
0
  3
ISO long-dash dot ____ . ____ . ____ . ____ . _
 72
65
 73
4
 40
30.0
 49
24.0
 74
0
 49
-2.9500000000000002
 74
0
 49
0.1
 74
0
 49
-2.9500000000000002
 74
0
  0
LTYPE
  5
35
100
AcDbSymbolTableRecord
100
AcDbLinetypeTableRecord
  2
CENTER2
 70
0
  3
Center (.5x) ___ _ ___ _ ___ _ ___ _ ___ _ ___
 72
65
 73
4
 40
28.5750000000000028
 49
19.0500000000000007
 74
0
 49
-3.1749999999999998
 74
0
 49
3.1749999999999998
 74
0
 49
-3.1749999999999998
 74
0
  0
LTYPE
  5
36
100
AcDbSymbolTableRecord
100
AcDbLinetypeTableRecord
  2
ACAD_ISO11W100
 70
0
  3
ISO double-dash dot __ __ . __ __ . __ __ . __ _
 72
65
 73
6
 40
33.0
 49
12.0
 74
0
 49
-3.0
 74
0
 49
12.0
 74
0
 49
-2.9500000000000002
 74
0
 49
0.1
 74
0
 49
-2.9500000000000002
 74
0
  0
LTYPE
  5
37
100
AcDbSymbolTableRecord
100
AcDbLinetypeTableRecord
  2
HIDDEN2
 70
0
  3
Hidden (.5x) _ _ _ _ _ _ _ _ _ _ _ _ _ _ _ _ _ 
 72
65
 73
2
 40
4.7624999999999993
 49
3.1749999999999998
 74
0
 49
-1.5874999999999999
 74
0
  0
LTYPE
  5
38
100
AcDbSymbolTableRecord
100
AcDbLinetypeTableRecord
  2
BORDERX2
 70
0
  3
Border (2x) ____  ____  .  ____  ____  .  ___
 72
65
 73
6
 40
88.8999999999999773
 49
25.3999999999999986
 74
0
 49
-12.6999999999999993
 74
0
 49
25.3999999999999986
 74
0
 49
-12.6499999999999986
 74
0
 49
0.1
 74
0
 49
-12.6499999999999986
 74
0
  0
LTYPE
  5
39
100
AcDbSymbolTableRecord
100
AcDbLinetypeTableRecord
  2
ACAD_ISO05W100
 70
0
  3
ISO long-dash double-dot ____ .. ____ .. ____ . 
 72
65
 73
6
 40
33.0000000000000071
 49
24.0
 74
0
 49
-2.9500000000000002
 74
0
 49
0.1
 74
0
 49
-2.9000000000000004
 74
0
 49
0.1
 74
0
 49
-2.9500000000000002
 74
0
  0
LTYPE
  5
3A
100
AcDbSymbolTableRecord
100
AcDbLinetypeTableRecord
  2
DASHDOTX2
 70
0
  3
Dash dot (2x) ____  .  ____  .  ____  .  ___
 72
65
 73
4
 40
50.7999999999999972
 49
25.3999999999999986
 74
0
 49
-12.6499999999999986
 74
0
 49
0.1
 74
0
 49
-12.6499999999999986
 74
0
  0
LTYPE
  5
3B
100
AcDbSymbolTableRecord
100
AcDbLinetypeTableRecord
  2
HIDDENX2
 70
0
  3
Hidden (2x) ____ ____ ____ ____ ____ ____ ____ 
 72
65
 73
2
 40
19.0499999999999972
 49
12.6999999999999993
 74
0
 49
-6.3499999999999996
 74
0
  0
LTYPE
  5
3C
100
AcDbSymbolTableRecord
100
AcDbLinetypeTableRecord
  2
CENTERX2
 70
0
  3
Center (2x) ________  __  ________  __  _____
 72
65
 73
4
 40
101.6000000000000085
 49
63.5
 74
0
 49
-12.6999999999999993
 74
0
 49
12.6999999999999993
 74
0
 49
-12.6999999999999993
 74
0
  0
LTYPE
  5
3D
100
AcDbSymbolTableRecord
100
AcDbLinetypeTableRecord
  2
BORDER2
 70
0
  3
Border (.5x) __.__.__.__.__.__.__.__.__.__.__.
 72
65
 73
6
 40
22.2250000000000014
 49
6.3499999999999996
 74
0
 49
-3.1749999999999998
 74
0
 49
6.3499999999999996
 74
0
 49
-3.125
 74
0
 49
0.1
 74
0
 49
-3.125
 74
0
  0
LTYPE
  5
3E
100
AcDbSymbolTableRecord
100
AcDbLinetypeTableRecord
  2
DASHDOT2
 70
0
  3
Dash dot (.5x) _._._._._._._._._._._._._._._.
 72
65
 73
4
 40
12.6999999999999993
 49
6.3499999999999996
 74
0
 49
-3.125
 74
0
 49
0.1
 74
0
 49
-3.125
 74
0
  0
LTYPE
  5
3F
100
AcDbSymbolTableRecord
100
AcDbLinetypeTableRecord
  2
ACAD_ISO12W100
 70
0
  3
ISO dash double-dot __ . . __ . . __ . . __ . . 
 72
65
 73
6
 40
21.0
 49
12.0
 74
0
 49
-2.9500000000000002
 74
0
 49
0.1
 74
0
 49
-2.9000000000000004
 74
0
 49
0.1
 74
0
 49
-2.9500000000000002
 74
0
  0
LTYPE
  5
40
100
AcDbSymbolTableRecord
100
AcDbLinetypeTableRecord
  2
ACAD_ISO07W100
 70
0
  3
ISO dot . . . . . . . . . . . . . . . . . . . . 
 72
65
 73
2
 40
3.0
 49
0.1
 74
0
 49
-2.8999999999999999
 74
0
  0
LTYPE
  5
41
100
AcDbSymbolTableRecord
100
AcDbLinetypeTableRecord
  2
HIDDEN
 70
0
  3
Hidden __ __ __ __ __ __ __ __ __ __ __ __ __ __
 72
65
 73
2
 40
9.5249999999999986
 49
6.3499999999999996
 74
0
 49
-3.1749999999999998
 74
0
  0
LTYPE
  5
42
100
AcDbSymbolTableRecord
100
AcDbLinetypeTableRecord
  2
ACAD_ISO06W100
 70
0
  3
ISO long-dash triple-dot ____ ... ____ ... ____
 72
65
 73
8
 40
36.0000000000000071
 49
24.0
 74
0
 49
-2.9500000000000002
 74
0
 49
0.1
 74
0
 49
-2.9000000000000004
 74
0
 49
0.1
 74
0
 49
-2.9000000000000004
 74
0
 49
0.1
 74
0
 49
-2.9500000000000002
 74
0
  0
LTYPE
  5
43
100
AcDbSymbolTableRecord
100
AcDbLinetypeTableRecord
  2
CENTER
 70
0
  3
Center ____ _ ____ _ ____ _ ____ _ ____ _ ____
 72
65
 73
4
 40
50.8000000000000043
 49
31.75
 74
0
 49
-6.3499999999999996
 74
0
 49
6.3499999999999996
 74
0
 49
-6.3499999999999996
 74
0
  0
LTYPE
  5
44
100
AcDbSymbolTableRecord
100
AcDbLinetypeTableRecord
  2
DOTX2
 70
0
  3
Dot (2x) .  .  .  .  .  .  .  .  .  .  .  .  .  .
 72
65
 73
2
 40
12.6999999999999993
 49
0.1
 74
0
 49
-12.5999999999999996
 74
0
  0
LTYPE
  5
45
100
AcDbSymbolTableRecord
100
AcDbLinetypeTableRecord
  2
PHANTOM
 70
0
  3
Phantom ______  __  __  ______  __  __  ______ 
 72
65
 73
6
 40
63.5000000000000071
 49
31.75
 74
0
 49
-6.3499999999999996
 74
0
 49
6.3499999999999996
 74
0
 49
-6.3499999999999996
 74
0
 49
6.3499999999999996
 74
0
 49
-6.3499999999999996
 74
0
  0
LTYPE
  5
46
100
AcDbSymbolTableRecord
100
AcDbLinetypeTableRecord
  2
ACAD_ISO08W100
 70
0
  3
ISO long-dash short-dash ____ __ ____ __ ____ _
 72
65
 73
4
 40
36.0
 49
24.0
 74
0
 49
-3.0
 74
0
 49
6.0
 74
0
 49
-3.0
 74
0
  0
LTYPE
  5
47
100
AcDbSymbolTableRecord
100
AcDbLinetypeTableRecord
  2
DASHEDX2
 70
0
  3
Dashed (2x) ____  ____  ____  ____  ____  ___
 72
65
 73
2
 40
38.0999999999999943
 49
25.3999999999999986
 74
0
 49
-12.6999999999999993
 74
0
  0
LTYPE
  5
48
100
AcDbSymbolTableRecord
100
AcDbLinetypeTableRecord
  2
ACAD_ISO02W100
 70
0
  3
ISO dash __ __ __ __ __ __ __ __ __ __ __ __ __
 72
65
 73
2
 40
15.0
 49
12.0
 74
0
 49
-3.0
 74
0
  0
LTYPE
  5
49
100
AcDbSymbolTableRecord
100
AcDbLinetypeTableRecord
  2
PHANTOM2
 70
0
  3
Phantom (.5x) ___ _ _ ___ _ _ ___ _ _ ___ _ _
 72
65
 73
6
 40
31.7500000000000036
 49
15.875
 74
0
 49
-3.1749999999999998
 74
0
 49
3.1749999999999998
 74
0
 49
-3.1749999999999998
 74
0
 49
3.1749999999999998
 74
0
 49
-3.1749999999999998
 74
0
  0
LTYPE
  5
4A
100
AcDbSymbolTableRecord
100
AcDbLinetypeTableRecord
  2
DASHED2
 70
0
  3
Dashed (.5x) _ _ _ _ _ _ _ _ _ _ _ _ _ _ _ _ _ 
 72
65
 73
2
 40
9.5249999999999986
 49
6.3499999999999996
 74
0
 49
-3.1749999999999998
 74
0
  0
LTYPE
  5
4B
100
AcDbSymbolTableRecord
100
AcDbLinetypeTableRecord
  2
ACAD_ISO09W100
 70
0
  3
ISO long-dash double-short-dash ____ __ __ ____
 72
65
 73
6
 40
45.0
 49
24.0
 74
0
 49
-3.0
 74
0
 49
6.0
 74
0
 49
-3.0
 74
0
 49
6.0
 74
0
 49
-3.0
 74
0
  0
LTYPE
  5
4C
100
AcDbSymbolTableRecord
100
AcDbLinetypeTableRecord
  2
ACAD_ISO13W100
 70
0
  3
ISO double-dash double-dot __ __ . . __ __ . . _
 72
65
 73
8
 40
36.0000000000000071
 49
12.0
 74
0
 49
-3.0
 74
0
 49
12.0
 74
0
 49
-2.9500000000000002
 74
0
 49
0.1
 74
0
 49
-2.9000000000000004
 74
0
 49
0.1
 74
0
 49
-2.9500000000000002
 74
0
  0
LTYPE
  5
4D
100
AcDbSymbolTableRecord
100
AcDbLinetypeTableRecord
  2
DOT2
 70
0
  3
Dot (.5x) ........................................
 72
65
 73
2
 40
3.1749999999999998
 49
0.1
 74
0
 49
-3.0749999999999997
 74
0
  0
LTYPE
  5
4E
100
AcDbSymbolTableRecord
100
AcDbLinetypeTableRecord
  2
DASHED
 70
0
  3
Dashed __ __ __ __ __ __ __ __ __ __ __ __ __ _
 72
65
 73
2
 40
19.0499999999999972
 49
12.6999999999999993
 74
0
 49
-6.3499999999999996
 74
0
  0
LTYPE
  5
4F
100
AcDbSymbolTableRecord
100
AcDbLinetypeTableRecord
  2
ACAD_ISO14W100
 70
0
  3
ISO dash triple-dot __ . . . __ . . . __ . . . _
 72
65
 73
8
 40
24.0000000000000036
 49
12.0
 74
0
 49
-2.9500000000000002
 74
0
 49
0.1
 74
0
 49
-2.9000000000000004
 74
0
 49
0.1
 74
0
 49
-2.9000000000000004
 74
0
 49
0.1
 74
0
 49
-2.9500000000000002
 74
0
  0
LTYPE
  5
15
100
AcDbSymbolTableRecord
100
AcDbLinetypeTableRecord
  2
BYLAYER
 70
0
  3

 72
65
 73
0
 40
0.0
  0
LTYPE
  5
50
100
AcDbSymbolTableRecord
100
AcDbLinetypeTableRecord
  2
PHANTOMX2
 70
0
  3
Phantom (2x) ____________    ____    ____   _
 72
65
 73
6
 40
127.0000000000000142
 49
63.5
 74
0
 49
-12.6999999999999993
 74
0
 49
12.6999999999999993
 74
0
 49
-12.6999999999999993
 74
0
 49
12.6999999999999993
 74
0
 49
-12.6999999999999993
 74
0
  0
LTYPE
  5
14
100
AcDbSymbolTableRecord
100
AcDbLinetypeTableRecord
  2
BYBLOCK
 70
0
  3

 72
65
 73
0
 40
0.0
  0
LTYPE
  5
51
100
AcDbSymbolTableRecord
100
AcDbLinetypeTableRecord
  2
DIVIDEX2
 70
0
  3
Divide (2x) ________  .  .  ________  .  .  _
 72
65
 73
6
 40
63.5
 49
25.3999999999999986
 74
0
 49
-12.6499999999999986
 74
0
 49
0.1
 74
0
 49
-12.5999999999999979
 74
0
 49
0.1
 74
0
 49
-12.6499999999999986
 74
0
  0
LTYPE
  5
52
100
AcDbSymbolTableRecord
100
AcDbLinetypeTableRecord
  2
BORDER
 70
0
  3
Border __ __ . __ __ . __ __ . __ __ . __ __ .
 72
65
 73
6
 40
44.4499999999999957
 49
12.6999999999999993
 74
0
 49
-6.3499999999999996
 74
0
 49
12.6999999999999993
 74
0
 49
-6.2999999999999998
 74
0
 49
0.1
 74
0
 49
-6.2999999999999998
 74
0
  0
LTYPE
  5
53
100
AcDbSymbolTableRecord
100
AcDbLinetypeTableRecord
  2
DIVIDE2
 70
0
  3
Divide (.5x) __..__..__..__..__..__..__..__.._
 72
65
 73
6
 40
15.8749999999999982
 49
6.3499999999999996
 74
0
 49
-3.125
 74
0
 49
0.1
 74
0
 49
-3.0750000000000002
 74
0
 49
0.1
 74
0
 49
-3.125
 74
0
  0
LTYPE
  5
54
100
AcDbSymbolTableRecord
100
AcDbLinetypeTableRecord
  2
DOT
 70
0
  3
Dot . . . . . . . . . . . . . . . . . . . . . . . .
 72
65
 73
2
 40
6.3499999999999996
 49
0.1
 74
0
 49
-6.25
 74
0
  0
LTYPE
  5
55
100
AcDbSymbolTableRecord
100
AcDbLinetypeTableRecord
  2
DASHDOT
 70
0
  3
Dash dot __ . __ . __ . __ . __ . __ . __ . __
 72
65
 73
4
 40
25.4000000000000021
 49
12.6999999999999993
 74
0
 49
-6.2999999999999998
 74
0
 49
0.1
 74
0
 49
-6.2999999999999998
 74
0
  0
LTYPE
  5
56
100
AcDbSymbolTableRecord
100
AcDbLinetypeTableRecord
  2
ACAD_ISO03W100
 70
0
  3
ISO dash space __    __    __    __    __    __
 72
65
 73
2
 40
30.0
 49
12.0
 74
0
 49
-18.0
 74
0
  0
ENDTAB
  0
TABLE
  2
LAYER
  5
2
100
AcDbSymbolTable
 70
2
  0
LAYER
  5
57
100
AcDbSymbolTableRecord
100
AcDbLayerTableRecord
  2
holes
 70
0
 62
3
420
65280
  6
Continuous
370
-3
390
F
  0
LAYER
  5
10
100
AcDbSymbolTableRecord
100
AcDbLayerTableRecord
  2
0
 70
0
 62
7
420
16777215
  6
Continuous
370
25
390
F
  0
ENDTAB
  0
TABLE
  2
STYLE
  5
3
100
AcDbSymbolTable
 70
1
  0
STYLE
  5
58
100
AcDbSymbolTableRecord
100
AcDbTextStyleTableRecord
  2
Standard
 70
0
 40
0.0
 41
1.0
 50
0.0
 71
0
 42
2.5
  3

  4

1001
ACAD
1000
txt
1071
0
  0
ENDTAB
  0
TABLE
  2
VIEW
  5
6
100
AcDbSymbolTable
 70
0
  0
ENDTAB
  0
TABLE
  2
UCS
  5
7
100
AcDbSymbolTable
 70
0
  0
ENDTAB
  0
TABLE
  2
APPID
  5
9
100
AcDbSymbolTable
 70
1
  0
APPID
  5
12
100
AcDbSymbolTableRecord
100
AcDbRegAppTableRecord
  2
ACAD
 70
0
  0
APPID
  5
59
100
AcDbSymbolTableRecord
100
AcDbRegAppTableRecord
  2
QCAD
 70
0
  0
ENDTAB
  0
TABLE
  2
DIMSTYLE
  5
A
100
AcDbSymbolTable
 70
1
100
AcDbDimStyleTable
 71
0
  0
DIMSTYLE
105
27
100
AcDbSymbolTableRecord
100
AcDbDimStyleTableRecord
  2
Standard
 41
0.18
 42
0.0625
 43
3.75
 44
0.18
 70
0
 73
0
 74
0
 77
1
 78
8
140
0.18
141
2.5
143
0.03937007874016
147
0.09
171
3
172
1
271
2
272
2
274
3
278
44
283
0
284
8
340
58
  0
ENDTAB
  0
TABLE
  2
BLOCK_RECORD
  5
1
100
AcDbSymbolTable
 70
1
  0
BLOCK_RECORD
  5
1F
100
AcDbSymbolTableRecord
100
AcDbBlockTableRecord
  2
*Model_Space
340
22
  0
BLOCK_RECORD
  5
1B
100
AcDbSymbolTableRecord
100
AcDbBlockTableRecord
  2
*Paper_Space
340
1E
  0
BLOCK_RECORD
  5
23
100
AcDbSymbolTableRecord
100
AcDbBlockTableRecord
  2
*Paper_Space0
340
26
  0
BLOCK_RECORD
  5
5A
100
AcDbSymbolTableRecord
100
AcDbBlockTableRecord
  2
front
340
0
  0
BLOCK_RECORD
  5
5B
100
AcDbSymbolTableRecord
100
AcDbBlockTableRecord
  2
back
340
0
  0
BLOCK_RECORD
  5
5C
100
AcDbSymbolTableRecord
100
AcDbBlockTableRecord
  2
side
340
0
  0
BLOCK_RECORD
  5
5D
100
AcDbSymbolTableRecord
100
AcDbBlockTableRecord
  2
metal-sideview
340
0
  0
BLOCK_RECORD
  5
5E
100
AcDbSymbolTableRecord
100
AcDbBlockTableRecord
  2
bottom
340
0
  0
ENDTAB
  0
ENDSEC
  0
SECTION
  2
BLOCKS
  0
BLOCK
  5
20
100
AcDbEntity
  8
0
100
AcDbBlockBegin
  2
*Model_Space
 70
0
 10
0.0
 20
0.0
 30
0.0
  3
*Model_Space
  1

  0
ENDBLK
  5
21
100
AcDbEntity
  8
0
100
AcDbBlockEnd
  0
BLOCK
  5
1C
100
AcDbEntity
 67
1
  8
0
100
AcDbBlockBegin
  2
*Paper_Space
 70
0
 10
0.0
 20
0.0
 30
0.0
  3
*Paper_Space
  1

  0
ENDBLK
  5
1D
100
AcDbEntity
 67
1
  8
0
100
AcDbBlockEnd
  0
BLOCK
  5
24
100
AcDbEntity
  8
0
100
AcDbBlockBegin
  2
*Paper_Space0
 70
0
 10
0.0
 20
0.0
 30
0.0
  3
*Paper_Space0
  1

  0
ENDBLK
  5
25
100
AcDbEntity
  8
0
100
AcDbBlockEnd
  0
BLOCK
  5
5F
100
AcDbEntity
  8
0
100
AcDbBlockBegin
  2
front
 70
0
 10
0.0
 20
0.0
 30
0.0
  3
front
  1

  0
CIRCLE
  5
60
100
AcDbEntity
100
AcDbCircle
  8
holes
 62
3
420
65280
370
-1
 48
1.0
  6
BYLAYER
 10
-57.1000000000000369
 20
10.4499601071975832
 30
0.0
 40
3.492934089946464
  0
CIRCLE
  5
61
100
AcDbEntity
100
AcDbCircle
  8
holes
 62
3
420
65280
370
-1
 48
1.0
  6
BYLAYER
 10
-57.1000081872351615
 20
53.7502941346751442
 30
0.0
 40
1.5999706758835905
  0
CIRCLE
  5
62
100
AcDbEntity
100
AcDbCircle
  8
holes
 62
3
420
65280
370
-1
 48
1.0
  6
BYLAYER
 10
-64.3900100000000606
 20
53.7497208945147378
 30
0.0
 40
1.5998909959150158
  0
CIRCLE
  5
63
100
AcDbEntity
100
AcDbCircle
  8
holes
 62
3
420
65280
370
-1
 48
1.0
  6
BYLAYER
 10
-57.0999398643937042
 20
65.7498410898648586
 30
0.0
 40
6.0001589104365056
  0
LINE
  5
64
100
AcDbEntity
100
AcDbLine
  8
holes
 62
3
420
65280
370
-1
 48
1.0
  6
BYLAYER
 10
-50.1000000000000085
 20
49.0000000000000142
 30
0.0
 11
-64.0999999999999801
 21
49.0000000000000142
 31
0.0
  0
LINE
  5
65
100
AcDbEntity
100
AcDbLine
  8
holes
 62
3
420
65280
370
-1
 48
1.0
  6
BYLAYER
 10
-64.0999999999999801
 20
49.0000000000000142
 30
0.0
 11
-64.1000000000000085
 21
26.5000000000000142
 31
0.0
  0
LINE
  5
66
100
AcDbEntity
100
AcDbLine
  8
holes
 62
3
420
65280
370
-1
 48
1.0
  6
BYLAYER
 10
-64.1000000000000085
 20
26.5000000000000142
 30
0.0
 11
-50.0999999999999801
 21
26.5000000000000142
 31
0.0
  0
LINE
  5
67
100
AcDbEntity
100
AcDbLine
  8
holes
 62
3
420
65280
370
-1
 48
1.0
  6
BYLAYER
 10
-50.0999999999999801
 20
26.5000000000000142
 30
0.0
 11
-50.1000000000000085
 21
49.0000000000000142
 31
0.0
  0
LINE
  5
68
100
AcDbEntity
100
AcDbLine
  8
holes
 62
3
420
65280
370
-1
 48
1.0
  6
BYLAYER
 10
-30.0000000000000426
 20
50.7500000000000284
 30
0.0
 11
-30.0000000000000426
 21
24.7500000000000284
 31
0.0
  0
LINE
  5
69
100
AcDbEntity
100
AcDbLine
  8
holes
 62
3
420
65280
370
-1
 48
1.0
  6
BYLAYER
 10
-34.0000000000000426
 20
50.7500000000000284
 30
0.0
 11
-34.0000000000000426
 21
24.7500000000000284
 31
0.0
  0
LINE
  5
6A
100
AcDbEntity
100
AcDbLine
  8
holes
 62
3
420
65280
370
-1
 48
1.0
  6
BYLAYER
 10
-22.0000000000000426
 20
50.7500000000000284
 30
0.0
 11
-22.0000000000000426
 21
24.7500000000000284
 31
0.0
  0
LINE
  5
6B
100
AcDbEntity
100
AcDbLine
  8
holes
 62
3
420
65280
370
-1
 48
1.0
  6
BYLAYER
 10
-25.9999999999999787
 20
50.7500000000000284
 30
0.0
 11
-26.0000000000000497
 21
24.7500000000000284
 31
0.0
  0
LINE
  5
6C
100
AcDbEntity
100
AcDbLine
  8
holes
 62
3
420
65280
370
-1
 48
1.0
  6
BYLAYER
 10
-38.0000000000000426
 20
50.7500000000000284
 30
0.0
 11
-38.0000000000000426
 21
24.7500000000000284
 31
0.0
  0
LINE
  5
6D
100
AcDbEntity
100
AcDbLine
  8
holes
 62
3
420
65280
370
-1
 48
1.0
  6
BYLAYER
 10
-30.0000000000000426
 20
55.7500000000000284
 30
0.0
 11
-30.0000000000000426
 21
75.5000000000000284
 31
0.0
  0
LINE
  5
6E
100
AcDbEntity
100
AcDbLine
  8
holes
 62
3
420
65280
370
-1
 48
1.0
  6
BYLAYER
 10
-30.0000000000000426
 20
19.7500000000000284
 30
0.0
 11
-30.0000000000000426
 21
0.0000000000000284
 31
0.0
  0
LINE
  5
6F
100
AcDbEntity
100
AcDbLine
  8
holes
 62
3
420
65280
370
-1
 48
1.0
  6
BYLAYER
 10
-34.0000000000000426
 20
19.7500000000000284
 30
0.0
 11
-34.0000000000000426
 21
0.0000000000000284
 31
0.0
  0
LINE
  5
70
100
AcDbEntity
100
AcDbLine
  8
holes
 62
3
420
65280
370
-1
 48
1.0
  6
BYLAYER
 10
-34.0000000000000426
 20
55.7500000000000284
 30
0.0
 11
-33.9999999999999858
 21
75.5000000000000284
 31
0.0
  0
LINE
  5
71
100
AcDbEntity
100
AcDbLine
  8
holes
 62
3
420
65280
370
-1
 48
1.0
  6
BYLAYER
 10
-22.0000000000000426
 20
19.7500000000000284
 30
0.0
 11
-22.0000000000000426
 21
0.0000000000000284
 31
0.0
  0
LINE
  5
72
100
AcDbEntity
100
AcDbLine
  8
holes
 62
3
420
65280
370
-1
 48
1.0
  6
BYLAYER
 10
-22.0000000000000462
 20
55.7500000000000284
 30
0.0
 11
-21.9999999999999858
 21
75.5000000000000284
 31
0.0
  0
LINE
  5
73
100
AcDbEntity
100
AcDbLine
  8
holes
 62
3
420
65280
370
-1
 48
1.0
  6
BYLAYER
 10
-25.9999999999999751
 20
55.7500000000000284
 30
0.0
 11
-26.0000000000002132
 21
75.5000000000000284
 31
0.0
  0
LINE
  5
74
100
AcDbEntity
100
AcDbLine
  8
holes
 62
3
420
65280
370
-1
 48
1.0
  6
BYLAYER
 10
-26.0000000000000426
 20
19.7500000000000284
 30
0.0
 11
-26.0000000000000426
 21
0.0000000000000284
 31
0.0
  0
LINE
  5
75
100
AcDbEntity
100
AcDbLine
  8
holes
 62
3
420
65280
370
-1
 48
1.0
  6
BYLAYER
 10
-38.0000000000000426
 20
55.7500000000000284
 30
0.0
 11
-37.9999999999999858
 21
75.5000000000000284
 31
0.0
  0
LINE
  5
76
100
AcDbEntity
100
AcDbLine
  8
holes
 62
3
420
65280
370
-1
 48
1.0
  6
BYLAYER
 10
-38.0000000000000426
 20
19.7500000000000284
 30
0.0
 11
-38.0000000000000426
 21
0.0000000000000284
 31
0.0
  0
LINE
  5
77
100
AcDbEntity
100
AcDbLine
  8
holes
 62
3
420
65280
370
-1
 48
1.0
  6
BYLAYER
 10
-36.0000000000000426
 20
40.7500000000000284
 30
0.0
 11
-35.9999999999999858
 21
68.7500000000000284
 31
0.0
  0
LINE
  5
78
100
AcDbEntity
100
AcDbLine
  8
holes
 62
3
420
65280
370
-1
 48
1.0
  6
BYLAYER
 10
-31.9999999999999858
 20
34.7500000000000284
 30
0.0
 11
-32.0000000000001563
 21
6.7500000000000284
 31
0.0
  0
LINE
  5
79
100
AcDbEntity
100
AcDbLine
  8
holes
 62
3
420
65280
370
-1
 48
1.0
  6
BYLAYER
 10
-24.0000000000000426
 20
40.7500000000000284
 30
0.0
 11
-23.9999999999998721
 21
68.7500000000000284
 31
0.0
  0
LINE
  5
7A
100
AcDbEntity
100
AcDbLine
  8
holes
 62
3
420
65280
370
-1
 48
1.0
  6
BYLAYER
 10
-23.9999999999999858
 20
34.7500000000000284
 30
0.0
 11
-24.0000000000002132
 21
6.7500000000000284
 31
0.0
  0
LINE
  5
7B
100
AcDbEntity
100
AcDbLine
  8
holes
 62
3
420
65280
370
-1
 48
1.0
  6
BYLAYER
 10
-28.0000000000000426
 20
40.7500000000000284
 30
0.0
 11
-28.0000000000000995
 21
68.7500000000000284
 31
0.0
  0
LINE
  5
7C
100
AcDbEntity
100
AcDbLine
  8
holes
 62
3
420
65280
370
-1
 48
1.0
  6
BYLAYER
 10
-28.0000000000000426
 20
34.7500000000000284
 30
0.0
 11
-28.0000000000000426
 21
6.7500000000000284
 31
0.0
  0
LINE
  5
7D
100
AcDbEntity
100
AcDbLine
  8
holes
 62
3
420
65280
370
-1
 48
1.0
  6
BYLAYER
 10
-32.0000000000000426
 20
40.7500000000000284
 30
0.0
 11
-32.0000000000000426
 21
68.7500000000000284
 31
0.0
  0
LINE
  5
7E
100
AcDbEntity
100
AcDbLine
  8
holes
 62
3
420
65280
370
-1
 48
1.0
  6
BYLAYER
 10
-36.0000000000000426
 20
34.7500000000000284
 30
0.0
 11
-36.0000000000000426
 21
6.7500000000000284
 31
0.0
  0
LINE
  5
7F
100
AcDbEntity
100
AcDbLine
  8
0
 62
7
420
16777215
370
-1
 48
1.0
  6
BYLAYER
 10
-0.0000000000000142
 20
75.5000000000000284
 30
0.0
 11
-0.0000000000000142
 21
0.0
 31
0.0
  0
LINE
  5
80
100
AcDbEntity
100
AcDbLine
  8
0
 62
7
420
16777215
370
-1
 48
1.0
  6
BYLAYER
 10
-76.6000000000000085
 20
0.0
 30
0.0
 11
-81.9999999999999858
 21
0.0
 31
0.0
  0
LINE
  5
81
100
AcDbEntity
100
AcDbLine
  8
0
 62
7
420
16777215
370
-1
 48
1.0
  6
BYLAYER
 10
-56.6000000000000085
 20
0.0
 30
0.0
 11
-66.6000000000000085
 21
0.0
 31
0.0
  0
LINE
  5
82
100
AcDbEntity
100
AcDbLine
  8
0
 62
7
420
16777215
370
-1
 48
1.0
  6
BYLAYER
 10
-21.0000000000000142
 20
0.0
 30
0.0
 11
-46.6000000000000227
 21
0.0
 31
0.0
  0
LINE
  5
83
100
AcDbEntity
100
AcDbLine
  8
0
 62
7
420
16777215
370
-1
 48
1.0
  6
BYLAYER
 10
-0.0000000000000142
 20
0.0
 30
0.0
 11
-12.9999999999999858
 21
-0.0000000000000142
 31
0.0
  0
LINE
  5
84
100
AcDbEntity
100
AcDbLine
  8
0
 62
7
420
16777215
370
-1
 48
1.0
  6
BYLAYER
 10
-81.9999999999999858
 20
0.0
 30
0.0
 11
-81.9999999999999858
 21
75.5000000000000284
 31
0.0
  0
LINE
  5
85
100
AcDbEntity
100
AcDbLine
  8
0
 62
7
420
16777215
370
-1
 48
1.0
  6
BYLAYER
 10
-13.0
 20
75.5000000000000284
 30
0.0
 11
-0.0000000000000142
 21
75.5000000000000284
 31
0.0
  0
LINE
  5
86
100
AcDbEntity
100
AcDbLine
  8
0
 62
7
420
16777215
370
-1
 48
1.0
  6
BYLAYER
 10
-46.6000000000000085
 20
75.5000000000000284
 30
0.0
 11
-21.0
 21
75.5000000000000284
 31
0.0
  0
LINE
  5
87
100
AcDbEntity
100
AcDbLine
  8
0
 62
7
420
16777215
370
-1
 48
1.0
  6
BYLAYER
 10
-66.6000000000000085
 20
0.0000000000000568
 30
0.0
 11
-56.6000000000000085
 21
0.0000000000000284
 31
0.0
  0
LINE
  5
88
100
AcDbEntity
100
AcDbLine
  8
0
 62
7
420
16777215
370
-1
 48
1.0
  6
BYLAYER
 10
-66.6000000000000085
 20
75.5000000000000284
 30
0.0
 11
-56.6000000000000085
 21
75.5000000000000284
 31
0.0
  0
LINE
  5
89
100
AcDbEntity
100
AcDbLine
  8
0
 62
7
420
16777215
370
-1
 48
1.0
  6
BYLAYER
 10
-81.9999999999999858
 20
75.5000000000000284
 30
0.0
 11
-76.5999999999999801
 21
75.5000000000000284
 31
0.0
  0
LINE
  5
8A
100
AcDbEntity
100
AcDbLine
  8
0
 62
7
420
16777215
370
-1
 48
1.0
  6
BYLAYER
 10
-76.6000000000000085
 20
0.0000000000000284
 30
0.0
 11
-76.5999999999999801
 21
-3.9999999999999858
 31
0.0
  0
LINE
  5
8B
100
AcDbEntity
100
AcDbLine
  8
0
 62
7
420
16777215
370
-1
 48
1.0
  6
BYLAYER
 10
-76.5999999999999801
 20
75.5000000000000284
 30
0.0
 11
-76.5999999999999801
 21
79.5000000000000284
 31
0.0
  0
LINE
  5
8C
100
AcDbEntity
100
AcDbLine
  8
0
 62
7
420
16777215
370
-1
 48
1.0
  6
BYLAYER
 10
-76.5999999999999801
 20
-3.9999999999999858
 30
0.0
 11
-66.5999999999999801
 21
-4.0
 31
0.0
  0
LINE
  5
8D
100
AcDbEntity
100
AcDbLine
  8
0
 62
7
420
16777215
370
-1
 48
1.0
  6
BYLAYER
 10
-76.5999999999999801
 20
79.5000000000000284
 30
0.0
 11
-66.5999999999999801
 21
79.5000000000000284
 31
0.0
  0
LINE
  5
8E
100
AcDbEntity
100
AcDbLine
  8
0
 62
7
420
16777215
370
-1
 48
1.0
  6
BYLAYER
 10
-66.5999999999999801
 20
-4.0
 30
0.0
 11
-66.6000000000000085
 21
0.0000000000000284
 31
0.0
  0
LINE
  5
8F
100
AcDbEntity
100
AcDbLine
  8
0
 62
7
420
16777215
370
-1
 48
1.0
  6
BYLAYER
 10
-66.5999999999999801
 20
79.5000000000000284
 30
0.0
 11
-66.5999999999999801
 21
75.5000000000000284
 31
0.0
  0
LINE
  5
90
100
AcDbEntity
100
AcDbLine
  8
0
 62
7
420
16777215
370
-1
 48
1.0
  6
BYLAYER
 10
-56.6000000000000369
 20
0.0000000000000284
 30
0.0
 11
-56.6000000000000085
 21
-3.9999999999999716
 31
0.0
  0
LINE
  5
91
100
AcDbEntity
100
AcDbLine
  8
0
 62
7
420
16777215
370
-1
 48
1.0
  6
BYLAYER
 10
-56.6000000000000085
 20
75.5000000000000284
 30
0.0
 11
-56.6000000000000085
 21
79.5000000000000284
 31
0.0
  0
LINE
  5
92
100
AcDbEntity
100
AcDbLine
  8
0
 62
7
420
16777215
370
-1
 48
1.0
  6
BYLAYER
 10
-56.6000000000000085
 20
-3.9999999999999716
 30
0.0
 11
-46.6000000000000227
 21
-3.9999999999999574
 31
0.0
  0
LINE
  5
93
100
AcDbEntity
100
AcDbLine
  8
0
 62
7
420
16777215
370
-1
 48
1.0
  6
BYLAYER
 10
-56.6000000000000085
 20
79.5000000000000284
 30
0.0
 11
-46.6000000000000085
 21
79.5000000000000284
 31
0.0
  0
LINE
  5
94
100
AcDbEntity
100
AcDbLine
  8
0
 62
7
420
16777215
370
-1
 48
1.0
  6
BYLAYER
 10
-46.6000000000000227
 20
-3.9999999999999574
 30
0.0
 11
-46.6000000000000227
 21
0.0000000000000426
 31
0.0
  0
LINE
  5
95
100
AcDbEntity
100
AcDbLine
  8
0
 62
7
420
16777215
370
-1
 48
1.0
  6
BYLAYER
 10
-46.6000000000000085
 20
79.5000000000000284
 30
0.0
 11
-46.6000000000000085
 21
75.5000000000000284
 31
0.0
  0
LINE
  5
96
100
AcDbEntity
100
AcDbLine
  8
0
 62
7
420
16777215
370
-1
 48
1.0
  6
BYLAYER
 10
-12.9999999999999858
 20
0.0
 30
0.0
 11
-13.0000000000000284
 21
-3.9999999999999716
 31
0.0
  0
LINE
  5
97
100
AcDbEntity
100
AcDbLine
  8
0
 62
7
420
16777215
370
-1
 48
1.0
  6
BYLAYER
 10
-13.0
 20
75.5000000000000284
 30
0.0
 11
-13.0
 21
79.5000000000000284
 31
0.0
  0
LINE
  5
98
100
AcDbEntity
100
AcDbLine
  8
0
 62
7
420
16777215
370
-1
 48
1.0
  6
BYLAYER
 10
-13.0000000000000284
 20
-3.9999999999999716
 30
0.0
 11
-21.0000000000000142
 21
-3.9999999999999716
 31
0.0
  0
LINE
  5
99
100
AcDbEntity
100
AcDbLine
  8
0
 62
7
420
16777215
370
-1
 48
1.0
  6
BYLAYER
 10
-13.0
 20
79.5000000000000284
 30
0.0
 11
-21.0
 21
79.5000000000000284
 31
0.0
  0
LINE
  5
9A
100
AcDbEntity
100
AcDbLine
  8
0
 62
7
420
16777215
370
-1
 48
1.0
  6
BYLAYER
 10
-21.0000000000000142
 20
-3.9999999999999716
 30
0.0
 11
-21.0000000000000142
 21
0.0000000000000284
 31
0.0
  0
LINE
  5
9B
100
AcDbEntity
100
AcDbLine
  8
0
 62
7
420
16777215
370
-1
 48
1.0
  6
BYLAYER
 10
-21.0
 20
79.5000000000000284
 30
0.0
 11
-21.0
 21
75.5000000000000284
 31
0.0
  0
ENDBLK
  5
9C
100
AcDbEntity
  8
0
100
AcDbBlockEnd
  0
BLOCK
  5
9D
100
AcDbEntity
  8
0
100
AcDbBlockBegin
  2
back
 70
0
 10
0.0
 20
0.0
 30
0.0
  3
back
  1

  0
LINE
  5
9E
100
AcDbEntity
100
AcDbLine
  8
0
 62
256
370
-1
 48
1.0
  6
BYLAYER
 10
12.9076951236532693
 20
-21.7611391469534965
 30
0.0
 11
28.1576951236532693
 21
-21.7611391469534965
 31
0.0
  0
LINE
  5
9F
100
AcDbEntity
100
AcDbLine
  8
0
 62
256
370
-1
 48
1.0
  6
BYLAYER
 10
-17.0923048763467307
 20
-21.7611391469534965
 30
0.0
 11
-2.0923048763467307
 21
-21.7611391469534965
 31
0.0
  0
LINE
  5
A0
100
AcDbEntity
100
AcDbLine
  8
0
 62
256
370
-1
 48
1.0
  6
BYLAYER
 10
-47.3423048763467307
 20
-21.7611391469534965
 30
0.0
 11
-32.0923048763467307
 21
-21.7611391469534965
 31
0.0
  0
LINE
  5
A1
100
AcDbEntity
100
AcDbLine
  8
0
 62
256
370
-1
 48
1.0
  6
BYLAYER
 10
28.1576951236532693
 20
28.2388608530465035
 30
0.0
 11
-47.3423048763467307
 21
28.2388608530465035
 31
0.0
  0
LINE
  5
A2
100
AcDbEntity
100
AcDbLine
  8
0
 62
256
370
-1
 48
1.0
  6
BYLAYER
 10
28.1576951236532693
 20
28.2388608530465035
 30
0.0
 11
28.1576951236532693
 21
16.2388608530465035
 31
0.0
  0
LINE
  5
A3
100
AcDbEntity
100
AcDbLine
  8
0
 62
256
370
-1
 48
1.0
  6
BYLAYER
 10
28.1576951236532693
 20
-7.7611391469535249
 30
0.0
 11
28.1576951236532693
 21
-21.7611391469534965
 31
0.0
  0
LINE
  5
A4
100
AcDbEntity
100
AcDbLine
  8
0
 62
256
370
-1
 48
1.0
  6
BYLAYER
 10
28.1576951236532693
 20
10.2388608530464751
 30
0.0
 11
28.1576951236532693
 21
-1.7611391469534965
 31
0.0
  0
LINE
  5
A5
100
AcDbEntity
100
AcDbLine
  8
0
 62
256
370
-1
 48
1.0
  6
BYLAYER
 10
-47.3423048763467307
 20
-7.7611391469534965
 30
0.0
 11
-47.3423048763467307
 21
-21.7611391469534965
 31
0.0
  0
LINE
  5
A6
100
AcDbEntity
100
AcDbLine
  8
0
 62
256
370
-1
 48
1.0
  6
BYLAYER
 10
-47.3423048763467307
 20
10.2388608530465035
 30
0.0
 11
-47.3423048763467307
 21
-1.7611391469534965
 31
0.0
  0
LINE
  5
A7
100
AcDbEntity
100
AcDbLine
  8
0
 62
256
370
-1
 48
1.0
  6
BYLAYER
 10
-47.3423048763467307
 20
28.2388608530465035
 30
0.0
 11
-47.3423048763467307
 21
16.2388608530465035
 31
0.0
  0
LINE
  5
A8
100
AcDbEntity
100
AcDbLine
  8
0
 62
256
370
-1
 48
1.0
  6
BYLAYER
 10
12.9076951236532693
 20
-21.7611391469534965
 30
0.0
 11
12.9076951236532693
 21
-25.7611391469535249
 31
0.0
  0
LINE
  5
A9
100
AcDbEntity
100
AcDbLine
  8
0
 62
256
370
-1
 48
1.0
  6
BYLAYER
 10
-32.0923048763467307
 20
-21.7611391469534965
 30
0.0
 11
-32.0923048763467307
 21
-25.7611391469534965
 31
0.0
  0
LINE
  5
AA
100
AcDbEntity
100
AcDbLine
  8
0
 62
256
370
-1
 48
1.0
  6
BYLAYER
 10
12.9076951236532693
 20
-25.7611391469535249
 30
0.0
 11
-2.0923048763467875
 21
-25.7611391469534965
 31
0.0
  0
LINE
  5
AB
100
AcDbEntity
100
AcDbLine
  8
0
 62
256
370
-1
 48
1.0
  6
BYLAYER
 10
-32.0923048763467307
 20
-25.7611391469534965
 30
0.0
 11
-17.0923048763467307
 21
-25.7611391469534965
 31
0.0
  0
LINE
  5
AC
100
AcDbEntity
100
AcDbLine
  8
0
 62
256
370
-1
 48
1.0
  6
BYLAYER
 10
-2.0923048763467875
 20
-25.7611391469534965
 30
0.0
 11
-2.0923048763467307
 21
-21.7611391469534965
 31
0.0
  0
LINE
  5
AD
100
AcDbEntity
100
AcDbLine
  8
0
 62
256
370
-1
 48
1.0
  6
BYLAYER
 10
-17.0923048763467307
 20
-25.7611391469534965
 30
0.0
 11
-17.0923048763467307
 21
-21.7611391469534965
 31
0.0
  0
LINE
  5
AE
100
AcDbEntity
100
AcDbLine
  8
0
 62
256
370
-1
 48
1.0
  6
BYLAYER
 10
28.1576951236532693
 20
-1.7611391469534965
 30
0.0
 11
32.1576951236532693
 21
-1.7611391469535249
 31
0.0
  0
LINE
  5
AF
100
AcDbEntity
100
AcDbLine
  8
0
 62
256
370
-1
 48
1.0
  6
BYLAYER
 10
28.1576951236532693
 20
16.2388608530465035
 30
0.0
 11
32.1576951236532693
 21
16.2388608530464751
 31
0.0
  0
LINE
  5
B0
100
AcDbEntity
100
AcDbLine
  8
0
 62
256
370
-1
 48
1.0
  6
BYLAYER
 10
-47.3423048763467307
 20
16.2388608530465035
 30
0.0
 11
-51.3423048763467307
 21
16.2388608530465035
 31
0.0
  0
LINE
  5
B1
100
AcDbEntity
100
AcDbLine
  8
0
 62
256
370
-1
 48
1.0
  6
BYLAYER
 10
-47.3423048763467307
 20
-1.7611391469534965
 30
0.0
 11
-51.3423048763467307
 21
-1.7611391469534965
 31
0.0
  0
LINE
  5
B2
100
AcDbEntity
100
AcDbLine
  8
0
 62
256
370
-1
 48
1.0
  6
BYLAYER
 10
32.1576951236532693
 20
-1.7611391469535249
 30
0.0
 11
32.1576951236532693
 21
-7.7611391469535249
 31
0.0
  0
LINE
  5
B3
100
AcDbEntity
100
AcDbLine
  8
0
 62
256
370
-1
 48
1.0
  6
BYLAYER
 10
32.1576951236532693
 20
16.2388608530464751
 30
0.0
 11
32.1576951236532693
 21
10.2388608530465035
 31
0.0
  0
LINE
  5
B4
100
AcDbEntity
100
AcDbLine
  8
0
 62
256
370
-1
 48
1.0
  6
BYLAYER
 10
-51.3423048763467307
 20
16.2388608530465035
 30
0.0
 11
-51.3423048763467307
 21
10.2388608530465035
 31
0.0
  0
LINE
  5
B5
100
AcDbEntity
100
AcDbLine
  8
0
 62
256
370
-1
 48
1.0
  6
BYLAYER
 10
-51.3423048763467307
 20
-1.7611391469534965
 30
0.0
 11
-51.3423048763467307
 21
-7.7611391469534965
 31
0.0
  0
LINE
  5
B6
100
AcDbEntity
100
AcDbLine
  8
0
 62
256
370
-1
 48
1.0
  6
BYLAYER
 10
32.1576951236532693
 20
10.2388608530465035
 30
0.0
 11
28.1576951236532693
 21
10.2388608530464751
 31
0.0
  0
LINE
  5
B7
100
AcDbEntity
100
AcDbLine
  8
0
 62
256
370
-1
 48
1.0
  6
BYLAYER
 10
32.1576951236532693
 20
-7.7611391469535249
 30
0.0
 11
28.1576951236532693
 21
-7.7611391469535249
 31
0.0
  0
LINE
  5
B8
100
AcDbEntity
100
AcDbLine
  8
0
 62
256
370
-1
 48
1.0
  6
BYLAYER
 10
-51.3423048763467307
 20
10.2388608530465035
 30
0.0
 11
-47.3423048763467307
 21
10.2388608530465035
 31
0.0
  0
LINE
  5
B9
100
AcDbEntity
100
AcDbLine
  8
0
 62
256
370
-1
 48
1.0
  6
BYLAYER
 10
-51.3423048763467307
 20
-7.7611391469534965
 30
0.0
 11
-47.3423048763467307
 21
-7.7611391469534965
 31
0.0
  0
LWPOLYLINE
  5
BA
  8
holes
 62
256
370
-1
 48
1.0
  6
BYLAYER
100
AcDbEntity
100
AcDbPolyline
 90
9
 70
128
 10
-6.0923048763467307
 20
12.7388608530465035
 30
0.0
 10
-6.0923048763467271
 20
23.7388608530465035
 30
0.0
 42
0.414213562373095
 10
-7.0923048763467271
 20
24.7388608530465035
 30
0.0
 10
-7.0923048763467271
 20
24.7388608530465035
 30
0.0
 42
0.414213562373095
 10
-8.0923048763467307
 20
23.7388608530465035
 30
0.0
 10
-8.0923048763467307
 20
12.7388608530465035
 30
0.0
 42
0.414213562373095
 10
-7.0923048763467307
 20
11.7388608530465035
 30
0.0
 10
-7.0923048763467307
 20
11.7388608530465035
 30
0.0
 42
0.414213562373095
 10
-6.0923048763467307
 20
12.7388608530465035
 30
0.0
  0
LWPOLYLINE
  5
BB
  8
holes
 62
256
370
-1
 48
1.0
  6
BYLAYER
100
AcDbEntity
100
AcDbPolyline
 90
9
 70
128
 10
-11.0923048763467307
 20
12.7388608530465035
 30
0.0
 10
-11.0923048763467165
 20
23.7388608530465035
 30
0.0
 42
0.414213562373095
 10
-12.0923048763467307
 20
24.7388608530465035
 30
0.0
 10
-12.0923048763467307
 20
24.7388608530465035
 30
0.0
 42
0.414213562373095
 10
-13.0923048763467378
 20
23.7388608530465035
 30
0.0
 10
-13.0923048763467307
 20
12.7388608530465035
 30
0.0
 42
0.414213562373095
 10
-12.0923048763467307
 20
11.7388608530465035
 30
0.0
 10
-12.0923048763467307
 20
11.7388608530465035
 30
0.0
 42
0.414213562373095
 10
-11.0923048763467307
 20
12.7388608530465035
 30
0.0
  0
LWPOLYLINE
  5
BC
  8
holes
 62
256
370
-1
 48
1.0
  6
BYLAYER
100
AcDbEntity
100
AcDbPolyline
 90
9
 70
128
 10
-16.0923048763467307
 20
12.7388608530465035
 30
0.0
 10
-16.0923048763467307
 20
23.7388608530465035
 30
0.0
 42
0.414213562373095
 10
-17.0923048763467307
 20
24.7388608530465035
 30
0.0
 10
-17.0923048763467307
 20
24.7388608530465035
 30
0.0
 42
0.414213562373095
 10
-18.0923048763467307
 20
23.7388608530465035
 30
0.0
 10
-18.0923048763467307
 20
12.7388608530465035
 30
0.0
 42
0.414213562373095
 10
-17.0923048763467307
 20
11.7388608530465035
 30
0.0
 10
-17.0923048763467307
 20
11.7388608530465035
 30
0.0
 42
0.414213562373095
 10
-16.0923048763467307
 20
12.7388608530465035
 30
0.0
  0
LWPOLYLINE
  5
BD
  8
holes
 62
256
370
-1
 48
1.0
  6
BYLAYER
100
AcDbEntity
100
AcDbPolyline
 90
9
 70
128
 10
-21.0923048763467307
 20
12.7388608530465035
 30
0.0
 10
-21.0923048763467307
 20
23.7388608530465035
 30
0.0
 42
0.414213562373095
 10
-22.0923048763467307
 20
24.7388608530465035
 30
0.0
 10
-22.0923048763467307
 20
24.7388608530465035
 30
0.0
 42
0.414213562373095
 10
-23.0923048763467307
 20
23.7388608530465035
 30
0.0
 10
-23.0923048763467307
 20
12.7388608530465035
 30
0.0
 42
0.414213562373095
 10
-22.0923048763467307
 20
11.7388608530465035
 30
0.0
 10
-22.0923048763467307
 20
11.7388608530465035
 30
0.0
 42
0.414213562373095
 10
-21.0923048763467307
 20
12.7388608530465035
 30
0.0
  0
LWPOLYLINE
  5
BE
  8
holes
 62
256
370
-1
 48
1.0
  6
BYLAYER
100
AcDbEntity
100
AcDbPolyline
 90
9
 70
128
 10
-26.0923048763467307
 20
12.7388608530465035
 30
0.0
 10
-26.0923048763467307
 20
23.7388608530465035
 30
0.0
 42
0.414213562373095
 10
-27.0923048763467307
 20
24.7388608530465035
 30
0.0
 10
-27.0923048763467307
 20
24.7388608530465035
 30
0.0
 42
0.414213562373095
 10
-28.0923048763467307
 20
23.7388608530465035
 30
0.0
 10
-28.0923048763467307
 20
12.7388608530465035
 30
0.0
 42
0.414213562373095
 10
-27.0923048763467307
 20
11.7388608530465035
 30
0.0
 10
-27.0923048763467307
 20
11.7388608530465035
 30
0.0
 42
0.414213562373095
 10
-26.0923048763467307
 20
12.7388608530465035
 30
0.0
  0
LWPOLYLINE
  5
BF
  8
holes
 62
256
370
-1
 48
1.0
  6
BYLAYER
100
AcDbEntity
100
AcDbPolyline
 90
9
 70
128
 10
8.9076951236532729
 20
12.7388608530464751
 30
0.0
 10
8.9076951236532764
 20
23.7388608530465035
 30
0.0
 42
0.414213562373095
 10
7.90769512365328
 20
24.7388608530465035
 30
0.0
 10
7.90769512365328
 20
24.7388608530465035
 30
0.0
 42
0.414213562373095
 10
6.9076951236532729
 20
23.7388608530465035
 30
0.0
 10
6.9076951236532693
 20
12.7388608530465035
 30
0.0
 42
0.414213562373095
 10
7.9076951236532693
 20
11.7388608530465035
 30
0.0
 10
7.9076951236532693
 20
11.7388608530465035
 30
0.0
 42
0.414213562373095
 10
8.9076951236532729
 20
12.7388608530464751
 30
0.0
  0
LWPOLYLINE
  5
C0
  8
holes
 62
256
370
-1
 48
1.0
  6
BYLAYER
100
AcDbEntity
100
AcDbPolyline
 90
9
 70
128
 10
13.9076951236532693
 20
12.7388608530465035
 30
0.0
 10
13.9076951236532693
 20
23.7388608530465035
 30
0.0
 42
0.414213562373095
 10
12.9076951236532729
 20
24.7388608530465035
 30
0.0
 10
12.9076951236532729
 20
24.7388608530465035
 30
0.0
 42
0.414213562373095
 10
11.9076951236532729
 20
23.7388608530465035
 30
0.0
 10
11.9076951236532693
 20
12.7388608530465035
 30
0.0
 42
0.414213562373095
 10
12.9076951236532693
 20
11.7388608530465035
 30
0.0
 10
12.9076951236532693
 20
11.7388608530465035
 30
0.0
 42
0.414213562373095
 10
13.9076951236532693
 20
12.7388608530465035
 30
0.0
  0
LWPOLYLINE
  5
C1
  8
holes
 62
256
370
-1
 48
1.0
  6
BYLAYER
100
AcDbEntity
100
AcDbPolyline
 90
9
 70
128
 10
-31.0923048763467307
 20
12.7388608530465035
 30
0.0
 10
-31.0923048763467307
 20
23.7388608530465035
 30
0.0
 42
0.414213562373095
 10
-32.0923048763467307
 20
24.7388608530465035
 30
0.0
 10
-32.0923048763467307
 20
24.7388608530465035
 30
0.0
 42
0.414213562373095
 10
-33.0923048763467307
 20
23.7388608530465035
 30
0.0
 10
-33.0923048763467307
 20
12.7388608530465035
 30
0.0
 42
0.414213562373095
 10
-32.0923048763467307
 20
11.7388608530465035
 30
0.0
 10
-32.0923048763467307
 20
11.7388608530465035
 30
0.0
 42
0.414213562373095
 10
-31.0923048763467307
 20
12.7388608530465035
 30
0.0
  0
LWPOLYLINE
  5
C2
  8
holes
 62
256
370
-1
 48
1.0
  6
BYLAYER
100
AcDbEntity
100
AcDbPolyline
 90
9
 70
128
 10
3.9076951236532693
 20
12.7388608530465035
 30
0.0
 10
3.9076951236532764
 20
23.7388608530465035
 30
0.0
 42
0.414213562373095
 10
2.9076951236532729
 20
24.7388608530465035
 30
0.0
 10
2.9076951236532729
 20
24.7388608530465035
 30
0.0
 42
0.414213562373095
 10
1.9076951236532693
 20
23.7388608530465035
 30
0.0
 10
1.9076951236532693
 20
12.7388608530465035
 30
0.0
 42
0.414213562373095
 10
2.9076951236532693
 20
11.7388608530465035
 30
0.0
 10
2.9076951236532693
 20
11.7388608530465035
 30
0.0
 42
0.414213562373095
 10
3.9076951236532693
 20
12.7388608530465035
 30
0.0
  0
LWPOLYLINE
  5
C3
  8
holes
 62
256
370
-1
 48
1.0
  6
BYLAYER
100
AcDbEntity
100
AcDbPolyline
 90
9
 70
128
 10
-1.0923048763467307
 20
12.7388608530465035
 30
0.0
 10
-1.0923048763467236
 20
23.7388608530465035
 30
0.0
 42
0.414213562373095
 10
-2.0923048763467236
 20
24.7388608530465035
 30
0.0
 10
-2.0923048763467236
 20
24.7388608530465035
 30
0.0
 42
0.414213562373095
 10
-3.0923048763467307
 20
23.7388608530465035
 30
0.0
 10
-3.0923048763467307
 20
12.7388608530465035
 30
0.0
 42
0.414213562373095
 10
-2.0923048763467307
 20
11.7388608530465035
 30
0.0
 10
-2.0923048763467307
 20
11.7388608530465035
 30
0.0
 42
0.414213562373095
 10
-1.0923048763467307
 20
12.7388608530465035
 30
0.0
  0
ENDBLK
  5
C4
100
AcDbEntity
  8
0
100
AcDbBlockEnd
  0
BLOCK
  5
C5
100
AcDbEntity
  8
0
100
AcDbBlockBegin
  2
side
 70
0
 10
0.0
 20
0.0
 30
0.0
  3
side
  1

  0
LINE
  5
C6
100
AcDbEntity
100
AcDbLine
  8
0
 62
256
370
-1
 48
1.0
  6
BYLAYER
 10
50.0173894078948109
 20
35.695064532568864
 30
0.0
 11
26.9063621536288906
 21
35.6950645325687219
 31
0.0
  0
LINE
  5
C7
100
AcDbEntity
100
AcDbLine
  8
0
 62
256
370
-1
 48
1.0
  6
BYLAYER
 10
-118.0936378463711094
 20
35.6950645325690061
 30
0.0
 11
-128.0936378463711094
 21
35.6950645325690061
 31
0.0
  0
LINE
  5
C8
100
AcDbEntity
100
AcDbLine
  8
0
 62
256
370
-1
 48
1.0
  6
BYLAYER
 10
-128.0936378463711094
 20
35.6950645325690061
 30
0.0
 11
-128.0936378463711094
 21
55.6950645325688356
 31
0.0
  0
LINE
  5
C9
100
AcDbEntity
100
AcDbLine
  8
0
 62
256
370
-1
 48
1.0
  6
BYLAYER
 10
-0.3936378463711208
 20
85.6950645325688356
 30
0.0
 11
-122.0936378463710668
 21
85.6950645325688356
 31
0.0
  0
LINE
  5
CA
100
AcDbEntity
100
AcDbLine
  8
0
 62
256
370
-1
 48
1.0
  6
BYLAYER
 10
-118.093637846371081
 20
88.6950645325688924
 30
0.0
 11
-118.093637846371081
 21
88.6950645325688924
 31
0.0
  0
LINE
  5
CB
100
AcDbEntity
100
AcDbLine
  8
0
 62
256
370
-1
 48
1.0
  6
BYLAYER
 10
-120.0936378463711094
 20
86.6950645325688356
 30
0.0
 11
-122.0936378463710668
 21
86.695064532568864
 31
0.0
  0
LINE
  5
CC
100
AcDbEntity
100
AcDbLine
  8
0
 62
256
370
-1
 48
1.0
  6
BYLAYER
 10
-124.093637846371081
 20
86.1950645325688924
 30
0.0
 11
-124.093637846371081
 21
86.1950645325688924
 31
0.0
  0
ARC
  5
CD
100
AcDbEntity
  8
0
 62
256
370
-1
 48
1.0
  6
BYLAYER
100
AcDbCircle
 10
-120.093637846371081
 20
88.6950645325688356
 30
0.0
 40
2.0
100
AcDbArc
 50
270.0
 51
360.0
  0
ARC
  5
CE
100
AcDbEntity
  8
0
 62
256
370
-1
 48
1.0
  6
BYLAYER
100
AcDbCircle
 10
-122.093637846371081
 20
86.1950645325688924
 30
0.0
 40
0.5
100
AcDbArc
 50
89.9999999999999858
 51
180.0
  0
ARC
  5
CF
100
AcDbEntity
  8
0
 62
256
370
-1
 48
1.0
  6
BYLAYER
100
AcDbCircle
 10
-122.093637846371081
 20
86.1950645325688924
 30
0.0
 40
0.5
100
AcDbArc
 50
180.0
 51
270.0
  0
LINE
  5
D0
100
AcDbEntity
100
AcDbLine
  8
0
 62
256
370
-1
 48
1.0
  6
BYLAYER
 10
16.9063621536288906
 20
35.6950645325688356
 30
0.0
 11
16.9063621536288906
 21
28.6950645325688356
 31
0.0
  0
LINE
  5
D1
100
AcDbEntity
100
AcDbLine
  8
0
 62
256
370
-1
 48
1.0
  6
BYLAYER
 10
-118.0936378463711094
 20
35.6950645325690061
 30
0.0
 11
-118.0936378463711094
 21
28.6950645325687219
 31
0.0
  0
LINE
  5
D2
100
AcDbEntity
100
AcDbLine
  8
0
 62
256
370
-1
 48
1.0
  6
BYLAYER
 10
19.9063621536288906
 20
25.6950645325687788
 30
0.0
 11
28.9063621536288906
 21
25.6950645325688072
 31
0.0
  0
LINE
  5
D3
100
AcDbEntity
100
AcDbLine
  8
0
 62
256
370
-1
 48
1.0
  6
BYLAYER
 10
-115.0936378463711094
 20
25.6950645325689493
 30
0.0
 11
-106.0936378463711094
 21
25.695064532568864
 31
0.0
  0
LINE
  5
D4
100
AcDbEntity
100
AcDbLine
  8
0
 62
256
370
-1
 48
1.0
  6
BYLAYER
 10
31.9063621536288906
 20
28.6950645325688924
 30
0.0
 11
31.9063621536288906
 21
31.6950645325688356
 31
0.0
  0
LINE
  5
D5
100
AcDbEntity
100
AcDbLine
  8
0
 62
256
370
-1
 48
1.0
  6
BYLAYER
 10
-103.0936378463711094
 20
28.6950645325688356
 30
0.0
 11
-103.0936378463711094
 21
31.6950645325688356
 31
0.0
  0
LINE
  5
D6
100
AcDbEntity
100
AcDbLine
  8
0
 62
256
370
-1
 48
1.0
  6
BYLAYER
 10
31.9063621536288906
 20
31.6950645325688356
 30
0.0
 11
26.9063621536288906
 21
31.6950645325688356
 31
0.0
  0
LINE
  5
D7
100
AcDbEntity
100
AcDbLine
  8
0
 62
256
370
-1
 48
1.0
  6
BYLAYER
 10
-103.0936378463711094
 20
31.6950645325688356
 30
0.0
 11
-108.0936378463711094
 21
31.6950645325688356
 31
0.0
  0
LINE
  5
D8
100
AcDbEntity
100
AcDbLine
  8
0
 62
256
370
-1
 48
1.0
  6
BYLAYER
 10
26.9063621536288906
 20
31.6950645325688356
 30
0.0
 11
26.9063621536288906
 21
35.6950645325687219
 31
0.0
  0
LINE
  5
D9
100
AcDbEntity
100
AcDbLine
  8
0
 62
256
370
-1
 48
1.0
  6
BYLAYER
 10
-108.0936378463711094
 20
31.6950645325688356
 30
0.0
 11
-108.0936378463711094
 21
35.6950645325688924
 31
0.0
  0
ARC
  5
DA
100
AcDbEntity
  8
0
 62
256
370
-1
 48
1.0
  6
BYLAYER
100
AcDbCircle
 10
19.9063621536288906
 20
28.6950645325688356
 30
0.0
 40
3.0
100
AcDbArc
 50
180.0
 51
270.0
  0
ARC
  5
DB
100
AcDbEntity
  8
0
 62
256
370
-1
 48
1.0
  6
BYLAYER
100
AcDbCircle
 10
-115.0936378463711094
 20
28.695064532569063
 30
0.0
 40
3.0
100
AcDbArc
 50
180.0
 51
270.0
  0
ARC
  5
DC
100
AcDbEntity
  8
0
 62
256
370
-1
 48
1.0
  6
BYLAYER
100
AcDbCircle
 10
28.9063621536288906
 20
28.6950645325688924
 30
0.0
 40
3.0
100
AcDbArc
 50
270.0
 51
360.0
  0
ARC
  5
DD
100
AcDbEntity
  8
0
 62
256
370
-1
 48
1.0
  6
BYLAYER
100
AcDbCircle
 10
-106.0936378463711094
 20
28.6950645325687788
 30
0.0
 40
3.0
100
AcDbArc
 50
270.0
 51
360.0
  0
LINE
  5
DE
100
AcDbEntity
100
AcDbLine
  8
0
 62
256
370
-1
 48
1.0
  6
BYLAYER
 10
52.6154656192481198
 20
40.1950645325688711
 30
0.0
 11
30.3874802554475139
 21
78.6950645325687788
 31
0.0
  0
LINE
  5
DF
100
AcDbEntity
100
AcDbLine
  8
0
 62
256
370
-1
 48
1.0
  6
BYLAYER
 10
-38.0936378463711094
 20
35.6950645325688356
 30
0.0
 11
-38.0936378463711094
 21
31.6950645325688356
 31
0.0
  0
LINE
  5
E0
100
AcDbEntity
100
AcDbLine
  8
0
 62
256
370
-1
 48
1.0
  6
BYLAYER
 10
-38.0936378463711094
 20
31.6950645325688356
 30
0.0
 11
-53.0936378463711094
 21
31.6950645325688356
 31
0.0
  0
LINE
  5
E1
100
AcDbEntity
100
AcDbLine
  8
0
 62
256
370
-1
 48
1.0
  6
BYLAYER
 10
-53.0936378463711094
 20
31.6950645325688356
 30
0.0
 11
-53.0936378463711094
 21
35.6950645325688356
 31
0.0
  0
LINE
  5
E2
100
AcDbEntity
100
AcDbLine
  8
0
 62
256
370
-1
 48
1.0
  6
BYLAYER
 10
-119.0936378463710952
 20
61.6950645325688924
 30
0.0
 11
-119.0936378463710952
 21
49.6950645325688356
 31
0.0
  0
LINE
  5
E3
100
AcDbEntity
100
AcDbLine
  8
0
 62
256
370
-1
 48
1.0
  6
BYLAYER
 10
-119.0936378463710525
 20
79.6950645325689493
 30
0.0
 11
-119.0936378463710668
 21
67.6950645325689493
 31
0.0
  0
LINE
  5
E4
100
AcDbEntity
100
AcDbLine
  8
0
 62
256
370
-1
 48
1.0
  6
BYLAYER
 10
-119.0936378463710952
 20
49.6950645325688356
 30
0.0
 11
-123.093637846371081
 21
49.6950645325689493
 31
0.0
  0
LINE
  5
E5
100
AcDbEntity
100
AcDbLine
  8
0
 62
256
370
-1
 48
1.0
  6
BYLAYER
 10
-119.0936378463710668
 20
67.6950645325689493
 30
0.0
 11
-123.0936378463711236
 21
67.6950645325687788
 31
0.0
  0
LINE
  5
E6
100
AcDbEntity
100
AcDbLine
  8
0
 62
256
370
-1
 48
1.0
  6
BYLAYER
 10
-123.093637846371081
 20
49.6950645325689493
 30
0.0
 11
-123.0936378463710952
 21
55.6950645325688924
 31
0.0
  0
LINE
  5
E7
100
AcDbEntity
100
AcDbLine
  8
0
 62
256
370
-1
 48
1.0
  6
BYLAYER
 10
-123.0936378463711236
 20
67.6950645325687788
 30
0.0
 11
-123.093637846371152
 21
73.6950645325687788
 31
0.0
  0
LINE
  5
E8
100
AcDbEntity
100
AcDbLine
  8
0
 62
256
370
-1
 48
1.0
  6
BYLAYER
 10
-119.0936378463710952
 20
61.6950645325688924
 30
0.0
 11
-128.0936378463711094
 21
61.6950645325688356
 31
0.0
  0
LINE
  5
E9
100
AcDbEntity
100
AcDbLine
  8
0
 62
256
370
-1
 48
1.0
  6
BYLAYER
 10
-119.0936378463710525
 20
79.6950645325689493
 30
0.0
 11
-128.093637846371081
 21
79.6950645325688924
 31
0.0
  0
LINE
  5
EA
100
AcDbEntity
100
AcDbLine
  8
0
 62
256
370
-1
 48
1.0
  6
BYLAYER
 10
-123.0936378463710952
 20
55.6950645325688924
 30
0.0
 11
-128.0936378463711094
 21
55.6950645325688356
 31
0.0
  0
LINE
  5
EB
100
AcDbEntity
100
AcDbLine
  8
0
 62
256
370
-1
 48
1.0
  6
BYLAYER
 10
-123.093637846371152
 20
73.6950645325687788
 30
0.0
 11
-128.093637846371081
 21
73.6950645325688924
 31
0.0
  0
LINE
  5
EC
100
AcDbEntity
100
AcDbLine
  8
0
 62
256
370
-1
 48
1.0
  6
BYLAYER
 10
-128.093637846371081
 20
73.6950645325688924
 30
0.0
 11
-128.0936378463711094
 21
61.6950645325688356
 31
0.0
  0
LINE
  5
ED
100
AcDbEntity
100
AcDbLine
  8
holes
 62
3
420
65280
370
-1
 48
1.0
  6
BYLAYER
 10
36.7494402154636646
 20
59.675826646101882
 30
0.0
 11
31.7494402154636646
 21
68.3360806839463066
 31
0.0
  0
LINE
  5
EE
100
AcDbEntity
100
AcDbLine
  8
holes
 62
3
420
65280
370
-1
 48
1.0
  6
BYLAYER
 10
46.7494402154636362
 20
42.3553185704132034
 30
0.0
 11
41.7494402154636646
 21
51.0155726082574574
 31
0.0
  0
LINE
  5
EF
100
AcDbEntity
100
AcDbLine
  8
holes
 62
3
420
65280
370
-1
 48
1.0
  6
BYLAYER
 10
31.7494402154636646
 20
68.3360806839463066
 30
0.0
 11
28.2853386003259288
 21
66.3360806839463635
 31
0.0
  0
LINE
  5
F0
100
AcDbEntity
100
AcDbLine
  8
holes
 62
3
420
65280
370
-1
 48
1.0
  6
BYLAYER
 10
41.7494402154636646
 20
51.0155726082574574
 30
0.0
 11
38.2853386003259004
 21
49.015572608257628
 31
0.0
  0
LINE
  5
F1
100
AcDbEntity
100
AcDbLine
  8
holes
 62
3
420
65280
370
-1
 48
1.0
  6
BYLAYER
 10
28.2853386003259288
 20
66.3360806839463635
 30
0.0
 11
33.2853386003259288
 21
57.6758266461019957
 31
0.0
  0
LINE
  5
F2
100
AcDbEntity
100
AcDbLine
  8
holes
 62
3
420
65280
370
-1
 48
1.0
  6
BYLAYER
 10
38.2853386003259004
 20
49.015572608257628
 30
0.0
 11
43.2853386003259004
 21
40.3553185704132602
 31
0.0
  0
LINE
  5
F3
100
AcDbEntity
100
AcDbLine
  8
holes
 62
3
420
65280
370
-1
 48
1.0
  6
BYLAYER
 10
33.2853386003259288
 20
57.6758266461019957
 30
0.0
 11
36.7494402154636646
 21
59.675826646101882
 31
0.0
  0
LINE
  5
F4
100
AcDbEntity
100
AcDbLine
  8
holes
 62
3
420
65280
370
-1
 48
1.0
  6
BYLAYER
 10
43.2853386003259004
 20
40.3553185704132602
 30
0.0
 11
46.7494402154636362
 21
42.3553185704132034
 31
0.0
  0
LINE
  5
F5
100
AcDbEntity
100
AcDbLine
  8
0
 62
256
370
-1
 48
1.0
  6
BYLAYER
 10
-0.3936378463711208
 20
85.6950645325688356
 30
0.0
 11
-0.3936378463711208
 21
89.6950645325688356
 31
0.0
  0
LINE
  5
F6
100
AcDbEntity
100
AcDbLine
  8
0
 62
256
370
-1
 48
1.0
  6
BYLAYER
 10
-0.3936378463711208
 20
89.6950645325688356
 30
0.0
 11
11.3349213721898536
 21
89.6950645325688356
 31
0.0
  0
LINE
  5
F7
100
AcDbEntity
100
AcDbLine
  8
holes
 62
3
420
65280
370
-1
 48
1.0
  6
BYLAYER
 10
3.6063621536289361
 20
85.6950645325687788
 30
0.0
 11
11.6063621536289077
 21
85.6950645325688356
 31
0.0
  0
LINE
  5
F8
100
AcDbEntity
100
AcDbLine
  8
holes
 62
3
420
65280
370
-1
 48
1.0
  6
BYLAYER
 10
11.6063621536289077
 20
85.6950645325688356
 30
0.0
 11
11.6063621536288792
 21
81.6950645325688356
 31
0.0
  0
LINE
  5
F9
100
AcDbEntity
100
AcDbLine
  8
holes
 62
3
420
65280
370
-1
 48
1.0
  6
BYLAYER
 10
11.6063621536288792
 20
81.6950645325688356
 30
0.0
 11
3.6063621536289077
 21
81.6950645325688356
 31
0.0
  0
LINE
  5
FA
100
AcDbEntity
100
AcDbLine
  8
holes
 62
3
420
65280
370
-1
 48
1.0
  6
BYLAYER
 10
3.6063621536289077
 20
81.6950645325688356
 30
0.0
 11
3.6063621536289361
 21
85.6950645325687788
 31
0.0
  0
ARC
  5
FB
100
AcDbEntity
  8
0
 62
256
370
-1
 48
1.0
  6
BYLAYER
100
AcDbCircle
 10
11.3349213721898536
 20
67.6950645325688356
 30
0.0
 40
22.0
100
AcDbArc
 50
29.9999999999999929
 51
89.9999999999999858
  0
SPLINE
  5
FC
  8
0
 62
7
420
16777215
370
-1
 48
1.0
  6
BYLAYER
100
AcDbEntity
100
AcDbSpline
 70
8
 71
3
 72
10
 73
6
 74
0
 40
0.0
 40
0.0
 40
0.0
 40
0.0
 40
1.0
 40
2.0
 40
3.0
 40
3.0
 40
3.0
 40
3.0
 10
-118.093637846371081
 20
88.6950645325688924
 30
0.0
 10
-118.0
 20
93.0
 30
0.0
 10
-129.0
 20
93.0
 30
0.0
 10
-134.0
 20
89.0
 30
0.0
 10
-133.0
 20
81.0
 30
0.0
 10
-128.093637846371081
 20
79.6950645325688924
 30
0.0
  0
LINE
  5
FD
100
AcDbEntity
100
AcDbLine
  8
0
 62
256
370
-1
 48
1.0
  6
BYLAYER
 10
-108.0936378463711094
 20
35.6950645325688924
 30
0.0
 11
-53.0936378463711094
 21
35.6950645325688356
 31
0.0
  0
LINE
  5
FE
100
AcDbEntity
100
AcDbLine
  8
0
 62
256
370
-1
 48
1.0
  6
BYLAYER
 10
-38.0936378463711094
 20
35.6950645325688356
 30
0.0
 11
16.9063621536288906
 21
35.6950645325688356
 31
0.0
  0
ARC
  5
FF
100
AcDbEntity
  8
0
 62
256
370
-1
 48
1.0
  6
BYLAYER
100
AcDbCircle
 10
50.0173894078947967
 20
38.695064532568864
 30
0.0
 40
3.0
100
AcDbArc
 50
270.0000000000002274
 51
30.0000000000000426
  0
ENDBLK
  5
100
100
AcDbEntity
  8
0
100
AcDbBlockEnd
  0
BLOCK
  5
101
100
AcDbEntity
  8
0
100
AcDbBlockBegin
  2
metal-sideview
 70
0
 10
0.0
 20
0.0
 30
0.0
  3
metal-sideview
  1

  0
ENDBLK
  5
102
100
AcDbEntity
  8
0
100
AcDbBlockEnd
  0
BLOCK
  5
103
100
AcDbEntity
  8
0
100
AcDbBlockBegin
  2
bottom
 70
0
 10
0.0
 20
0.0
 30
0.0
  3
bottom
  1

  0
LINE
  5
104
100
AcDbEntity
100
AcDbLine
  8
0
 62
256
370
-1
 48
1.0
  6
BYLAYER
 10
0.0
 20
45.7500000000000142
 30
0.0
 11
0.0
 21
-45.75
 31
0.0
  0
LINE
  5
105
100
AcDbEntity
100
AcDbLine
  8
0
 62
256
370
-1
 48
1.0
  6
BYLAYER
 10
174.0695753699385477
 20
-45.7499999999999858
 30
0.0
 11
174.0695753699385477
 21
45.7500000000000142
 31
0.0
  0
LINE
  5
106
100
AcDbEntity
100
AcDbLine
  8
holes
 62
3
420
65280
370
-1
 48
1.0
  6
BYLAYER
 10
169.0695753699385477
 20
-41.7499999999999858
 30
0.0
 11
154.0695753699385477
 21
-41.7500000000000284
 31
0.0
  0
LINE
  5
107
100
AcDbEntity
100
AcDbLine
  8
holes
 62
3
420
65280
370
-1
 48
1.0
  6
BYLAYER
 10
169.0695753699385477
 20
41.7500000000000142
 30
0.0
 11
154.0695753699385477
 21
41.7500000000000142
 31
0.0
  0
LINE
  5
108
100
AcDbEntity
100
AcDbLine
  8
holes
 62
3
420
65280
370
-1
 48
1.0
  6
BYLAYER
 10
19.0695753699385477
 20
-41.7499999999999858
 30
0.0
 11
19.0695753699385477
 21
-37.7499999999999858
 31
0.0
  0
LINE
  5
109
100
AcDbEntity
100
AcDbLine
  8
holes
 62
3
420
65280
370
-1
 48
1.0
  6
BYLAYER
 10
154.0695753699385477
 20
-41.7500000000000284
 30
0.0
 11
154.0695753699385477
 21
-37.7499999999999289
 31
0.0
  0
LINE
  5
10A
100
AcDbEntity
100
AcDbLine
  8
holes
 62
3
420
65280
370
-1
 48
1.0
  6
BYLAYER
 10
19.0695753699385477
 20
41.7500000000000142
 30
0.0
 11
19.0695753699385477
 21
37.7500000000000142
 31
0.0
  0
LINE
  5
10B
100
AcDbEntity
100
AcDbLine
  8
holes
 62
3
420
65280
370
-1
 48
1.0
  6
BYLAYER
 10
154.0695753699385477
 20
41.7500000000000142
 30
0.0
 11
154.0695753699385477
 21
37.7500000000000142
 31
0.0
  0
LINE
  5
10C
100
AcDbEntity
100
AcDbLine
  8
holes
 62
3
420
65280
370
-1
 48
1.0
  6
BYLAYER
 10
19.0695753699385477
 20
-37.7499999999999858
 30
0.0
 11
34.0695753699385477
 21
-37.7499999999999858
 31
0.0
  0
LINE
  5
10D
100
AcDbEntity
100
AcDbLine
  8
holes
 62
3
420
65280
370
-1
 48
1.0
  6
BYLAYER
 10
154.0695753699385477
 20
-37.7499999999999289
 30
0.0
 11
169.0695753699385477
 21
-37.75
 31
0.0
  0
LINE
  5
10E
100
AcDbEntity
100
AcDbLine
  8
holes
 62
3
420
65280
370
-1
 48
1.0
  6
BYLAYER
 10
19.0695753699385477
 20
37.7500000000000142
 30
0.0
 11
34.0695753699385477
 21
37.7500000000000142
 31
0.0
  0
LINE
  5
10F
100
AcDbEntity
100
AcDbLine
  8
holes
 62
3
420
65280
370
-1
 48
1.0
  6
BYLAYER
 10
154.0695753699385477
 20
37.7500000000000142
 30
0.0
 11
169.0695753699385477
 21
37.7500000000000142
 31
0.0
  0
LINE
  5
110
100
AcDbEntity
100
AcDbLine
  8
holes
 62
3
420
65280
370
-1
 48
1.0
  6
BYLAYER
 10
34.0695753699385477
 20
-37.7499999999999858
 30
0.0
 11
34.0695753699385477
 21
-41.7499999999999858
 31
0.0
  0
LINE
  5
111
100
AcDbEntity
100
AcDbLine
  8
holes
 62
3
420
65280
370
-1
 48
1.0
  6
BYLAYER
 10
169.0695753699385477
 20
-37.75
 30
0.0
 11
169.0695753699385477
 21
-41.7499999999999858
 31
0.0
  0
LINE
  5
112
100
AcDbEntity
100
AcDbLine
  8
holes
 62
3
420
65280
370
-1
 48
1.0
  6
BYLAYER
 10
34.0695753699385477
 20
37.7500000000000142
 30
0.0
 11
34.0695753699385477
 21
41.7500000000000142
 31
0.0
  0
LINE
  5
113
100
AcDbEntity
100
AcDbLine
  8
holes
 62
3
420
65280
370
-1
 48
1.0
  6
BYLAYER
 10
169.0695753699385477
 20
37.7500000000000142
 30
0.0
 11
169.0695753699385477
 21
41.7500000000000142
 31
0.0
  0
LINE
  5
114
100
AcDbEntity
100
AcDbLine
  8
holes
 62
3
420
65280
370
-1
 48
1.0
  6
BYLAYER
 10
19.0695753699385477
 20
-41.7499999999999858
 30
0.0
 11
34.0695753699385477
 21
-41.7499999999999858
 31
0.0
  0
LINE
  5
115
100
AcDbEntity
100
AcDbLine
  8
holes
 62
3
420
65280
370
-1
 48
1.0
  6
BYLAYER
 10
19.0695753699385477
 20
41.7500000000000142
 30
0.0
 11
34.0695753699385477
 21
41.7500000000000142
 31
0.0
  0
LINE
  5
116
100
AcDbEntity
100
AcDbLine
  8
0
 62
256
370
-1
 48
1.0
  6
BYLAYER
 10
0.0
 20
45.7500000000000142
 30
0.0
 11
174.0695753699385477
 21
45.7500000000000142
 31
0.0
  0
LINE
  5
117
100
AcDbEntity
100
AcDbLine
  8
0
 62
256
370
-1
 48
1.0
  6
BYLAYER
 10
0.0
 20
-45.7500000000000142
 30
0.0
 11
174.0695753699385477
 21
-45.7499999999999716
 31
0.0
  0
LINE
  5
118
100
AcDbEntity
100
AcDbLine
  8
holes
 62
3
420
65280
370
-1
 48
1.0
  6
BYLAYER
 10
94.0695753699385477
 20
-41.7499999999999716
 30
0.0
 11
84.0695753699385477
 21
-41.7499999999999716
 31
0.0
  0
LINE
  5
119
100
AcDbEntity
100
AcDbLine
  8
holes
 62
3
420
65280
370
-1
 48
1.0
  6
BYLAYER
 10
94.0695753699385477
 20
41.7500000000000142
 30
0.0
 11
84.0695753699385477
 21
41.7500000000000142
 31
0.0
  0
LINE
  5
11A
100
AcDbEntity
100
AcDbLine
  8
holes
 62
3
420
65280
370
-1
 48
1.0
  6
BYLAYER
 10
84.0695753699385477
 20
-41.7499999999999716
 30
0.0
 11
84.0695753699385477
 21
-37.7499999999999858
 31
0.0
  0
LINE
  5
11B
100
AcDbEntity
100
AcDbLine
  8
holes
 62
3
420
65280
370
-1
 48
1.0
  6
BYLAYER
 10
84.0695753699385477
 20
41.7500000000000142
 30
0.0
 11
84.0695753699385477
 21
37.7500000000000142
 31
0.0
  0
LINE
  5
11C
100
AcDbEntity
100
AcDbLine
  8
holes
 62
3
420
65280
370
-1
 48
1.0
  6
BYLAYER
 10
84.0695753699385477
 20
-37.7499999999999858
 30
0.0
 11
104.0695753699385477
 21
-37.7499999999999858
 31
0.0
  0
LINE
  5
11D
100
AcDbEntity
100
AcDbLine
  8
holes
 62
3
420
65280
370
-1
 48
1.0
  6
BYLAYER
 10
84.0695753699385477
 20
37.7500000000000142
 30
0.0
 11
104.0695753699385477
 21
37.7500000000000142
 31
0.0
  0
LINE
  5
11E
100
AcDbEntity
100
AcDbLine
  8
holes
 62
3
420
65280
370
-1
 48
1.0
  6
BYLAYER
 10
104.0695753699385477
 20
-37.7499999999999858
 30
0.0
 11
104.0695753699385477
 21
-41.7499999999999574
 31
0.0
  0
LINE
  5
11F
100
AcDbEntity
100
AcDbLine
  8
holes
 62
3
420
65280
370
-1
 48
1.0
  6
BYLAYER
 10
104.0695753699385477
 20
37.7500000000000142
 30
0.0
 11
104.0695753699385477
 21
41.7500000000000142
 31
0.0
  0
LINE
  5
120
100
AcDbEntity
100
AcDbLine
  8
holes
 62
3
420
65280
370
-1
 48
1.0
  6
BYLAYER
 10
104.0695753699385477
 20
-41.7499999999999574
 30
0.0
 11
94.0695753699385477
 21
-41.7499999999999716
 31
0.0
  0
LINE
  5
121
100
AcDbEntity
100
AcDbLine
  8
holes
 62
3
420
65280
370
-1
 48
1.0
  6
BYLAYER
 10
104.0695753699385477
 20
41.7500000000000142
 30
0.0
 11
94.0695753699385477
 21
41.7500000000000142
 31
0.0
  0
LINE
  5
122
100
AcDbEntity
100
AcDbLine
  8
holes
 62
3
420
65280
370
-1
 48
1.0
  6
BYLAYER
 10
169.0695753699385477
 20
-7.4999999999999858
 30
0.0
 11
169.0695753699385477
 21
-22.4999999999999858
 31
0.0
  0
LINE
  5
123
100
AcDbEntity
100
AcDbLine
  8
holes
 62
3
420
65280
370
-1
 48
1.0
  6
BYLAYER
 10
169.0695753699385477
 20
7.5000000000000142
 30
0.0
 11
169.0695753699385477
 21
22.5000000000000142
 31
0.0
  0
LINE
  5
124
100
AcDbEntity
100
AcDbLine
  8
holes
 62
3
420
65280
370
-1
 48
1.0
  6
BYLAYER
 10
169.0695753699385477
 20
-22.4999999999999858
 30
0.0
 11
165.0695753699385477
 21
-22.4999999999999858
 31
0.0
  0
LINE
  5
125
100
AcDbEntity
100
AcDbLine
  8
holes
 62
3
420
65280
370
-1
 48
1.0
  6
BYLAYER
 10
169.0695753699385477
 20
22.5000000000000142
 30
0.0
 11
165.0695753699385477
 21
22.5000000000000142
 31
0.0
  0
LINE
  5
126
100
AcDbEntity
100
AcDbLine
  8
holes
 62
3
420
65280
370
-1
 48
1.0
  6
BYLAYER
 10
165.0695753699385477
 20
-22.4999999999999858
 30
0.0
 11
165.0695753699385477
 21
-7.4999999999999858
 31
0.0
  0
LINE
  5
127
100
AcDbEntity
100
AcDbLine
  8
holes
 62
3
420
65280
370
-1
 48
1.0
  6
BYLAYER
 10
165.0695753699385477
 20
22.5000000000000142
 30
0.0
 11
165.0695753699385477
 21
7.5000000000000142
 31
0.0
  0
LINE
  5
128
100
AcDbEntity
100
AcDbLine
  8
holes
 62
3
420
65280
370
-1
 48
1.0
  6
BYLAYER
 10
165.0695753699385477
 20
-7.4999999999999858
 30
0.0
 11
169.0695753699385477
 21
-7.4999999999999858
 31
0.0
  0
LINE
  5
129
100
AcDbEntity
100
AcDbLine
  8
holes
 62
3
420
65280
370
-1
 48
1.0
  6
BYLAYER
 10
165.0695753699385477
 20
7.5000000000000142
 30
0.0
 11
169.0695753699385477
 21
7.5000000000000142
 31
0.0
  0
CIRCLE
  5
12A
100
AcDbEntity
100
AcDbCircle
  8
holes
 62
256
370
-1
 48
1.0
  6
BYLAYER
 10
54.8695753699385023
 20
23.6000000000000369
 30
0.0
 40
2.0
  0
CIRCLE
  5
12B
100
AcDbEntity
100
AcDbCircle
  8
holes
 62
256
370
-1
 48
1.0
  6
BYLAYER
 10
153.0695753699384909
 20
23.6000000000000369
 30
0.0
 40
2.0
  0
CIRCLE
  5
12C
100
AcDbEntity
100
AcDbCircle
  8
holes
 62
256
370
-1
 48
1.0
  6
BYLAYER
 10
153.0695753699384909
 20
-23.5999999999999659
 30
0.0
 40
2.0
  0
CIRCLE
  5
12D
100
AcDbEntity
100
AcDbCircle
  8
holes
 62
256
370
-1
 48
1.0
  6
BYLAYER
 10
54.8695753699385023
 20
-23.5999999999999659
 30
0.0
 40
2.0
  0
LWPOLYLINE
  5
12E
  8
holes
 62
256
370
-1
 48
1.0
  6
BYLAYER
100
AcDbEntity
100
AcDbPolyline
 90
9
 70
128
 10
78.8695753699385023
 20
-23.4999999999999716
 30
0.0
 10
89.8695753699385023
 20
-23.4999999999999716
 30
0.0
 42
0.414213562373095
 10
90.8695753699385023
 20
-22.4999999999999716
 30
0.0
 10
90.8695753699385023
 20
-22.4999999999999716
 30
0.0
 42
0.414213562373095
 10
89.8695753699385023
 20
-21.4999999999999716
 30
0.0
 10
78.8695753699385023
 20
-21.4999999999999716
 30
0.0
 42
0.414213562373095
 10
77.8695753699385023
 20
-22.4999999999999716
 30
0.0
 10
77.8695753699385023
 20
-22.4999999999999716
 30
0.0
 42
0.414213562373095
 10
78.8695753699385023
 20
-23.4999999999999716
 30
0.0
  0
LWPOLYLINE
  5
12F
  8
holes
 62
256
370
-1
 48
1.0
  6
BYLAYER
100
AcDbEntity
100
AcDbPolyline
 90
9
 70
128
 10
98.8695753699385023
 20
-23.4999999999999716
 30
0.0
 10
109.8695753699385023
 20
-23.4999999999999716
 30
0.0
 42
0.414213562373095
 10
110.8695753699385023
 20
-22.4999999999999716
 30
0.0
 10
110.8695753699385023
 20
-22.4999999999999716
 30
0.0
 42
0.414213562373095
 10
109.8695753699385023
 20
-21.4999999999999716
 30
0.0
 10
98.8695753699385023
 20
-21.4999999999999716
 30
0.0
 42
0.414213562373095
 10
97.8695753699385023
 20
-22.4999999999999716
 30
0.0
 10
97.8695753699385023
 20
-22.4999999999999716
 30
0.0
 42
0.414213562373095
 10
98.8695753699385023
 20
-23.4999999999999716
 30
0.0
  0
LWPOLYLINE
  5
130
  8
holes
 62
256
370
-1
 48
1.0
  6
BYLAYER
100
AcDbEntity
100
AcDbPolyline
 90
9
 70
128
 10
78.8695753699385023
 20
21.5000000000000142
 30
0.0
 10
89.8695753699385023
 20
21.5000000000000142
 30
0.0
 42
0.414213562373095
 10
90.8695753699385023
 20
22.5000000000000142
 30
0.0
 10
90.8695753699385023
 20
22.5000000000000142
 30
0.0
 42
0.414213562373095
 10
89.8695753699385023
 20
23.5000000000000142
 30
0.0
 10
78.8695753699385023
 20
23.5000000000000142
 30
0.0
 42
0.414213562373095
 10
77.8695753699385023
 20
22.5000000000000142
 30
0.0
 10
77.8695753699385023
 20
22.5000000000000142
 30
0.0
 42
0.414213562373095
 10
78.8695753699385023
 20
21.5000000000000142
 30
0.0
  0
LWPOLYLINE
  5
131
  8
holes
 62
256
370
-1
 48
1.0
  6
BYLAYER
100
AcDbEntity
100
AcDbPolyline
 90
9
 70
128
 10
98.8695753699385023
 20
21.5000000000000142
 30
0.0
 10
109.8695753699385023
 20
21.5000000000000142
 30
0.0
 42
0.414213562373095
 10
110.8695753699385023
 20
22.5000000000000142
 30
0.0
 10
110.8695753699385023
 20
22.5000000000000142
 30
0.0
 42
0.414213562373095
 10
109.8695753699385023
 20
23.5000000000000142
 30
0.0
 10
98.8695753699385023
 20
23.5000000000000142
 30
0.0
 42
0.414213562373095
 10
97.8695753699385023
 20
22.5000000000000142
 30
0.0
 10
97.8695753699385023
 20
22.5000000000000142
 30
0.0
 42
0.414213562373095
 10
98.8695753699385023
 20
21.5000000000000142
 30
0.0
  0
LWPOLYLINE
  5
132
  8
holes
 62
256
370
-1
 48
1.0
  6
BYLAYER
100
AcDbEntity
100
AcDbPolyline
 90
9
 70
128
 10
98.8695753699385023
 20
-13.4999999999999716
 30
0.0
 10
109.8695753699385023
 20
-13.4999999999999716
 30
0.0
 42
0.414213562373095
 10
110.8695753699385023
 20
-12.4999999999999716
 30
0.0
 10
110.8695753699385023
 20
-12.4999999999999716
 30
0.0
 42
0.414213562373095
 10
109.8695753699385023
 20
-11.4999999999999716
 30
0.0
 10
98.8695753699385023
 20
-11.4999999999999716
 30
0.0
 42
0.414213562373095
 10
97.8695753699385023
 20
-12.4999999999999716
 30
0.0
 10
97.8695753699385023
 20
-12.4999999999999716
 30
0.0
 42
0.414213562373095
 10
98.8695753699385023
 20
-13.4999999999999716
 30
0.0
  0
LWPOLYLINE
  5
133
  8
holes
 62
256
370
-1
 48
1.0
  6
BYLAYER
100
AcDbEntity
100
AcDbPolyline
 90
9
 70
128
 10
98.8695753699385023
 20
-8.4999999999999716
 30
0.0
 10
109.8695753699385023
 20
-8.4999999999999716
 30
0.0
 42
0.414213562373095
 10
110.8695753699385023
 20
-7.4999999999999716
 30
0.0
 10
110.8695753699385023
 20
-7.4999999999999716
 30
0.0
 42
0.414213562373095
 10
109.8695753699385023
 20
-6.4999999999999716
 30
0.0
 10
98.8695753699385023
 20
-6.4999999999999716
 30
0.0
 42
0.414213562373095
 10
97.8695753699385023
 20
-7.4999999999999716
 30
0.0
 10
97.8695753699385023
 20
-7.4999999999999716
 30
0.0
 42
0.414213562373095
 10
98.8695753699385023
 20
-8.4999999999999716
 30
0.0
  0
LWPOLYLINE
  5
134
  8
holes
 62
256
370
-1
 48
1.0
  6
BYLAYER
100
AcDbEntity
100
AcDbPolyline
 90
9
 70
128
 10
98.8695753699385023
 20
-3.4999999999999716
 30
0.0
 10
109.8695753699385023
 20
-3.4999999999999716
 30
0.0
 42
0.414213562373095
 10
110.8695753699385023
 20
-2.4999999999999716
 30
0.0
 10
110.8695753699385023
 20
-2.4999999999999716
 30
0.0
 42
0.414213562373095
 10
109.8695753699385023
 20
-1.4999999999999716
 30
0.0
 10
98.8695753699385023
 20
-1.4999999999999716
 30
0.0
 42
0.414213562373095
 10
97.8695753699385023
 20
-2.4999999999999716
 30
0.0
 10
97.8695753699385023
 20
-2.4999999999999716
 30
0.0
 42
0.414213562373095
 10
98.8695753699385023
 20
-3.4999999999999716
 30
0.0
  0
LWPOLYLINE
  5
135
  8
holes
 62
256
370
-1
 48
1.0
  6
BYLAYER
100
AcDbEntity
100
AcDbPolyline
 90
9
 70
128
 10
98.8695753699385023
 20
1.5000000000000284
 30
0.0
 10
109.8695753699385023
 20
1.5000000000000284
 30
0.0
 42
0.414213562373095
 10
110.8695753699385023
 20
2.5000000000000284
 30
0.0
 10
110.8695753699385023
 20
2.5000000000000284
 30
0.0
 42
0.414213562373095
 10
109.8695753699385023
 20
3.5000000000000284
 30
0.0
 10
98.8695753699385023
 20
3.5000000000000284
 30
0.0
 42
0.414213562373095
 10
97.8695753699385023
 20
2.5000000000000284
 30
0.0
 10
97.8695753699385023
 20
2.5000000000000284
 30
0.0
 42
0.414213562373095
 10
98.8695753699385023
 20
1.5000000000000284
 30
0.0
  0
LWPOLYLINE
  5
136
  8
holes
 62
256
370
-1
 48
1.0
  6
BYLAYER
100
AcDbEntity
100
AcDbPolyline
 90
9
 70
128
 10
98.8695753699385023
 20
6.5000000000000284
 30
0.0
 10
109.8695753699385023
 20
6.5000000000000284
 30
0.0
 42
0.414213562373095
 10
110.8695753699385023
 20
7.5000000000000284
 30
0.0
 10
110.8695753699385023
 20
7.5000000000000284
 30
0.0
 42
0.414213562373095
 10
109.8695753699385023
 20
8.5000000000000284
 30
0.0
 10
98.8695753699385023
 20
8.5000000000000284
 30
0.0
 42
0.414213562373095
 10
97.8695753699385023
 20
7.5000000000000284
 30
0.0
 10
97.8695753699385023
 20
7.5000000000000284
 30
0.0
 42
0.414213562373095
 10
98.8695753699385023
 20
6.5000000000000284
 30
0.0
  0
LWPOLYLINE
  5
137
  8
holes
 62
256
370
-1
 48
1.0
  6
BYLAYER
100
AcDbEntity
100
AcDbPolyline
 90
9
 70
128
 10
98.8695753699385023
 20
11.5000000000000284
 30
0.0
 10
109.8695753699385023
 20
11.5000000000000284
 30
0.0
 42
0.414213562373095
 10
110.8695753699385023
 20
12.5000000000000284
 30
0.0
 10
110.8695753699385023
 20
12.5000000000000284
 30
0.0
 42
0.414213562373095
 10
109.8695753699385023
 20
13.5000000000000284
 30
0.0
 10
98.8695753699385023
 20
13.5000000000000284
 30
0.0
 42
0.414213562373095
 10
97.8695753699385023
 20
12.5000000000000284
 30
0.0
 10
97.8695753699385023
 20
12.5000000000000284
 30
0.0
 42
0.414213562373095
 10
98.8695753699385023
 20
11.5000000000000284
 30
0.0
  0
LWPOLYLINE
  5
138
  8
holes
 62
256
370
-1
 48
1.0
  6
BYLAYER
100
AcDbEntity
100
AcDbPolyline
 90
9
 70
128
 10
98.8695753699385023
 20
16.5000000000000142
 30
0.0
 10
109.8695753699385023
 20
16.5000000000000142
 30
0.0
 42
0.414213562373095
 10
110.8695753699385023
 20
17.5000000000000142
 30
0.0
 10
110.8695753699385023
 20
17.5000000000000142
 30
0.0
 42
0.414213562373095
 10
109.8695753699385023
 20
18.5000000000000142
 30
0.0
 10
98.8695753699385023
 20
18.5000000000000142
 30
0.0
 42
0.414213562373095
 10
97.8695753699385023
 20
17.5000000000000142
 30
0.0
 10
97.8695753699385023
 20
17.5000000000000142
 30
0.0
 42
0.414213562373095
 10
98.8695753699385023
 20
16.5000000000000142
 30
0.0
  0
LWPOLYLINE
  5
139
  8
holes
 62
256
370
-1
 48
1.0
  6
BYLAYER
100
AcDbEntity
100
AcDbPolyline
 90
9
 70
128
 10
98.8695753699385023
 20
-18.4999999999999716
 30
0.0
 10
109.8695753699385023
 20
-18.4999999999999716
 30
0.0
 42
0.414213562373095
 10
110.8695753699385023
 20
-17.4999999999999716
 30
0.0
 10
110.8695753699385023
 20
-17.4999999999999716
 30
0.0
 42
0.414213562373095
 10
109.8695753699385023
 20
-16.4999999999999716
 30
0.0
 10
98.8695753699385023
 20
-16.4999999999999716
 30
0.0
 42
0.414213562373095
 10
97.8695753699385023
 20
-17.4999999999999716
 30
0.0
 10
97.8695753699385023
 20
-17.4999999999999716
 30
0.0
 42
0.414213562373095
 10
98.8695753699385023
 20
-18.4999999999999716
 30
0.0
  0
LWPOLYLINE
  5
13A
  8
holes
 62
256
370
-1
 48
1.0
  6
BYLAYER
100
AcDbEntity
100
AcDbPolyline
 90
9
 70
128
 10
78.8695753699385023
 20
-13.4999999999999716
 30
0.0
 10
89.8695753699385023
 20
-13.4999999999999716
 30
0.0
 42
0.414213562373095
 10
90.8695753699385023
 20
-12.4999999999999716
 30
0.0
 10
90.8695753699385023
 20
-12.4999999999999716
 30
0.0
 42
0.414213562373095
 10
89.8695753699385023
 20
-11.4999999999999716
 30
0.0
 10
78.8695753699385023
 20
-11.4999999999999716
 30
0.0
 42
0.414213562373095
 10
77.8695753699385023
 20
-12.4999999999999716
 30
0.0
 10
77.8695753699385023
 20
-12.4999999999999716
 30
0.0
 42
0.414213562373095
 10
78.8695753699385023
 20
-13.4999999999999716
 30
0.0
  0
LWPOLYLINE
  5
13B
  8
holes
 62
256
370
-1
 48
1.0
  6
BYLAYER
100
AcDbEntity
100
AcDbPolyline
 90
9
 70
128
 10
78.8695753699385023
 20
-8.4999999999999716
 30
0.0
 10
89.8695753699385023
 20
-8.4999999999999716
 30
0.0
 42
0.414213562373095
 10
90.8695753699385023
 20
-7.4999999999999716
 30
0.0
 10
90.8695753699385023
 20
-7.4999999999999716
 30
0.0
 42
0.414213562373095
 10
89.8695753699385023
 20
-6.4999999999999716
 30
0.0
 10
78.8695753699385023
 20
-6.4999999999999716
 30
0.0
 42
0.414213562373095
 10
77.8695753699385023
 20
-7.4999999999999716
 30
0.0
 10
77.8695753699385023
 20
-7.4999999999999716
 30
0.0
 42
0.414213562373095
 10
78.8695753699385023
 20
-8.4999999999999716
 30
0.0
  0
LWPOLYLINE
  5
13C
  8
holes
 62
256
370
-1
 48
1.0
  6
BYLAYER
100
AcDbEntity
100
AcDbPolyline
 90
9
 70
128
 10
78.8695753699385023
 20
-3.4999999999999716
 30
0.0
 10
89.8695753699385023
 20
-3.4999999999999716
 30
0.0
 42
0.414213562373095
 10
90.8695753699385023
 20
-2.4999999999999716
 30
0.0
 10
90.8695753699385023
 20
-2.4999999999999716
 30
0.0
 42
0.414213562373095
 10
89.8695753699385023
 20
-1.4999999999999716
 30
0.0
 10
78.8695753699385023
 20
-1.4999999999999716
 30
0.0
 42
0.414213562373095
 10
77.8695753699385023
 20
-2.4999999999999716
 30
0.0
 10
77.8695753699385023
 20
-2.4999999999999716
 30
0.0
 42
0.414213562373095
 10
78.8695753699385023
 20
-3.4999999999999716
 30
0.0
  0
LWPOLYLINE
  5
13D
  8
holes
 62
256
370
-1
 48
1.0
  6
BYLAYER
100
AcDbEntity
100
AcDbPolyline
 90
9
 70
128
 10
78.8695753699385023
 20
1.5000000000000284
 30
0.0
 10
89.8695753699385023
 20
1.5000000000000284
 30
0.0
 42
0.414213562373095
 10
90.8695753699385023
 20
2.5000000000000284
 30
0.0
 10
90.8695753699385023
 20
2.5000000000000284
 30
0.0
 42
0.414213562373095
 10
89.8695753699385023
 20
3.5000000000000284
 30
0.0
 10
78.8695753699385023
 20
3.5000000000000284
 30
0.0
 42
0.414213562373095
 10
77.8695753699385023
 20
2.5000000000000284
 30
0.0
 10
77.8695753699385023
 20
2.5000000000000284
 30
0.0
 42
0.414213562373095
 10
78.8695753699385023
 20
1.5000000000000284
 30
0.0
  0
LWPOLYLINE
  5
13E
  8
holes
 62
256
370
-1
 48
1.0
  6
BYLAYER
100
AcDbEntity
100
AcDbPolyline
 90
9
 70
128
 10
78.8695753699385023
 20
6.5000000000000284
 30
0.0
 10
89.8695753699385023
 20
6.5000000000000284
 30
0.0
 42
0.414213562373095
 10
90.8695753699385023
 20
7.5000000000000284
 30
0.0
 10
90.8695753699385023
 20
7.5000000000000284
 30
0.0
 42
0.414213562373095
 10
89.8695753699385023
 20
8.5000000000000284
 30
0.0
 10
78.8695753699385023
 20
8.5000000000000284
 30
0.0
 42
0.414213562373095
 10
77.8695753699385023
 20
7.5000000000000284
 30
0.0
 10
77.8695753699385023
 20
7.5000000000000284
 30
0.0
 42
0.414213562373095
 10
78.8695753699385023
 20
6.5000000000000284
 30
0.0
  0
LWPOLYLINE
  5
13F
  8
holes
 62
256
370
-1
 48
1.0
  6
BYLAYER
100
AcDbEntity
100
AcDbPolyline
 90
9
 70
128
 10
78.8695753699385023
 20
11.5000000000000284
 30
0.0
 10
89.8695753699385023
 20
11.5000000000000284
 30
0.0
 42
0.414213562373095
 10
90.8695753699385023
 20
12.5000000000000284
 30
0.0
 10
90.8695753699385023
 20
12.5000000000000284
 30
0.0
 42
0.414213562373095
 10
89.8695753699385023
 20
13.5000000000000284
 30
0.0
 10
78.8695753699385023
 20
13.5000000000000284
 30
0.0
 42
0.414213562373095
 10
77.8695753699385023
 20
12.5000000000000284
 30
0.0
 10
77.8695753699385023
 20
12.5000000000000284
 30
0.0
 42
0.414213562373095
 10
78.8695753699385023
 20
11.5000000000000284
 30
0.0
  0
LWPOLYLINE
  5
140
  8
holes
 62
256
370
-1
 48
1.0
  6
BYLAYER
100
AcDbEntity
100
AcDbPolyline
 90
9
 70
128
 10
78.8695753699385023
 20
16.5000000000000142
 30
0.0
 10
89.8695753699385023
 20
16.5000000000000142
 30
0.0
 42
0.414213562373095
 10
90.8695753699385023
 20
17.5000000000000142
 30
0.0
 10
90.8695753699385023
 20
17.5000000000000142
 30
0.0
 42
0.414213562373095
 10
89.8695753699385023
 20
18.5000000000000142
 30
0.0
 10
78.8695753699385023
 20
18.5000000000000142
 30
0.0
 42
0.414213562373095
 10
77.8695753699385023
 20
17.5000000000000142
 30
0.0
 10
77.8695753699385023
 20
17.5000000000000142
 30
0.0
 42
0.414213562373095
 10
78.8695753699385023
 20
16.5000000000000142
 30
0.0
  0
LWPOLYLINE
  5
141
  8
holes
 62
256
370
-1
 48
1.0
  6
BYLAYER
100
AcDbEntity
100
AcDbPolyline
 90
9
 70
128
 10
78.8695753699385023
 20
-18.4999999999999716
 30
0.0
 10
89.8695753699385023
 20
-18.4999999999999716
 30
0.0
 42
0.414213562373095
 10
90.8695753699385023
 20
-17.4999999999999716
 30
0.0
 10
90.8695753699385023
 20
-17.4999999999999716
 30
0.0
 42
0.414213562373095
 10
89.8695753699385023
 20
-16.4999999999999716
 30
0.0
 10
78.8695753699385023
 20
-16.4999999999999716
 30
0.0
 42
0.414213562373095
 10
77.8695753699385023
 20
-17.4999999999999716
 30
0.0
 10
77.8695753699385023
 20
-17.4999999999999716
 30
0.0
 42
0.414213562373095
 10
78.8695753699385023
 20
-18.4999999999999716
 30
0.0
  0
LWPOLYLINE
  5
142
  8
holes
 62
256
370
-1
 48
1.0
  6
BYLAYER
100
AcDbEntity
100
AcDbPolyline
 90
9
 70
128
 10
37.8695753699385023
 20
-13.4999999999999716
 30
0.0
 10
50.8695753699385023
 20
-13.4999999999999716
 30
0.0
 42
0.414213562373095
 10
51.8695753699385023
 20
-12.4999999999999716
 30
0.0
 10
51.8695753699385023
 20
-12.4999999999999716
 30
0.0
 42
0.414213562373095
 10
50.8695753699385023
 20
-11.4999999999999716
 30
0.0
 10
37.8695753699385023
 20
-11.4999999999999716
 30
0.0
 42
0.414213562373095
 10
36.8695753699385023
 20
-12.4999999999999716
 30
0.0
 10
36.8695753699385023
 20
-12.4999999999999716
 30
0.0
 42
0.414213562373095
 10
37.8695753699385023
 20
-13.4999999999999716
 30
0.0
  0
LWPOLYLINE
  5
143
  8
holes
 62
256
370
-1
 48
1.0
  6
BYLAYER
100
AcDbEntity
100
AcDbPolyline
 90
9
 70
128
 10
37.8695753699385023
 20
-8.4999999999999716
 30
0.0
 10
50.8695753699385023
 20
-8.4999999999999716
 30
0.0
 42
0.414213562373095
 10
51.8695753699385023
 20
-7.4999999999999716
 30
0.0
 10
51.8695753699385023
 20
-7.4999999999999716
 30
0.0
 42
0.414213562373095
 10
50.8695753699385023
 20
-6.4999999999999716
 30
0.0
 10
37.8695753699385023
 20
-6.4999999999999716
 30
0.0
 42
0.414213562373095
 10
36.8695753699385023
 20
-7.4999999999999716
 30
0.0
 10
36.8695753699385023
 20
-7.4999999999999716
 30
0.0
 42
0.414213562373095
 10
37.8695753699385023
 20
-8.4999999999999716
 30
0.0
  0
LWPOLYLINE
  5
144
  8
holes
 62
256
370
-1
 48
1.0
  6
BYLAYER
100
AcDbEntity
100
AcDbPolyline
 90
9
 70
128
 10
37.8695753699385023
 20
-3.4999999999999716
 30
0.0
 10
50.8695753699385023
 20
-3.4999999999999716
 30
0.0
 42
0.414213562373095
 10
51.8695753699385023
 20
-2.4999999999999716
 30
0.0
 10
51.8695753699385023
 20
-2.4999999999999716
 30
0.0
 42
0.414213562373095
 10
50.8695753699385023
 20
-1.4999999999999716
 30
0.0
 10
37.8695753699385023
 20
-1.4999999999999716
 30
0.0
 42
0.414213562373095
 10
36.8695753699385023
 20
-2.4999999999999716
 30
0.0
 10
36.8695753699385023
 20
-2.4999999999999716
 30
0.0
 42
0.414213562373095
 10
37.8695753699385023
 20
-3.4999999999999716
 30
0.0
  0
LWPOLYLINE
  5
145
  8
holes
 62
256
370
-1
 48
1.0
  6
BYLAYER
100
AcDbEntity
100
AcDbPolyline
 90
9
 70
128
 10
37.8695753699385023
 20
1.5000000000000284
 30
0.0
 10
50.8695753699385023
 20
1.5000000000000284
 30
0.0
 42
0.414213562373095
 10
51.8695753699385023
 20
2.5000000000000284
 30
0.0
 10
51.8695753699385023
 20
2.5000000000000284
 30
0.0
 42
0.414213562373095
 10
50.8695753699385023
 20
3.5000000000000284
 30
0.0
 10
37.8695753699385023
 20
3.5000000000000284
 30
0.0
 42
0.414213562373095
 10
36.8695753699385023
 20
2.5000000000000284
 30
0.0
 10
36.8695753699385023
 20
2.5000000000000284
 30
0.0
 42
0.414213562373095
 10
37.8695753699385023
 20
1.5000000000000284
 30
0.0
  0
LWPOLYLINE
  5
146
  8
holes
 62
256
370
-1
 48
1.0
  6
BYLAYER
100
AcDbEntity
100
AcDbPolyline
 90
9
 70
128
 10
37.8695753699385023
 20
6.5000000000000284
 30
0.0
 10
50.8695753699385023
 20
6.5000000000000284
 30
0.0
 42
0.414213562373095
 10
51.8695753699385023
 20
7.5000000000000284
 30
0.0
 10
51.8695753699385023
 20
7.5000000000000284
 30
0.0
 42
0.414213562373095
 10
50.8695753699385023
 20
8.5000000000000284
 30
0.0
 10
37.8695753699385023
 20
8.5000000000000284
 30
0.0
 42
0.414213562373095
 10
36.8695753699385023
 20
7.5000000000000284
 30
0.0
 10
36.8695753699385023
 20
7.5000000000000284
 30
0.0
 42
0.414213562373095
 10
37.8695753699385023
 20
6.5000000000000284
 30
0.0
  0
LWPOLYLINE
  5
147
  8
holes
 62
256
370
-1
 48
1.0
  6
BYLAYER
100
AcDbEntity
100
AcDbPolyline
 90
9
 70
128
 10
37.8695753699385023
 20
11.5000000000000284
 30
0.0
 10
50.8695753699385023
 20
11.5000000000000284
 30
0.0
 42
0.414213562373095
 10
51.8695753699385023
 20
12.5000000000000284
 30
0.0
 10
51.8695753699385023
 20
12.5000000000000284
 30
0.0
 42
0.414213562373095
 10
50.8695753699385023
 20
13.5000000000000284
 30
0.0
 10
37.8695753699385023
 20
13.5000000000000284
 30
0.0
 42
0.414213562373095
 10
36.8695753699385023
 20
12.5000000000000284
 30
0.0
 10
36.8695753699385023
 20
12.5000000000000284
 30
0.0
 42
0.414213562373095
 10
37.8695753699385023
 20
11.5000000000000284
 30
0.0
  0
LWPOLYLINE
  5
148
  8
holes
 62
256
370
-1
 48
1.0
  6
BYLAYER
100
AcDbEntity
100
AcDbPolyline
 90
9
 70
128
 10
37.8695753699385023
 20
16.5000000000000142
 30
0.0
 10
50.8695753699385023
 20
16.5000000000000142
 30
0.0
 42
0.414213562373095
 10
51.8695753699385023
 20
17.5000000000000142
 30
0.0
 10
51.8695753699385023
 20
17.5000000000000142
 30
0.0
 42
0.414213562373095
 10
50.8695753699385023
 20
18.5000000000000142
 30
0.0
 10
37.8695753699385023
 20
18.5000000000000142
 30
0.0
 42
0.414213562373095
 10
36.8695753699385023
 20
17.5000000000000142
 30
0.0
 10
36.8695753699385023
 20
17.5000000000000142
 30
0.0
 42
0.414213562373095
 10
37.8695753699385023
 20
16.5000000000000142
 30
0.0
  0
LWPOLYLINE
  5
149
  8
holes
 62
256
370
-1
 48
1.0
  6
BYLAYER
100
AcDbEntity
100
AcDbPolyline
 90
9
 70
128
 10
37.8695753699385023
 20
-18.4999999999999716
 30
0.0
 10
50.8695753699385023
 20
-18.4999999999999716
 30
0.0
 42
0.414213562373095
 10
51.8695753699385023
 20
-17.4999999999999716
 30
0.0
 10
51.8695753699385023
 20
-17.4999999999999716
 30
0.0
 42
0.414213562373095
 10
50.8695753699385023
 20
-16.4999999999999716
 30
0.0
 10
37.8695753699385023
 20
-16.4999999999999716
 30
0.0
 42
0.414213562373095
 10
36.8695753699385023
 20
-17.4999999999999716
 30
0.0
 10
36.8695753699385023
 20
-17.4999999999999716
 30
0.0
 42
0.414213562373095
 10
37.8695753699385023
 20
-18.4999999999999716
 30
0.0
  0
LWPOLYLINE
  5
14A
  8
holes
 62
256
370
-1
 48
1.0
  6
BYLAYER
100
AcDbEntity
100
AcDbPolyline
 90
9
 70
128
 10
61.8695753699385023
 20
21.5000000000000142
 30
0.0
 10
69.8695753699385023
 20
21.5000000000000142
 30
0.0
 42
0.414213562373095
 10
70.8695753699385023
 20
22.5000000000000142
 30
0.0
 10
70.8695753699385023
 20
22.5000000000000142
 30
0.0
 42
0.414213562373095
 10
69.8695753699385023
 20
23.5000000000000142
 30
0.0
 10
61.8695753699385023
 20
23.5000000000000142
 30
0.0
 42
0.414213562373095
 10
60.8695753699385023
 20
22.5000000000000142
 30
0.0
 10
60.8695753699385023
 20
22.5000000000000142
 30
0.0
 42
0.414213562373095
 10
61.8695753699385023
 20
21.5000000000000142
 30
0.0
  0
LWPOLYLINE
  5
14B
  8
holes
 62
256
370
-1
 48
1.0
  6
BYLAYER
100
AcDbEntity
100
AcDbPolyline
 90
9
 70
128
 10
58.8695753699385023
 20
16.5000000000000142
 30
0.0
 10
69.8695753699385023
 20
16.5000000000000142
 30
0.0
 42
0.414213562373095
 10
70.8695753699385023
 20
17.5000000000000142
 30
0.0
 10
70.8695753699385023
 20
17.5000000000000142
 30
0.0
 42
0.414213562373095
 10
69.8695753699385023
 20
18.5000000000000142
 30
0.0
 10
58.8695753699385023
 20
18.5000000000000142
 30
0.0
 42
0.414213562373095
 10
57.8695753699385023
 20
17.5000000000000142
 30
0.0
 10
57.8695753699385023
 20
17.5000000000000142
 30
0.0
 42
0.414213562373095
 10
58.8695753699385023
 20
16.5000000000000142
 30
0.0
  0
LWPOLYLINE
  5
14C
  8
holes
 62
256
370
-1
 48
1.0
  6
BYLAYER
100
AcDbEntity
100
AcDbPolyline
 90
9
 70
128
 10
58.8695753699385023
 20
11.5000000000000284
 30
0.0
 10
69.8695753699385023
 20
11.5000000000000284
 30
0.0
 42
0.414213562373095
 10
70.8695753699385023
 20
12.5000000000000284
 30
0.0
 10
70.8695753699385023
 20
12.5000000000000284
 30
0.0
 42
0.414213562373095
 10
69.8695753699385023
 20
13.5000000000000284
 30
0.0
 10
58.8695753699385023
 20
13.5000000000000284
 30
0.0
 42
0.414213562373095
 10
57.8695753699385023
 20
12.5000000000000284
 30
0.0
 10
57.8695753699385023
 20
12.5000000000000284
 30
0.0
 42
0.414213562373095
 10
58.8695753699385023
 20
11.5000000000000284
 30
0.0
  0
LWPOLYLINE
  5
14D
  8
holes
 62
256
370
-1
 48
1.0
  6
BYLAYER
100
AcDbEntity
100
AcDbPolyline
 90
9
 70
128
 10
58.8695753699385023
 20
6.5000000000000284
 30
0.0
 10
69.8695753699385023
 20
6.5000000000000284
 30
0.0
 42
0.414213562373095
 10
70.8695753699385023
 20
7.5000000000000284
 30
0.0
 10
70.8695753699385023
 20
7.5000000000000284
 30
0.0
 42
0.414213562373095
 10
69.8695753699385023
 20
8.5000000000000284
 30
0.0
 10
58.8695753699385023
 20
8.5000000000000284
 30
0.0
 42
0.414213562373095
 10
57.8695753699385023
 20
7.5000000000000284
 30
0.0
 10
57.8695753699385023
 20
7.5000000000000284
 30
0.0
 42
0.414213562373095
 10
58.8695753699385023
 20
6.5000000000000284
 30
0.0
  0
LWPOLYLINE
  5
14E
  8
holes
 62
256
370
-1
 48
1.0
  6
BYLAYER
100
AcDbEntity
100
AcDbPolyline
 90
9
 70
128
 10
58.8695753699385023
 20
1.5000000000000284
 30
0.0
 10
69.8695753699385023
 20
1.5000000000000284
 30
0.0
 42
0.414213562373095
 10
70.8695753699385023
 20
2.5000000000000284
 30
0.0
 10
70.8695753699385023
 20
2.5000000000000284
 30
0.0
 42
0.414213562373095
 10
69.8695753699385023
 20
3.5000000000000284
 30
0.0
 10
58.8695753699385023
 20
3.5000000000000284
 30
0.0
 42
0.414213562373095
 10
57.8695753699385023
 20
2.5000000000000284
 30
0.0
 10
57.8695753699385023
 20
2.5000000000000284
 30
0.0
 42
0.414213562373095
 10
58.8695753699385023
 20
1.5000000000000284
 30
0.0
  0
LWPOLYLINE
  5
14F
  8
holes
 62
256
370
-1
 48
1.0
  6
BYLAYER
100
AcDbEntity
100
AcDbPolyline
 90
9
 70
128
 10
58.8695753699385023
 20
-3.4999999999999716
 30
0.0
 10
69.8695753699385023
 20
-3.4999999999999716
 30
0.0
 42
0.414213562373095
 10
70.8695753699385023
 20
-2.4999999999999716
 30
0.0
 10
70.8695753699385023
 20
-2.4999999999999716
 30
0.0
 42
0.414213562373095
 10
69.8695753699385023
 20
-1.4999999999999716
 30
0.0
 10
58.8695753699385023
 20
-1.4999999999999716
 30
0.0
 42
0.414213562373095
 10
57.8695753699385023
 20
-2.4999999999999716
 30
0.0
 10
57.8695753699385023
 20
-2.4999999999999716
 30
0.0
 42
0.414213562373095
 10
58.8695753699385023
 20
-3.4999999999999716
 30
0.0
  0
LWPOLYLINE
  5
150
  8
holes
 62
256
370
-1
 48
1.0
  6
BYLAYER
100
AcDbEntity
100
AcDbPolyline
 90
9
 70
128
 10
58.8695753699385023
 20
-8.4999999999999716
 30
0.0
 10
69.8695753699385023
 20
-8.4999999999999716
 30
0.0
 42
0.414213562373095
 10
70.8695753699385023
 20
-7.4999999999999716
 30
0.0
 10
70.8695753699385023
 20
-7.4999999999999716
 30
0.0
 42
0.414213562373095
 10
69.8695753699385023
 20
-6.4999999999999716
 30
0.0
 10
58.8695753699385023
 20
-6.4999999999999716
 30
0.0
 42
0.414213562373095
 10
57.8695753699385023
 20
-7.4999999999999716
 30
0.0
 10
57.8695753699385023
 20
-7.4999999999999716
 30
0.0
 42
0.414213562373095
 10
58.8695753699385023
 20
-8.4999999999999716
 30
0.0
  0
LWPOLYLINE
  5
151
  8
holes
 62
256
370
-1
 48
1.0
  6
BYLAYER
100
AcDbEntity
100
AcDbPolyline
 90
9
 70
128
 10
58.8695753699385023
 20
-13.4999999999999716
 30
0.0
 10
69.8695753699385023
 20
-13.4999999999999716
 30
0.0
 42
0.414213562373095
 10
70.8695753699385023
 20
-12.4999999999999716
 30
0.0
 10
70.8695753699385023
 20
-12.4999999999999716
 30
0.0
 42
0.414213562373095
 10
69.8695753699385023
 20
-11.4999999999999716
 30
0.0
 10
58.8695753699385023
 20
-11.4999999999999716
 30
0.0
 42
0.414213562373095
 10
57.8695753699385023
 20
-12.4999999999999716
 30
0.0
 10
57.8695753699385023
 20
-12.4999999999999716
 30
0.0
 42
0.414213562373095
 10
58.8695753699385023
 20
-13.4999999999999716
 30
0.0
  0
LWPOLYLINE
  5
152
  8
holes
 62
256
370
-1
 48
1.0
  6
BYLAYER
100
AcDbEntity
100
AcDbPolyline
 90
9
 70
128
 10
58.8695753699385023
 20
-18.4999999999999716
 30
0.0
 10
69.8695753699385023
 20
-18.4999999999999716
 30
0.0
 42
0.414213562373095
 10
70.8695753699385023
 20
-17.4999999999999716
 30
0.0
 10
70.8695753699385023
 20
-17.4999999999999716
 30
0.0
 42
0.414213562373095
 10
69.8695753699385023
 20
-16.4999999999999716
 30
0.0
 10
58.8695753699385023
 20
-16.4999999999999716
 30
0.0
 42
0.414213562373095
 10
57.8695753699385023
 20
-17.4999999999999716
 30
0.0
 10
57.8695753699385023
 20
-17.4999999999999716
 30
0.0
 42
0.414213562373095
 10
58.8695753699385023
 20
-18.4999999999999716
 30
0.0
  0
LWPOLYLINE
  5
153
  8
holes
 62
256
370
-1
 48
1.0
  6
BYLAYER
100
AcDbEntity
100
AcDbPolyline
 90
9
 70
128
 10
61.8695753699385023
 20
-23.4999999999999716
 30
0.0
 10
69.8695753699385023
 20
-23.4999999999999716
 30
0.0
 42
0.414213562373095
 10
70.8695753699385023
 20
-22.4999999999999716
 30
0.0
 10
70.8695753699385023
 20
-22.4999999999999716
 30
0.0
 42
0.414213562373095
 10
69.8695753699385023
 20
-21.4999999999999716
 30
0.0
 10
61.8695753699385023
 20
-21.4999999999999716
 30
0.0
 42
0.414213562373095
 10
60.8695753699385023
 20
-22.4999999999999716
 30
0.0
 10
60.8695753699385023
 20
-22.4999999999999716
 30
0.0
 42
0.414213562373095
 10
61.8695753699385023
 20
-23.4999999999999716
 30
0.0
  0
ENDBLK
  5
154
100
AcDbEntity
  8
0
100
AcDbBlockEnd
  0
ENDSEC
  0
SECTION
  2
ENTITIES
  0
INSERT
  5
155
100
AcDbEntity
100
AcDbBlockReference
  8
0
 62
256
370
-1
 48
1.0
  6
BYLAYER
  2
back
 10
12.3596558157932748
 20
166.1840644149448565
 30
0.0
  0
INSERT
  5
156
100
AcDbEntity
100
AcDbBlockReference
  8
0
 62
256
370
-1
 48
1.0
  6
BYLAYER
  2
side
 10
208.093637846371081
 20
164.3049354674309086
 30
0.0
 50
360.0
  0
INSERT
  5
157
100
AcDbEntity
100
AcDbBlockReference
  8
0
 62
256
370
-1
 48
1.0
  6
BYLAYER
  2
side
 10
135.2135418306014571
 20
94.3049354674311502
 30
0.0
 41
1.0
 42
-1.0
 43
1.0
 50
180.0
  0
INSERT
  5
158
100
AcDbEntity
100
AcDbBlockReference
  8
0
 62
256
370
-1
 48
1.0
  6
BYLAYER
  2
front
 10
34.1006152507711704
 20
32.0411477218013658
 30
0.0
  0
INSERT
  5
159
100
AcDbEntity
100
AcDbBlockReference
  8
0
 62
256
370
-1
 48
1.0
  6
BYLAYER
  2
bottom
 10
80.0
 20
50.0
 30
0.0
  0
ENDSEC
  0
SECTION
  2
OBJECTS
  0
DICTIONARY
  5
C
100
AcDbDictionary
280
0
281
1
  3
ACAD_GROUP
350
D
  3
ACAD_LAYOUT
350
1A
  3
ACAD_MLINESTYLE
350
17
  3
ACAD_PLOTSETTINGS
350
19
  3
ACAD_PLOTSTYLENAME
350
E
  3
AcDbVariableDictionary
350
15A
  3
QCAD_OBJECTS
350
15B
  0
DICTIONARY
  5
D
100
AcDbDictionary
280
0
281
1
  0
ACDBDICTIONARYWDFLT
  5
E
100
AcDbDictionary
281
1
  3
Normal
350
F
100
AcDbDictionaryWithDefault
340
F
  0
ACDBPLACEHOLDER
  5
F
  0
DICTIONARY
  5
17
100
AcDbDictionary
280
0
281
1
  3
Standard
350
18
  0
MLINESTYLE
  5
18
100
AcDbMlineStyle
  2
STANDARD
 70
0
  3

 62
256
 51
90.0
 52
90.0
 71
2
 49
0.5
 62
256
  6
BYLAYER
 49
-0.5
 62
256
  6
BYLAYER
  0
DICTIONARY
  5
19
100
AcDbDictionary
280
0
281
1
  0
DICTIONARY
  5
1A
100
AcDbDictionary
281
1
  3
Layout1
350
1E
  3
Layout2
350
26
  3
Model
350
22
  0
LAYOUT
  5
1E
100
AcDbPlotSettings
  1

  2
none_device
  4

  6

 40
0.0
 41
0.0
 42
0.0
 43
0.0
 44
0.0
 45
0.0
 46
0.0
 47
0.0
 48
0.0
 49
0.0
140
0.0
141
0.0
142
1.0
143
1.0
 70
688
 72
0
 73
0
 74
5
  7

 75
16
147
1.0
148
0.0
149
0.0
100
AcDbLayout
  1
Layout1
 70
1
 71
1
 10
0.0
 20
0.0
 11
420.0
 21
297.0
 12
0.0
 22
0.0
 32
0.0
 14
100000000000000000000.0
 24
100000000000000000000.0
 34
100000000000000000000.0
 15
-100000000000000000000.0
 25
-100000000000000000000.0
 35
-100000000000000000000.0
146
0.0
 13
0.0
 23
0.0
 33
0.0
 16
1.0
 26
0.0
 36
0.0
 17
0.0
 27
1.0
 37
0.0
 76
0
330
1B
  0
LAYOUT
  5
22
100
AcDbPlotSettings
  1

  2
none_device
  4

  6

 40
0.0
 41
0.0
 42
0.0
 43
0.0
 44
0.0
 45
0.0
 46
0.0
 47
0.0
 48
0.0
 49
0.0
140
0.0
141
0.0
142
1.0
143
1.0
 70
1712
 72
0
 73
0
 74
0
  7

 75
0
147
1.0
148
0.0
149
0.0
100
AcDbLayout
  1
Model
 70
1
 71
0
 10
0.0
 20
0.0
 11
12.0
 21
9.0
 12
0.0
 22
0.0
 32
0.0
 14
0.0
 24
0.0
 34
0.0
 15
0.0
 25
0.0
 35
0.0
146
0.0
 13
0.0
 23
0.0
 33
0.0
 16
1.0
 26
0.0
 36
0.0
 17
0.0
 27
1.0
 37
0.0
 76
0
330
1F
  0
LAYOUT
  5
26
100
AcDbPlotSettings
  1

  2
none_device
  4

  6

 40
0.0
 41
0.0
 42
0.0
 43
0.0
 44
0.0
 45
0.0
 46
0.0
 47
0.0
 48
0.0
 49
0.0
140
0.0
141
0.0
142
1.0
143
1.0
 70
688
 72
0
 73
0
 74
5
  7

 75
16
147
1.0
148
0.0
149
0.0
100
AcDbLayout
  1
Layout2
 70
1
 71
2
 10
0.0
 20
0.0
 11
12.0
 21
9.0
 12
0.0
 22
0.0
 32
0.0
 14
0.0
 24
0.0
 34
0.0
 15
0.0
 25
0.0
 35
0.0
146
0.0
 13
0.0
 23
0.0
 33
0.0
 16
1.0
 26
0.0
 36
0.0
 17
0.0
 27
1.0
 37
0.0
 76
0
330
23
  0
DICTIONARY
  5
15A
100
AcDbDictionary
281
1
  3
DIMASSOC
350
15D
  3
HIDETEXT
350
15C
  0
DICTIONARYVAR
  5
15C
100
DictionaryVariables
280
0
  1
2
  0
DICTIONARYVAR
  5
15D
100
DictionaryVariables
280
0
  1
1
  0
DICTIONARY
  5
15B
100
AcDbDictionary
281
1
  3
ColorSettings/BackgroundColor
350
15E
  3
ColorSettings/ColorMode
350
15F
  3
DimensionSettings/AngularFormat
350
160
  3
DimensionSettings/AngularPrecision
350
161
  3
DimensionSettings/DimensionFont
350
162
  3
DimensionSettings/KeepProportions
350
163
  3
DimensionSettings/LinearFormat
350
164
  3
DimensionSettings/LinearPrecision
350
165
  3
Grid/DisplayGrid00
350
166
  3
Grid/DisplayGrid01
350
167
  3
Grid/DisplayGrid02
350
168
  3
Grid/DisplayGrid03
350
169
  3
Grid/GridSpacingX00
350
16A
  3
Grid/GridSpacingX01
350
16B
  3
Grid/GridSpacingX02
350
16C
  3
Grid/GridSpacingX03
350
16D
  3
Grid/GridSpacingY00
350
16E
  3
Grid/GridSpacingY01
350
16F
  3
Grid/GridSpacingY02
350
170
  3
Grid/GridSpacingY03
350
171
  3
Grid/IsometricGrid00
350
172
  3
Grid/IsometricGrid01
350
173
  3
Grid/IsometricGrid02
350
174
  3
Grid/IsometricGrid03
350
175
  3
Grid/IsometricProjection00
350
176
  3
Grid/IsometricProjection01
350
177
  3
Grid/IsometricProjection02
350
178
  3
Grid/IsometricProjection03
350
179
  3
Grid/MetaGridSpacingX00
350
17A
  3
Grid/MetaGridSpacingX01
350
17B
  3
Grid/MetaGridSpacingX02
350
17C
  3
Grid/MetaGridSpacingX03
350
17D
  3
Grid/MetaGridSpacingY00
350
17E
  3
Grid/MetaGridSpacingY01
350
17F
  3
Grid/MetaGridSpacingY02
350
180
  3
Grid/MetaGridSpacingY03
350
181
  3
MultiPageSettings/Columns
350
182
  3
MultiPageSettings/GlueMarginsBottom
350
183
  3
MultiPageSettings/GlueMarginsLeft
350
184
  3
MultiPageSettings/GlueMarginsRight
350
185
  3
MultiPageSettings/GlueMarginsTop
350
186
  3
MultiPageSettings/PrintCropMarks
350
187
  3
MultiPageSettings/Rows
350
188
  3
PageSettings/OffsetX
350
189
  3
PageSettings/OffsetY
350
18A
  3
PageSettings/PageOrientation
350
18B
  3
PageSettings/PaperHeight
350
18C
  3
PageSettings/PaperWidth
350
18D
  3
PageSettings/Scale
350
18E
  3
PageSettings/ShowPaperBorders
350
18F
  3
QCADVersion
350
190
  3
UnitSettings/PaperUnit
350
191
  3
ViewportCenter
350
192
  3
ViewportHeight
350
193
  3
ViewportWidth
350
194
  0
XRECORD
  5
15E
330
15B
100
AcDbXrecord
280
1
1000
White
  0
XRECORD
  5
15F
330
15B
100
AcDbXrecord
280
1
1000
FullColor
  0
XRECORD
  5
160
330
15B
100
AcDbXrecord
280
1
 90
0
  0
XRECORD
  5
161
330
15B
100
AcDbXrecord
280
1
 90
0
  0
XRECORD
  5
162
330
15B
100
AcDbXrecord
280
1
1000
DejaVu Sans
  0
XRECORD
  5
163
330
15B
100
AcDbXrecord
280
1
290
0
  0
XRECORD
  5
164
330
15B
100
AcDbXrecord
280
1
 90
2
  0
XRECORD
  5
165
330
15B
100
AcDbXrecord
280
1
 90
4
  0
XRECORD
  5
166
330
15B
100
AcDbXrecord
280
1
290
1
  0
XRECORD
  5
167
330
15B
100
AcDbXrecord
280
1
290
1
  0
XRECORD
  5
168
330
15B
100
AcDbXrecord
280
1
290
1
  0
XRECORD
  5
169
330
15B
100
AcDbXrecord
280
1
290
1
  0
XRECORD
  5
16A
330
15B
100
AcDbXrecord
280
1
1000
auto
  0
XRECORD
  5
16B
330
15B
100
AcDbXrecord
280
1
1000
auto
  0
XRECORD
  5
16C
330
15B
100
AcDbXrecord
280
1
1000
auto
  0
XRECORD
  5
16D
330
15B
100
AcDbXrecord
280
1
1000
auto
  0
XRECORD
  5
16E
330
15B
100
AcDbXrecord
280
1
1000
auto
  0
XRECORD
  5
16F
330
15B
100
AcDbXrecord
280
1
1000
auto
  0
XRECORD
  5
170
330
15B
100
AcDbXrecord
280
1
1000
auto
  0
XRECORD
  5
171
330
15B
100
AcDbXrecord
280
1
1000
auto
  0
XRECORD
  5
172
330
15B
100
AcDbXrecord
280
1
290
0
  0
XRECORD
  5
173
330
15B
100
AcDbXrecord
280
1
290
0
  0
XRECORD
  5
174
330
15B
100
AcDbXrecord
280
1
290
0
  0
XRECORD
  5
175
330
15B
100
AcDbXrecord
280
1
290
0
  0
XRECORD
  5
176
330
15B
100
AcDbXrecord
280
1
 90
0
  0
XRECORD
  5
177
330
15B
100
AcDbXrecord
280
1
 90
0
  0
XRECORD
  5
178
330
15B
100
AcDbXrecord
280
1
 90
0
  0
XRECORD
  5
179
330
15B
100
AcDbXrecord
280
1
 90
0
  0
XRECORD
  5
17A
330
15B
100
AcDbXrecord
280
1
1000
auto
  0
XRECORD
  5
17B
330
15B
100
AcDbXrecord
280
1
1000
auto
  0
XRECORD
  5
17C
330
15B
100
AcDbXrecord
280
1
1000
auto
  0
XRECORD
  5
17D
330
15B
100
AcDbXrecord
280
1
1000
auto
  0
XRECORD
  5
17E
330
15B
100
AcDbXrecord
280
1
1000
auto
  0
XRECORD
  5
17F
330
15B
100
AcDbXrecord
280
1
1000
auto
  0
XRECORD
  5
180
330
15B
100
AcDbXrecord
280
1
1000
auto
  0
XRECORD
  5
181
330
15B
100
AcDbXrecord
280
1
1000
auto
  0
XRECORD
  5
182
330
15B
100
AcDbXrecord
280
1
 90
1
  0
XRECORD
  5
183
330
15B
100
AcDbXrecord
280
1
 40
10.0
  0
XRECORD
  5
184
330
15B
100
AcDbXrecord
280
1
 40
10.0
  0
XRECORD
  5
185
330
15B
100
AcDbXrecord
280
1
 40
10.0
  0
XRECORD
  5
186
330
15B
100
AcDbXrecord
280
1
 40
10.0
  0
XRECORD
  5
187
330
15B
100
AcDbXrecord
280
1
290
0
  0
XRECORD
  5
188
330
15B
100
AcDbXrecord
280
1
 90
1
  0
XRECORD
  5
189
330
15B
100
AcDbXrecord
280
1
 40
0.0
  0
XRECORD
  5
18A
330
15B
100
AcDbXrecord
280
1
 40
0.0
  0
XRECORD
  5
18B
330
15B
100
AcDbXrecord
280
1
1000
Portrait
  0
XRECORD
  5
18C
330
15B
100
AcDbXrecord
280
1
 40
297.0
  0
XRECORD
  5
18D
330
15B
100
AcDbXrecord
280
1
 40
210.0
  0
XRECORD
  5
18E
330
15B
100
AcDbXrecord
280
1
1000
1:1
  0
XRECORD
  5
18F
330
15B
100
AcDbXrecord
280
1
290
1
  0
XRECORD
  5
190
330
15B
100
AcDbXrecord
280
1
1000
3.15.2.2
  0
XRECORD
  5
191
330
15B
100
AcDbXrecord
280
1
 90
4
  0
XRECORD
  5
193
330
15B
100
AcDbXrecord
280
1
 40
271.2128305209917016
  0
XRECORD
  5
194
330
15B
100
AcDbXrecord
280
1
 40
492.052349316684797
  0
ENDSEC
  0
EOF
