  0
SECTION
  2
HEADER
  9
$ACADVER
  1
AC1009
  9
$DWGCODEPAGE
  3
ansi_1252
  9
$INSBASE
 10
0.0
 20
0.0
 30
0.0
  9
$EXTMIN
 10
0.7618649897674477
 20
0.9164409330781126
 30
0.0
  9
$EXTMAX
 10
18.33813501023256
 20
8.183559066921887
 30
0.0
  9
$LIMMIN
 10
0.0
 20
0.0
  9
$LIMMAX
 10
12.0
 20
9.0
  9
$ORTHOMODE
 70
     0
  9
$REGENMODE
 70
     1
  9
$FILLMODE
 70
     1
  9
$QTEXTMODE
 70
     0
  9
$MIRRTEXT
 70
     1
  9
$DRAGMODE
 70
     2
  9
$LTSCALE
 40
1.0
  9
$OSMODE
 70
    37
  9
$ATTMODE
 70
     1
  9
$TEXTSIZE
 40
0.2
  9
$TRACEWID
 40
0.05
  9
$TEXTSTYLE
  7
STANDARD
  9
$CLAYER
  8
0
  9
$CELTYPE
  6
BYLAYER
  9
$CECOLOR
 62
   256
  9
$DIMSCALE
 40
1.0
  9
$DIMASZ
 40
0.18
  9
$DIMEXO
 40
0.0625
  9
$DIMDLI
 40
0.38
  9
$DIMRND
 40
0.0
  9
$DIMDLE
 40
0.0
  9
$DIMEXE
 40
0.18
  9
$DIMTP
 40
0.0
  9
$DIMTM
 40
0.0
  9
$DIMTXT
 40
0.18
  9
$DIMCEN
 40
0.09
  9
$DIMTSZ
 40
0.0
  9
$DIMTOL
 70
     0
  9
$DIMLIM
 70
     0
  9
$DIMTIH
 70
     1
  9
$DIMTOH
 70
     1
  9
$DIMSE1
 70
     0
  9
$DIMSE2
 70
     0
  9
$DIMTAD
 70
     0
  9
$DIMZIN
 70
     0
  9
$DIMBLK
  1

  9
$DIMASO
 70
     1
  9
$DIMSHO
 70
     1
  9
$DIMPOST
  1

  9
$DIMAPOST
  1

  9
$DIMALT
 70
     0
  9
$DIMALTD
 70
     2
  9
$DIMALTF
 40
25.4
  9
$DIMLFAC
 40
1.0
  9
$DIMTOFL
 70
     0
  9
$DIMTVP
 40
0.0
  9
$DIMTIX
 70
     0
  9
$DIMSOXD
 70
     0
  9
$DIMSAH
 70
     0
  9
$DIMBLK1
  1

  9
$DIMBLK2
  1

  9
$DIMSTYLE
  2
STANDARD
  9
$DIMCLRD
 70
     0
  9
$DIMCLRE
 70
     0
  9
$DIMCLRT
 70
     0
  9
$DIMTFAC
 40
1.0
  9
$DIMGAP
 40
0.09
  9
$LUNITS
 70
     2
  9
$LUPREC
 70
     4
  9
$SKETCHINC
 40
0.1
  9
$FILLETRAD
 40
0.5
  9
$AUNITS
 70
     0
  9
$AUPREC
 70
     0
  9
$MENU
  1
.
  9
$ELEVATION
 40
0.0
  9
$PELEVATION
 40
0.0
  9
$THICKNESS
 40
0.0
  9
$LIMCHECK
 70
     0
  9
$CHAMFERA
 40
0.0
  9
$CHAMFERB
 40
0.0
  9
$SKPOLY
 70
     0
  9
$TDCREATE
 40
2454910.5
  9
$TDUPDATE
 40
2457583.849209283
  9
$TDINDWG
 40
0.0000000116
  9
$TDUSRTIMER
 40
0.0000000116
  9
$USRTIMER
 70
     1
  9
$ANGBASE
 50
0.0
  9
$ANGDIR
 70
     0
  9
$PDMODE
 70
     0
  9
$PDSIZE
 40
0.0
  9
$PLINEWID
 40
0.0
  9
$COORDS
 70
     1
  9
$SPLFRAME
 70
     0
  9
$SPLINETYPE
 70
     6
  9
$SPLINESEGS
 70
     8
  9
$ATTDIA
 70
     0
  9
$ATTREQ
 70
     1
  9
$HANDLING
 70
     1
  9
$HANDSEED
  5
168
  9
$SURFTAB1
 70
     6
  9
$SURFTAB2
 70
     6
  9
$SURFTYPE
 70
     6
  9
$SURFU
 70
     6
  9
$SURFV
 70
     6
  9
$UCSNAME
  2

  9
$UCSORG
 10
0.0
 20
0.0
 30
0.0
  9
$UCSXDIR
 10
1.0
 20
0.0
 30
0.0
  9
$UCSYDIR
 10
0.0
 20
1.0
 30
0.0
  9
$PUCSNAME
  2

  9
$PUCSORG
 10
0.0
 20
0.0
 30
0.0
  9
$PUCSXDIR
 10
1.0
 20
0.0
 30
0.0
  9
$PUCSYDIR
 10
0.0
 20
1.0
 30
0.0
  9
$USERI1
 70
     0
  9
$USERI2
 70
     0
  9
$USERI3
 70
     0
  9
$USERI4
 70
     0
  9
$USERI5
 70
     0
  9
$USERR1
 40
0.0
  9
$USERR2
 40
0.0
  9
$USERR3
 40
0.0
  9
$USERR4
 40
0.0
  9
$USERR5
 40
0.0
  9
$WORLDVIEW
 70
     1
  9
$SHADEDGE
 70
     3
  9
$SHADEDIF
 70
    70
  9
$TILEMODE
 70
     1
  9
$MAXACTVP
 70
    64
  9
$PLIMCHECK
 70
     0
  9
$PEXTMIN
 10
1.000000000000000E+20
 20
1.000000000000000E+20
 30
1.000000000000000E+20
  9
$PEXTMAX
 10
-1.000000000000000E+20
 20
-1.000000000000000E+20
 30
-1.000000000000000E+20
  9
$PLIMMIN
 10
0.0
 20
0.0
  9
$PLIMMAX
 10
12.0
 20
9.0
  9
$UNITMODE
 70
     0
  9
$VISRETAIN
 70
     1
  9
$PLINEGEN
 70
     0
  9
$PSLTSCALE
 70
     1
  0
ENDSEC
  0
SECTION
  2
TABLES
  0
TABLE
  2
VPORT
 70
     1
  0
VPORT
  2
*ACTIVE
 70
     0
 10
0.0
 20
0.0
 11
1.0
 21
1.0
 12
10.42990654205607
 22
4.5
 13
0.0
 23
0.0
 14
0.5
 24
0.5
 15
0.5
 25
0.5
 16
0.0
 26
0.0
 36
1.0
 17
0.0
 27
0.0
 37
0.0
 40
9.0
 41
1.972972972850329
 42
50.0
 43
0.0
 44
0.0
 50
0.0
 51
0.0
 71
     0
 72
   100
 73
     1
 74
     3
 75
     0
 76
     0
 77
     0
 78
     0
  0
ENDTAB
  0
TABLE
  2
LTYPE
 70
     2
  0
LTYPE
  2
CONTINUOUS
 70
     0
  3
Solid line
 72
    65
 73
     0
 40
0.0
  0
LTYPE
  2
CONTINUOUS2
 70
     0
  3
Solid Line
 72
    65
 73
     0
 40
0.0
  0
ENDTAB
  0
TABLE
  2
LAYER
 70
     2
  0
LAYER
  2
0
 70
     0
 62
     7
  6
CONTINUOUS
  0
LAYER
  2
LAYER_1
 70
     0
 62
    18
  6
CONTINUOUS
  0
ENDTAB
  0
TABLE
  2
STYLE
 70
     1
  0
STYLE
  2
STANDARD
 70
     0
 40
0.0
 41
1.0
 50
0.0
 71
     0
 42
0.2
  3
txt
  4

  0
ENDTAB
  0
TABLE
  2
VIEW
 70
     0
  0
ENDTAB
  0
TABLE
  2
UCS
 70
     0
  0
ENDTAB
  0
TABLE
  2
APPID
 70
     1
  0
APPID
  2
ACAD
 70
     0
  0
ENDTAB
  0
TABLE
  2
DIMSTYLE
 70
     1
  0
DIMSTYLE
  2
STANDARD
 70
     0
  3

  4

  5

  6

  7

 40
1.0
 41
0.18
 42
0.0625
 43
0.38
 44
0.18
 45
0.0
 46
0.0
 47
0.0
 48
0.0
140
0.18
141
0.09
142
0.0
143
25.4
144
1.0
145
0.0
146
1.0
147
0.09
 71
     0
 72
     0
 73
     1
 74
     1
 75
     0
 76
     0
 77
     0
 78
     0
170
     0
171
     2
172
     0
173
     0
174
     0
175
     0
176
     0
177
     0
178
     0
  0
ENDTAB
  0
ENDSEC
  0
SECTION
  2
BLOCKS
  0
BLOCK
  8
0
  2
$MODEL_SPACE
 70
     0
 10
0.0
 20
0.0
 30
0.0
  3
$MODEL_SPACE
  1

  0
ENDBLK
  5
21
  8
0
  0
BLOCK
 67
     1
  8
0
  2
$PAPER_SPACE
 70
     0
 10
0.0
 20
0.0
 30
0.0
  3
$PAPER_SPACE
  1

  0
ENDBLK
  5
1D
 67
     1
  8
0
  0
ENDSEC
  0
SECTION
  2
ENTITIES
  0
POLYLINE
  5
6C
  8
LAYER_1
 66
     1
 10
0.0
 20
0.0
 30
0.0
 70
     1
  0
VERTEX
  5
81
  8
LAYER_1
 10
1.012935717985309
 20
1.93354019629635
 30
0.0
  0
VERTEX
  5
82
  8
LAYER_1
 10
1.144458164052148
 20
1.90201417771264
 30
0.0
  0
VERTEX
  5
83
  8
LAYER_1
 10
1.2760686630994
 20
1.870984469420194
 30
0.0
  0
VERTEX
  5
84
  8
LAYER_1
 10
1.407765818058523
 20
1.840451071524111
 30
0.0
  0
VERTEX
  5
85
  8
LAYER_1
 10
1.539548231860972
 20
1.810413984129493
 30
0.0
  0
VERTEX
  5
86
  8
LAYER_1
 10
1.671414507438205
 20
1.780873207341442
 30
0.0
  0
VERTEX
  5
87
  8
LAYER_1
 10
1.803363247721678
 20
1.751828741265061
 30
0.0
  0
VERTEX
  5
88
  8
LAYER_1
 10
1.935393055642846
 20
1.723280586005449
 30
0.0
  0
VERTEX
  5
89
  8
LAYER_1
 10
2.067502534133168
 20
1.69522874166771
 30
0.0
  0
VERTEX
  5
8A
  8
LAYER_1
 10
2.199690286124098
 20
1.667673208356944
 30
0.0
  0
VERTEX
  5
8B
  8
LAYER_1
 10
2.331954914547094
 20
1.640613986178254
 30
0.0
  0
VERTEX
  5
8C
  8
LAYER_1
 10
2.464295022333611
 20
1.614051075236741
 30
0.0
  0
VERTEX
  5
8D
  8
LAYER_1
 10
2.596709212415107
 20
1.587984475637506
 30
0.0
  0
VERTEX
  5
8E
  8
LAYER_1
 10
2.729196087723038
 20
1.562414187485651
 30
0.0
  0
VERTEX
  5
8F
  8
LAYER_1
 10
2.86175425118886
 20
1.537340210886278
 30
0.0
  0
VERTEX
  5
90
  8
LAYER_1
 10
2.99438230574403
 20
1.512762545944489
 30
0.0
  0
VERTEX
  5
91
  8
LAYER_1
 10
3.127078854320003
 20
1.488681192765384
 30
0.0
  0
VERTEX
  5
92
  8
LAYER_1
 10
3.259842499848238
 20
1.465096151454067
 30
0.0
  0
VERTEX
  5
93
  8
LAYER_1
 10
3.392671845260189
 20
1.442007422115637
 30
0.0
  0
VERTEX
  5
94
  8
LAYER_1
 10
3.525565493487314
 20
1.419415004855198
 30
0.0
  0
VERTEX
  5
95
  8
LAYER_1
 10
3.658522047461069
 20
1.397318899777851
 30
0.0
  0
VERTEX
  5
96
  8
LAYER_1
 10
3.791540110112911
 20
1.375719106988696
 30
0.0
  0
VERTEX
  5
97
  8
LAYER_1
 10
3.924618284374295
 20
1.354615626592837
 30
0.0
  0
VERTEX
  5
98
  8
LAYER_1
 10
4.057755173176679
 20
1.334008458695374
 30
0.0
  0
VERTEX
  5
99
  8
LAYER_1
 10
4.190949379451517
 20
1.313897603401409
 30
0.0
  0
VERTEX
  5
9A
  8
LAYER_1
 10
4.324199506130268
 20
1.294283060816044
 30
0.0
  0
VERTEX
  5
9B
  8
LAYER_1
 10
4.457504156144388
 20
1.275164831044381
 30
0.0
  0
VERTEX
  5
9C
  8
LAYER_1
 10
4.590861932425332
 20
1.256542914191521
 30
0.0
  0
VERTEX
  5
9D
  8
LAYER_1
 10
4.724271437904559
 20
1.238417310362565
 30
0.0
  0
VERTEX
  5
9E
  8
LAYER_1
 10
4.857731275513524
 20
1.220788019662616
 30
0.0
  0
VERTEX
  5
9F
  8
LAYER_1
 10
4.991240048183682
 20
1.203655042196775
 30
0.0
  0
VERTEX
  5
A0
  8
LAYER_1
 10
5.124796358846492
 20
1.187018378070144
 30
0.0
  0
VERTEX
  5
A1
  8
LAYER_1
 10
5.258398810433409
 20
1.170878027387823
 30
0.0
  0
VERTEX
  5
A2
  8
LAYER_1
 10
5.392046005875891
 20
1.155233990254916
 30
0.0
  0
VERTEX
  5
A3
  8
LAYER_1
 10
5.525736548105391
 20
1.140086266776523
 30
0.0
  0
VERTEX
  5
A4
  8
LAYER_1
 10
5.659469040053368
 20
1.125434857057746
 30
0.0
  0
VERTEX
  5
A5
  8
LAYER_1
 10
5.793242084651279
 20
1.111279761203688
 30
0.0
  0
VERTEX
  5
A6
  8
LAYER_1
 10
5.92705428483058
 20
1.097620979319448
 30
0.0
  0
VERTEX
  5
A7
  8
LAYER_1
 10
6.060904243522725
 20
1.08445851151013
 30
0.0
  0
VERTEX
  5
A8
  8
LAYER_1
 10
6.194790563659174
 20
1.071792357880834
 30
0.0
  0
VERTEX
  5
A9
  8
LAYER_1
 10
6.32871184817138
 20
1.059622518536663
 30
0.0
  0
VERTEX
  5
AA
  8
LAYER_1
 10
6.462666699990804
 20
1.047948993582718
 30
0.0
  0
VERTEX
  5
AB
  8
LAYER_1
 10
6.596653722048898
 20
1.0367717831241
 30
0.0
  0
VERTEX
  5
AC
  8
LAYER_1
 10
6.73067151727712
 20
1.026090887265912
 30
0.0
  0
VERTEX
  5
AD
  8
LAYER_1
 10
6.864718688606928
 20
1.015906306113254
 30
0.0
  0
VERTEX
  5
AE
  8
LAYER_1
 10
6.998793838969776
 20
1.006218039771229
 30
0.0
  0
VERTEX
  5
AF
  8
LAYER_1
 10
7.132895571297122
 20
0.9970260883449383
 30
0.0
  0
VERTEX
  5
B0
  8
LAYER_1
 10
7.267022488520422
 20
0.9883304519394833
 30
0.0
  0
VERTEX
  5
B1
  8
LAYER_1
 10
7.401173193571132
 20
0.9801311306599659
 30
0.0
  0
VERTEX
  5
B2
  8
LAYER_1
 10
7.535346289380709
 20
0.9724281246114875
 30
0.0
  0
VERTEX
  5
B3
  8
LAYER_1
 10
7.66954037888061
 20
0.9652214338991498
 30
0.0
  0
VERTEX
  5
B4
  8
LAYER_1
 10
7.803754065002291
 20
0.9585110586280545
 30
0.0
  0
VERTEX
  5
B5
  8
LAYER_1
 10
7.937985950677207
 20
0.952296998903303
 30
0.0
  0
VERTEX
  5
B6
  8
LAYER_1
 10
8.072234638836814
 20
0.9465792548299972
 30
0.0
  0
VERTEX
  5
B7
  8
LAYER_1
 10
8.206498732412575
 20
0.9413578265132386
 30
0.0
  0
VERTEX
  5
B8
  8
LAYER_1
 10
8.34077683433594
 20
0.936632714058129
 30
0.0
  0
VERTEX
  5
B9
  8
LAYER_1
 10
8.475067547538366
 20
0.9324039175697699
 30
0.0
  0
VERTEX
  5
BA
  8
LAYER_1
 10
8.609369474951311
 20
0.928671437153263
 30
0.0
  0
VERTEX
  5
BB
  8
LAYER_1
 10
8.743681219506232
 20
0.9254352729137099
 30
0.0
  0
VERTEX
  5
BC
  8
LAYER_1
 10
8.878001384134581
 20
0.9226954249562122
 30
0.0
  0
VERTEX
  5
BD
  8
LAYER_1
 10
9.01232857176782
 20
0.9204518933858715
 30
0.0
  0
VERTEX
  5
BE
  8
LAYER_1
 10
9.146661385337403
 20
0.9187046783077897
 30
0.0
  0
VERTEX
  5
BF
  8
LAYER_1
 10
9.280998427774787
 20
0.9174537798270681
 30
0.0
  0
VERTEX
  5
C0
  8
LAYER_1
 10
9.415338302011428
 20
0.9166991980488085
 30
0.0
  0
VERTEX
  5
C1
  8
LAYER_1
 10
9.549679610978782
 20
0.9164409330781126
 30
0.0
  0
VERTEX
  5
C2
  8
LAYER_1
 10
9.684020957608308
 20
0.9166789850200818
 30
0.0
  0
VERTEX
  5
C3
  8
LAYER_1
 10
9.818360944831458
 20
0.917413353979818
 30
0.0
  0
VERTEX
  5
C4
  8
LAYER_1
 10
9.952698175579691
 20
0.9186440400624227
 30
0.0
  0
VERTEX
  5
C5
  8
LAYER_1
 10
10.08703125278446
 20
0.9203710433729976
 30
0.0
  0
VERTEX
  5
C6
  8
LAYER_1
 10
10.22135877937723
 20
0.9225943640166443
 30
0.0
  0
VERTEX
  5
C7
  8
LAYER_1
 10
10.35567935828945
 20
0.9253140020984643
 30
0.0
  0
VERTEX
  5
C8
  8
LAYER_1
 10
10.48999159245258
 20
0.9285299577235593
 30
0.0
  0
VERTEX
  5
C9
  8
LAYER_1
 10
10.62429408479808
 20
0.9322422309970312
 30
0.0
  0
VERTEX
  5
CA
  8
LAYER_1
 10
10.75858543825739
 20
0.9364508220239813
 30
0.0
  0
VERTEX
  5
CB
  8
LAYER_1
 10
10.89286425576199
 20
0.9411557309095115
 30
0.0
  0
VERTEX
  5
CC
  8
LAYER_1
 10
11.02712914024332
 20
0.9463569577587232
 30
0.0
  0
VERTEX
  5
CD
  8
LAYER_1
 10
11.16137869463284
 20
0.9520545026767182
 30
0.0
  0
VERTEX
  5
CE
  8
LAYER_1
 10
11.29561152186201
 20
0.9582483657685982
 30
0.0
  0
VERTEX
  5
CF
  8
LAYER_1
 10
11.42982622486228
 20
0.9649385471394645
 30
0.0
  0
VERTEX
  5
D0
  8
LAYER_1
 10
11.56402140656511
 20
0.9721250468944189
 30
0.0
  0
VERTEX
  5
D1
  8
LAYER_1
 10
11.69819566990196
 20
0.9798078651385633
 30
0.0
  0
VERTEX
  5
D2
  8
LAYER_1
 10
11.83234761780428
 20
0.9879870019769991
 30
0.0
  0
VERTEX
  5
D3
  8
LAYER_1
 10
11.96647585320353
 20
0.9966624575148278
 30
0.0
  0
VERTEX
  5
D4
  8
LAYER_1
 10
12.10057897903117
 20
1.005834231857151
 30
0.0
  0
VERTEX
  5
D5
  8
LAYER_1
 10
12.23465559821865
 20
1.015502325109071
 30
0.0
  0
VERTEX
  5
D6
  8
LAYER_1
 10
12.36870431369743
 20
1.025666737375689
 30
0.0
  0
VERTEX
  5
D7
  8
LAYER_1
 10
12.50272372839896
 20
1.036327468762106
 30
0.0
  0
VERTEX
  5
D8
  8
LAYER_1
 10
12.63671244525471
 20
1.047484519373425
 30
0.0
  0
VERTEX
  5
D9
  8
LAYER_1
 10
12.77066906719612
 20
1.059137889314747
 30
0.0
  0
VERTEX
  5
DA
  8
LAYER_1
 10
12.90459219715466
 20
1.071287578691173
 30
0.0
  0
VERTEX
  5
DB
  8
LAYER_1
 10
13.03848043806178
 20
1.083933587607805
 30
0.0
  0
VERTEX
  5
DC
  8
LAYER_1
 10
13.17233239284894
 20
1.097075916169745
 30
0.0
  0
VERTEX
  5
DD
  8
LAYER_1
 10
13.30614666444759
 20
1.110714564482094
 30
0.0
  0
VERTEX
  5
DE
  8
LAYER_1
 10
13.4399218557892
 20
1.124849532649954
 30
0.0
  0
VERTEX
  5
DF
  8
LAYER_1
 10
13.57365656980521
 20
1.139480820778427
 30
0.0
  0
VERTEX
  5
E0
  8
LAYER_1
 10
13.70734940942708
 20
1.154608428972615
 30
0.0
  0
VERTEX
  5
E1
  8
LAYER_1
 10
13.84099897758627
 20
1.170232357337618
 30
0.0
  0
VERTEX
  5
E2
  8
LAYER_1
 10
13.97460387721424
 20
1.186352605978539
 30
0.0
  0
VERTEX
  5
E3
  8
LAYER_1
 10
14.10816271124244
 20
1.202969175000479
 30
0.0
  0
VERTEX
  5
E4
  8
LAYER_1
 10
14.24167408260234
 20
1.22008206450854
 30
0.0
  0
VERTEX
  5
E5
  8
LAYER_1
 10
14.37513659422537
 20
1.237691274607824
 30
0.0
  0
VERTEX
  5
E6
  8
LAYER_1
 10
14.50854884904301
 20
1.255796805403432
 30
0.0
  0
VERTEX
  5
E7
  8
LAYER_1
 10
14.64190944998671
 20
1.274398657000465
 30
0.0
  0
VERTEX
  5
E8
  8
LAYER_1
 10
14.77521699998792
 20
1.293496829504026
 30
0.0
  0
VERTEX
  5
E9
  8
LAYER_1
 10
14.90847010197811
 20
1.313091323019216
 30
0.0
  0
VERTEX
  5
EA
  8
LAYER_1
 10
15.04166735888872
 20
1.333182137651136
 30
0.0
  0
VERTEX
  5
EB
  8
LAYER_1
 10
15.17480737365122
 20
1.353769273504889
 30
0.0
  0
VERTEX
  5
EC
  8
LAYER_1
 10
15.30788874919705
 20
1.374852730685576
 30
0.0
  0
VERTEX
  5
ED
  8
LAYER_1
 10
15.44091008845769
 20
1.396432509298299
 30
0.0
  0
VERTEX
  5
EE
  8
LAYER_1
 10
15.57386999436458
 20
1.418508609448158
 30
0.0
  0
VERTEX
  5
EF
  8
LAYER_1
 10
15.70676706984917
 20
1.441081031240257
 30
0.0
  0
VERTEX
  5
F0
  8
LAYER_1
 10
15.83959991784294
 20
1.464149774779695
 30
0.0
  0
VERTEX
  5
F1
  8
LAYER_1
 10
15.97236714127733
 20
1.487714840171577
 30
0.0
  0
VERTEX
  5
F2
  8
LAYER_1
 10
16.1050673430838
 20
1.511776227521002
 30
0.0
  0
VERTEX
  5
F3
  8
LAYER_1
 10
16.2376991261938
 20
1.536333936933072
 30
0.0
  0
VERTEX
  5
F4
  8
LAYER_1
 10
16.3702610935388
 20
1.561387968512889
 30
0.0
  0
VERTEX
  5
F5
  8
LAYER_1
 10
16.50275184805024
 20
1.586938322365555
 30
0.0
  0
VERTEX
  5
F6
  8
LAYER_1
 10
16.63516999265959
 20
1.612984998596172
 30
0.0
  0
VERTEX
  5
F7
  8
LAYER_1
 10
16.7675141302983
 20
1.63952799730984
 30
0.0
  0
VERTEX
  5
F8
  8
LAYER_1
 10
16.89978286389783
 20
1.666567318611662
 30
0.0
  0
VERTEX
  5
F9
  8
LAYER_1
 10
17.03197479638964
 20
1.694102962606739
 30
0.0
  0
VERTEX
  5
FA
  8
LAYER_1
 10
17.16408853070517
 20
1.722134929400173
 30
0.0
  0
VERTEX
  5
FB
  8
LAYER_1
 10
17.2961226697759
 20
1.750663219097065
 30
0.0
  0
VERTEX
  5
FC
  8
LAYER_1
 10
17.42807581653327
 20
1.779687831802518
 30
0.0
  0
VERTEX
  5
FD
  8
LAYER_1
 10
17.55994657390873
 20
1.809208767621632
 30
0.0
  0
VERTEX
  5
FE
  8
LAYER_1
 10
17.69173354483375
 20
1.83922602665951
 30
0.0
  0
VERTEX
  5
FF
  8
LAYER_1
 10
17.82343533223979
 20
1.869739609021252
 30
0.0
  0
VERTEX
  5
100
  8
LAYER_1
 10
17.95505053905829
 20
1.900749514811962
 30
0.0
  0
VERTEX
  5
101
  8
LAYER_1
 10
18.08657776822073
 20
1.932255744136739
 30
0.0
  0
VERTEX
  5
102
  8
LAYER_1
 10
18.1030899017734
 20
1.932539513896595
 30
0.0
  0
VERTEX
  5
103
  8
LAYER_1
 10
18.11955238118384
 20
1.933361764071349
 30
0.0
  0
VERTEX
  5
104
  8
LAYER_1
 10
18.13595244294433
 20
1.934719076471961
 30
0.0
  0
VERTEX
  5
105
  8
LAYER_1
 10
18.1522773235471
 20
1.936608032909391
 30
0.0
  0
VERTEX
  5
106
  8
LAYER_1
 10
18.16851425948443
 20
1.939025215194599
 30
0.0
  0
VERTEX
  5
107
  8
LAYER_1
 10
18.18465048724858
 20
1.941967205138545
 30
0.0
  0
VERTEX
  5
108
  8
LAYER_1
 10
18.20067324333179
 20
1.945430584552187
 30
0.0
  0
VERTEX
  5
109
  8
LAYER_1
 10
18.21656976422634
 20
1.949411935246486
 30
0.0
  0
VERTEX
  5
10A
  8
LAYER_1
 10
18.23232728642447
 20
1.953907839032402
 30
0.0
  0
VERTEX
  5
10B
  8
LAYER_1
 10
18.24793304641845
 20
1.958914877720894
 30
0.0
  0
VERTEX
  5
10C
  8
LAYER_1
 10
18.26337428070055
 20
1.964429633122921
 30
0.0
  0
VERTEX
  5
10D
  8
LAYER_1
 10
18.278638225763
 20
1.970448687049445
 30
0.0
  0
VERTEX
  5
10E
  8
LAYER_1
 10
18.29371211809809
 20
1.976968621311423
 30
0.0
  0
VERTEX
  5
10F
  8
LAYER_1
 10
18.30858319419805
 20
1.983986017719817
 30
0.0
  0
VERTEX
  5
110
  8
LAYER_1
 10
18.32323869055516
 20
1.991497458085584
 30
0.0
  0
VERTEX
  5
111
  8
LAYER_1
 10
18.33766584366168
 20
1.999499524219686
 30
0.0
  0
VERTEX
  5
112
  8
LAYER_1
 10
18.33813501023256
 20
8.18223683729467
 30
0.0
  0
VERTEX
  5
113
  8
LAYER_1
 10
0.7623341566313133
 20
8.183559066921887
 30
0.0
  0
VERTEX
  5
114
  8
LAYER_1
 10
0.7618649897674477
 20
2.000817892820497
 30
0.0
  0
VERTEX
  5
115
  8
LAYER_1
 10
0.7762906019050682
 20
1.992814138270399
 30
0.0
  0
VERTEX
  5
116
  8
LAYER_1
 10
0.7909446097936801
 20
1.985300945076822
 30
0.0
  0
VERTEX
  5
117
  8
LAYER_1
 10
0.805814251725957
 20
1.978281732906722
 30
0.0
  0
VERTEX
  5
118
  8
LAYER_1
 10
0.8208867659945718
 20
1.971759921427054
 30
0.0
  0
VERTEX
  5
119
  8
LAYER_1
 10
0.8361493908921976
 20
1.965738930304773
 30
0.0
  0
VERTEX
  5
11A
  8
LAYER_1
 10
0.8515893647115074
 20
1.960222179206833
 30
0.0
  0
VERTEX
  5
11B
  8
LAYER_1
 10
0.8671939257451744
 20
1.95521308780019
 30
0.0
  0
VERTEX
  5
11C
  8
LAYER_1
 10
0.8829503122858715
 20
1.950715075751799
 30
0.0
  0
VERTEX
  5
11D
  8
LAYER_1
 10
0.898845762626272
 20
1.946731562728616
 30
0.0
  0
VERTEX
  5
11E
  8
LAYER_1
 10
0.9148675150590491
 20
1.943265968397594
 30
0.0
  0
VERTEX
  5
11F
  8
LAYER_1
 10
0.9310028078768755
 20
1.94032171242569
 30
0.0
  0
VERTEX
  5
120
  8
LAYER_1
 10
0.9472388793724247
 20
1.937902214479857
 30
0.0
  0
VERTEX
  5
121
  8
LAYER_1
 10
0.9635629678383695
 20
1.936010894227052
 30
0.0
  0
VERTEX
  5
122
  8
LAYER_1
 10
0.9799623115673831
 20
1.934651171334228
 30
0.0
  0
VERTEX
  5
123
  8
LAYER_1
 10
0.9964241488521387
 20
1.933826465468343
 30
0.0
  0
SEQEND
  5
15A
  8
LAYER_1
  0
POLYLINE
  5
6D
  8
LAYER_1
 66
     1
 10
0.0
 20
0.0
 30
0.0
 70
     1
  0
VERTEX
  5
124
  8
LAYER_1
 10
16.41633104747394
 20
6.512960244038251
 30
0.0
 42
-0.4142135623730951
  0
VERTEX
  5
125
  8
LAYER_1
 10
16.91633104747394
 20
7.012960244038251
 30
0.0
 42
-0.4142135623730951
  0
VERTEX
  5
126
  8
LAYER_1
 10
17.41633104747394
 20
6.512960244038251
 30
0.0
 42
-0.4142135623730951
  0
VERTEX
  5
127
  8
LAYER_1
 10
16.91633104747394
 20
6.01296024403825
 30
0.0
 42
-0.4142135623730951
  0
SEQEND
  5
15B
  8
LAYER_1
  0
POLYLINE
  5
6E
  8
LAYER_1
 66
     1
 10
0.0
 20
0.0
 30
0.0
 70
     1
  0
VERTEX
  5
128
  8
LAYER_1
 10
14.81753950668843
 20
6.51296024403825
 30
0.0
 42
-0.4142135623730951
  0
VERTEX
  5
129
  8
LAYER_1
 10
15.31753950668843
 20
7.01296024403825
 30
0.0
 42
-0.4142135623730951
  0
VERTEX
  5
12A
  8
LAYER_1
 10
15.81753950668843
 20
6.51296024403825
 30
0.0
 42
-0.4142135623730951
  0
VERTEX
  5
12B
  8
LAYER_1
 10
15.31753950668843
 20
6.01296024403825
 30
0.0
 42
-0.4142135623730951
  0
SEQEND
  5
15C
  8
LAYER_1
  0
POLYLINE
  5
6F
  8
LAYER_1
 66
     1
 10
0.0
 20
0.0
 30
0.0
 70
     1
  0
VERTEX
  5
12C
  8
LAYER_1
 10
10.94521234324967
 20
4.943882868072628
 30
0.0
 42
-0.4142135623730951
  0
VERTEX
  5
12D
  8
LAYER_1
 10
11.44521234324966
 20
5.443882868072628
 30
0.0
 42
-0.4142135623730951
  0
VERTEX
  5
12E
  8
LAYER_1
 10
11.94521234324966
 20
4.943882868072627
 30
0.0
 42
-0.4142135623730951
  0
VERTEX
  5
12F
  8
LAYER_1
 10
11.44521234324966
 20
4.443882868072628
 30
0.0
 42
-0.4142135623730951
  0
SEQEND
  5
15D
  8
LAYER_1
  0
POLYLINE
  5
70
  8
LAYER_1
 66
     1
 10
0.0
 20
0.0
 30
0.0
 70
     1
  0
VERTEX
  5
130
  8
LAYER_1
 10
8.193600640103298
 20
4.218488455212104
 30
0.0
 42
-0.4142135623730978
  0
VERTEX
  5
131
  8
LAYER_1
 10
8.816802882228878
 20
3.59519203262145
 30
0.0
 42
-0.4142135623730954
  0
VERTEX
  5
132
  8
LAYER_1
 10
8.19350645963823
 20
2.971989790495864
 30
0.0
 42
-0.4142135623730951
  0
VERTEX
  5
133
  8
LAYER_1
 10
7.570304217512637
 20
3.595286213086523
 30
0.0
 42
-0.4142135623730953
  0
SEQEND
  5
15E
  8
LAYER_1
  0
POLYLINE
  5
71
  8
LAYER_1
 66
     1
 10
0.0
 20
0.0
 30
0.0
 70
     1
  0
VERTEX
  5
134
  8
LAYER_1
 10
8.365725361167488
 20
5.81199573295011
 30
0.0
 42
-0.4142135623730966
  0
VERTEX
  5
135
  8
LAYER_1
 10
8.98584783968782
 20
5.191779539389151
 30
0.0
 42
-0.4142135623730917
  0
VERTEX
  5
136
  8
LAYER_1
 10
8.365631646126854
 20
4.571657060868831
 30
0.0
 42
-0.4142135623730948
  0
VERTEX
  5
137
  8
LAYER_1
 10
7.745509167606542
 20
5.191873254429788
 30
0.0
 42
-0.4142135623730951
  0
SEQEND
  5
15F
  8
LAYER_1
  0
POLYLINE
  5
72
  8
LAYER_1
 66
     1
 10
0.0
 20
0.0
 30
0.0
 70
     1
  0
VERTEX
  5
138
  8
LAYER_1
 10
6.329965543661181
 20
5.873041329600398
 30
0.0
 42
-0.4142135623730952
  0
VERTEX
  5
139
  8
LAYER_1
 10
6.950181737222131
 20
6.493163808120715
 30
0.0
 42
-0.4142135623730955
  0
VERTEX
  5
13A
  8
LAYER_1
 10
7.570304215742457
 20
5.872947614559776
 30
0.0
 42
-0.414213562373095
  0
VERTEX
  5
13B
  8
LAYER_1
 10
6.950088022181504
 20
5.252825136039445
 30
0.0
 42
-0.4142135623730953
  0
SEQEND
  5
160
  8
LAYER_1
  0
POLYLINE
  5
73
  8
LAYER_1
 66
     1
 10
0.0
 20
0.0
 30
0.0
 70
     1
  0
VERTEX
  5
13C
  8
LAYER_1
 10
7.378969069996165
 20
4.215408693377035
 30
0.0
 42
-0.4142135623730957
  0
VERTEX
  5
13D
  8
LAYER_1
 10
6.758752876435212
 20
3.595286214856707
 30
0.0
 42
-0.4142135623730951
  0
VERTEX
  5
13E
  8
LAYER_1
 10
6.13863039791489
 20
4.215502408417659
 30
0.0
 42
-0.4142135623730955
  0
VERTEX
  5
13F
  8
LAYER_1
 10
6.758846591475834
 20
4.835624886937974
 30
0.0
 42
-0.4142135623730949
  0
SEQEND
  5
161
  8
LAYER_1
  0
POLYLINE
  5
74
  8
LAYER_1
 66
     1
 10
0.0
 20
0.0
 30
0.0
 70
     1
  0
VERTEX
  5
140
  8
LAYER_1
 10
5.804291954826452
 20
4.628788047662735
 30
0.0
 42
-0.4142135623730966
  0
VERTEX
  5
141
  8
LAYER_1
 10
5.184075761265509
 20
4.008665569142406
 30
0.0
 42
-0.4142135623730945
  0
VERTEX
  5
142
  8
LAYER_1
 10
4.563953282745187
 20
4.628881762703359
 30
0.0
 42
-0.4142135623730953
  0
VERTEX
  5
143
  8
LAYER_1
 10
5.184169476306137
 20
5.249004241223687
 30
0.0
 42
-0.4142135623730952
  0
SEQEND
  5
162
  8
LAYER_1
  0
POLYLINE
  5
75
  8
LAYER_1
 66
     1
 10
0.0
 20
0.0
 30
0.0
 70
     1
  0
VERTEX
  5
144
  8
LAYER_1
 10
5.375410907011796
 20
5.666204490325149
 30
0.0
 42
-0.4142135623730954
  0
VERTEX
  5
145
  8
LAYER_1
 10
4.755288428491474
 20
6.286420683886099
 30
0.0
 42
-0.4142135623730939
  0
VERTEX
  5
146
  8
LAYER_1
 10
5.375504622052423
 20
6.906543162406432
 30
0.0
 42
-0.4142135623730944
  0
VERTEX
  5
147
  8
LAYER_1
 10
5.995627100572742
 20
6.286326968845475
 30
0.0
 42
-0.4142135623730951
  0
SEQEND
  5
163
  8
LAYER_1
  0
POLYLINE
  5
76
  8
LAYER_1
 66
     1
 10
0.0
 20
0.0
 30
0.0
 70
     1
  0
VERTEX
  5
148
  8
LAYER_1
 10
3.635284365151159
 20
6.374313935428382
 30
0.0
 42
-0.4142135623730978
  0
VERTEX
  5
149
  8
LAYER_1
 10
4.258486607276739
 20
5.751017512837728
 30
0.0
 42
-0.4142135623730954
  0
VERTEX
  5
14A
  8
LAYER_1
 10
3.635190184686094
 20
5.127815270712142
 30
0.0
 42
-0.4142135623730951
  0
VERTEX
  5
14B
  8
LAYER_1
 10
3.0119879425605
 20
5.751111693302801
 30
0.0
 42
-0.4142135623730953
  0
SEQEND
  5
164
  8
LAYER_1
  0
POLYLINE
  5
77
  8
LAYER_1
 66
     1
 10
0.0
 20
0.0
 30
0.0
 70
     1
  0
VERTEX
  5
14C
  8
LAYER_1
 10
3.640339591737268
 20
4.621429343283366
 30
0.0
 42
-0.4142135623730978
  0
VERTEX
  5
14D
  8
LAYER_1
 10
4.263541833862847
 20
3.998132920692712
 30
0.0
 42
-0.4142135623730954
  0
VERTEX
  5
14E
  8
LAYER_1
 10
3.640245411272199
 20
3.374930678567126
 30
0.0
 42
-0.4142135623730951
  0
VERTEX
  5
14F
  8
LAYER_1
 10
3.017043169146609
 20
3.998227101157785
 30
0.0
 42
-0.4142135623730953
  0
SEQEND
  5
165
  8
LAYER_1
  0
POLYLINE
  5
78
  8
LAYER_1
 66
     1
 10
0.0
 20
0.0
 30
0.0
 70
     1
  0
VERTEX
  5
150
  8
LAYER_1
 10
1.469708418667325
 20
6.912443474366266
 30
0.0
 42
-0.4142135623730951
  0
VERTEX
  5
151
  8
LAYER_1
 10
1.669708418667325
 20
7.112443474366267
 30
0.0
 42
-0.4142135623730951
  0
VERTEX
  5
152
  8
LAYER_1
 10
1.869708418667328
 20
6.912443474366266
 30
0.0
 42
-0.4142135623730951
  0
VERTEX
  5
153
  8
LAYER_1
 10
1.669708418667325
 20
6.712443474366267
 30
0.0
 42
-0.4142135623730951
  0
SEQEND
  5
166
  8
LAYER_1
  0
POLYLINE
  5
79
  8
LAYER_1
 66
     1
 10
0.0
 20
0.0
 30
0.0
 70
     1
  0
VERTEX
  5
154
  8
LAYER_1
 10
1.409194624567251
 20
4.872450195057445
 30
0.0
  0
VERTEX
  5
155
  8
LAYER_1
 10
1.407989512167196
 20
5.622449226859556
 30
0.0
  0
VERTEX
  5
156
  8
LAYER_1
 10
1.957988802155414
 20
5.623332975952928
 30
0.0
  0
VERTEX
  5
157
  8
LAYER_1
 10
1.959193914555465
 20
4.873333944150818
 30
0.0
  0
SEQEND
  5
167
  8
LAYER_1
  0
ENDSEC
  0
EOF
