ISO-10303-21;
HEADER;
/* Generated by software containing ST-Developer
 * from STEP Tools, Inc. (www.steptools.com) 
 */

FILE_DESCRIPTION(
/* description */ (''),
/* implementation_level */ '2;1');

FILE_NAME(
/* name */ 
'C:/Users/T3910MECATRO/Desktop/Cad actuador/Potenci\X\F3metro v1 v1 v1.
step',
/* time_stamp */ '2018-05-30T17:20:12-05:00',
/* author */ (''),
/* organization */ (''),
/* preprocessor_version */ 'ST-DEVELOPER v17',
/* originating_system */ 'Autodesk Translation Framework v7.1.0.215',
/* authorisation */ '');

FILE_SCHEMA (('AUTOMOTIVE_DESIGN { 1 0 10303 214 3 1 1 }'));
ENDSEC;

DATA;
#10=MECHANICAL_DESIGN_GEOMETRIC_PRESENTATION_REPRESENTATION('',(#13),#265);
#11=SHAPE_REPRESENTATION_RELATIONSHIP('SRR','None',#272,#12);
#12=ADVANCED_BREP_SHAPE_REPRESENTATION('',(#14),#264);
#13=STYLED_ITEM('',(#281),#14);
#14=MANIFOLD_SOLID_BREP('Body4',#149);
#15=FACE_BOUND('',#36,.T.);
#16=PLANE('',#171);
#17=PLANE('',#172);
#18=PLANE('',#173);
#19=PLANE('',#174);
#20=PLANE('',#175);
#21=PLANE('',#176);
#22=PLANE('',#177);
#23=FACE_OUTER_BOUND('',#32,.T.);
#24=FACE_OUTER_BOUND('',#33,.T.);
#25=FACE_OUTER_BOUND('',#34,.T.);
#26=FACE_OUTER_BOUND('',#35,.T.);
#27=FACE_OUTER_BOUND('',#37,.T.);
#28=FACE_OUTER_BOUND('',#38,.T.);
#29=FACE_OUTER_BOUND('',#39,.T.);
#30=FACE_OUTER_BOUND('',#40,.T.);
#31=FACE_OUTER_BOUND('',#41,.T.);
#32=EDGE_LOOP('',(#102,#103,#104,#105,#106,#107,#108,#109));
#33=EDGE_LOOP('',(#110,#111,#112,#113));
#34=EDGE_LOOP('',(#114));
#35=EDGE_LOOP('',(#115));
#36=EDGE_LOOP('',(#116));
#37=EDGE_LOOP('',(#117,#118,#119,#120,#121));
#38=EDGE_LOOP('',(#122,#123,#124,#125));
#39=EDGE_LOOP('',(#126,#127,#128,#129));
#40=EDGE_LOOP('',(#130,#131,#132,#133));
#41=EDGE_LOOP('',(#134,#135,#136,#137));
#42=LINE('',#227,#54);
#43=LINE('',#231,#55);
#44=LINE('',#235,#56);
#45=LINE('',#241,#57);
#46=LINE('',#247,#58);
#47=LINE('',#249,#59);
#48=LINE('',#250,#60);
#49=LINE('',#253,#61);
#50=LINE('',#254,#62);
#51=LINE('',#257,#63);
#52=LINE('',#258,#64);
#53=LINE('',#260,#65);
#54=VECTOR('',#184,5.);
#55=VECTOR('',#187,10.);
#56=VECTOR('',#190,10.);
#57=VECTOR('',#197,0.75);
#58=VECTOR('',#206,10.);
#59=VECTOR('',#207,10.);
#60=VECTOR('',#208,10.);
#61=VECTOR('',#211,10.);
#62=VECTOR('',#212,10.);
#63=VECTOR('',#215,10.);
#64=VECTOR('',#216,10.);
#65=VECTOR('',#219,10.);
#66=CIRCLE('',#164,5.);
#67=CIRCLE('',#165,5.);
#68=CIRCLE('',#166,5.);
#69=CIRCLE('',#167,5.);
#70=CIRCLE('',#169,0.75);
#71=CIRCLE('',#170,0.75);
#72=VERTEX_POINT('',#224);
#73=VERTEX_POINT('',#226);
#74=VERTEX_POINT('',#228);
#75=VERTEX_POINT('',#230);
#76=VERTEX_POINT('',#232);
#77=VERTEX_POINT('',#234);
#78=VERTEX_POINT('',#238);
#79=VERTEX_POINT('',#240);
#80=VERTEX_POINT('',#246);
#81=VERTEX_POINT('',#248);
#82=VERTEX_POINT('',#252);
#83=VERTEX_POINT('',#256);
#84=EDGE_CURVE('',#72,#72,#66,.T.);
#85=EDGE_CURVE('',#72,#73,#42,.T.);
#86=EDGE_CURVE('',#73,#74,#67,.T.);
#87=EDGE_CURVE('',#75,#74,#43,.T.);
#88=EDGE_CURVE('',#76,#75,#68,.T.);
#89=EDGE_CURVE('',#77,#76,#44,.T.);
#90=EDGE_CURVE('',#77,#73,#69,.T.);
#91=EDGE_CURVE('',#78,#78,#70,.T.);
#92=EDGE_CURVE('',#78,#79,#45,.T.);
#93=EDGE_CURVE('',#79,#79,#71,.T.);
#94=EDGE_CURVE('',#77,#80,#46,.T.);
#95=EDGE_CURVE('',#80,#81,#47,.T.);
#96=EDGE_CURVE('',#81,#74,#48,.T.);
#97=EDGE_CURVE('',#82,#76,#49,.T.);
#98=EDGE_CURVE('',#80,#82,#50,.T.);
#99=EDGE_CURVE('',#75,#83,#51,.T.);
#100=EDGE_CURVE('',#83,#82,#52,.T.);
#101=EDGE_CURVE('',#81,#83,#53,.T.);
#102=ORIENTED_EDGE('',*,*,#84,.F.);
#103=ORIENTED_EDGE('',*,*,#85,.T.);
#104=ORIENTED_EDGE('',*,*,#86,.T.);
#105=ORIENTED_EDGE('',*,*,#87,.F.);
#106=ORIENTED_EDGE('',*,*,#88,.F.);
#107=ORIENTED_EDGE('',*,*,#89,.F.);
#108=ORIENTED_EDGE('',*,*,#90,.T.);
#109=ORIENTED_EDGE('',*,*,#85,.F.);
#110=ORIENTED_EDGE('',*,*,#91,.F.);
#111=ORIENTED_EDGE('',*,*,#92,.T.);
#112=ORIENTED_EDGE('',*,*,#93,.F.);
#113=ORIENTED_EDGE('',*,*,#92,.F.);
#114=ORIENTED_EDGE('',*,*,#91,.T.);
#115=ORIENTED_EDGE('',*,*,#84,.T.);
#116=ORIENTED_EDGE('',*,*,#93,.T.);
#117=ORIENTED_EDGE('',*,*,#90,.F.);
#118=ORIENTED_EDGE('',*,*,#94,.T.);
#119=ORIENTED_EDGE('',*,*,#95,.T.);
#120=ORIENTED_EDGE('',*,*,#96,.T.);
#121=ORIENTED_EDGE('',*,*,#86,.F.);
#122=ORIENTED_EDGE('',*,*,#89,.T.);
#123=ORIENTED_EDGE('',*,*,#97,.F.);
#124=ORIENTED_EDGE('',*,*,#98,.F.);
#125=ORIENTED_EDGE('',*,*,#94,.F.);
#126=ORIENTED_EDGE('',*,*,#88,.T.);
#127=ORIENTED_EDGE('',*,*,#99,.T.);
#128=ORIENTED_EDGE('',*,*,#100,.T.);
#129=ORIENTED_EDGE('',*,*,#97,.T.);
#130=ORIENTED_EDGE('',*,*,#87,.T.);
#131=ORIENTED_EDGE('',*,*,#96,.F.);
#132=ORIENTED_EDGE('',*,*,#101,.T.);
#133=ORIENTED_EDGE('',*,*,#99,.F.);
#134=ORIENTED_EDGE('',*,*,#95,.F.);
#135=ORIENTED_EDGE('',*,*,#98,.T.);
#136=ORIENTED_EDGE('',*,*,#100,.F.);
#137=ORIENTED_EDGE('',*,*,#101,.F.);
#138=CYLINDRICAL_SURFACE('',#163,5.);
#139=CYLINDRICAL_SURFACE('',#168,0.75);
#140=ADVANCED_FACE('',(#23),#138,.T.);
#141=ADVANCED_FACE('',(#24),#139,.T.);
#142=ADVANCED_FACE('',(#25),#16,.T.);
#143=ADVANCED_FACE('',(#26,#15),#17,.T.);
#144=ADVANCED_FACE('',(#27),#18,.F.);
#145=ADVANCED_FACE('',(#28),#19,.T.);
#146=ADVANCED_FACE('',(#29),#20,.T.);
#147=ADVANCED_FACE('',(#30),#21,.T.);
#148=ADVANCED_FACE('',(#31),#22,.T.);
#149=CLOSED_SHELL('',(#140,#141,#142,#143,#144,#145,#146,#147,#148));
#150=DERIVED_UNIT_ELEMENT(#152,1.);
#151=DERIVED_UNIT_ELEMENT(#267,3.);
#152=(
MASS_UNIT()
NAMED_UNIT(*)
SI_UNIT(.KILO.,.GRAM.)
);
#153=DERIVED_UNIT((#150,#151));
#154=MEASURE_REPRESENTATION_ITEM('density measure',
POSITIVE_RATIO_MEASURE(7850.),#153);
#155=PROPERTY_DEFINITION_REPRESENTATION(#160,#157);
#156=PROPERTY_DEFINITION_REPRESENTATION(#161,#158);
#157=REPRESENTATION('material name',(#159),#264);
#158=REPRESENTATION('density',(#154),#264);
#159=DESCRIPTIVE_REPRESENTATION_ITEM('Steel','Steel');
#160=PROPERTY_DEFINITION('material property','material name',#274);
#161=PROPERTY_DEFINITION('material property','density of part',#274);
#162=AXIS2_PLACEMENT_3D('placement',#222,#178,#179);
#163=AXIS2_PLACEMENT_3D('',#223,#180,#181);
#164=AXIS2_PLACEMENT_3D('',#225,#182,#183);
#165=AXIS2_PLACEMENT_3D('',#229,#185,#186);
#166=AXIS2_PLACEMENT_3D('',#233,#188,#189);
#167=AXIS2_PLACEMENT_3D('',#236,#191,#192);
#168=AXIS2_PLACEMENT_3D('',#237,#193,#194);
#169=AXIS2_PLACEMENT_3D('',#239,#195,#196);
#170=AXIS2_PLACEMENT_3D('',#242,#198,#199);
#171=AXIS2_PLACEMENT_3D('',#243,#200,#201);
#172=AXIS2_PLACEMENT_3D('',#244,#202,#203);
#173=AXIS2_PLACEMENT_3D('',#245,#204,#205);
#174=AXIS2_PLACEMENT_3D('',#251,#209,#210);
#175=AXIS2_PLACEMENT_3D('',#255,#213,#214);
#176=AXIS2_PLACEMENT_3D('',#259,#217,#218);
#177=AXIS2_PLACEMENT_3D('',#261,#220,#221);
#178=DIRECTION('axis',(0.,0.,1.));
#179=DIRECTION('refdir',(1.,0.,0.));
#180=DIRECTION('center_axis',(0.,0.,1.));
#181=DIRECTION('ref_axis',(1.,0.,0.));
#182=DIRECTION('center_axis',(0.,0.,1.));
#183=DIRECTION('ref_axis',(1.,0.,0.));
#184=DIRECTION('',(0.,0.,-1.));
#185=DIRECTION('center_axis',(0.,0.,1.));
#186=DIRECTION('ref_axis',(1.,0.,0.));
#187=DIRECTION('',(0.,0.,-1.));
#188=DIRECTION('center_axis',(0.,0.,-1.));
#189=DIRECTION('ref_axis',(1.,0.,0.));
#190=DIRECTION('',(0.,0.,1.));
#191=DIRECTION('center_axis',(0.,0.,1.));
#192=DIRECTION('ref_axis',(1.,0.,0.));
#193=DIRECTION('center_axis',(0.,0.,1.));
#194=DIRECTION('ref_axis',(1.,0.,0.));
#195=DIRECTION('center_axis',(0.,0.,1.));
#196=DIRECTION('ref_axis',(1.,0.,0.));
#197=DIRECTION('',(0.,0.,-1.));
#198=DIRECTION('center_axis',(0.,0.,-1.));
#199=DIRECTION('ref_axis',(1.,0.,0.));
#200=DIRECTION('center_axis',(0.,0.,1.));
#201=DIRECTION('ref_axis',(1.,0.,0.));
#202=DIRECTION('center_axis',(0.,0.,1.));
#203=DIRECTION('ref_axis',(1.,0.,0.));
#204=DIRECTION('center_axis',(0.,0.,1.));
#205=DIRECTION('ref_axis',(1.,0.,0.));
#206=DIRECTION('',(0.,-1.,0.));
#207=DIRECTION('',(-1.,0.,0.));
#208=DIRECTION('',(0.,1.,0.));
#209=DIRECTION('center_axis',(1.,0.,0.));
#210=DIRECTION('ref_axis',(0.,1.,0.));
#211=DIRECTION('',(0.,1.,0.));
#212=DIRECTION('',(0.,0.,1.));
#213=DIRECTION('center_axis',(0.,0.,1.));
#214=DIRECTION('ref_axis',(1.,0.,0.));
#215=DIRECTION('',(0.,-1.,0.));
#216=DIRECTION('',(1.,0.,0.));
#217=DIRECTION('center_axis',(-1.,0.,0.));
#218=DIRECTION('ref_axis',(0.,-1.,0.));
#219=DIRECTION('',(0.,0.,1.));
#220=DIRECTION('center_axis',(0.,-1.,0.));
#221=DIRECTION('ref_axis',(1.,0.,0.));
#222=CARTESIAN_POINT('',(0.,0.,0.));
#223=CARTESIAN_POINT('Origin',(0.,0.,0.));
#224=CARTESIAN_POINT('',(-5.,-6.12323399573677E-16,5.));
#225=CARTESIAN_POINT('Origin',(0.,0.,5.));
#226=CARTESIAN_POINT('',(-5.,-6.12323399573677E-16,0.));
#227=CARTESIAN_POINT('',(-5.,-6.12323399573677E-16,0.));
#228=CARTESIAN_POINT('',(-4.,-3.,0.));
#229=CARTESIAN_POINT('Origin',(0.,0.,0.));
#230=CARTESIAN_POINT('',(-4.,-3.,4.));
#231=CARTESIAN_POINT('',(-4.,-3.,0.));
#232=CARTESIAN_POINT('',(4.,-3.,4.));
#233=CARTESIAN_POINT('Origin',(0.,0.,4.));
#234=CARTESIAN_POINT('',(4.,-3.,0.));
#235=CARTESIAN_POINT('',(4.,-3.,0.));
#236=CARTESIAN_POINT('Origin',(0.,0.,0.));
#237=CARTESIAN_POINT('Origin',(0.,0.,0.));
#238=CARTESIAN_POINT('',(-0.75,-9.18485099360515E-17,14.));
#239=CARTESIAN_POINT('Origin',(0.,0.,14.));
#240=CARTESIAN_POINT('',(-0.75,-9.18485099360515E-17,5.));
#241=CARTESIAN_POINT('',(-0.75,-9.18485099360515E-17,0.));
#242=CARTESIAN_POINT('Origin',(0.,0.,5.));
#243=CARTESIAN_POINT('Origin',(0.,0.,14.));
#244=CARTESIAN_POINT('Origin',(0.,0.,5.));
#245=CARTESIAN_POINT('Origin',(0.,-5.,0.));
#246=CARTESIAN_POINT('',(4.,-10.,0.));
#247=CARTESIAN_POINT('',(4.,0.,0.));
#248=CARTESIAN_POINT('',(-4.,-10.,0.));
#249=CARTESIAN_POINT('',(4.,-10.,0.));
#250=CARTESIAN_POINT('',(-4.,-10.,0.));
#251=CARTESIAN_POINT('Origin',(4.,-10.,0.));
#252=CARTESIAN_POINT('',(4.,-10.,4.));
#253=CARTESIAN_POINT('',(4.,0.,4.));
#254=CARTESIAN_POINT('',(4.,-10.,0.));
#255=CARTESIAN_POINT('Origin',(0.,-5.,4.));
#256=CARTESIAN_POINT('',(-4.,-10.,4.));
#257=CARTESIAN_POINT('',(-4.,-10.,4.));
#258=CARTESIAN_POINT('',(4.,-10.,4.));
#259=CARTESIAN_POINT('Origin',(-4.,0.,0.));
#260=CARTESIAN_POINT('',(-4.,-10.,0.));
#261=CARTESIAN_POINT('Origin',(-4.,-10.,0.));
#262=UNCERTAINTY_MEASURE_WITH_UNIT(LENGTH_MEASURE(0.01),#266,
'DISTANCE_ACCURACY_VALUE',
'Maximum model space distance between geometric entities at asserted c
onnectivities');
#263=UNCERTAINTY_MEASURE_WITH_UNIT(LENGTH_MEASURE(0.01),#266,
'DISTANCE_ACCURACY_VALUE',
'Maximum model space distance between geometric entities at asserted c
onnectivities');
#264=(
GEOMETRIC_REPRESENTATION_CONTEXT(3)
GLOBAL_UNCERTAINTY_ASSIGNED_CONTEXT((#262))
GLOBAL_UNIT_ASSIGNED_CONTEXT((#266,#269,#268))
REPRESENTATION_CONTEXT('','3D')
);
#265=(
GEOMETRIC_REPRESENTATION_CONTEXT(3)
GLOBAL_UNCERTAINTY_ASSIGNED_CONTEXT((#263))
GLOBAL_UNIT_ASSIGNED_CONTEXT((#266,#269,#268))
REPRESENTATION_CONTEXT('','3D')
);
#266=(
LENGTH_UNIT()
NAMED_UNIT(*)
SI_UNIT(.MILLI.,.METRE.)
);
#267=(
LENGTH_UNIT()
NAMED_UNIT(*)
SI_UNIT($,.METRE.)
);
#268=(
NAMED_UNIT(*)
SI_UNIT($,.STERADIAN.)
SOLID_ANGLE_UNIT()
);
#269=(
NAMED_UNIT(*)
PLANE_ANGLE_UNIT()
SI_UNIT($,.RADIAN.)
);
#270=SHAPE_DEFINITION_REPRESENTATION(#271,#272);
#271=PRODUCT_DEFINITION_SHAPE('',$,#274);
#272=SHAPE_REPRESENTATION('',(#162),#264);
#273=PRODUCT_DEFINITION_CONTEXT('part definition',#278,'design');
#274=PRODUCT_DEFINITION('Potenci\X\F3metro v1 v1',
'Potenci\X\F3metro v1 v1 v1',#275,#273);
#275=PRODUCT_DEFINITION_FORMATION('',$,#280);
#276=PRODUCT_RELATED_PRODUCT_CATEGORY('Potenci\X\F3metro v1 v1 v1',
'Potenci\X\F3metro v1 v1 v1',(#280));
#277=APPLICATION_PROTOCOL_DEFINITION('international standard',
'automotive_design',2009,#278);
#278=APPLICATION_CONTEXT(
'Core Data for Automotive Mechanical Design Process');
#279=PRODUCT_CONTEXT('part definition',#278,'mechanical');
#280=PRODUCT('Potenci\X\F3metro v1 v1','Potenci\X\F3metro v1 v1 v1',$,(#279));
#281=PRESENTATION_STYLE_ASSIGNMENT((#282));
#282=SURFACE_STYLE_USAGE(.BOTH.,#283);
#283=SURFACE_SIDE_STYLE('',(#284));
#284=SURFACE_STYLE_FILL_AREA(#285);
#285=FILL_AREA_STYLE('Steel - Satin',(#286));
#286=FILL_AREA_STYLE_COLOUR('Steel - Satin',#287);
#287=COLOUR_RGB('Steel - Satin',0.627450980392157,0.627450980392157,0.627450980392157);
ENDSEC;
END-ISO-10303-21;
