999
AlanCooper@StartMail.com
0
SECTION
2
HEADER
9
$ACADVER
1
AC1012
9
$INSBASE
10
0.0
20
0.0
30
0.0
9
$EXTMIN
10
0.0
20
0.0
30
0.0
9
$EXTMAX
10
0.0
20
0.0
30
0.0
9
$HANDSEED
5
FFFF
0
ENDSEC
0
SECTION
2
ENTITIES
0
CIRCLE
8
0
62
0
10
387
20
312
30
0
40
237
0
CIRCLE
8
0
62
0
10
437
20
312
30
0
40
138
0
LINE
8
0
62
0
10
587.000
20
312.000
30
0.000
11
585.380
21
314.779
31
0.000
0
LINE
8
0
62
0
10
585.380
20
314.779
30
0.000
11
584.120
21
317.672
31
0.000
0
LINE
8
0
62
0
10
584.120
20
317.672
30
0.000
11
583.220
21
320.613
31
0.000
0
LINE
8
0
62
0
10
583.220
20
320.613
30
0.000
11
582.680
21
323.536
31
0.000
0
LINE
8
0
62
0
10
582.680
20
323.536
30
0.000
11
582.500
21
326.375
31
0.000
0
LINE
8
0
62
0
10
582.500
20
326.375
30
0.000
11
582.680
21
329.064
31
0.000
0
LINE
8
0
62
0
10
582.680
20
329.064
30
0.000
11
583.220
21
331.537
31
0.000
0
LINE
8
0
62
0
10
583.220
20
331.537
30
0.000
11
584.120
21
333.728
31
0.000
0
LINE
8
0
62
0
10
584.120
20
333.728
30
0.000
11
585.380
21
335.571
31
0.000
0
LINE
8
0
62
0
10
585.380
20
335.571
30
0.000
11
587.000
21
337.000
31
0.000
0
LINE
8
0
62
0
10
587.000
20
312.000
30
0.000
11
585.380
21
310.571
31
0.000
0
LINE
8
0
62
0
10
585.380
20
310.571
30
0.000
11
584.120
21
308.728
31
0.000
0
LINE
8
0
62
0
10
584.120
20
308.728
30
0.000
11
583.220
21
306.537
31
0.000
0
LINE
8
0
62
0
10
583.220
20
306.537
30
0.000
11
582.680
21
304.064
31
0.000
0
LINE
8
0
62
0
10
582.680
20
304.064
30
0.000
11
582.500
21
301.375
31
0.000
0
LINE
8
0
62
0
10
582.500
20
301.375
30
0.000
11
582.680
21
298.536
31
0.000
0
LINE
8
0
62
0
10
582.680
20
298.536
30
0.000
11
583.220
21
295.613
31
0.000
0
LINE
8
0
62
0
10
583.220
20
295.613
30
0.000
11
584.120
21
292.672
31
0.000
0
LINE
8
0
62
0
10
584.120
20
292.672
30
0.000
11
585.380
21
289.779
31
0.000
0
LINE
8
0
62
0
10
585.380
20
289.779
30
0.000
11
587.000
21
287.000
31
0.000
0
LINE
8
0
62
0
10
587.000
20
337.000
30
0.000
11
588.620
21
339.779
31
0.000
0
LINE
8
0
62
0
10
588.620
20
339.779
30
0.000
11
589.880
21
342.672
31
0.000
0
LINE
8
0
62
0
10
589.880
20
342.672
30
0.000
11
590.780
21
345.613
31
0.000
0
LINE
8
0
62
0
10
590.780
20
345.613
30
0.000
11
591.320
21
348.536
31
0.000
0
LINE
8
0
62
0
10
591.320
20
348.536
30
0.000
11
591.500
21
351.375
31
0.000
0
LINE
8
0
62
0
10
591.500
20
351.375
30
0.000
11
591.320
21
354.064
31
0.000
0
LINE
8
0
62
0
10
591.320
20
354.064
30
0.000
11
590.780
21
356.537
31
0.000
0
LINE
8
0
62
0
10
590.780
20
356.537
30
0.000
11
589.880
21
358.728
31
0.000
0
LINE
8
0
62
0
10
589.880
20
358.728
30
0.000
11
588.620
21
360.571
31
0.000
0
LINE
8
0
62
0
10
588.620
20
360.571
30
0.000
11
587.000
21
362.000
31
0.000
0
LINE
8
0
62
0
10
587.000
20
287.000
30
0.000
11
588.620
21
285.571
31
0.000
0
LINE
8
0
62
0
10
588.620
20
285.571
30
0.000
11
589.880
21
283.728
31
0.000
0
LINE
8
0
62
0
10
589.880
20
283.728
30
0.000
11
590.780
21
281.537
31
0.000
0
LINE
8
0
62
0
10
590.780
20
281.537
30
0.000
11
591.320
21
279.064
31
0.000
0
LINE
8
0
62
0
10
591.320
20
279.064
30
0.000
11
591.500
21
276.375
31
0.000
0
LINE
8
0
62
0
10
591.500
20
276.375
30
0.000
11
591.320
21
273.536
31
0.000
0
LINE
8
0
62
0
10
591.320
20
273.536
30
0.000
11
590.780
21
270.613
31
0.000
0
LINE
8
0
62
0
10
590.780
20
270.613
30
0.000
11
589.880
21
267.672
31
0.000
0
LINE
8
0
62
0
10
589.880
20
267.672
30
0.000
11
588.620
21
264.779
31
0.000
0
LINE
8
0
62
0
10
588.620
20
264.779
30
0.000
11
587.000
21
262.000
31
0.000
0
LINE
8
0
62
0
10
587.000
20
312.000
30
0.000
11
588.969
21
313.620
31
0.000
0
LINE
8
0
62
0
10
588.969
20
313.620
30
0.000
11
591.232
21
314.880
31
0.000
0
LINE
8
0
62
0
10
591.232
20
314.880
30
0.000
11
593.723
21
315.780
31
0.000
0
LINE
8
0
62
0
10
593.723
20
315.780
30
0.000
11
596.376
21
316.320
31
0.000
0
LINE
8
0
62
0
10
596.376
20
316.320
30
0.000
11
599.125
21
316.500
31
0.000
0
LINE
8
0
62
0
10
599.125
20
316.500
30
0.000
11
601.904
21
316.320
31
0.000
0
LINE
8
0
62
0
10
601.904
20
316.320
30
0.000
11
604.647
21
315.780
31
0.000
0
LINE
8
0
62
0
10
604.647
20
315.780
30
0.000
11
607.288
21
314.880
31
0.000
0
LINE
8
0
62
0
10
607.288
20
314.880
30
0.000
11
609.761
21
313.620
31
0.000
0
LINE
8
0
62
0
10
609.761
20
313.620
30
0.000
11
612.000
21
312.000
31
0.000
0
LINE
8
0
62
0
10
587.000
20
362.000
30
0.000
11
585.380
21
364.779
31
0.000
0
LINE
8
0
62
0
10
585.380
20
364.779
30
0.000
11
584.120
21
367.672
31
0.000
0
LINE
8
0
62
0
10
584.120
20
367.672
30
0.000
11
583.220
21
370.613
31
0.000
0
LINE
8
0
62
0
10
583.220
20
370.613
30
0.000
11
582.680
21
373.536
31
0.000
0
LINE
8
0
62
0
10
582.680
20
373.536
30
0.000
11
582.500
21
376.375
31
0.000
0
LINE
8
0
62
0
10
582.500
20
376.375
30
0.000
11
582.680
21
379.064
31
0.000
0
LINE
8
0
62
0
10
582.680
20
379.064
30
0.000
11
583.220
21
381.537
31
0.000
0
LINE
8
0
62
0
10
583.220
20
381.537
30
0.000
11
584.120
21
383.728
31
0.000
0
LINE
8
0
62
0
10
584.120
20
383.728
30
0.000
11
585.380
21
385.571
31
0.000
0
LINE
8
0
62
0
10
585.380
20
385.571
30
0.000
11
587.000
21
387.000
31
0.000
0
LINE
8
0
62
0
10
587.000
20
387.000
30
0.000
11
588.620
21
389.779
31
0.000
0
LINE
8
0
62
0
10
588.620
20
389.779
30
0.000
11
589.880
21
392.672
31
0.000
0
LINE
8
0
62
0
10
589.880
20
392.672
30
0.000
11
590.780
21
395.613
31
0.000
0
LINE
8
0
62
0
10
590.780
20
395.613
30
0.000
11
591.320
21
398.536
31
0.000
0
LINE
8
0
62
0
10
591.320
20
398.536
30
0.000
11
591.500
21
401.375
31
0.000
0
LINE
8
0
62
0
10
591.500
20
401.375
30
0.000
11
591.320
21
404.064
31
0.000
0
LINE
8
0
62
0
10
591.320
20
404.064
30
0.000
11
590.780
21
406.537
31
0.000
0
LINE
8
0
62
0
10
590.780
20
406.537
30
0.000
11
589.880
21
408.728
31
0.000
0
LINE
8
0
62
0
10
589.880
20
408.728
30
0.000
11
588.620
21
410.571
31
0.000
0
LINE
8
0
62
0
10
588.620
20
410.571
30
0.000
11
587.000
21
412.000
31
0.000
0
LINE
8
0
62
0
10
587
20
412
30
0
11
562
21
437
31
0
0
LINE
8
0
62
0
10
587.000
20
412.000
30
0.000
11
584.761
21
413.620
31
0.000
0
LINE
8
0
62
0
10
584.761
20
413.620
30
0.000
11
582.288
21
414.880
31
0.000
0
LINE
8
0
62
0
10
582.288
20
414.880
30
0.000
11
579.647
21
415.780
31
0.000
0
LINE
8
0
62
0
10
579.647
20
415.780
30
0.000
11
576.904
21
416.320
31
0.000
0
LINE
8
0
62
0
10
576.904
20
416.320
30
0.000
11
574.125
21
416.500
31
0.000
0
LINE
8
0
62
0
10
574.125
20
416.500
30
0.000
11
571.376
21
416.320
31
0.000
0
LINE
8
0
62
0
10
571.376
20
416.320
30
0.000
11
568.723
21
415.780
31
0.000
0
LINE
8
0
62
0
10
568.723
20
415.780
30
0.000
11
566.232
21
414.880
31
0.000
0
LINE
8
0
62
0
10
566.232
20
414.880
30
0.000
11
563.969
21
413.620
31
0.000
0
LINE
8
0
62
0
10
563.969
20
413.620
30
0.000
11
562.000
21
412.000
31
0.000
0
LINE
8
0
62
0
10
562.000
20
437.000
30
0.000
11
559.761
21
438.620
31
0.000
0
LINE
8
0
62
0
10
559.761
20
438.620
30
0.000
11
557.288
21
439.880
31
0.000
0
LINE
8
0
62
0
10
557.288
20
439.880
30
0.000
11
554.647
21
440.780
31
0.000
0
LINE
8
0
62
0
10
554.647
20
440.780
30
0.000
11
551.904
21
441.320
31
0.000
0
LINE
8
0
62
0
10
551.904
20
441.320
30
0.000
11
549.125
21
441.500
31
0.000
0
LINE
8
0
62
0
10
549.125
20
441.500
30
0.000
11
546.376
21
441.320
31
0.000
0
LINE
8
0
62
0
10
546.376
20
441.320
30
0.000
11
543.723
21
440.780
31
0.000
0
LINE
8
0
62
0
10
543.723
20
440.780
30
0.000
11
541.232
21
439.880
31
0.000
0
LINE
8
0
62
0
10
541.232
20
439.880
30
0.000
11
538.969
21
438.620
31
0.000
0
LINE
8
0
62
0
10
538.969
20
438.620
30
0.000
11
537.000
21
437.000
31
0.000
0
LINE
8
0
62
0
10
562
20
437
30
0
11
537
21
462
31
0
0
LINE
8
0
62
0
10
537.000
20
462.000
30
0.000
11
534.761
21
463.620
31
0.000
0
LINE
8
0
62
0
10
534.761
20
463.620
30
0.000
11
532.288
21
464.880
31
0.000
0
LINE
8
0
62
0
10
532.288
20
464.880
30
0.000
11
529.647
21
465.780
31
0.000
0
LINE
8
0
62
0
10
529.647
20
465.780
30
0.000
11
526.904
21
466.320
31
0.000
0
LINE
8
0
62
0
10
526.904
20
466.320
30
0.000
11
524.125
21
466.500
31
0.000
0
LINE
8
0
62
0
10
524.125
20
466.500
30
0.000
11
521.376
21
466.320
31
0.000
0
LINE
8
0
62
0
10
521.376
20
466.320
30
0.000
11
518.723
21
465.780
31
0.000
0
LINE
8
0
62
0
10
518.723
20
465.780
30
0.000
11
516.232
21
464.880
31
0.000
0
LINE
8
0
62
0
10
516.232
20
464.880
30
0.000
11
513.969
21
463.620
31
0.000
0
LINE
8
0
62
0
10
513.969
20
463.620
30
0.000
11
512.000
21
462.000
31
0.000
0
LINE
8
0
62
0
10
537
20
462
30
0
11
512
21
487
31
0
0
LINE
8
0
62
0
10
512.000
20
462.000
30
0.000
11
509.761
21
460.380
31
0.000
0
LINE
8
0
62
0
10
509.761
20
460.380
30
0.000
11
507.288
21
459.120
31
0.000
0
LINE
8
0
62
0
10
507.288
20
459.120
30
0.000
11
504.647
21
458.220
31
0.000
0
LINE
8
0
62
0
10
504.647
20
458.220
30
0.000
11
501.904
21
457.680
31
0.000
0
LINE
8
0
62
0
10
501.904
20
457.680
30
0.000
11
499.125
21
457.500
31
0.000
0
LINE
8
0
62
0
10
499.125
20
457.500
30
0.000
11
496.376
21
457.680
31
0.000
0
LINE
8
0
62
0
10
496.376
20
457.680
30
0.000
11
493.723
21
458.220
31
0.000
0
LINE
8
0
62
0
10
493.723
20
458.220
30
0.000
11
491.232
21
459.120
31
0.000
0
LINE
8
0
62
0
10
491.232
20
459.120
30
0.000
11
488.969
21
460.380
31
0.000
0
LINE
8
0
62
0
10
488.969
20
460.380
30
0.000
11
487.000
21
462.000
31
0.000
0
LINE
8
0
62
0
10
512
20
487
30
0
11
487
21
512
31
0
0
LINE
8
0
62
0
10
512.000
20
487.000
30
0.000
11
509.761
21
488.620
31
0.000
0
LINE
8
0
62
0
10
509.761
20
488.620
30
0.000
11
507.288
21
489.880
31
0.000
0
LINE
8
0
62
0
10
507.288
20
489.880
30
0.000
11
504.647
21
490.780
31
0.000
0
LINE
8
0
62
0
10
504.647
20
490.780
30
0.000
11
501.904
21
491.320
31
0.000
0
LINE
8
0
62
0
10
501.904
20
491.320
30
0.000
11
499.125
21
491.500
31
0.000
0
LINE
8
0
62
0
10
499.125
20
491.500
30
0.000
11
496.376
21
491.320
31
0.000
0
LINE
8
0
62
0
10
496.376
20
491.320
30
0.000
11
493.723
21
490.780
31
0.000
0
LINE
8
0
62
0
10
493.723
20
490.780
30
0.000
11
491.232
21
489.880
31
0.000
0
LINE
8
0
62
0
10
491.232
20
489.880
30
0.000
11
488.969
21
488.620
31
0.000
0
LINE
8
0
62
0
10
488.969
20
488.620
30
0.000
11
487.000
21
487.000
31
0.000
0
LINE
8
0
62
0
10
487.000
20
462.000
30
0.000
11
484.761
21
463.620
31
0.000
0
LINE
8
0
62
0
10
484.761
20
463.620
30
0.000
11
482.288
21
464.880
31
0.000
0
LINE
8
0
62
0
10
482.288
20
464.880
30
0.000
11
479.647
21
465.780
31
0.000
0
LINE
8
0
62
0
10
479.647
20
465.780
30
0.000
11
476.904
21
466.320
31
0.000
0
LINE
8
0
62
0
10
476.904
20
466.320
30
0.000
11
474.125
21
466.500
31
0.000
0
LINE
8
0
62
0
10
474.125
20
466.500
30
0.000
11
471.376
21
466.320
31
0.000
0
LINE
8
0
62
0
10
471.376
20
466.320
30
0.000
11
468.723
21
465.780
31
0.000
0
LINE
8
0
62
0
10
468.723
20
465.780
30
0.000
11
466.232
21
464.880
31
0.000
0
LINE
8
0
62
0
10
466.232
20
464.880
30
0.000
11
463.969
21
463.620
31
0.000
0
LINE
8
0
62
0
10
463.969
20
463.620
30
0.000
11
462.000
21
462.000
31
0.000
0
LINE
8
0
62
0
10
387.000
20
462.000
30
0.000
11
388.969
21
460.380
31
0.000
0
LINE
8
0
62
0
10
388.969
20
460.380
30
0.000
11
391.232
21
459.120
31
0.000
0
LINE
8
0
62
0
10
391.232
20
459.120
30
0.000
11
393.723
21
458.220
31
0.000
0
LINE
8
0
62
0
10
393.723
20
458.220
30
0.000
11
396.376
21
457.680
31
0.000
0
LINE
8
0
62
0
10
396.376
20
457.680
30
0.000
11
399.125
21
457.500
31
0.000
0
LINE
8
0
62
0
10
399.125
20
457.500
30
0.000
11
401.904
21
457.680
31
0.000
0
LINE
8
0
62
0
10
401.904
20
457.680
30
0.000
11
404.647
21
458.220
31
0.000
0
LINE
8
0
62
0
10
404.647
20
458.220
30
0.000
11
407.288
21
459.120
31
0.000
0
LINE
8
0
62
0
10
407.288
20
459.120
30
0.000
11
409.761
21
460.380
31
0.000
0
LINE
8
0
62
0
10
409.761
20
460.380
30
0.000
11
412.000
21
462.000
31
0.000
0
LINE
8
0
62
0
10
387.000
20
462.000
30
0.000
11
388.620
21
464.779
31
0.000
0
LINE
8
0
62
0
10
388.620
20
464.779
30
0.000
11
389.880
21
467.672
31
0.000
0
LINE
8
0
62
0
10
389.880
20
467.672
30
0.000
11
390.780
21
470.613
31
0.000
0
LINE
8
0
62
0
10
390.780
20
470.613
30
0.000
11
391.320
21
473.536
31
0.000
0
LINE
8
0
62
0
10
391.320
20
473.536
30
0.000
11
391.500
21
476.375
31
0.000
0
LINE
8
0
62
0
10
391.500
20
476.375
30
0.000
11
391.320
21
479.064
31
0.000
0
LINE
8
0
62
0
10
391.320
20
479.064
30
0.000
11
390.780
21
481.537
31
0.000
0
LINE
8
0
62
0
10
390.780
20
481.537
30
0.000
11
389.880
21
483.728
31
0.000
0
LINE
8
0
62
0
10
389.880
20
483.728
30
0.000
11
388.620
21
485.571
31
0.000
0
LINE
8
0
62
0
10
388.620
20
485.571
30
0.000
11
387.000
21
487.000
31
0.000
0
LINE
8
0
62
0
10
387.000
20
462.000
30
0.000
11
384.761
21
463.620
31
0.000
0
LINE
8
0
62
0
10
384.761
20
463.620
30
0.000
11
382.288
21
464.880
31
0.000
0
LINE
8
0
62
0
10
382.288
20
464.880
30
0.000
11
379.647
21
465.780
31
0.000
0
LINE
8
0
62
0
10
379.647
20
465.780
30
0.000
11
376.904
21
466.320
31
0.000
0
LINE
8
0
62
0
10
376.904
20
466.320
30
0.000
11
374.125
21
466.500
31
0.000
0
LINE
8
0
62
0
10
374.125
20
466.500
30
0.000
11
371.376
21
466.320
31
0.000
0
LINE
8
0
62
0
10
371.376
20
466.320
30
0.000
11
368.723
21
465.780
31
0.000
0
LINE
8
0
62
0
10
368.723
20
465.780
30
0.000
11
366.232
21
464.880
31
0.000
0
LINE
8
0
62
0
10
366.232
20
464.880
30
0.000
11
363.969
21
463.620
31
0.000
0
LINE
8
0
62
0
10
363.969
20
463.620
30
0.000
11
362.000
21
462.000
31
0.000
0
LINE
8
0
62
0
10
387
20
462
30
0
11
362
21
487
31
0
0
LINE
8
0
62
0
10
587.000
20
262.000
30
0.000
11
585.380
21
260.571
31
0.000
0
LINE
8
0
62
0
10
585.380
20
260.571
30
0.000
11
584.120
21
258.728
31
0.000
0
LINE
8
0
62
0
10
584.120
20
258.728
30
0.000
11
583.220
21
256.537
31
0.000
0
LINE
8
0
62
0
10
583.220
20
256.537
30
0.000
11
582.680
21
254.064
31
0.000
0
LINE
8
0
62
0
10
582.680
20
254.064
30
0.000
11
582.500
21
251.375
31
0.000
0
LINE
8
0
62
0
10
582.500
20
251.375
30
0.000
11
582.680
21
248.536
31
0.000
0
LINE
8
0
62
0
10
582.680
20
248.536
30
0.000
11
583.220
21
245.613
31
0.000
0
LINE
8
0
62
0
10
583.220
20
245.613
30
0.000
11
584.120
21
242.672
31
0.000
0
LINE
8
0
62
0
10
584.120
20
242.672
30
0.000
11
585.380
21
239.779
31
0.000
0
LINE
8
0
62
0
10
585.380
20
239.779
30
0.000
11
587.000
21
237.000
31
0.000
0
LINE
8
0
62
0
10
487.000
20
512.000
30
0.000
11
484.761
21
513.620
31
0.000
0
LINE
8
0
62
0
10
484.761
20
513.620
30
0.000
11
482.288
21
514.880
31
0.000
0
LINE
8
0
62
0
10
482.288
20
514.880
30
0.000
11
479.647
21
515.780
31
0.000
0
LINE
8
0
62
0
10
479.647
20
515.780
30
0.000
11
476.904
21
516.320
31
0.000
0
LINE
8
0
62
0
10
476.904
20
516.320
30
0.000
11
474.125
21
516.500
31
0.000
0
LINE
8
0
62
0
10
474.125
20
516.500
30
0.000
11
471.376
21
516.320
31
0.000
0
LINE
8
0
62
0
10
471.376
20
516.320
30
0.000
11
468.723
21
515.780
31
0.000
0
LINE
8
0
62
0
10
468.723
20
515.780
30
0.000
11
466.232
21
514.880
31
0.000
0
LINE
8
0
62
0
10
466.232
20
514.880
30
0.000
11
463.969
21
513.620
31
0.000
0
LINE
8
0
62
0
10
463.969
20
513.620
30
0.000
11
462.000
21
512.000
31
0.000
0
LINE
8
0
62
0
10
487.000
20
487.000
30
0.000
11
484.761
21
485.380
31
0.000
0
LINE
8
0
62
0
10
484.761
20
485.380
30
0.000
11
482.288
21
484.120
31
0.000
0
LINE
8
0
62
0
10
482.288
20
484.120
30
0.000
11
479.647
21
483.220
31
0.000
0
LINE
8
0
62
0
10
479.647
20
483.220
30
0.000
11
476.904
21
482.680
31
0.000
0
LINE
8
0
62
0
10
476.904
20
482.680
30
0.000
11
474.125
21
482.500
31
0.000
0
LINE
8
0
62
0
10
474.125
20
482.500
30
0.000
11
471.376
21
482.680
31
0.000
0
LINE
8
0
62
0
10
471.376
20
482.680
30
0.000
11
468.723
21
483.220
31
0.000
0
LINE
8
0
62
0
10
468.723
20
483.220
30
0.000
11
466.232
21
484.120
31
0.000
0
LINE
8
0
62
0
10
466.232
20
484.120
30
0.000
11
463.969
21
485.380
31
0.000
0
LINE
8
0
62
0
10
463.969
20
485.380
30
0.000
11
462.000
21
487.000
31
0.000
0
LINE
8
0
62
0
10
412
20
462
30
0
11
437
21
487
31
0
0
LINE
8
0
62
0
10
412.000
20
462.000
30
0.000
11
413.620
21
464.779
31
0.000
0
LINE
8
0
62
0
10
413.620
20
464.779
30
0.000
11
414.880
21
467.672
31
0.000
0
LINE
8
0
62
0
10
414.880
20
467.672
30
0.000
11
415.780
21
470.613
31
0.000
0
LINE
8
0
62
0
10
415.780
20
470.613
30
0.000
11
416.320
21
473.536
31
0.000
0
LINE
8
0
62
0
10
416.320
20
473.536
30
0.000
11
416.500
21
476.375
31
0.000
0
LINE
8
0
62
0
10
416.500
20
476.375
30
0.000
11
416.320
21
479.064
31
0.000
0
LINE
8
0
62
0
10
416.320
20
479.064
30
0.000
11
415.780
21
481.537
31
0.000
0
LINE
8
0
62
0
10
415.780
20
481.537
30
0.000
11
414.880
21
483.728
31
0.000
0
LINE
8
0
62
0
10
414.880
20
483.728
30
0.000
11
413.620
21
485.571
31
0.000
0
LINE
8
0
62
0
10
413.620
20
485.571
30
0.000
11
412.000
21
487.000
31
0.000
0
LINE
8
0
62
0
10
387
20
487
30
0
11
362
21
512
31
0
0
LINE
8
0
62
0
10
387.000
20
487.000
30
0.000
11
385.380
21
489.779
31
0.000
0
LINE
8
0
62
0
10
385.380
20
489.779
30
0.000
11
384.120
21
492.672
31
0.000
0
LINE
8
0
62
0
10
384.120
20
492.672
30
0.000
11
383.220
21
495.613
31
0.000
0
LINE
8
0
62
0
10
383.220
20
495.613
30
0.000
11
382.680
21
498.536
31
0.000
0
LINE
8
0
62
0
10
382.680
20
498.536
30
0.000
11
382.500
21
501.375
31
0.000
0
LINE
8
0
62
0
10
382.500
20
501.375
30
0.000
11
382.680
21
504.064
31
0.000
0
LINE
8
0
62
0
10
382.680
20
504.064
30
0.000
11
383.220
21
506.537
31
0.000
0
LINE
8
0
62
0
10
383.220
20
506.537
30
0.000
11
384.120
21
508.728
31
0.000
0
LINE
8
0
62
0
10
384.120
20
508.728
30
0.000
11
385.380
21
510.571
31
0.000
0
LINE
8
0
62
0
10
385.380
20
510.571
30
0.000
11
387.000
21
512.000
31
0.000
0
LINE
8
0
62
0
10
362.000
20
462.000
30
0.000
11
359.761
21
460.380
31
0.000
0
LINE
8
0
62
0
10
359.761
20
460.380
30
0.000
11
357.288
21
459.120
31
0.000
0
LINE
8
0
62
0
10
357.288
20
459.120
30
0.000
11
354.647
21
458.220
31
0.000
0
LINE
8
0
62
0
10
354.647
20
458.220
30
0.000
11
351.904
21
457.680
31
0.000
0
LINE
8
0
62
0
10
351.904
20
457.680
30
0.000
11
349.125
21
457.500
31
0.000
0
LINE
8
0
62
0
10
349.125
20
457.500
30
0.000
11
346.376
21
457.680
31
0.000
0
LINE
8
0
62
0
10
346.376
20
457.680
30
0.000
11
343.723
21
458.220
31
0.000
0
LINE
8
0
62
0
10
343.723
20
458.220
30
0.000
11
341.232
21
459.120
31
0.000
0
LINE
8
0
62
0
10
341.232
20
459.120
30
0.000
11
338.969
21
460.380
31
0.000
0
LINE
8
0
62
0
10
338.969
20
460.380
30
0.000
11
337.000
21
462.000
31
0.000
0
LINE
8
0
62
0
10
362
20
462
30
0
11
337
21
437
31
0
0
LINE
8
0
62
0
10
362
20
487
30
0
11
337
21
512
31
0
0
LINE
8
0
62
0
10
362.000
20
487.000
30
0.000
11
359.761
21
488.620
31
0.000
0
LINE
8
0
62
0
10
359.761
20
488.620
30
0.000
11
357.288
21
489.880
31
0.000
0
LINE
8
0
62
0
10
357.288
20
489.880
30
0.000
11
354.647
21
490.780
31
0.000
0
LINE
8
0
62
0
10
354.647
20
490.780
30
0.000
11
351.904
21
491.320
31
0.000
0
LINE
8
0
62
0
10
351.904
20
491.320
30
0.000
11
349.125
21
491.500
31
0.000
0
LINE
8
0
62
0
10
349.125
20
491.500
30
0.000
11
346.376
21
491.320
31
0.000
0
LINE
8
0
62
0
10
346.376
20
491.320
30
0.000
11
343.723
21
490.780
31
0.000
0
LINE
8
0
62
0
10
343.723
20
490.780
30
0.000
11
341.232
21
489.880
31
0.000
0
LINE
8
0
62
0
10
341.232
20
489.880
30
0.000
11
338.969
21
488.620
31
0.000
0
LINE
8
0
62
0
10
338.969
20
488.620
30
0.000
11
337.000
21
487.000
31
0.000
0
LINE
8
0
62
0
10
587.000
20
237.000
30
0.000
11
588.620
21
235.571
31
0.000
0
LINE
8
0
62
0
10
588.620
20
235.571
30
0.000
11
589.880
21
233.728
31
0.000
0
LINE
8
0
62
0
10
589.880
20
233.728
30
0.000
11
590.780
21
231.537
31
0.000
0
LINE
8
0
62
0
10
590.780
20
231.537
30
0.000
11
591.320
21
229.064
31
0.000
0
LINE
8
0
62
0
10
591.320
20
229.064
30
0.000
11
591.500
21
226.375
31
0.000
0
LINE
8
0
62
0
10
591.500
20
226.375
30
0.000
11
591.320
21
223.536
31
0.000
0
LINE
8
0
62
0
10
591.320
20
223.536
30
0.000
11
590.780
21
220.613
31
0.000
0
LINE
8
0
62
0
10
590.780
20
220.613
30
0.000
11
589.880
21
217.672
31
0.000
0
LINE
8
0
62
0
10
589.880
20
217.672
30
0.000
11
588.620
21
214.779
31
0.000
0
LINE
8
0
62
0
10
588.620
20
214.779
30
0.000
11
587.000
21
212.000
31
0.000
0
LINE
8
0
62
0
10
462.000
20
512.000
30
0.000
11
459.761
21
510.380
31
0.000
0
LINE
8
0
62
0
10
459.761
20
510.380
30
0.000
11
457.288
21
509.120
31
0.000
0
LINE
8
0
62
0
10
457.288
20
509.120
30
0.000
11
454.647
21
508.220
31
0.000
0
LINE
8
0
62
0
10
454.647
20
508.220
30
0.000
11
451.904
21
507.680
31
0.000
0
LINE
8
0
62
0
10
451.904
20
507.680
30
0.000
11
449.125
21
507.500
31
0.000
0
LINE
8
0
62
0
10
449.125
20
507.500
30
0.000
11
446.376
21
507.680
31
0.000
0
LINE
8
0
62
0
10
446.376
20
507.680
30
0.000
11
443.723
21
508.220
31
0.000
0
LINE
8
0
62
0
10
443.723
20
508.220
30
0.000
11
441.232
21
509.120
31
0.000
0
LINE
8
0
62
0
10
441.232
20
509.120
30
0.000
11
438.969
21
510.380
31
0.000
0
LINE
8
0
62
0
10
438.969
20
510.380
30
0.000
11
437.000
21
512.000
31
0.000
0
LINE
8
0
62
0
10
412.000
20
487.000
30
0.000
11
410.380
21
489.779
31
0.000
0
LINE
8
0
62
0
10
410.380
20
489.779
30
0.000
11
409.120
21
492.672
31
0.000
0
LINE
8
0
62
0
10
409.120
20
492.672
30
0.000
11
408.220
21
495.613
31
0.000
0
LINE
8
0
62
0
10
408.220
20
495.613
30
0.000
11
407.680
21
498.536
31
0.000
0
LINE
8
0
62
0
10
407.680
20
498.536
30
0.000
11
407.500
21
501.375
31
0.000
0
LINE
8
0
62
0
10
407.500
20
501.375
30
0.000
11
407.680
21
504.064
31
0.000
0
LINE
8
0
62
0
10
407.680
20
504.064
30
0.000
11
408.220
21
506.537
31
0.000
0
LINE
8
0
62
0
10
408.220
20
506.537
30
0.000
11
409.120
21
508.728
31
0.000
0
LINE
8
0
62
0
10
409.120
20
508.728
30
0.000
11
410.380
21
510.571
31
0.000
0
LINE
8
0
62
0
10
410.380
20
510.571
30
0.000
11
412.000
21
512.000
31
0.000
0
LINE
8
0
62
0
10
337.000
20
512.000
30
0.000
11
334.761
21
513.620
31
0.000
0
LINE
8
0
62
0
10
334.761
20
513.620
30
0.000
11
332.288
21
514.880
31
0.000
0
LINE
8
0
62
0
10
332.288
20
514.880
30
0.000
11
329.647
21
515.780
31
0.000
0
LINE
8
0
62
0
10
329.647
20
515.780
30
0.000
11
326.904
21
516.320
31
0.000
0
LINE
8
0
62
0
10
326.904
20
516.320
30
0.000
11
324.125
21
516.500
31
0.000
0
LINE
8
0
62
0
10
324.125
20
516.500
30
0.000
11
321.376
21
516.320
31
0.000
0
LINE
8
0
62
0
10
321.376
20
516.320
30
0.000
11
318.723
21
515.780
31
0.000
0
LINE
8
0
62
0
10
318.723
20
515.780
30
0.000
11
316.232
21
514.880
31
0.000
0
LINE
8
0
62
0
10
316.232
20
514.880
30
0.000
11
313.969
21
513.620
31
0.000
0
LINE
8
0
62
0
10
313.969
20
513.620
30
0.000
11
312.000
21
512.000
31
0.000
0
LINE
8
0
62
0
10
337.000
20
487.000
30
0.000
11
334.761
21
485.380
31
0.000
0
LINE
8
0
62
0
10
334.761
20
485.380
30
0.000
11
332.288
21
484.120
31
0.000
0
LINE
8
0
62
0
10
332.288
20
484.120
30
0.000
11
329.647
21
483.220
31
0.000
0
LINE
8
0
62
0
10
329.647
20
483.220
30
0.000
11
326.904
21
482.680
31
0.000
0
LINE
8
0
62
0
10
326.904
20
482.680
30
0.000
11
324.125
21
482.500
31
0.000
0
LINE
8
0
62
0
10
324.125
20
482.500
30
0.000
11
321.376
21
482.680
31
0.000
0
LINE
8
0
62
0
10
321.376
20
482.680
30
0.000
11
318.723
21
483.220
31
0.000
0
LINE
8
0
62
0
10
318.723
20
483.220
30
0.000
11
316.232
21
484.120
31
0.000
0
LINE
8
0
62
0
10
316.232
20
484.120
30
0.000
11
313.969
21
485.380
31
0.000
0
LINE
8
0
62
0
10
313.969
20
485.380
30
0.000
11
312.000
21
487.000
31
0.000
0
LINE
8
0
62
0
10
587.000
20
212.000
30
0.000
11
584.761
21
210.380
31
0.000
0
LINE
8
0
62
0
10
584.761
20
210.380
30
0.000
11
582.288
21
209.120
31
0.000
0
LINE
8
0
62
0
10
582.288
20
209.120
30
0.000
11
579.647
21
208.220
31
0.000
0
LINE
8
0
62
0
10
579.647
20
208.220
30
0.000
11
576.904
21
207.680
31
0.000
0
LINE
8
0
62
0
10
576.904
20
207.680
30
0.000
11
574.125
21
207.500
31
0.000
0
LINE
8
0
62
0
10
574.125
20
207.500
30
0.000
11
571.376
21
207.680
31
0.000
0
LINE
8
0
62
0
10
571.376
20
207.680
30
0.000
11
568.723
21
208.220
31
0.000
0
LINE
8
0
62
0
10
568.723
20
208.220
30
0.000
11
566.232
21
209.120
31
0.000
0
LINE
8
0
62
0
10
566.232
20
209.120
30
0.000
11
563.969
21
210.380
31
0.000
0
LINE
8
0
62
0
10
563.969
20
210.380
30
0.000
11
562.000
21
212.000
31
0.000
0
LINE
8
0
62
0
10
587
20
212
30
0
11
562
21
187
31
0
0
LINE
8
0
62
0
10
312.000
20
512.000
30
0.000
11
309.761
21
510.380
31
0.000
0
LINE
8
0
62
0
10
309.761
20
510.380
30
0.000
11
307.288
21
509.120
31
0.000
0
LINE
8
0
62
0
10
307.288
20
509.120
30
0.000
11
304.647
21
508.220
31
0.000
0
LINE
8
0
62
0
10
304.647
20
508.220
30
0.000
11
301.904
21
507.680
31
0.000
0
LINE
8
0
62
0
10
301.904
20
507.680
30
0.000
11
299.125
21
507.500
31
0.000
0
LINE
8
0
62
0
10
299.125
20
507.500
30
0.000
11
296.376
21
507.680
31
0.000
0
LINE
8
0
62
0
10
296.376
20
507.680
30
0.000
11
293.723
21
508.220
31
0.000
0
LINE
8
0
62
0
10
293.723
20
508.220
30
0.000
11
291.232
21
509.120
31
0.000
0
LINE
8
0
62
0
10
291.232
20
509.120
30
0.000
11
288.969
21
510.380
31
0.000
0
LINE
8
0
62
0
10
288.969
20
510.380
30
0.000
11
287.000
21
512.000
31
0.000
0
LINE
8
0
62
0
10
312.000
20
487.000
30
0.000
11
309.761
21
488.620
31
0.000
0
LINE
8
0
62
0
10
309.761
20
488.620
30
0.000
11
307.288
21
489.880
31
0.000
0
LINE
8
0
62
0
10
307.288
20
489.880
30
0.000
11
304.647
21
490.780
31
0.000
0
LINE
8
0
62
0
10
304.647
20
490.780
30
0.000
11
301.904
21
491.320
31
0.000
0
LINE
8
0
62
0
10
301.904
20
491.320
30
0.000
11
299.125
21
491.500
31
0.000
0
LINE
8
0
62
0
10
299.125
20
491.500
30
0.000
11
296.376
21
491.320
31
0.000
0
LINE
8
0
62
0
10
296.376
20
491.320
30
0.000
11
293.723
21
490.780
31
0.000
0
LINE
8
0
62
0
10
293.723
20
490.780
30
0.000
11
291.232
21
489.880
31
0.000
0
LINE
8
0
62
0
10
291.232
20
489.880
30
0.000
11
288.969
21
488.620
31
0.000
0
LINE
8
0
62
0
10
288.969
20
488.620
30
0.000
11
287.000
21
487.000
31
0.000
0
LINE
8
0
62
0
10
562
20
187
30
0
11
537
21
162
31
0
0
LINE
8
0
62
0
10
562.000
20
187.000
30
0.000
11
559.761
21
185.380
31
0.000
0
LINE
8
0
62
0
10
559.761
20
185.380
30
0.000
11
557.288
21
184.120
31
0.000
0
LINE
8
0
62
0
10
557.288
20
184.120
30
0.000
11
554.647
21
183.220
31
0.000
0
LINE
8
0
62
0
10
554.647
20
183.220
30
0.000
11
551.904
21
182.680
31
0.000
0
LINE
8
0
62
0
10
551.904
20
182.680
30
0.000
11
549.125
21
182.500
31
0.000
0
LINE
8
0
62
0
10
549.125
20
182.500
30
0.000
11
546.376
21
182.680
31
0.000
0
LINE
8
0
62
0
10
546.376
20
182.680
30
0.000
11
543.723
21
183.220
31
0.000
0
LINE
8
0
62
0
10
543.723
20
183.220
30
0.000
11
541.232
21
184.120
31
0.000
0
LINE
8
0
62
0
10
541.232
20
184.120
30
0.000
11
538.969
21
185.380
31
0.000
0
LINE
8
0
62
0
10
538.969
20
185.380
30
0.000
11
537.000
21
187.000
31
0.000
0
LINE
8
0
62
0
10
287.000
20
487.000
30
0.000
11
284.761
21
485.380
31
0.000
0
LINE
8
0
62
0
10
284.761
20
485.380
30
0.000
11
282.288
21
484.120
31
0.000
0
LINE
8
0
62
0
10
282.288
20
484.120
30
0.000
11
279.647
21
483.220
31
0.000
0
LINE
8
0
62
0
10
279.647
20
483.220
30
0.000
11
276.904
21
482.680
31
0.000
0
LINE
8
0
62
0
10
276.904
20
482.680
30
0.000
11
274.125
21
482.500
31
0.000
0
LINE
8
0
62
0
10
274.125
20
482.500
30
0.000
11
271.376
21
482.680
31
0.000
0
LINE
8
0
62
0
10
271.376
20
482.680
30
0.000
11
268.723
21
483.220
31
0.000
0
LINE
8
0
62
0
10
268.723
20
483.220
30
0.000
11
266.232
21
484.120
31
0.000
0
LINE
8
0
62
0
10
266.232
20
484.120
30
0.000
11
263.969
21
485.380
31
0.000
0
LINE
8
0
62
0
10
263.969
20
485.380
30
0.000
11
262.000
21
487.000
31
0.000
0
LINE
8
0
62
0
10
287.000
20
487.000
30
0.000
11
285.380
21
485.571
31
0.000
0
LINE
8
0
62
0
10
285.380
20
485.571
30
0.000
11
284.120
21
483.728
31
0.000
0
LINE
8
0
62
0
10
284.120
20
483.728
30
0.000
11
283.220
21
481.537
31
0.000
0
LINE
8
0
62
0
10
283.220
20
481.537
30
0.000
11
282.680
21
479.064
31
0.000
0
LINE
8
0
62
0
10
282.680
20
479.064
30
0.000
11
282.500
21
476.375
31
0.000
0
LINE
8
0
62
0
10
282.500
20
476.375
30
0.000
11
282.680
21
473.536
31
0.000
0
LINE
8
0
62
0
10
282.680
20
473.536
30
0.000
11
283.220
21
470.613
31
0.000
0
LINE
8
0
62
0
10
283.220
20
470.613
30
0.000
11
284.120
21
467.672
31
0.000
0
LINE
8
0
62
0
10
284.120
20
467.672
30
0.000
11
285.380
21
464.779
31
0.000
0
LINE
8
0
62
0
10
285.380
20
464.779
30
0.000
11
287.000
21
462.000
31
0.000
0
LINE
8
0
62
0
10
287
20
487
30
0
11
262
21
462
31
0
0
LINE
8
0
62
0
10
287.000
20
462.000
30
0.000
11
288.969
21
460.380
31
0.000
0
LINE
8
0
62
0
10
288.969
20
460.380
30
0.000
11
291.232
21
459.120
31
0.000
0
LINE
8
0
62
0
10
291.232
20
459.120
30
0.000
11
293.723
21
458.220
31
0.000
0
LINE
8
0
62
0
10
293.723
20
458.220
30
0.000
11
296.376
21
457.680
31
0.000
0
LINE
8
0
62
0
10
296.376
20
457.680
30
0.000
11
299.125
21
457.500
31
0.000
0
LINE
8
0
62
0
10
299.125
20
457.500
30
0.000
11
301.904
21
457.680
31
0.000
0
LINE
8
0
62
0
10
301.904
20
457.680
30
0.000
11
304.647
21
458.220
31
0.000
0
LINE
8
0
62
0
10
304.647
20
458.220
30
0.000
11
307.288
21
459.120
31
0.000
0
LINE
8
0
62
0
10
307.288
20
459.120
30
0.000
11
309.761
21
460.380
31
0.000
0
LINE
8
0
62
0
10
309.761
20
460.380
30
0.000
11
312.000
21
462.000
31
0.000
0
LINE
8
0
62
0
10
287
20
462
30
0
11
312
21
437
31
0
0
LINE
8
0
62
0
10
287.000
20
462.000
30
0.000
11
288.620
21
460.571
31
0.000
0
LINE
8
0
62
0
10
288.620
20
460.571
30
0.000
11
289.880
21
458.728
31
0.000
0
LINE
8
0
62
0
10
289.880
20
458.728
30
0.000
11
290.780
21
456.537
31
0.000
0
LINE
8
0
62
0
10
290.780
20
456.537
30
0.000
11
291.320
21
454.064
31
0.000
0
LINE
8
0
62
0
10
291.320
20
454.064
30
0.000
11
291.500
21
451.375
31
0.000
0
LINE
8
0
62
0
10
291.500
20
451.375
30
0.000
11
291.320
21
448.536
31
0.000
0
LINE
8
0
62
0
10
291.320
20
448.536
30
0.000
11
290.780
21
445.613
31
0.000
0
LINE
8
0
62
0
10
290.780
20
445.613
30
0.000
11
289.880
21
442.672
31
0.000
0
LINE
8
0
62
0
10
289.880
20
442.672
30
0.000
11
288.620
21
439.779
31
0.000
0
LINE
8
0
62
0
10
288.620
20
439.779
30
0.000
11
287.000
21
437.000
31
0.000
0
LINE
8
0
62
0
10
262.000
20
462.000
30
0.000
11
260.380
21
460.571
31
0.000
0
LINE
8
0
62
0
10
260.380
20
460.571
30
0.000
11
259.120
21
458.728
31
0.000
0
LINE
8
0
62
0
10
259.120
20
458.728
30
0.000
11
258.220
21
456.537
31
0.000
0
LINE
8
0
62
0
10
258.220
20
456.537
30
0.000
11
257.680
21
454.064
31
0.000
0
LINE
8
0
62
0
10
257.680
20
454.064
30
0.000
11
257.500
21
451.375
31
0.000
0
LINE
8
0
62
0
10
257.500
20
451.375
30
0.000
11
257.680
21
448.536
31
0.000
0
LINE
8
0
62
0
10
257.680
20
448.536
30
0.000
11
258.220
21
445.613
31
0.000
0
LINE
8
0
62
0
10
258.220
20
445.613
30
0.000
11
259.120
21
442.672
31
0.000
0
LINE
8
0
62
0
10
259.120
20
442.672
30
0.000
11
260.380
21
439.779
31
0.000
0
LINE
8
0
62
0
10
260.380
20
439.779
30
0.000
11
262.000
21
437.000
31
0.000
0
LINE
8
0
62
0
10
262.000
20
462.000
30
0.000
11
259.761
21
460.380
31
0.000
0
LINE
8
0
62
0
10
259.761
20
460.380
30
0.000
11
257.288
21
459.120
31
0.000
0
LINE
8
0
62
0
10
257.288
20
459.120
30
0.000
11
254.647
21
458.220
31
0.000
0
LINE
8
0
62
0
10
254.647
20
458.220
30
0.000
11
251.904
21
457.680
31
0.000
0
LINE
8
0
62
0
10
251.904
20
457.680
30
0.000
11
249.125
21
457.500
31
0.000
0
LINE
8
0
62
0
10
249.125
20
457.500
30
0.000
11
246.376
21
457.680
31
0.000
0
LINE
8
0
62
0
10
246.376
20
457.680
30
0.000
11
243.723
21
458.220
31
0.000
0
LINE
8
0
62
0
10
243.723
20
458.220
30
0.000
11
241.232
21
459.120
31
0.000
0
LINE
8
0
62
0
10
241.232
20
459.120
30
0.000
11
238.969
21
460.380
31
0.000
0
LINE
8
0
62
0
10
238.969
20
460.380
30
0.000
11
237.000
21
462.000
31
0.000
0
LINE
8
0
62
0
10
262
20
462
30
0
11
237
21
437
31
0
0
LINE
8
0
62
0
10
262.000
20
437.000
30
0.000
11
263.620
21
435.571
31
0.000
0
LINE
8
0
62
0
10
263.620
20
435.571
30
0.000
11
264.880
21
433.728
31
0.000
0
LINE
8
0
62
0
10
264.880
20
433.728
30
0.000
11
265.780
21
431.537
31
0.000
0
LINE
8
0
62
0
10
265.780
20
431.537
30
0.000
11
266.320
21
429.064
31
0.000
0
LINE
8
0
62
0
10
266.320
20
429.064
30
0.000
11
266.500
21
426.375
31
0.000
0
LINE
8
0
62
0
10
266.500
20
426.375
30
0.000
11
266.320
21
423.536
31
0.000
0
LINE
8
0
62
0
10
266.320
20
423.536
30
0.000
11
265.780
21
420.613
31
0.000
0
LINE
8
0
62
0
10
265.780
20
420.613
30
0.000
11
264.880
21
417.672
31
0.000
0
LINE
8
0
62
0
10
264.880
20
417.672
30
0.000
11
263.620
21
414.779
31
0.000
0
LINE
8
0
62
0
10
263.620
20
414.779
30
0.000
11
262.000
21
412.000
31
0.000
0
LINE
8
0
62
0
10
237
20
437
30
0
11
212
21
412
31
0
0
LINE
8
0
62
0
10
237.000
20
437.000
30
0.000
11
235.380
21
435.571
31
0.000
0
LINE
8
0
62
0
10
235.380
20
435.571
30
0.000
11
234.120
21
433.728
31
0.000
0
LINE
8
0
62
0
10
234.120
20
433.728
30
0.000
11
233.220
21
431.537
31
0.000
0
LINE
8
0
62
0
10
233.220
20
431.537
30
0.000
11
232.680
21
429.064
31
0.000
0
LINE
8
0
62
0
10
232.680
20
429.064
30
0.000
11
232.500
21
426.375
31
0.000
0
LINE
8
0
62
0
10
232.500
20
426.375
30
0.000
11
232.680
21
423.536
31
0.000
0
LINE
8
0
62
0
10
232.680
20
423.536
30
0.000
11
233.220
21
420.613
31
0.000
0
LINE
8
0
62
0
10
233.220
20
420.613
30
0.000
11
234.120
21
417.672
31
0.000
0
LINE
8
0
62
0
10
234.120
20
417.672
30
0.000
11
235.380
21
414.779
31
0.000
0
LINE
8
0
62
0
10
235.380
20
414.779
30
0.000
11
237.000
21
412.000
31
0.000
0
LINE
8
0
62
0
10
237.000
20
437.000
30
0.000
11
234.761
21
435.380
31
0.000
0
LINE
8
0
62
0
10
234.761
20
435.380
30
0.000
11
232.288
21
434.120
31
0.000
0
LINE
8
0
62
0
10
232.288
20
434.120
30
0.000
11
229.647
21
433.220
31
0.000
0
LINE
8
0
62
0
10
229.647
20
433.220
30
0.000
11
226.904
21
432.680
31
0.000
0
LINE
8
0
62
0
10
226.904
20
432.680
30
0.000
11
224.125
21
432.500
31
0.000
0
LINE
8
0
62
0
10
224.125
20
432.500
30
0.000
11
221.376
21
432.680
31
0.000
0
LINE
8
0
62
0
10
221.376
20
432.680
30
0.000
11
218.723
21
433.220
31
0.000
0
LINE
8
0
62
0
10
218.723
20
433.220
30
0.000
11
216.232
21
434.120
31
0.000
0
LINE
8
0
62
0
10
216.232
20
434.120
30
0.000
11
213.969
21
435.380
31
0.000
0
LINE
8
0
62
0
10
213.969
20
435.380
30
0.000
11
212.000
21
437.000
31
0.000
0
LINE
8
0
62
0
10
212.000
20
412.000
30
0.000
11
210.380
21
410.571
31
0.000
0
LINE
8
0
62
0
10
210.380
20
410.571
30
0.000
11
209.120
21
408.728
31
0.000
0
LINE
8
0
62
0
10
209.120
20
408.728
30
0.000
11
208.220
21
406.537
31
0.000
0
LINE
8
0
62
0
10
208.220
20
406.537
30
0.000
11
207.680
21
404.064
31
0.000
0
LINE
8
0
62
0
10
207.680
20
404.064
30
0.000
11
207.500
21
401.375
31
0.000
0
LINE
8
0
62
0
10
207.500
20
401.375
30
0.000
11
207.680
21
398.536
31
0.000
0
LINE
8
0
62
0
10
207.680
20
398.536
30
0.000
11
208.220
21
395.613
31
0.000
0
LINE
8
0
62
0
10
208.220
20
395.613
30
0.000
11
209.120
21
392.672
31
0.000
0
LINE
8
0
62
0
10
209.120
20
392.672
30
0.000
11
210.380
21
389.779
31
0.000
0
LINE
8
0
62
0
10
210.380
20
389.779
30
0.000
11
212.000
21
387.000
31
0.000
0
LINE
8
0
62
0
10
212.000
20
412.000
30
0.000
11
209.761
21
410.380
31
0.000
0
LINE
8
0
62
0
10
209.761
20
410.380
30
0.000
11
207.288
21
409.120
31
0.000
0
LINE
8
0
62
0
10
207.288
20
409.120
30
0.000
11
204.647
21
408.220
31
0.000
0
LINE
8
0
62
0
10
204.647
20
408.220
30
0.000
11
201.904
21
407.680
31
0.000
0
LINE
8
0
62
0
10
201.904
20
407.680
30
0.000
11
199.125
21
407.500
31
0.000
0
LINE
8
0
62
0
10
199.125
20
407.500
30
0.000
11
196.376
21
407.680
31
0.000
0
LINE
8
0
62
0
10
196.376
20
407.680
30
0.000
11
193.723
21
408.220
31
0.000
0
LINE
8
0
62
0
10
193.723
20
408.220
30
0.000
11
191.232
21
409.120
31
0.000
0
LINE
8
0
62
0
10
191.232
20
409.120
30
0.000
11
188.969
21
410.380
31
0.000
0
LINE
8
0
62
0
10
188.969
20
410.380
30
0.000
11
187.000
21
412.000
31
0.000
0
LINE
8
0
62
0
10
212
20
412
30
0
11
187
21
387
31
0
0
LINE
8
0
62
0
10
287.000
20
362.000
30
0.000
11
288.620
21
360.571
31
0.000
0
LINE
8
0
62
0
10
288.620
20
360.571
30
0.000
11
289.880
21
358.728
31
0.000
0
LINE
8
0
62
0
10
289.880
20
358.728
30
0.000
11
290.780
21
356.537
31
0.000
0
LINE
8
0
62
0
10
290.780
20
356.537
30
0.000
11
291.320
21
354.064
31
0.000
0
LINE
8
0
62
0
10
291.320
20
354.064
30
0.000
11
291.500
21
351.375
31
0.000
0
LINE
8
0
62
0
10
291.500
20
351.375
30
0.000
11
291.320
21
348.536
31
0.000
0
LINE
8
0
62
0
10
291.320
20
348.536
30
0.000
11
290.780
21
345.613
31
0.000
0
LINE
8
0
62
0
10
290.780
20
345.613
30
0.000
11
289.880
21
342.672
31
0.000
0
LINE
8
0
62
0
10
289.880
20
342.672
30
0.000
11
288.620
21
339.779
31
0.000
0
LINE
8
0
62
0
10
288.620
20
339.779
30
0.000
11
287.000
21
337.000
31
0.000
0
LINE
8
0
62
0
10
287.000
20
362.000
30
0.000
11
284.761
21
360.380
31
0.000
0
LINE
8
0
62
0
10
284.761
20
360.380
30
0.000
11
282.288
21
359.120
31
0.000
0
LINE
8
0
62
0
10
282.288
20
359.120
30
0.000
11
279.647
21
358.220
31
0.000
0
LINE
8
0
62
0
10
279.647
20
358.220
30
0.000
11
276.904
21
357.680
31
0.000
0
LINE
8
0
62
0
10
276.904
20
357.680
30
0.000
11
274.125
21
357.500
31
0.000
0
LINE
8
0
62
0
10
274.125
20
357.500
30
0.000
11
271.376
21
357.680
31
0.000
0
LINE
8
0
62
0
10
271.376
20
357.680
30
0.000
11
268.723
21
358.220
31
0.000
0
LINE
8
0
62
0
10
268.723
20
358.220
30
0.000
11
266.232
21
359.120
31
0.000
0
LINE
8
0
62
0
10
266.232
20
359.120
30
0.000
11
263.969
21
360.380
31
0.000
0
LINE
8
0
62
0
10
263.969
20
360.380
30
0.000
11
262.000
21
362.000
31
0.000
0
LINE
8
0
62
0
10
287
20
362
30
0
11
262
21
337
31
0
0
LINE
8
0
62
0
10
287
20
362
30
0
11
262
21
387
31
0
0
LINE
8
0
62
0
10
387.000
20
512.000
30
0.000
11
388.620
21
514.779
31
0.000
0
LINE
8
0
62
0
10
388.620
20
514.779
30
0.000
11
389.880
21
517.672
31
0.000
0
LINE
8
0
62
0
10
389.880
20
517.672
30
0.000
11
390.780
21
520.613
31
0.000
0
LINE
8
0
62
0
10
390.780
20
520.613
30
0.000
11
391.320
21
523.536
31
0.000
0
LINE
8
0
62
0
10
391.320
20
523.536
30
0.000
11
391.500
21
526.375
31
0.000
0
LINE
8
0
62
0
10
391.500
20
526.375
30
0.000
11
391.320
21
529.064
31
0.000
0
LINE
8
0
62
0
10
391.320
20
529.064
30
0.000
11
390.780
21
531.537
31
0.000
0
LINE
8
0
62
0
10
390.780
20
531.537
30
0.000
11
389.880
21
533.728
31
0.000
0
LINE
8
0
62
0
10
389.880
20
533.728
30
0.000
11
388.620
21
535.571
31
0.000
0
LINE
8
0
62
0
10
388.620
20
535.571
30
0.000
11
387.000
21
537.000
31
0.000
0
LINE
8
0
62
0
10
537
20
162
30
0
11
512
21
137
31
0
0
LINE
8
0
62
0
10
537.000
20
162.000
30
0.000
11
534.761
21
160.380
31
0.000
0
LINE
8
0
62
0
10
534.761
20
160.380
30
0.000
11
532.288
21
159.120
31
0.000
0
LINE
8
0
62
0
10
532.288
20
159.120
30
0.000
11
529.647
21
158.220
31
0.000
0
LINE
8
0
62
0
10
529.647
20
158.220
30
0.000
11
526.904
21
157.680
31
0.000
0
LINE
8
0
62
0
10
526.904
20
157.680
30
0.000
11
524.125
21
157.500
31
0.000
0
LINE
8
0
62
0
10
524.125
20
157.500
30
0.000
11
521.376
21
157.680
31
0.000
0
LINE
8
0
62
0
10
521.376
20
157.680
30
0.000
11
518.723
21
158.220
31
0.000
0
LINE
8
0
62
0
10
518.723
20
158.220
30
0.000
11
516.232
21
159.120
31
0.000
0
LINE
8
0
62
0
10
516.232
20
159.120
30
0.000
11
513.969
21
160.380
31
0.000
0
LINE
8
0
62
0
10
513.969
20
160.380
30
0.000
11
512.000
21
162.000
31
0.000
0
LINE
8
0
62
0
10
312.000
20
437.000
30
0.000
11
313.620
21
435.571
31
0.000
0
LINE
8
0
62
0
10
313.620
20
435.571
30
0.000
11
314.880
21
433.728
31
0.000
0
LINE
8
0
62
0
10
314.880
20
433.728
30
0.000
11
315.780
21
431.537
31
0.000
0
LINE
8
0
62
0
10
315.780
20
431.537
30
0.000
11
316.320
21
429.064
31
0.000
0
LINE
8
0
62
0
10
316.320
20
429.064
30
0.000
11
316.500
21
426.375
31
0.000
0
LINE
8
0
62
0
10
316.500
20
426.375
30
0.000
11
316.320
21
423.536
31
0.000
0
LINE
8
0
62
0
10
316.320
20
423.536
30
0.000
11
315.780
21
420.613
31
0.000
0
LINE
8
0
62
0
10
315.780
20
420.613
30
0.000
11
314.880
21
417.672
31
0.000
0
LINE
8
0
62
0
10
314.880
20
417.672
30
0.000
11
313.620
21
414.779
31
0.000
0
LINE
8
0
62
0
10
313.620
20
414.779
30
0.000
11
312.000
21
412.000
31
0.000
0
LINE
8
0
62
0
10
287.000
20
437.000
30
0.000
11
285.380
21
435.571
31
0.000
0
LINE
8
0
62
0
10
285.380
20
435.571
30
0.000
11
284.120
21
433.728
31
0.000
0
LINE
8
0
62
0
10
284.120
20
433.728
30
0.000
11
283.220
21
431.537
31
0.000
0
LINE
8
0
62
0
10
283.220
20
431.537
30
0.000
11
282.680
21
429.064
31
0.000
0
LINE
8
0
62
0
10
282.680
20
429.064
30
0.000
11
282.500
21
426.375
31
0.000
0
LINE
8
0
62
0
10
282.500
20
426.375
30
0.000
11
282.680
21
423.536
31
0.000
0
LINE
8
0
62
0
10
282.680
20
423.536
30
0.000
11
283.220
21
420.613
31
0.000
0
LINE
8
0
62
0
10
283.220
20
420.613
30
0.000
11
284.120
21
417.672
31
0.000
0
LINE
8
0
62
0
10
284.120
20
417.672
30
0.000
11
285.380
21
414.779
31
0.000
0
LINE
8
0
62
0
10
285.380
20
414.779
30
0.000
11
287.000
21
412.000
31
0.000
0
LINE
8
0
62
0
10
212.000
20
387.000
30
0.000
11
213.620
21
385.571
31
0.000
0
LINE
8
0
62
0
10
213.620
20
385.571
30
0.000
11
214.880
21
383.728
31
0.000
0
LINE
8
0
62
0
10
214.880
20
383.728
30
0.000
11
215.780
21
381.537
31
0.000
0
LINE
8
0
62
0
10
215.780
20
381.537
30
0.000
11
216.320
21
379.064
31
0.000
0
LINE
8
0
62
0
10
216.320
20
379.064
30
0.000
11
216.500
21
376.375
31
0.000
0
LINE
8
0
62
0
10
216.500
20
376.375
30
0.000
11
216.320
21
373.536
31
0.000
0
LINE
8
0
62
0
10
216.320
20
373.536
30
0.000
11
215.780
21
370.613
31
0.000
0
LINE
8
0
62
0
10
215.780
20
370.613
30
0.000
11
214.880
21
367.672
31
0.000
0
LINE
8
0
62
0
10
214.880
20
367.672
30
0.000
11
213.620
21
364.779
31
0.000
0
LINE
8
0
62
0
10
213.620
20
364.779
30
0.000
11
212.000
21
362.000
31
0.000
0
LINE
8
0
62
0
10
212.000
20
387.000
30
0.000
11
213.969
21
385.380
31
0.000
0
LINE
8
0
62
0
10
213.969
20
385.380
30
0.000
11
216.232
21
384.120
31
0.000
0
LINE
8
0
62
0
10
216.232
20
384.120
30
0.000
11
218.723
21
383.220
31
0.000
0
LINE
8
0
62
0
10
218.723
20
383.220
30
0.000
11
221.376
21
382.680
31
0.000
0
LINE
8
0
62
0
10
221.376
20
382.680
30
0.000
11
224.125
21
382.500
31
0.000
0
LINE
8
0
62
0
10
224.125
20
382.500
30
0.000
11
226.904
21
382.680
31
0.000
0
LINE
8
0
62
0
10
226.904
20
382.680
30
0.000
11
229.647
21
383.220
31
0.000
0
LINE
8
0
62
0
10
229.647
20
383.220
30
0.000
11
232.288
21
384.120
31
0.000
0
LINE
8
0
62
0
10
232.288
20
384.120
30
0.000
11
234.761
21
385.380
31
0.000
0
LINE
8
0
62
0
10
234.761
20
385.380
30
0.000
11
237.000
21
387.000
31
0.000
0
LINE
8
0
62
0
10
212
20
387
30
0
11
237
21
362
31
0
0
LINE
8
0
62
0
10
287
20
337
30
0
11
262
21
312
31
0
0
LINE
8
0
62
0
10
262.000
20
337.000
30
0.000
11
259.761
21
335.380
31
0.000
0
LINE
8
0
62
0
10
259.761
20
335.380
30
0.000
11
257.288
21
334.120
31
0.000
0
LINE
8
0
62
0
10
257.288
20
334.120
30
0.000
11
254.647
21
333.220
31
0.000
0
LINE
8
0
62
0
10
254.647
20
333.220
30
0.000
11
251.904
21
332.680
31
0.000
0
LINE
8
0
62
0
10
251.904
20
332.680
30
0.000
11
249.125
21
332.500
31
0.000
0
LINE
8
0
62
0
10
249.125
20
332.500
30
0.000
11
246.376
21
332.680
31
0.000
0
LINE
8
0
62
0
10
246.376
20
332.680
30
0.000
11
243.723
21
333.220
31
0.000
0
LINE
8
0
62
0
10
243.723
20
333.220
30
0.000
11
241.232
21
334.120
31
0.000
0
LINE
8
0
62
0
10
241.232
20
334.120
30
0.000
11
238.969
21
335.380
31
0.000
0
LINE
8
0
62
0
10
238.969
20
335.380
30
0.000
11
237.000
21
337.000
31
0.000
0
LINE
8
0
62
0
10
262
20
337
30
0
11
237
21
312
31
0
0
LINE
8
0
62
0
10
512
20
137
30
0
11
487
21
112
31
0
0
LINE
8
0
62
0
10
512.000
20
137.000
30
0.000
11
509.761
21
135.380
31
0.000
0
LINE
8
0
62
0
10
509.761
20
135.380
30
0.000
11
507.288
21
134.120
31
0.000
0
LINE
8
0
62
0
10
507.288
20
134.120
30
0.000
11
504.647
21
133.220
31
0.000
0
LINE
8
0
62
0
10
504.647
20
133.220
30
0.000
11
501.904
21
132.680
31
0.000
0
LINE
8
0
62
0
10
501.904
20
132.680
30
0.000
11
499.125
21
132.500
31
0.000
0
LINE
8
0
62
0
10
499.125
20
132.500
30
0.000
11
496.376
21
132.680
31
0.000
0
LINE
8
0
62
0
10
496.376
20
132.680
30
0.000
11
493.723
21
133.220
31
0.000
0
LINE
8
0
62
0
10
493.723
20
133.220
30
0.000
11
491.232
21
134.120
31
0.000
0
LINE
8
0
62
0
10
491.232
20
134.120
30
0.000
11
488.969
21
135.380
31
0.000
0
LINE
8
0
62
0
10
488.969
20
135.380
30
0.000
11
487.000
21
137.000
31
0.000
0
LINE
8
0
62
0
10
512.000
20
162.000
30
0.000
11
509.761
21
163.620
31
0.000
0
LINE
8
0
62
0
10
509.761
20
163.620
30
0.000
11
507.288
21
164.880
31
0.000
0
LINE
8
0
62
0
10
507.288
20
164.880
30
0.000
11
504.647
21
165.780
31
0.000
0
LINE
8
0
62
0
10
504.647
20
165.780
30
0.000
11
501.904
21
166.320
31
0.000
0
LINE
8
0
62
0
10
501.904
20
166.320
30
0.000
11
499.125
21
166.500
31
0.000
0
LINE
8
0
62
0
10
499.125
20
166.500
30
0.000
11
496.376
21
166.320
31
0.000
0
LINE
8
0
62
0
10
496.376
20
166.320
30
0.000
11
493.723
21
165.780
31
0.000
0
LINE
8
0
62
0
10
493.723
20
165.780
30
0.000
11
491.232
21
164.880
31
0.000
0
LINE
8
0
62
0
10
491.232
20
164.880
30
0.000
11
488.969
21
163.620
31
0.000
0
LINE
8
0
62
0
10
488.969
20
163.620
30
0.000
11
487.000
21
162.000
31
0.000
0
LINE
8
0
62
0
10
287.000
20
412.000
30
0.000
11
288.620
21
410.571
31
0.000
0
LINE
8
0
62
0
10
288.620
20
410.571
30
0.000
11
289.880
21
408.728
31
0.000
0
LINE
8
0
62
0
10
289.880
20
408.728
30
0.000
11
290.780
21
406.537
31
0.000
0
LINE
8
0
62
0
10
290.780
20
406.537
30
0.000
11
291.320
21
404.064
31
0.000
0
LINE
8
0
62
0
10
291.320
20
404.064
30
0.000
11
291.500
21
401.375
31
0.000
0
LINE
8
0
62
0
10
291.500
20
401.375
30
0.000
11
291.320
21
398.536
31
0.000
0
LINE
8
0
62
0
10
291.320
20
398.536
30
0.000
11
290.780
21
395.613
31
0.000
0
LINE
8
0
62
0
10
290.780
20
395.613
30
0.000
11
289.880
21
392.672
31
0.000
0
LINE
8
0
62
0
10
289.880
20
392.672
30
0.000
11
288.620
21
389.779
31
0.000
0
LINE
8
0
62
0
10
288.620
20
389.779
30
0.000
11
287.000
21
387.000
31
0.000
0
LINE
8
0
62
0
10
212.000
20
362.000
30
0.000
11
209.761
21
360.380
31
0.000
0
LINE
8
0
62
0
10
209.761
20
360.380
30
0.000
11
207.288
21
359.120
31
0.000
0
LINE
8
0
62
0
10
207.288
20
359.120
30
0.000
11
204.647
21
358.220
31
0.000
0
LINE
8
0
62
0
10
204.647
20
358.220
30
0.000
11
201.904
21
357.680
31
0.000
0
LINE
8
0
62
0
10
201.904
20
357.680
30
0.000
11
199.125
21
357.500
31
0.000
0
LINE
8
0
62
0
10
199.125
20
357.500
30
0.000
11
196.376
21
357.680
31
0.000
0
LINE
8
0
62
0
10
196.376
20
357.680
30
0.000
11
193.723
21
358.220
31
0.000
0
LINE
8
0
62
0
10
193.723
20
358.220
30
0.000
11
191.232
21
359.120
31
0.000
0
LINE
8
0
62
0
10
191.232
20
359.120
30
0.000
11
188.969
21
360.380
31
0.000
0
LINE
8
0
62
0
10
188.969
20
360.380
30
0.000
11
187.000
21
362.000
31
0.000
0
LINE
8
0
62
0
10
212
20
362
30
0
11
187
21
337
31
0
0
LINE
8
0
62
0
10
212.000
20
362.000
30
0.000
11
210.380
21
360.571
31
0.000
0
LINE
8
0
62
0
10
210.380
20
360.571
30
0.000
11
209.120
21
358.728
31
0.000
0
LINE
8
0
62
0
10
209.120
20
358.728
30
0.000
11
208.220
21
356.537
31
0.000
0
LINE
8
0
62
0
10
208.220
20
356.537
30
0.000
11
207.680
21
354.064
31
0.000
0
LINE
8
0
62
0
10
207.680
20
354.064
30
0.000
11
207.500
21
351.375
31
0.000
0
LINE
8
0
62
0
10
207.500
20
351.375
30
0.000
11
207.680
21
348.536
31
0.000
0
LINE
8
0
62
0
10
207.680
20
348.536
30
0.000
11
208.220
21
345.613
31
0.000
0
LINE
8
0
62
0
10
208.220
20
345.613
30
0.000
11
209.120
21
342.672
31
0.000
0
LINE
8
0
62
0
10
209.120
20
342.672
30
0.000
11
210.380
21
339.779
31
0.000
0
LINE
8
0
62
0
10
210.380
20
339.779
30
0.000
11
212.000
21
337.000
31
0.000
0
LINE
8
0
62
0
10
262.000
20
312.000
30
0.000
11
260.380
21
310.571
31
0.000
0
LINE
8
0
62
0
10
260.380
20
310.571
30
0.000
11
259.120
21
308.728
31
0.000
0
LINE
8
0
62
0
10
259.120
20
308.728
30
0.000
11
258.220
21
306.537
31
0.000
0
LINE
8
0
62
0
10
258.220
20
306.537
30
0.000
11
257.680
21
304.064
31
0.000
0
LINE
8
0
62
0
10
257.680
20
304.064
30
0.000
11
257.500
21
301.375
31
0.000
0
LINE
8
0
62
0
10
257.500
20
301.375
30
0.000
11
257.680
21
298.536
31
0.000
0
LINE
8
0
62
0
10
257.680
20
298.536
30
0.000
11
258.220
21
295.613
31
0.000
0
LINE
8
0
62
0
10
258.220
20
295.613
30
0.000
11
259.120
21
292.672
31
0.000
0
LINE
8
0
62
0
10
259.120
20
292.672
30
0.000
11
260.380
21
289.779
31
0.000
0
LINE
8
0
62
0
10
260.380
20
289.779
30
0.000
11
262.000
21
287.000
31
0.000
0
LINE
8
0
62
0
10
262
20
312
30
0
11
237
21
287
31
0
0
LINE
8
0
62
0
10
237
20
312
30
0
11
212
21
287
31
0
0
LINE
8
0
62
0
10
237.000
20
312.000
30
0.000
11
234.761
21
310.380
31
0.000
0
LINE
8
0
62
0
10
234.761
20
310.380
30
0.000
11
232.288
21
309.120
31
0.000
0
LINE
8
0
62
0
10
232.288
20
309.120
30
0.000
11
229.647
21
308.220
31
0.000
0
LINE
8
0
62
0
10
229.647
20
308.220
30
0.000
11
226.904
21
307.680
31
0.000
0
LINE
8
0
62
0
10
226.904
20
307.680
30
0.000
11
224.125
21
307.500
31
0.000
0
LINE
8
0
62
0
10
224.125
20
307.500
30
0.000
11
221.376
21
307.680
31
0.000
0
LINE
8
0
62
0
10
221.376
20
307.680
30
0.000
11
218.723
21
308.220
31
0.000
0
LINE
8
0
62
0
10
218.723
20
308.220
30
0.000
11
216.232
21
309.120
31
0.000
0
LINE
8
0
62
0
10
216.232
20
309.120
30
0.000
11
213.969
21
310.380
31
0.000
0
LINE
8
0
62
0
10
213.969
20
310.380
30
0.000
11
212.000
21
312.000
31
0.000
0
LINE
8
0
62
0
10
487.000
20
112.000
30
0.000
11
484.761
21
110.380
31
0.000
0
LINE
8
0
62
0
10
484.761
20
110.380
30
0.000
11
482.288
21
109.120
31
0.000
0
LINE
8
0
62
0
10
482.288
20
109.120
30
0.000
11
479.647
21
108.220
31
0.000
0
LINE
8
0
62
0
10
479.647
20
108.220
30
0.000
11
476.904
21
107.680
31
0.000
0
LINE
8
0
62
0
10
476.904
20
107.680
30
0.000
11
474.125
21
107.500
31
0.000
0
LINE
8
0
62
0
10
474.125
20
107.500
30
0.000
11
471.376
21
107.680
31
0.000
0
LINE
8
0
62
0
10
471.376
20
107.680
30
0.000
11
468.723
21
108.220
31
0.000
0
LINE
8
0
62
0
10
468.723
20
108.220
30
0.000
11
466.232
21
109.120
31
0.000
0
LINE
8
0
62
0
10
466.232
20
109.120
30
0.000
11
463.969
21
110.380
31
0.000
0
LINE
8
0
62
0
10
463.969
20
110.380
30
0.000
11
462.000
21
112.000
31
0.000
0
LINE
8
0
62
0
10
487.000
20
137.000
30
0.000
11
484.761
21
138.620
31
0.000
0
LINE
8
0
62
0
10
484.761
20
138.620
30
0.000
11
482.288
21
139.880
31
0.000
0
LINE
8
0
62
0
10
482.288
20
139.880
30
0.000
11
479.647
21
140.780
31
0.000
0
LINE
8
0
62
0
10
479.647
20
140.780
30
0.000
11
476.904
21
141.320
31
0.000
0
LINE
8
0
62
0
10
476.904
20
141.320
30
0.000
11
474.125
21
141.500
31
0.000
0
LINE
8
0
62
0
10
474.125
20
141.500
30
0.000
11
471.376
21
141.320
31
0.000
0
LINE
8
0
62
0
10
471.376
20
141.320
30
0.000
11
468.723
21
140.780
31
0.000
0
LINE
8
0
62
0
10
468.723
20
140.780
30
0.000
11
466.232
21
139.880
31
0.000
0
LINE
8
0
62
0
10
466.232
20
139.880
30
0.000
11
463.969
21
138.620
31
0.000
0
LINE
8
0
62
0
10
463.969
20
138.620
30
0.000
11
462.000
21
137.000
31
0.000
0
LINE
8
0
62
0
10
487.000
20
162.000
30
0.000
11
484.761
21
160.380
31
0.000
0
LINE
8
0
62
0
10
484.761
20
160.380
30
0.000
11
482.288
21
159.120
31
0.000
0
LINE
8
0
62
0
10
482.288
20
159.120
30
0.000
11
479.647
21
158.220
31
0.000
0
LINE
8
0
62
0
10
479.647
20
158.220
30
0.000
11
476.904
21
157.680
31
0.000
0
LINE
8
0
62
0
10
476.904
20
157.680
30
0.000
11
474.125
21
157.500
31
0.000
0
LINE
8
0
62
0
10
474.125
20
157.500
30
0.000
11
471.376
21
157.680
31
0.000
0
LINE
8
0
62
0
10
471.376
20
157.680
30
0.000
11
468.723
21
158.220
31
0.000
0
LINE
8
0
62
0
10
468.723
20
158.220
30
0.000
11
466.232
21
159.120
31
0.000
0
LINE
8
0
62
0
10
466.232
20
159.120
30
0.000
11
463.969
21
160.380
31
0.000
0
LINE
8
0
62
0
10
463.969
20
160.380
30
0.000
11
462.000
21
162.000
31
0.000
0
LINE
8
0
62
0
10
187.000
20
337.000
30
0.000
11
185.380
21
335.571
31
0.000
0
LINE
8
0
62
0
10
185.380
20
335.571
30
0.000
11
184.120
21
333.728
31
0.000
0
LINE
8
0
62
0
10
184.120
20
333.728
30
0.000
11
183.220
21
331.537
31
0.000
0
LINE
8
0
62
0
10
183.220
20
331.537
30
0.000
11
182.680
21
329.064
31
0.000
0
LINE
8
0
62
0
10
182.680
20
329.064
30
0.000
11
182.500
21
326.375
31
0.000
0
LINE
8
0
62
0
10
182.500
20
326.375
30
0.000
11
182.680
21
323.536
31
0.000
0
LINE
8
0
62
0
10
182.680
20
323.536
30
0.000
11
183.220
21
320.613
31
0.000
0
LINE
8
0
62
0
10
183.220
20
320.613
30
0.000
11
184.120
21
317.672
31
0.000
0
LINE
8
0
62
0
10
184.120
20
317.672
30
0.000
11
185.380
21
314.779
31
0.000
0
LINE
8
0
62
0
10
185.380
20
314.779
30
0.000
11
187.000
21
312.000
31
0.000
0
LINE
8
0
62
0
10
187
20
337
30
0
11
162
21
312
31
0
0
LINE
8
0
62
0
10
262.000
20
287.000
30
0.000
11
263.620
21
285.571
31
0.000
0
LINE
8
0
62
0
10
263.620
20
285.571
30
0.000
11
264.880
21
283.728
31
0.000
0
LINE
8
0
62
0
10
264.880
20
283.728
30
0.000
11
265.780
21
281.537
31
0.000
0
LINE
8
0
62
0
10
265.780
20
281.537
30
0.000
11
266.320
21
279.064
31
0.000
0
LINE
8
0
62
0
10
266.320
20
279.064
30
0.000
11
266.500
21
276.375
31
0.000
0
LINE
8
0
62
0
10
266.500
20
276.375
30
0.000
11
266.320
21
273.536
31
0.000
0
LINE
8
0
62
0
10
266.320
20
273.536
30
0.000
11
265.780
21
270.613
31
0.000
0
LINE
8
0
62
0
10
265.780
20
270.613
30
0.000
11
264.880
21
267.672
31
0.000
0
LINE
8
0
62
0
10
264.880
20
267.672
30
0.000
11
263.620
21
264.779
31
0.000
0
LINE
8
0
62
0
10
263.620
20
264.779
30
0.000
11
262.000
21
262.000
31
0.000
0
LINE
8
0
62
0
10
262
20
287
30
0
11
287
21
262
31
0
0
LINE
8
0
62
0
10
262.000
20
287.000
30
0.000
11
263.969
21
285.380
31
0.000
0
LINE
8
0
62
0
10
263.969
20
285.380
30
0.000
11
266.232
21
284.120
31
0.000
0
LINE
8
0
62
0
10
266.232
20
284.120
30
0.000
11
268.723
21
283.220
31
0.000
0
LINE
8
0
62
0
10
268.723
20
283.220
30
0.000
11
271.376
21
282.680
31
0.000
0
LINE
8
0
62
0
10
271.376
20
282.680
30
0.000
11
274.125
21
282.500
31
0.000
0
LINE
8
0
62
0
10
274.125
20
282.500
30
0.000
11
276.904
21
282.680
31
0.000
0
LINE
8
0
62
0
10
276.904
20
282.680
30
0.000
11
279.647
21
283.220
31
0.000
0
LINE
8
0
62
0
10
279.647
20
283.220
30
0.000
11
282.288
21
284.120
31
0.000
0
LINE
8
0
62
0
10
282.288
20
284.120
30
0.000
11
284.761
21
285.380
31
0.000
0
LINE
8
0
62
0
10
284.761
20
285.380
30
0.000
11
287.000
21
287.000
31
0.000
0
LINE
8
0
62
0
10
237.000
20
287.000
30
0.000
11
235.380
21
285.571
31
0.000
0
LINE
8
0
62
0
10
235.380
20
285.571
30
0.000
11
234.120
21
283.728
31
0.000
0
LINE
8
0
62
0
10
234.120
20
283.728
30
0.000
11
233.220
21
281.537
31
0.000
0
LINE
8
0
62
0
10
233.220
20
281.537
30
0.000
11
232.680
21
279.064
31
0.000
0
LINE
8
0
62
0
10
232.680
20
279.064
30
0.000
11
232.500
21
276.375
31
0.000
0
LINE
8
0
62
0
10
232.500
20
276.375
30
0.000
11
232.680
21
273.536
31
0.000
0
LINE
8
0
62
0
10
232.680
20
273.536
30
0.000
11
233.220
21
270.613
31
0.000
0
LINE
8
0
62
0
10
233.220
20
270.613
30
0.000
11
234.120
21
267.672
31
0.000
0
LINE
8
0
62
0
10
234.120
20
267.672
30
0.000
11
235.380
21
264.779
31
0.000
0
LINE
8
0
62
0
10
235.380
20
264.779
30
0.000
11
237.000
21
262.000
31
0.000
0
LINE
8
0
62
0
10
237
20
287
30
0
11
212
21
262
31
0
0
LINE
8
0
62
0
10
212.000
20
287.000
30
0.000
11
209.761
21
285.380
31
0.000
0
LINE
8
0
62
0
10
209.761
20
285.380
30
0.000
11
207.288
21
284.120
31
0.000
0
LINE
8
0
62
0
10
207.288
20
284.120
30
0.000
11
204.647
21
283.220
31
0.000
0
LINE
8
0
62
0
10
204.647
20
283.220
30
0.000
11
201.904
21
282.680
31
0.000
0
LINE
8
0
62
0
10
201.904
20
282.680
30
0.000
11
199.125
21
282.500
31
0.000
0
LINE
8
0
62
0
10
199.125
20
282.500
30
0.000
11
196.376
21
282.680
31
0.000
0
LINE
8
0
62
0
10
196.376
20
282.680
30
0.000
11
193.723
21
283.220
31
0.000
0
LINE
8
0
62
0
10
193.723
20
283.220
30
0.000
11
191.232
21
284.120
31
0.000
0
LINE
8
0
62
0
10
191.232
20
284.120
30
0.000
11
188.969
21
285.380
31
0.000
0
LINE
8
0
62
0
10
188.969
20
285.380
30
0.000
11
187.000
21
287.000
31
0.000
0
LINE
8
0
62
0
10
212
20
287
30
0
11
187
21
262
31
0
0
LINE
8
0
62
0
10
462.000
20
112.000
30
0.000
11
459.761
21
113.620
31
0.000
0
LINE
8
0
62
0
10
459.761
20
113.620
30
0.000
11
457.288
21
114.880
31
0.000
0
LINE
8
0
62
0
10
457.288
20
114.880
30
0.000
11
454.647
21
115.780
31
0.000
0
LINE
8
0
62
0
10
454.647
20
115.780
30
0.000
11
451.904
21
116.320
31
0.000
0
LINE
8
0
62
0
10
451.904
20
116.320
30
0.000
11
449.125
21
116.500
31
0.000
0
LINE
8
0
62
0
10
449.125
20
116.500
30
0.000
11
446.376
21
116.320
31
0.000
0
LINE
8
0
62
0
10
446.376
20
116.320
30
0.000
11
443.723
21
115.780
31
0.000
0
LINE
8
0
62
0
10
443.723
20
115.780
30
0.000
11
441.232
21
114.880
31
0.000
0
LINE
8
0
62
0
10
441.232
20
114.880
30
0.000
11
438.969
21
113.620
31
0.000
0
LINE
8
0
62
0
10
438.969
20
113.620
30
0.000
11
437.000
21
112.000
31
0.000
0
LINE
8
0
62
0
10
462.000
20
137.000
30
0.000
11
459.761
21
135.380
31
0.000
0
LINE
8
0
62
0
10
459.761
20
135.380
30
0.000
11
457.288
21
134.120
31
0.000
0
LINE
8
0
62
0
10
457.288
20
134.120
30
0.000
11
454.647
21
133.220
31
0.000
0
LINE
8
0
62
0
10
454.647
20
133.220
30
0.000
11
451.904
21
132.680
31
0.000
0
LINE
8
0
62
0
10
451.904
20
132.680
30
0.000
11
449.125
21
132.500
31
0.000
0
LINE
8
0
62
0
10
449.125
20
132.500
30
0.000
11
446.376
21
132.680
31
0.000
0
LINE
8
0
62
0
10
446.376
20
132.680
30
0.000
11
443.723
21
133.220
31
0.000
0
LINE
8
0
62
0
10
443.723
20
133.220
30
0.000
11
441.232
21
134.120
31
0.000
0
LINE
8
0
62
0
10
441.232
20
134.120
30
0.000
11
438.969
21
135.380
31
0.000
0
LINE
8
0
62
0
10
438.969
20
135.380
30
0.000
11
437.000
21
137.000
31
0.000
0
LINE
8
0
62
0
10
262.000
20
262.000
30
0.000
11
260.380
21
260.571
31
0.000
0
LINE
8
0
62
0
10
260.380
20
260.571
30
0.000
11
259.120
21
258.728
31
0.000
0
LINE
8
0
62
0
10
259.120
20
258.728
30
0.000
11
258.220
21
256.537
31
0.000
0
LINE
8
0
62
0
10
258.220
20
256.537
30
0.000
11
257.680
21
254.064
31
0.000
0
LINE
8
0
62
0
10
257.680
20
254.064
30
0.000
11
257.500
21
251.375
31
0.000
0
LINE
8
0
62
0
10
257.500
20
251.375
30
0.000
11
257.680
21
248.536
31
0.000
0
LINE
8
0
62
0
10
257.680
20
248.536
30
0.000
11
258.220
21
245.613
31
0.000
0
LINE
8
0
62
0
10
258.220
20
245.613
30
0.000
11
259.120
21
242.672
31
0.000
0
LINE
8
0
62
0
10
259.120
20
242.672
30
0.000
11
260.380
21
239.779
31
0.000
0
LINE
8
0
62
0
10
260.380
20
239.779
30
0.000
11
262.000
21
237.000
31
0.000
0
LINE
8
0
62
0
10
287.000
20
262.000
30
0.000
11
288.620
21
260.571
31
0.000
0
LINE
8
0
62
0
10
288.620
20
260.571
30
0.000
11
289.880
21
258.728
31
0.000
0
LINE
8
0
62
0
10
289.880
20
258.728
30
0.000
11
290.780
21
256.537
31
0.000
0
LINE
8
0
62
0
10
290.780
20
256.537
30
0.000
11
291.320
21
254.064
31
0.000
0
LINE
8
0
62
0
10
291.320
20
254.064
30
0.000
11
291.500
21
251.375
31
0.000
0
LINE
8
0
62
0
10
291.500
20
251.375
30
0.000
11
291.320
21
248.536
31
0.000
0
LINE
8
0
62
0
10
291.320
20
248.536
30
0.000
11
290.780
21
245.613
31
0.000
0
LINE
8
0
62
0
10
290.780
20
245.613
30
0.000
11
289.880
21
242.672
31
0.000
0
LINE
8
0
62
0
10
289.880
20
242.672
30
0.000
11
288.620
21
239.779
31
0.000
0
LINE
8
0
62
0
10
288.620
20
239.779
30
0.000
11
287.000
21
237.000
31
0.000
0
LINE
8
0
62
0
10
237.000
20
262.000
30
0.000
11
238.620
21
260.571
31
0.000
0
LINE
8
0
62
0
10
238.620
20
260.571
30
0.000
11
239.880
21
258.728
31
0.000
0
LINE
8
0
62
0
10
239.880
20
258.728
30
0.000
11
240.780
21
256.537
31
0.000
0
LINE
8
0
62
0
10
240.780
20
256.537
30
0.000
11
241.320
21
254.064
31
0.000
0
LINE
8
0
62
0
10
241.320
20
254.064
30
0.000
11
241.500
21
251.375
31
0.000
0
LINE
8
0
62
0
10
241.500
20
251.375
30
0.000
11
241.320
21
248.536
31
0.000
0
LINE
8
0
62
0
10
241.320
20
248.536
30
0.000
11
240.780
21
245.613
31
0.000
0
LINE
8
0
62
0
10
240.780
20
245.613
30
0.000
11
239.880
21
242.672
31
0.000
0
LINE
8
0
62
0
10
239.880
20
242.672
30
0.000
11
238.620
21
239.779
31
0.000
0
LINE
8
0
62
0
10
238.620
20
239.779
30
0.000
11
237.000
21
237.000
31
0.000
0
LINE
8
0
62
0
10
212.000
20
262.000
30
0.000
11
210.380
21
260.571
31
0.000
0
LINE
8
0
62
0
10
210.380
20
260.571
30
0.000
11
209.120
21
258.728
31
0.000
0
LINE
8
0
62
0
10
209.120
20
258.728
30
0.000
11
208.220
21
256.537
31
0.000
0
LINE
8
0
62
0
10
208.220
20
256.537
30
0.000
11
207.680
21
254.064
31
0.000
0
LINE
8
0
62
0
10
207.680
20
254.064
30
0.000
11
207.500
21
251.375
31
0.000
0
LINE
8
0
62
0
10
207.500
20
251.375
30
0.000
11
207.680
21
248.536
31
0.000
0
LINE
8
0
62
0
10
207.680
20
248.536
30
0.000
11
208.220
21
245.613
31
0.000
0
LINE
8
0
62
0
10
208.220
20
245.613
30
0.000
11
209.120
21
242.672
31
0.000
0
LINE
8
0
62
0
10
209.120
20
242.672
30
0.000
11
210.380
21
239.779
31
0.000
0
LINE
8
0
62
0
10
210.380
20
239.779
30
0.000
11
212.000
21
237.000
31
0.000
0
LINE
8
0
62
0
10
212
20
262
30
0
11
187
21
237
31
0
0
LINE
8
0
62
0
10
437.000
20
112.000
30
0.000
11
434.761
21
110.380
31
0.000
0
LINE
8
0
62
0
10
434.761
20
110.380
30
0.000
11
432.288
21
109.120
31
0.000
0
LINE
8
0
62
0
10
432.288
20
109.120
30
0.000
11
429.647
21
108.220
31
0.000
0
LINE
8
0
62
0
10
429.647
20
108.220
30
0.000
11
426.904
21
107.680
31
0.000
0
LINE
8
0
62
0
10
426.904
20
107.680
30
0.000
11
424.125
21
107.500
31
0.000
0
LINE
8
0
62
0
10
424.125
20
107.500
30
0.000
11
421.376
21
107.680
31
0.000
0
LINE
8
0
62
0
10
421.376
20
107.680
30
0.000
11
418.723
21
108.220
31
0.000
0
LINE
8
0
62
0
10
418.723
20
108.220
30
0.000
11
416.232
21
109.120
31
0.000
0
LINE
8
0
62
0
10
416.232
20
109.120
30
0.000
11
413.969
21
110.380
31
0.000
0
LINE
8
0
62
0
10
413.969
20
110.380
30
0.000
11
412.000
21
112.000
31
0.000
0
LINE
8
0
62
0
10
437
20
137
30
0
11
412
21
162
31
0
0
LINE
8
0
62
0
10
437.000
20
137.000
30
0.000
11
434.761
21
138.620
31
0.000
0
LINE
8
0
62
0
10
434.761
20
138.620
30
0.000
11
432.288
21
139.880
31
0.000
0
LINE
8
0
62
0
10
432.288
20
139.880
30
0.000
11
429.647
21
140.780
31
0.000
0
LINE
8
0
62
0
10
429.647
20
140.780
30
0.000
11
426.904
21
141.320
31
0.000
0
LINE
8
0
62
0
10
426.904
20
141.320
30
0.000
11
424.125
21
141.500
31
0.000
0
LINE
8
0
62
0
10
424.125
20
141.500
30
0.000
11
421.376
21
141.320
31
0.000
0
LINE
8
0
62
0
10
421.376
20
141.320
30
0.000
11
418.723
21
140.780
31
0.000
0
LINE
8
0
62
0
10
418.723
20
140.780
30
0.000
11
416.232
21
139.880
31
0.000
0
LINE
8
0
62
0
10
416.232
20
139.880
30
0.000
11
413.969
21
138.620
31
0.000
0
LINE
8
0
62
0
10
413.969
20
138.620
30
0.000
11
412.000
21
137.000
31
0.000
0
LINE
8
0
62
0
10
262.000
20
237.000
30
0.000
11
263.620
21
235.571
31
0.000
0
LINE
8
0
62
0
10
263.620
20
235.571
30
0.000
11
264.880
21
233.728
31
0.000
0
LINE
8
0
62
0
10
264.880
20
233.728
30
0.000
11
265.780
21
231.537
31
0.000
0
LINE
8
0
62
0
10
265.780
20
231.537
30
0.000
11
266.320
21
229.064
31
0.000
0
LINE
8
0
62
0
10
266.320
20
229.064
30
0.000
11
266.500
21
226.375
31
0.000
0
LINE
8
0
62
0
10
266.500
20
226.375
30
0.000
11
266.320
21
223.536
31
0.000
0
LINE
8
0
62
0
10
266.320
20
223.536
30
0.000
11
265.780
21
220.613
31
0.000
0
LINE
8
0
62
0
10
265.780
20
220.613
30
0.000
11
264.880
21
217.672
31
0.000
0
LINE
8
0
62
0
10
264.880
20
217.672
30
0.000
11
263.620
21
214.779
31
0.000
0
LINE
8
0
62
0
10
263.620
20
214.779
30
0.000
11
262.000
21
212.000
31
0.000
0
LINE
8
0
62
0
10
287.000
20
237.000
30
0.000
11
285.380
21
235.571
31
0.000
0
LINE
8
0
62
0
10
285.380
20
235.571
30
0.000
11
284.120
21
233.728
31
0.000
0
LINE
8
0
62
0
10
284.120
20
233.728
30
0.000
11
283.220
21
231.537
31
0.000
0
LINE
8
0
62
0
10
283.220
20
231.537
30
0.000
11
282.680
21
229.064
31
0.000
0
LINE
8
0
62
0
10
282.680
20
229.064
30
0.000
11
282.500
21
226.375
31
0.000
0
LINE
8
0
62
0
10
282.500
20
226.375
30
0.000
11
282.680
21
223.536
31
0.000
0
LINE
8
0
62
0
10
282.680
20
223.536
30
0.000
11
283.220
21
220.613
31
0.000
0
LINE
8
0
62
0
10
283.220
20
220.613
30
0.000
11
284.120
21
217.672
31
0.000
0
LINE
8
0
62
0
10
284.120
20
217.672
30
0.000
11
285.380
21
214.779
31
0.000
0
LINE
8
0
62
0
10
285.380
20
214.779
30
0.000
11
287.000
21
212.000
31
0.000
0
LINE
8
0
62
0
10
237.000
20
237.000
30
0.000
11
235.380
21
235.571
31
0.000
0
LINE
8
0
62
0
10
235.380
20
235.571
30
0.000
11
234.120
21
233.728
31
0.000
0
LINE
8
0
62
0
10
234.120
20
233.728
30
0.000
11
233.220
21
231.537
31
0.000
0
LINE
8
0
62
0
10
233.220
20
231.537
30
0.000
11
232.680
21
229.064
31
0.000
0
LINE
8
0
62
0
10
232.680
20
229.064
30
0.000
11
232.500
21
226.375
31
0.000
0
LINE
8
0
62
0
10
232.500
20
226.375
30
0.000
11
232.680
21
223.536
31
0.000
0
LINE
8
0
62
0
10
232.680
20
223.536
30
0.000
11
233.220
21
220.613
31
0.000
0
LINE
8
0
62
0
10
233.220
20
220.613
30
0.000
11
234.120
21
217.672
31
0.000
0
LINE
8
0
62
0
10
234.120
20
217.672
30
0.000
11
235.380
21
214.779
31
0.000
0
LINE
8
0
62
0
10
235.380
20
214.779
30
0.000
11
237.000
21
212.000
31
0.000
0
LINE
8
0
62
0
10
212.000
20
237.000
30
0.000
11
213.620
21
235.571
31
0.000
0
LINE
8
0
62
0
10
213.620
20
235.571
30
0.000
11
214.880
21
233.728
31
0.000
0
LINE
8
0
62
0
10
214.880
20
233.728
30
0.000
11
215.780
21
231.537
31
0.000
0
LINE
8
0
62
0
10
215.780
20
231.537
30
0.000
11
216.320
21
229.064
31
0.000
0
LINE
8
0
62
0
10
216.320
20
229.064
30
0.000
11
216.500
21
226.375
31
0.000
0
LINE
8
0
62
0
10
216.500
20
226.375
30
0.000
11
216.320
21
223.536
31
0.000
0
LINE
8
0
62
0
10
216.320
20
223.536
30
0.000
11
215.780
21
220.613
31
0.000
0
LINE
8
0
62
0
10
215.780
20
220.613
30
0.000
11
214.880
21
217.672
31
0.000
0
LINE
8
0
62
0
10
214.880
20
217.672
30
0.000
11
213.620
21
214.779
31
0.000
0
LINE
8
0
62
0
10
213.620
20
214.779
30
0.000
11
212.000
21
212.000
31
0.000
0
LINE
8
0
62
0
10
187.000
20
237.000
30
0.000
11
185.380
21
235.571
31
0.000
0
LINE
8
0
62
0
10
185.380
20
235.571
30
0.000
11
184.120
21
233.728
31
0.000
0
LINE
8
0
62
0
10
184.120
20
233.728
30
0.000
11
183.220
21
231.537
31
0.000
0
LINE
8
0
62
0
10
183.220
20
231.537
30
0.000
11
182.680
21
229.064
31
0.000
0
LINE
8
0
62
0
10
182.680
20
229.064
30
0.000
11
182.500
21
226.375
31
0.000
0
LINE
8
0
62
0
10
182.500
20
226.375
30
0.000
11
182.680
21
223.536
31
0.000
0
LINE
8
0
62
0
10
182.680
20
223.536
30
0.000
11
183.220
21
220.613
31
0.000
0
LINE
8
0
62
0
10
183.220
20
220.613
30
0.000
11
184.120
21
217.672
31
0.000
0
LINE
8
0
62
0
10
184.120
20
217.672
30
0.000
11
185.380
21
214.779
31
0.000
0
LINE
8
0
62
0
10
185.380
20
214.779
30
0.000
11
187.000
21
212.000
31
0.000
0
LINE
8
0
62
0
10
412.000
20
162.000
30
0.000
11
409.761
21
163.620
31
0.000
0
LINE
8
0
62
0
10
409.761
20
163.620
30
0.000
11
407.288
21
164.880
31
0.000
0
LINE
8
0
62
0
10
407.288
20
164.880
30
0.000
11
404.647
21
165.780
31
0.000
0
LINE
8
0
62
0
10
404.647
20
165.780
30
0.000
11
401.904
21
166.320
31
0.000
0
LINE
8
0
62
0
10
401.904
20
166.320
30
0.000
11
399.125
21
166.500
31
0.000
0
LINE
8
0
62
0
10
399.125
20
166.500
30
0.000
11
396.376
21
166.320
31
0.000
0
LINE
8
0
62
0
10
396.376
20
166.320
30
0.000
11
393.723
21
165.780
31
0.000
0
LINE
8
0
62
0
10
393.723
20
165.780
30
0.000
11
391.232
21
164.880
31
0.000
0
LINE
8
0
62
0
10
391.232
20
164.880
30
0.000
11
388.969
21
163.620
31
0.000
0
LINE
8
0
62
0
10
388.969
20
163.620
30
0.000
11
387.000
21
162.000
31
0.000
0
LINE
8
0
62
0
10
412.000
20
137.000
30
0.000
11
409.761
21
135.380
31
0.000
0
LINE
8
0
62
0
10
409.761
20
135.380
30
0.000
11
407.288
21
134.120
31
0.000
0
LINE
8
0
62
0
10
407.288
20
134.120
30
0.000
11
404.647
21
133.220
31
0.000
0
LINE
8
0
62
0
10
404.647
20
133.220
30
0.000
11
401.904
21
132.680
31
0.000
0
LINE
8
0
62
0
10
401.904
20
132.680
30
0.000
11
399.125
21
132.500
31
0.000
0
LINE
8
0
62
0
10
399.125
20
132.500
30
0.000
11
396.376
21
132.680
31
0.000
0
LINE
8
0
62
0
10
396.376
20
132.680
30
0.000
11
393.723
21
133.220
31
0.000
0
LINE
8
0
62
0
10
393.723
20
133.220
30
0.000
11
391.232
21
134.120
31
0.000
0
LINE
8
0
62
0
10
391.232
20
134.120
30
0.000
11
388.969
21
135.380
31
0.000
0
LINE
8
0
62
0
10
388.969
20
135.380
30
0.000
11
387.000
21
137.000
31
0.000
0
LINE
8
0
62
0
10
287
20
212
30
0
11
312
21
187
31
0
0
LINE
8
0
62
0
10
287.000
20
212.000
30
0.000
11
288.969
21
210.380
31
0.000
0
LINE
8
0
62
0
10
288.969
20
210.380
30
0.000
11
291.232
21
209.120
31
0.000
0
LINE
8
0
62
0
10
291.232
20
209.120
30
0.000
11
293.723
21
208.220
31
0.000
0
LINE
8
0
62
0
10
293.723
20
208.220
30
0.000
11
296.376
21
207.680
31
0.000
0
LINE
8
0
62
0
10
296.376
20
207.680
30
0.000
11
299.125
21
207.500
31
0.000
0
LINE
8
0
62
0
10
299.125
20
207.500
30
0.000
11
301.904
21
207.680
31
0.000
0
LINE
8
0
62
0
10
301.904
20
207.680
30
0.000
11
304.647
21
208.220
31
0.000
0
LINE
8
0
62
0
10
304.647
20
208.220
30
0.000
11
307.288
21
209.120
31
0.000
0
LINE
8
0
62
0
10
307.288
20
209.120
30
0.000
11
309.761
21
210.380
31
0.000
0
LINE
8
0
62
0
10
309.761
20
210.380
30
0.000
11
312.000
21
212.000
31
0.000
0
LINE
8
0
62
0
10
287.000
20
212.000
30
0.000
11
288.620
21
210.571
31
0.000
0
LINE
8
0
62
0
10
288.620
20
210.571
30
0.000
11
289.880
21
208.728
31
0.000
0
LINE
8
0
62
0
10
289.880
20
208.728
30
0.000
11
290.780
21
206.537
31
0.000
0
LINE
8
0
62
0
10
290.780
20
206.537
30
0.000
11
291.320
21
204.064
31
0.000
0
LINE
8
0
62
0
10
291.320
20
204.064
30
0.000
11
291.500
21
201.375
31
0.000
0
LINE
8
0
62
0
10
291.500
20
201.375
30
0.000
11
291.320
21
198.536
31
0.000
0
LINE
8
0
62
0
10
291.320
20
198.536
30
0.000
11
290.780
21
195.613
31
0.000
0
LINE
8
0
62
0
10
290.780
20
195.613
30
0.000
11
289.880
21
192.672
31
0.000
0
LINE
8
0
62
0
10
289.880
20
192.672
30
0.000
11
288.620
21
189.779
31
0.000
0
LINE
8
0
62
0
10
288.620
20
189.779
30
0.000
11
287.000
21
187.000
31
0.000
0
LINE
8
0
62
0
10
237.000
20
212.000
30
0.000
11
238.620
21
210.571
31
0.000
0
LINE
8
0
62
0
10
238.620
20
210.571
30
0.000
11
239.880
21
208.728
31
0.000
0
LINE
8
0
62
0
10
239.880
20
208.728
30
0.000
11
240.780
21
206.537
31
0.000
0
LINE
8
0
62
0
10
240.780
20
206.537
30
0.000
11
241.320
21
204.064
31
0.000
0
LINE
8
0
62
0
10
241.320
20
204.064
30
0.000
11
241.500
21
201.375
31
0.000
0
LINE
8
0
62
0
10
241.500
20
201.375
30
0.000
11
241.320
21
198.536
31
0.000
0
LINE
8
0
62
0
10
241.320
20
198.536
30
0.000
11
240.780
21
195.613
31
0.000
0
LINE
8
0
62
0
10
240.780
20
195.613
30
0.000
11
239.880
21
192.672
31
0.000
0
LINE
8
0
62
0
10
239.880
20
192.672
30
0.000
11
238.620
21
189.779
31
0.000
0
LINE
8
0
62
0
10
238.620
20
189.779
30
0.000
11
237.000
21
187.000
31
0.000
0
LINE
8
0
62
0
10
212.000
20
212.000
30
0.000
11
210.380
21
210.571
31
0.000
0
LINE
8
0
62
0
10
210.380
20
210.571
30
0.000
11
209.120
21
208.728
31
0.000
0
LINE
8
0
62
0
10
209.120
20
208.728
30
0.000
11
208.220
21
206.537
31
0.000
0
LINE
8
0
62
0
10
208.220
20
206.537
30
0.000
11
207.680
21
204.064
31
0.000
0
LINE
8
0
62
0
10
207.680
20
204.064
30
0.000
11
207.500
21
201.375
31
0.000
0
LINE
8
0
62
0
10
207.500
20
201.375
30
0.000
11
207.680
21
198.536
31
0.000
0
LINE
8
0
62
0
10
207.680
20
198.536
30
0.000
11
208.220
21
195.613
31
0.000
0
LINE
8
0
62
0
10
208.220
20
195.613
30
0.000
11
209.120
21
192.672
31
0.000
0
LINE
8
0
62
0
10
209.120
20
192.672
30
0.000
11
210.380
21
189.779
31
0.000
0
LINE
8
0
62
0
10
210.380
20
189.779
30
0.000
11
212.000
21
187.000
31
0.000
0
LINE
8
0
62
0
10
387.000
20
137.000
30
0.000
11
384.761
21
138.620
31
0.000
0
LINE
8
0
62
0
10
384.761
20
138.620
30
0.000
11
382.288
21
139.880
31
0.000
0
LINE
8
0
62
0
10
382.288
20
139.880
30
0.000
11
379.647
21
140.780
31
0.000
0
LINE
8
0
62
0
10
379.647
20
140.780
30
0.000
11
376.904
21
141.320
31
0.000
0
LINE
8
0
62
0
10
376.904
20
141.320
30
0.000
11
374.125
21
141.500
31
0.000
0
LINE
8
0
62
0
10
374.125
20
141.500
30
0.000
11
371.376
21
141.320
31
0.000
0
LINE
8
0
62
0
10
371.376
20
141.320
30
0.000
11
368.723
21
140.780
31
0.000
0
LINE
8
0
62
0
10
368.723
20
140.780
30
0.000
11
366.232
21
139.880
31
0.000
0
LINE
8
0
62
0
10
366.232
20
139.880
30
0.000
11
363.969
21
138.620
31
0.000
0
LINE
8
0
62
0
10
363.969
20
138.620
30
0.000
11
362.000
21
137.000
31
0.000
0
LINE
8
0
62
0
10
312
20
187
30
0
11
337
21
162
31
0
0
LINE
8
0
62
0
10
312.000
20
187.000
30
0.000
11
313.969
21
185.380
31
0.000
0
LINE
8
0
62
0
10
313.969
20
185.380
30
0.000
11
316.232
21
184.120
31
0.000
0
LINE
8
0
62
0
10
316.232
20
184.120
30
0.000
11
318.723
21
183.220
31
0.000
0
LINE
8
0
62
0
10
318.723
20
183.220
30
0.000
11
321.376
21
182.680
31
0.000
0
LINE
8
0
62
0
10
321.376
20
182.680
30
0.000
11
324.125
21
182.500
31
0.000
0
LINE
8
0
62
0
10
324.125
20
182.500
30
0.000
11
326.904
21
182.680
31
0.000
0
LINE
8
0
62
0
10
326.904
20
182.680
30
0.000
11
329.647
21
183.220
31
0.000
0
LINE
8
0
62
0
10
329.647
20
183.220
30
0.000
11
332.288
21
184.120
31
0.000
0
LINE
8
0
62
0
10
332.288
20
184.120
30
0.000
11
334.761
21
185.380
31
0.000
0
LINE
8
0
62
0
10
334.761
20
185.380
30
0.000
11
337.000
21
187.000
31
0.000
0
LINE
8
0
62
0
10
312.000
20
187.000
30
0.000
11
313.620
21
185.571
31
0.000
0
LINE
8
0
62
0
10
313.620
20
185.571
30
0.000
11
314.880
21
183.728
31
0.000
0
LINE
8
0
62
0
10
314.880
20
183.728
30
0.000
11
315.780
21
181.537
31
0.000
0
LINE
8
0
62
0
10
315.780
20
181.537
30
0.000
11
316.320
21
179.064
31
0.000
0
LINE
8
0
62
0
10
316.320
20
179.064
30
0.000
11
316.500
21
176.375
31
0.000
0
LINE
8
0
62
0
10
316.500
20
176.375
30
0.000
11
316.320
21
173.536
31
0.000
0
LINE
8
0
62
0
10
316.320
20
173.536
30
0.000
11
315.780
21
170.613
31
0.000
0
LINE
8
0
62
0
10
315.780
20
170.613
30
0.000
11
314.880
21
167.672
31
0.000
0
LINE
8
0
62
0
10
314.880
20
167.672
30
0.000
11
313.620
21
164.779
31
0.000
0
LINE
8
0
62
0
10
313.620
20
164.779
30
0.000
11
312.000
21
162.000
31
0.000
0
LINE
8
0
62
0
10
287.000
20
187.000
30
0.000
11
284.761
21
185.380
31
0.000
0
LINE
8
0
62
0
10
284.761
20
185.380
30
0.000
11
282.288
21
184.120
31
0.000
0
LINE
8
0
62
0
10
282.288
20
184.120
30
0.000
11
279.647
21
183.220
31
0.000
0
LINE
8
0
62
0
10
279.647
20
183.220
30
0.000
11
276.904
21
182.680
31
0.000
0
LINE
8
0
62
0
10
276.904
20
182.680
30
0.000
11
274.125
21
182.500
31
0.000
0
LINE
8
0
62
0
10
274.125
20
182.500
30
0.000
11
271.376
21
182.680
31
0.000
0
LINE
8
0
62
0
10
271.376
20
182.680
30
0.000
11
268.723
21
183.220
31
0.000
0
LINE
8
0
62
0
10
268.723
20
183.220
30
0.000
11
266.232
21
184.120
31
0.000
0
LINE
8
0
62
0
10
266.232
20
184.120
30
0.000
11
263.969
21
185.380
31
0.000
0
LINE
8
0
62
0
10
263.969
20
185.380
30
0.000
11
262.000
21
187.000
31
0.000
0
LINE
8
0
62
0
10
287
20
187
30
0
11
262
21
162
31
0
0
LINE
8
0
62
0
10
287.000
20
187.000
30
0.000
11
285.380
21
185.571
31
0.000
0
LINE
8
0
62
0
10
285.380
20
185.571
30
0.000
11
284.120
21
183.728
31
0.000
0
LINE
8
0
62
0
10
284.120
20
183.728
30
0.000
11
283.220
21
181.537
31
0.000
0
LINE
8
0
62
0
10
283.220
20
181.537
30
0.000
11
282.680
21
179.064
31
0.000
0
LINE
8
0
62
0
10
282.680
20
179.064
30
0.000
11
282.500
21
176.375
31
0.000
0
LINE
8
0
62
0
10
282.500
20
176.375
30
0.000
11
282.680
21
173.536
31
0.000
0
LINE
8
0
62
0
10
282.680
20
173.536
30
0.000
11
283.220
21
170.613
31
0.000
0
LINE
8
0
62
0
10
283.220
20
170.613
30
0.000
11
284.120
21
167.672
31
0.000
0
LINE
8
0
62
0
10
284.120
20
167.672
30
0.000
11
285.380
21
164.779
31
0.000
0
LINE
8
0
62
0
10
285.380
20
164.779
30
0.000
11
287.000
21
162.000
31
0.000
0
LINE
8
0
62
0
10
362.000
20
137.000
30
0.000
11
360.380
21
135.571
31
0.000
0
LINE
8
0
62
0
10
360.380
20
135.571
30
0.000
11
359.120
21
133.728
31
0.000
0
LINE
8
0
62
0
10
359.120
20
133.728
30
0.000
11
358.220
21
131.537
31
0.000
0
LINE
8
0
62
0
10
358.220
20
131.537
30
0.000
11
357.680
21
129.064
31
0.000
0
LINE
8
0
62
0
10
357.680
20
129.064
30
0.000
11
357.500
21
126.375
31
0.000
0
LINE
8
0
62
0
10
357.500
20
126.375
30
0.000
11
357.680
21
123.536
31
0.000
0
LINE
8
0
62
0
10
357.680
20
123.536
30
0.000
11
358.220
21
120.613
31
0.000
0
LINE
8
0
62
0
10
358.220
20
120.613
30
0.000
11
359.120
21
117.672
31
0.000
0
LINE
8
0
62
0
10
359.120
20
117.672
30
0.000
11
360.380
21
114.779
31
0.000
0
LINE
8
0
62
0
10
360.380
20
114.779
30
0.000
11
362.000
21
112.000
31
0.000
0
LINE
8
0
62
0
10
362.000
20
137.000
30
0.000
11
359.761
21
135.380
31
0.000
0
LINE
8
0
62
0
10
359.761
20
135.380
30
0.000
11
357.288
21
134.120
31
0.000
0
LINE
8
0
62
0
10
357.288
20
134.120
30
0.000
11
354.647
21
133.220
31
0.000
0
LINE
8
0
62
0
10
354.647
20
133.220
30
0.000
11
351.904
21
132.680
31
0.000
0
LINE
8
0
62
0
10
351.904
20
132.680
30
0.000
11
349.125
21
132.500
31
0.000
0
LINE
8
0
62
0
10
349.125
20
132.500
30
0.000
11
346.376
21
132.680
31
0.000
0
LINE
8
0
62
0
10
346.376
20
132.680
30
0.000
11
343.723
21
133.220
31
0.000
0
LINE
8
0
62
0
10
343.723
20
133.220
30
0.000
11
341.232
21
134.120
31
0.000
0
LINE
8
0
62
0
10
341.232
20
134.120
30
0.000
11
338.969
21
135.380
31
0.000
0
LINE
8
0
62
0
10
338.969
20
135.380
30
0.000
11
337.000
21
137.000
31
0.000
0
LINE
8
0
62
0
10
362
20
137
30
0
11
337
21
112
31
0
0
LINE
8
0
62
0
10
337.000
20
162.000
30
0.000
11
338.969
21
160.380
31
0.000
0
LINE
8
0
62
0
10
338.969
20
160.380
30
0.000
11
341.232
21
159.120
31
0.000
0
LINE
8
0
62
0
10
341.232
20
159.120
30
0.000
11
343.723
21
158.220
31
0.000
0
LINE
8
0
62
0
10
343.723
20
158.220
30
0.000
11
346.376
21
157.680
31
0.000
0
LINE
8
0
62
0
10
346.376
20
157.680
30
0.000
11
349.125
21
157.500
31
0.000
0
LINE
8
0
62
0
10
349.125
20
157.500
30
0.000
11
351.904
21
157.680
31
0.000
0
LINE
8
0
62
0
10
351.904
20
157.680
30
0.000
11
354.647
21
158.220
31
0.000
0
LINE
8
0
62
0
10
354.647
20
158.220
30
0.000
11
357.288
21
159.120
31
0.000
0
LINE
8
0
62
0
10
357.288
20
159.120
30
0.000
11
359.761
21
160.380
31
0.000
0
LINE
8
0
62
0
10
359.761
20
160.380
30
0.000
11
362.000
21
162.000
31
0.000
0
LINE
8
0
62
0
10
312.000
20
162.000
30
0.000
11
310.380
21
160.571
31
0.000
0
LINE
8
0
62
0
10
310.380
20
160.571
30
0.000
11
309.120
21
158.728
31
0.000
0
LINE
8
0
62
0
10
309.120
20
158.728
30
0.000
11
308.220
21
156.537
31
0.000
0
LINE
8
0
62
0
10
308.220
20
156.537
30
0.000
11
307.680
21
154.064
31
0.000
0
LINE
8
0
62
0
10
307.680
20
154.064
30
0.000
11
307.500
21
151.375
31
0.000
0
LINE
8
0
62
0
10
307.500
20
151.375
30
0.000
11
307.680
21
148.536
31
0.000
0
LINE
8
0
62
0
10
307.680
20
148.536
30
0.000
11
308.220
21
145.613
31
0.000
0
LINE
8
0
62
0
10
308.220
20
145.613
30
0.000
11
309.120
21
142.672
31
0.000
0
LINE
8
0
62
0
10
309.120
20
142.672
30
0.000
11
310.380
21
139.779
31
0.000
0
LINE
8
0
62
0
10
310.380
20
139.779
30
0.000
11
312.000
21
137.000
31
0.000
0
LINE
8
0
62
0
10
262.000
20
162.000
30
0.000
11
260.380
21
160.571
31
0.000
0
LINE
8
0
62
0
10
260.380
20
160.571
30
0.000
11
259.120
21
158.728
31
0.000
0
LINE
8
0
62
0
10
259.120
20
158.728
30
0.000
11
258.220
21
156.537
31
0.000
0
LINE
8
0
62
0
10
258.220
20
156.537
30
0.000
11
257.680
21
154.064
31
0.000
0
LINE
8
0
62
0
10
257.680
20
154.064
30
0.000
11
257.500
21
151.375
31
0.000
0
LINE
8
0
62
0
10
257.500
20
151.375
30
0.000
11
257.680
21
148.536
31
0.000
0
LINE
8
0
62
0
10
257.680
20
148.536
30
0.000
11
258.220
21
145.613
31
0.000
0
LINE
8
0
62
0
10
258.220
20
145.613
30
0.000
11
259.120
21
142.672
31
0.000
0
LINE
8
0
62
0
10
259.120
20
142.672
30
0.000
11
260.380
21
139.779
31
0.000
0
LINE
8
0
62
0
10
260.380
20
139.779
30
0.000
11
262.000
21
137.000
31
0.000
0
LINE
8
0
62
0
10
262.000
20
162.000
30
0.000
11
259.761
21
160.380
31
0.000
0
LINE
8
0
62
0
10
259.761
20
160.380
30
0.000
11
257.288
21
159.120
31
0.000
0
LINE
8
0
62
0
10
257.288
20
159.120
30
0.000
11
254.647
21
158.220
31
0.000
0
LINE
8
0
62
0
10
254.647
20
158.220
30
0.000
11
251.904
21
157.680
31
0.000
0
LINE
8
0
62
0
10
251.904
20
157.680
30
0.000
11
249.125
21
157.500
31
0.000
0
LINE
8
0
62
0
10
249.125
20
157.500
30
0.000
11
246.376
21
157.680
31
0.000
0
LINE
8
0
62
0
10
246.376
20
157.680
30
0.000
11
243.723
21
158.220
31
0.000
0
LINE
8
0
62
0
10
243.723
20
158.220
30
0.000
11
241.232
21
159.120
31
0.000
0
LINE
8
0
62
0
10
241.232
20
159.120
30
0.000
11
238.969
21
160.380
31
0.000
0
LINE
8
0
62
0
10
238.969
20
160.380
30
0.000
11
237.000
21
162.000
31
0.000
0
LINE
8
0
62
0
10
287.000
20
162.000
30
0.000
11
288.620
21
160.571
31
0.000
0
LINE
8
0
62
0
10
288.620
20
160.571
30
0.000
11
289.880
21
158.728
31
0.000
0
LINE
8
0
62
0
10
289.880
20
158.728
30
0.000
11
290.780
21
156.537
31
0.000
0
LINE
8
0
62
0
10
290.780
20
156.537
30
0.000
11
291.320
21
154.064
31
0.000
0
LINE
8
0
62
0
10
291.320
20
154.064
30
0.000
11
291.500
21
151.375
31
0.000
0
LINE
8
0
62
0
10
291.500
20
151.375
30
0.000
11
291.320
21
148.536
31
0.000
0
LINE
8
0
62
0
10
291.320
20
148.536
30
0.000
11
290.780
21
145.613
31
0.000
0
LINE
8
0
62
0
10
290.780
20
145.613
30
0.000
11
289.880
21
142.672
31
0.000
0
LINE
8
0
62
0
10
289.880
20
142.672
30
0.000
11
288.620
21
139.779
31
0.000
0
LINE
8
0
62
0
10
288.620
20
139.779
30
0.000
11
287.000
21
137.000
31
0.000
0
LINE
8
0
62
0
10
362.000
20
112.000
30
0.000
11
363.969
21
110.380
31
0.000
0
LINE
8
0
62
0
10
363.969
20
110.380
30
0.000
11
366.232
21
109.120
31
0.000
0
LINE
8
0
62
0
10
366.232
20
109.120
30
0.000
11
368.723
21
108.220
31
0.000
0
LINE
8
0
62
0
10
368.723
20
108.220
30
0.000
11
371.376
21
107.680
31
0.000
0
LINE
8
0
62
0
10
371.376
20
107.680
30
0.000
11
374.125
21
107.500
31
0.000
0
LINE
8
0
62
0
10
374.125
20
107.500
30
0.000
11
376.904
21
107.680
31
0.000
0
LINE
8
0
62
0
10
376.904
20
107.680
30
0.000
11
379.647
21
108.220
31
0.000
0
LINE
8
0
62
0
10
379.647
20
108.220
30
0.000
11
382.288
21
109.120
31
0.000
0
LINE
8
0
62
0
10
382.288
20
109.120
30
0.000
11
384.761
21
110.380
31
0.000
0
LINE
8
0
62
0
10
384.761
20
110.380
30
0.000
11
387.000
21
112.000
31
0.000
0
LINE
8
0
62
0
10
312.000
20
137.000
30
0.000
11
313.620
21
135.571
31
0.000
0
LINE
8
0
62
0
10
313.620
20
135.571
30
0.000
11
314.880
21
133.728
31
0.000
0
LINE
8
0
62
0
10
314.880
20
133.728
30
0.000
11
315.780
21
131.537
31
0.000
0
LINE
8
0
62
0
10
315.780
20
131.537
30
0.000
11
316.320
21
129.064
31
0.000
0
LINE
8
0
62
0
10
316.320
20
129.064
30
0.000
11
316.500
21
126.375
31
0.000
0
LINE
8
0
62
0
10
316.500
20
126.375
30
0.000
11
316.320
21
123.536
31
0.000
0
LINE
8
0
62
0
10
316.320
20
123.536
30
0.000
11
315.780
21
120.613
31
0.000
0
LINE
8
0
62
0
10
315.780
20
120.613
30
0.000
11
314.880
21
117.672
31
0.000
0
LINE
8
0
62
0
10
314.880
20
117.672
30
0.000
11
313.620
21
114.779
31
0.000
0
LINE
8
0
62
0
10
313.620
20
114.779
30
0.000
11
312.000
21
112.000
31
0.000
0
LINE
8
0
62
0
10
287.000
20
137.000
30
0.000
11
285.380
21
135.571
31
0.000
0
LINE
8
0
62
0
10
285.380
20
135.571
30
0.000
11
284.120
21
133.728
31
0.000
0
LINE
8
0
62
0
10
284.120
20
133.728
30
0.000
11
283.220
21
131.537
31
0.000
0
LINE
8
0
62
0
10
283.220
20
131.537
30
0.000
11
282.680
21
129.064
31
0.000
0
LINE
8
0
62
0
10
282.680
20
129.064
30
0.000
11
282.500
21
126.375
31
0.000
0
LINE
8
0
62
0
10
282.500
20
126.375
30
0.000
11
282.680
21
123.536
31
0.000
0
LINE
8
0
62
0
10
282.680
20
123.536
30
0.000
11
283.220
21
120.613
31
0.000
0
LINE
8
0
62
0
10
283.220
20
120.613
30
0.000
11
284.120
21
117.672
31
0.000
0
LINE
8
0
62
0
10
284.120
20
117.672
30
0.000
11
285.380
21
114.779
31
0.000
0
LINE
8
0
62
0
10
285.380
20
114.779
30
0.000
11
287.000
21
112.000
31
0.000
0
LINE
8
0
62
0
10
612.000
20
312.000
30
0.000
11
611.432
21
311.372
31
0.000
0
LINE
8
0
62
0
10
611.432
20
311.372
30
0.000
11
610.936
21
310.696
31
0.000
0
LINE
8
0
62
0
10
610.936
20
310.696
30
0.000
11
610.524
21
309.984
31
0.000
0
LINE
8
0
62
0
10
610.524
20
309.984
30
0.000
11
610.208
21
309.248
31
0.000
0
LINE
8
0
62
0
10
610.208
20
309.248
30
0.000
11
610.000
21
308.500
31
0.000
0
LINE
8
0
62
0
10
610.000
20
308.500
30
0.000
11
609.912
21
307.752
31
0.000
0
LINE
8
0
62
0
10
609.912
20
307.752
30
0.000
11
609.956
21
307.016
31
0.000
0
LINE
8
0
62
0
10
609.956
20
307.016
30
0.000
11
610.144
21
306.304
31
0.000
0
LINE
8
0
62
0
10
610.144
20
306.304
30
0.000
11
610.488
21
305.628
31
0.000
0
LINE
8
0
62
0
10
610.488
20
305.628
30
0.000
11
611.000
21
305.000
31
0.000
0
LINE
8
0
62
0
10
611.000
20
305.000
30
0.000
11
611.713
21
304.268
31
0.000
0
LINE
8
0
62
0
10
611.713
20
304.268
30
0.000
11
612.624
21
303.824
31
0.000
0
LINE
8
0
62
0
10
612.624
20
303.824
30
0.000
11
613.691
21
303.596
31
0.000
0
LINE
8
0
62
0
10
613.691
20
303.596
30
0.000
11
614.872
21
303.512
31
0.000
0
LINE
8
0
62
0
10
614.872
20
303.512
30
0.000
11
616.125
21
303.500
31
0.000
0
LINE
8
0
62
0
10
616.125
20
303.500
30
0.000
11
617.408
21
303.488
31
0.000
0
LINE
8
0
62
0
10
617.408
20
303.488
30
0.000
11
618.679
21
303.404
31
0.000
0
LINE
8
0
62
0
10
618.679
20
303.404
30
0.000
11
619.896
21
303.176
31
0.000
0
LINE
8
0
62
0
10
619.896
20
303.176
30
0.000
11
621.017
21
302.732
31
0.000
0
LINE
8
0
62
0
10
621.017
20
302.732
30
0.000
11
622.000
21
302.000
31
0.000
0
LINE
8
0
62
0
10
622.000
20
302.000
30
0.000
11
621.268
21
302.983
31
0.000
0
LINE
8
0
62
0
10
621.268
20
302.983
30
0.000
11
620.824
21
304.104
31
0.000
0
LINE
8
0
62
0
10
620.824
20
304.104
30
0.000
11
620.596
21
305.321
31
0.000
0
LINE
8
0
62
0
10
620.596
20
305.321
30
0.000
11
620.512
21
306.592
31
0.000
0
LINE
8
0
62
0
10
620.512
20
306.592
30
0.000
11
620.500
21
307.875
31
0.000
0
LINE
8
0
62
0
10
620.500
20
307.875
30
0.000
11
620.488
21
309.128
31
0.000
0
LINE
8
0
62
0
10
620.488
20
309.128
30
0.000
11
620.404
21
310.309
31
0.000
0
LINE
8
0
62
0
10
620.404
20
310.309
30
0.000
11
620.176
21
311.376
31
0.000
0
LINE
8
0
62
0
10
620.176
20
311.376
30
0.000
11
619.732
21
312.287
31
0.000
0
LINE
8
0
62
0
10
619.732
20
312.287
30
0.000
11
619.000
21
313.000
31
0.000
0
LINE
8
0
62
0
10
619.000
20
313.000
30
0.000
11
618.372
21
313.512
31
0.000
0
LINE
8
0
62
0
10
618.372
20
313.512
30
0.000
11
617.696
21
313.856
31
0.000
0
LINE
8
0
62
0
10
617.696
20
313.856
30
0.000
11
616.984
21
314.044
31
0.000
0
LINE
8
0
62
0
10
616.984
20
314.044
30
0.000
11
616.248
21
314.088
31
0.000
0
LINE
8
0
62
0
10
616.248
20
314.088
30
0.000
11
615.500
21
314.000
31
0.000
0
LINE
8
0
62
0
10
615.500
20
314.000
30
0.000
11
614.752
21
313.792
31
0.000
0
LINE
8
0
62
0
10
614.752
20
313.792
30
0.000
11
614.016
21
313.476
31
0.000
0
LINE
8
0
62
0
10
614.016
20
313.476
30
0.000
11
613.304
21
313.064
31
0.000
0
LINE
8
0
62
0
10
613.304
20
313.064
30
0.000
11
612.628
21
312.568
31
0.000
0
LINE
8
0
62
0
10
612.628
20
312.568
30
0.000
11
612.000
21
312.000
31
0.000
0
LINE
8
0
62
0
10
562.000
20
412.000
30
0.000
11
562.568
21
411.372
31
0.000
0
LINE
8
0
62
0
10
562.568
20
411.372
30
0.000
11
563.064
21
410.696
31
0.000
0
LINE
8
0
62
0
10
563.064
20
410.696
30
0.000
11
563.476
21
409.984
31
0.000
0
LINE
8
0
62
0
10
563.476
20
409.984
30
0.000
11
563.792
21
409.248
31
0.000
0
LINE
8
0
62
0
10
563.792
20
409.248
30
0.000
11
564.000
21
408.500
31
0.000
0
LINE
8
0
62
0
10
564.000
20
408.500
30
0.000
11
564.088
21
407.752
31
0.000
0
LINE
8
0
62
0
10
564.088
20
407.752
30
0.000
11
564.044
21
407.016
31
0.000
0
LINE
8
0
62
0
10
564.044
20
407.016
30
0.000
11
563.856
21
406.304
31
0.000
0
LINE
8
0
62
0
10
563.856
20
406.304
30
0.000
11
563.512
21
405.628
31
0.000
0
LINE
8
0
62
0
10
563.512
20
405.628
30
0.000
11
563.000
21
405.000
31
0.000
0
LINE
8
0
62
0
10
563.000
20
405.000
30
0.000
11
562.287
21
404.268
31
0.000
0
LINE
8
0
62
0
10
562.287
20
404.268
30
0.000
11
561.376
21
403.824
31
0.000
0
LINE
8
0
62
0
10
561.376
20
403.824
30
0.000
11
560.309
21
403.596
31
0.000
0
LINE
8
0
62
0
10
560.309
20
403.596
30
0.000
11
559.128
21
403.512
31
0.000
0
LINE
8
0
62
0
10
559.128
20
403.512
30
0.000
11
557.875
21
403.500
31
0.000
0
LINE
8
0
62
0
10
557.875
20
403.500
30
0.000
11
556.592
21
403.488
31
0.000
0
LINE
8
0
62
0
10
556.592
20
403.488
30
0.000
11
555.321
21
403.404
31
0.000
0
LINE
8
0
62
0
10
555.321
20
403.404
30
0.000
11
554.104
21
403.176
31
0.000
0
LINE
8
0
62
0
10
554.104
20
403.176
30
0.000
11
552.983
21
402.732
31
0.000
0
LINE
8
0
62
0
10
552.983
20
402.732
30
0.000
11
552.000
21
402.000
31
0.000
0
LINE
8
0
62
0
10
552.000
20
402.000
30
0.000
11
552.732
21
402.983
31
0.000
0
LINE
8
0
62
0
10
552.732
20
402.983
30
0.000
11
553.176
21
404.104
31
0.000
0
LINE
8
0
62
0
10
553.176
20
404.104
30
0.000
11
553.404
21
405.321
31
0.000
0
LINE
8
0
62
0
10
553.404
20
405.321
30
0.000
11
553.488
21
406.592
31
0.000
0
LINE
8
0
62
0
10
553.488
20
406.592
30
0.000
11
553.500
21
407.875
31
0.000
0
LINE
8
0
62
0
10
553.500
20
407.875
30
0.000
11
553.512
21
409.128
31
0.000
0
LINE
8
0
62
0
10
553.512
20
409.128
30
0.000
11
553.596
21
410.309
31
0.000
0
LINE
8
0
62
0
10
553.596
20
410.309
30
0.000
11
553.824
21
411.376
31
0.000
0
LINE
8
0
62
0
10
553.824
20
411.376
30
0.000
11
554.268
21
412.287
31
0.000
0
LINE
8
0
62
0
10
554.268
20
412.287
30
0.000
11
555.000
21
413.000
31
0.000
0
LINE
8
0
62
0
10
555.000
20
413.000
30
0.000
11
555.628
21
413.512
31
0.000
0
LINE
8
0
62
0
10
555.628
20
413.512
30
0.000
11
556.304
21
413.856
31
0.000
0
LINE
8
0
62
0
10
556.304
20
413.856
30
0.000
11
557.016
21
414.044
31
0.000
0
LINE
8
0
62
0
10
557.016
20
414.044
30
0.000
11
557.752
21
414.088
31
0.000
0
LINE
8
0
62
0
10
557.752
20
414.088
30
0.000
11
558.500
21
414.000
31
0.000
0
LINE
8
0
62
0
10
558.500
20
414.000
30
0.000
11
559.248
21
413.792
31
0.000
0
LINE
8
0
62
0
10
559.248
20
413.792
30
0.000
11
559.984
21
413.476
31
0.000
0
LINE
8
0
62
0
10
559.984
20
413.476
30
0.000
11
560.696
21
413.064
31
0.000
0
LINE
8
0
62
0
10
560.696
20
413.064
30
0.000
11
561.372
21
412.568
31
0.000
0
LINE
8
0
62
0
10
561.372
20
412.568
30
0.000
11
562.000
21
412.000
31
0.000
0
LINE
8
0
62
0
10
537.000
20
437.000
30
0.000
11
537.568
21
436.372
31
0.000
0
LINE
8
0
62
0
10
537.568
20
436.372
30
0.000
11
538.064
21
435.696
31
0.000
0
LINE
8
0
62
0
10
538.064
20
435.696
30
0.000
11
538.476
21
434.984
31
0.000
0
LINE
8
0
62
0
10
538.476
20
434.984
30
0.000
11
538.792
21
434.248
31
0.000
0
LINE
8
0
62
0
10
538.792
20
434.248
30
0.000
11
539.000
21
433.500
31
0.000
0
LINE
8
0
62
0
10
539.000
20
433.500
30
0.000
11
539.088
21
432.752
31
0.000
0
LINE
8
0
62
0
10
539.088
20
432.752
30
0.000
11
539.044
21
432.016
31
0.000
0
LINE
8
0
62
0
10
539.044
20
432.016
30
0.000
11
538.856
21
431.304
31
0.000
0
LINE
8
0
62
0
10
538.856
20
431.304
30
0.000
11
538.512
21
430.628
31
0.000
0
LINE
8
0
62
0
10
538.512
20
430.628
30
0.000
11
538.000
21
430.000
31
0.000
0
LINE
8
0
62
0
10
538.000
20
430.000
30
0.000
11
537.287
21
429.268
31
0.000
0
LINE
8
0
62
0
10
537.287
20
429.268
30
0.000
11
536.376
21
428.824
31
0.000
0
LINE
8
0
62
0
10
536.376
20
428.824
30
0.000
11
535.309
21
428.596
31
0.000
0
LINE
8
0
62
0
10
535.309
20
428.596
30
0.000
11
534.128
21
428.512
31
0.000
0
LINE
8
0
62
0
10
534.128
20
428.512
30
0.000
11
532.875
21
428.500
31
0.000
0
LINE
8
0
62
0
10
532.875
20
428.500
30
0.000
11
531.592
21
428.488
31
0.000
0
LINE
8
0
62
0
10
531.592
20
428.488
30
0.000
11
530.321
21
428.404
31
0.000
0
LINE
8
0
62
0
10
530.321
20
428.404
30
0.000
11
529.104
21
428.176
31
0.000
0
LINE
8
0
62
0
10
529.104
20
428.176
30
0.000
11
527.983
21
427.732
31
0.000
0
LINE
8
0
62
0
10
527.983
20
427.732
30
0.000
11
527.000
21
427.000
31
0.000
0
LINE
8
0
62
0
10
527.000
20
427.000
30
0.000
11
527.732
21
427.983
31
0.000
0
LINE
8
0
62
0
10
527.732
20
427.983
30
0.000
11
528.176
21
429.104
31
0.000
0
LINE
8
0
62
0
10
528.176
20
429.104
30
0.000
11
528.404
21
430.321
31
0.000
0
LINE
8
0
62
0
10
528.404
20
430.321
30
0.000
11
528.488
21
431.592
31
0.000
0
LINE
8
0
62
0
10
528.488
20
431.592
30
0.000
11
528.500
21
432.875
31
0.000
0
LINE
8
0
62
0
10
528.500
20
432.875
30
0.000
11
528.512
21
434.128
31
0.000
0
LINE
8
0
62
0
10
528.512
20
434.128
30
0.000
11
528.596
21
435.309
31
0.000
0
LINE
8
0
62
0
10
528.596
20
435.309
30
0.000
11
528.824
21
436.376
31
0.000
0
LINE
8
0
62
0
10
528.824
20
436.376
30
0.000
11
529.268
21
437.287
31
0.000
0
LINE
8
0
62
0
10
529.268
20
437.287
30
0.000
11
530.000
21
438.000
31
0.000
0
LINE
8
0
62
0
10
530.000
20
438.000
30
0.000
11
530.628
21
438.512
31
0.000
0
LINE
8
0
62
0
10
530.628
20
438.512
30
0.000
11
531.304
21
438.856
31
0.000
0
LINE
8
0
62
0
10
531.304
20
438.856
30
0.000
11
532.016
21
439.044
31
0.000
0
LINE
8
0
62
0
10
532.016
20
439.044
30
0.000
11
532.752
21
439.088
31
0.000
0
LINE
8
0
62
0
10
532.752
20
439.088
30
0.000
11
533.500
21
439.000
31
0.000
0
LINE
8
0
62
0
10
533.500
20
439.000
30
0.000
11
534.248
21
438.792
31
0.000
0
LINE
8
0
62
0
10
534.248
20
438.792
30
0.000
11
534.984
21
438.476
31
0.000
0
LINE
8
0
62
0
10
534.984
20
438.476
30
0.000
11
535.696
21
438.064
31
0.000
0
LINE
8
0
62
0
10
535.696
20
438.064
30
0.000
11
536.372
21
437.568
31
0.000
0
LINE
8
0
62
0
10
536.372
20
437.568
30
0.000
11
537.000
21
437.000
31
0.000
0
LINE
8
0
62
0
10
462.000
20
462.000
30
0.000
11
462.568
21
461.372
31
0.000
0
LINE
8
0
62
0
10
462.568
20
461.372
30
0.000
11
463.064
21
460.696
31
0.000
0
LINE
8
0
62
0
10
463.064
20
460.696
30
0.000
11
463.476
21
459.984
31
0.000
0
LINE
8
0
62
0
10
463.476
20
459.984
30
0.000
11
463.792
21
459.248
31
0.000
0
LINE
8
0
62
0
10
463.792
20
459.248
30
0.000
11
464.000
21
458.500
31
0.000
0
LINE
8
0
62
0
10
464.000
20
458.500
30
0.000
11
464.088
21
457.752
31
0.000
0
LINE
8
0
62
0
10
464.088
20
457.752
30
0.000
11
464.044
21
457.016
31
0.000
0
LINE
8
0
62
0
10
464.044
20
457.016
30
0.000
11
463.856
21
456.304
31
0.000
0
LINE
8
0
62
0
10
463.856
20
456.304
30
0.000
11
463.512
21
455.628
31
0.000
0
LINE
8
0
62
0
10
463.512
20
455.628
30
0.000
11
463.000
21
455.000
31
0.000
0
LINE
8
0
62
0
10
463.000
20
455.000
30
0.000
11
462.287
21
454.268
31
0.000
0
LINE
8
0
62
0
10
462.287
20
454.268
30
0.000
11
461.376
21
453.824
31
0.000
0
LINE
8
0
62
0
10
461.376
20
453.824
30
0.000
11
460.309
21
453.596
31
0.000
0
LINE
8
0
62
0
10
460.309
20
453.596
30
0.000
11
459.128
21
453.512
31
0.000
0
LINE
8
0
62
0
10
459.128
20
453.512
30
0.000
11
457.875
21
453.500
31
0.000
0
LINE
8
0
62
0
10
457.875
20
453.500
30
0.000
11
456.592
21
453.488
31
0.000
0
LINE
8
0
62
0
10
456.592
20
453.488
30
0.000
11
455.321
21
453.404
31
0.000
0
LINE
8
0
62
0
10
455.321
20
453.404
30
0.000
11
454.104
21
453.176
31
0.000
0
LINE
8
0
62
0
10
454.104
20
453.176
30
0.000
11
452.983
21
452.732
31
0.000
0
LINE
8
0
62
0
10
452.983
20
452.732
30
0.000
11
452.000
21
452.000
31
0.000
0
LINE
8
0
62
0
10
452.000
20
452.000
30
0.000
11
452.732
21
452.983
31
0.000
0
LINE
8
0
62
0
10
452.732
20
452.983
30
0.000
11
453.176
21
454.104
31
0.000
0
LINE
8
0
62
0
10
453.176
20
454.104
30
0.000
11
453.404
21
455.321
31
0.000
0
LINE
8
0
62
0
10
453.404
20
455.321
30
0.000
11
453.488
21
456.592
31
0.000
0
LINE
8
0
62
0
10
453.488
20
456.592
30
0.000
11
453.500
21
457.875
31
0.000
0
LINE
8
0
62
0
10
453.500
20
457.875
30
0.000
11
453.512
21
459.128
31
0.000
0
LINE
8
0
62
0
10
453.512
20
459.128
30
0.000
11
453.596
21
460.309
31
0.000
0
LINE
8
0
62
0
10
453.596
20
460.309
30
0.000
11
453.824
21
461.376
31
0.000
0
LINE
8
0
62
0
10
453.824
20
461.376
30
0.000
11
454.268
21
462.287
31
0.000
0
LINE
8
0
62
0
10
454.268
20
462.287
30
0.000
11
455.000
21
463.000
31
0.000
0
LINE
8
0
62
0
10
455.000
20
463.000
30
0.000
11
455.628
21
463.512
31
0.000
0
LINE
8
0
62
0
10
455.628
20
463.512
30
0.000
11
456.304
21
463.856
31
0.000
0
LINE
8
0
62
0
10
456.304
20
463.856
30
0.000
11
457.016
21
464.044
31
0.000
0
LINE
8
0
62
0
10
457.016
20
464.044
30
0.000
11
457.752
21
464.088
31
0.000
0
LINE
8
0
62
0
10
457.752
20
464.088
30
0.000
11
458.500
21
464.000
31
0.000
0
LINE
8
0
62
0
10
458.500
20
464.000
30
0.000
11
459.248
21
463.792
31
0.000
0
LINE
8
0
62
0
10
459.248
20
463.792
30
0.000
11
459.984
21
463.476
31
0.000
0
LINE
8
0
62
0
10
459.984
20
463.476
30
0.000
11
460.696
21
463.064
31
0.000
0
LINE
8
0
62
0
10
460.696
20
463.064
30
0.000
11
461.372
21
462.568
31
0.000
0
LINE
8
0
62
0
10
461.372
20
462.568
30
0.000
11
462.000
21
462.000
31
0.000
0
LINE
8
0
62
0
10
462.000
20
487.000
30
0.000
11
462.568
21
487.628
31
0.000
0
LINE
8
0
62
0
10
462.568
20
487.628
30
0.000
11
463.064
21
488.304
31
0.000
0
LINE
8
0
62
0
10
463.064
20
488.304
30
0.000
11
463.476
21
489.016
31
0.000
0
LINE
8
0
62
0
10
463.476
20
489.016
30
0.000
11
463.792
21
489.752
31
0.000
0
LINE
8
0
62
0
10
463.792
20
489.752
30
0.000
11
464.000
21
490.500
31
0.000
0
LINE
8
0
62
0
10
464.000
20
490.500
30
0.000
11
464.088
21
491.248
31
0.000
0
LINE
8
0
62
0
10
464.088
20
491.248
30
0.000
11
464.044
21
491.984
31
0.000
0
LINE
8
0
62
0
10
464.044
20
491.984
30
0.000
11
463.856
21
492.696
31
0.000
0
LINE
8
0
62
0
10
463.856
20
492.696
30
0.000
11
463.512
21
493.372
31
0.000
0
LINE
8
0
62
0
10
463.512
20
493.372
30
0.000
11
463.000
21
494.000
31
0.000
0
LINE
8
0
62
0
10
463.000
20
494.000
30
0.000
11
462.287
21
494.732
31
0.000
0
LINE
8
0
62
0
10
462.287
20
494.732
30
0.000
11
461.376
21
495.176
31
0.000
0
LINE
8
0
62
0
10
461.376
20
495.176
30
0.000
11
460.309
21
495.404
31
0.000
0
LINE
8
0
62
0
10
460.309
20
495.404
30
0.000
11
459.128
21
495.488
31
0.000
0
LINE
8
0
62
0
10
459.128
20
495.488
30
0.000
11
457.875
21
495.500
31
0.000
0
LINE
8
0
62
0
10
457.875
20
495.500
30
0.000
11
456.592
21
495.512
31
0.000
0
LINE
8
0
62
0
10
456.592
20
495.512
30
0.000
11
455.321
21
495.596
31
0.000
0
LINE
8
0
62
0
10
455.321
20
495.596
30
0.000
11
454.104
21
495.824
31
0.000
0
LINE
8
0
62
0
10
454.104
20
495.824
30
0.000
11
452.983
21
496.268
31
0.000
0
LINE
8
0
62
0
10
452.983
20
496.268
30
0.000
11
452.000
21
497.000
31
0.000
0
LINE
8
0
62
0
10
452.000
20
497.000
30
0.000
11
452.732
21
496.017
31
0.000
0
LINE
8
0
62
0
10
452.732
20
496.017
30
0.000
11
453.176
21
494.896
31
0.000
0
LINE
8
0
62
0
10
453.176
20
494.896
30
0.000
11
453.404
21
493.679
31
0.000
0
LINE
8
0
62
0
10
453.404
20
493.679
30
0.000
11
453.488
21
492.408
31
0.000
0
LINE
8
0
62
0
10
453.488
20
492.408
30
0.000
11
453.500
21
491.125
31
0.000
0
LINE
8
0
62
0
10
453.500
20
491.125
30
0.000
11
453.512
21
489.872
31
0.000
0
LINE
8
0
62
0
10
453.512
20
489.872
30
0.000
11
453.596
21
488.691
31
0.000
0
LINE
8
0
62
0
10
453.596
20
488.691
30
0.000
11
453.824
21
487.624
31
0.000
0
LINE
8
0
62
0
10
453.824
20
487.624
30
0.000
11
454.268
21
486.713
31
0.000
0
LINE
8
0
62
0
10
454.268
20
486.713
30
0.000
11
455.000
21
486.000
31
0.000
0
LINE
8
0
62
0
10
455.000
20
486.000
30
0.000
11
455.628
21
485.488
31
0.000
0
LINE
8
0
62
0
10
455.628
20
485.488
30
0.000
11
456.304
21
485.144
31
0.000
0
LINE
8
0
62
0
10
456.304
20
485.144
30
0.000
11
457.016
21
484.956
31
0.000
0
LINE
8
0
62
0
10
457.016
20
484.956
30
0.000
11
457.752
21
484.912
31
0.000
0
LINE
8
0
62
0
10
457.752
20
484.912
30
0.000
11
458.500
21
485.000
31
0.000
0
LINE
8
0
62
0
10
458.500
20
485.000
30
0.000
11
459.248
21
485.208
31
0.000
0
LINE
8
0
62
0
10
459.248
20
485.208
30
0.000
11
459.984
21
485.524
31
0.000
0
LINE
8
0
62
0
10
459.984
20
485.524
30
0.000
11
460.696
21
485.936
31
0.000
0
LINE
8
0
62
0
10
460.696
20
485.936
30
0.000
11
461.372
21
486.432
31
0.000
0
LINE
8
0
62
0
10
461.372
20
486.432
30
0.000
11
462.000
21
487.000
31
0.000
0
LINE
8
0
62
0
10
437.000
20
487.000
30
0.000
11
436.432
21
487.628
31
0.000
0
LINE
8
0
62
0
10
436.432
20
487.628
30
0.000
11
435.936
21
488.304
31
0.000
0
LINE
8
0
62
0
10
435.936
20
488.304
30
0.000
11
435.524
21
489.016
31
0.000
0
LINE
8
0
62
0
10
435.524
20
489.016
30
0.000
11
435.208
21
489.752
31
0.000
0
LINE
8
0
62
0
10
435.208
20
489.752
30
0.000
11
435.000
21
490.500
31
0.000
0
LINE
8
0
62
0
10
435.000
20
490.500
30
0.000
11
434.912
21
491.248
31
0.000
0
LINE
8
0
62
0
10
434.912
20
491.248
30
0.000
11
434.956
21
491.984
31
0.000
0
LINE
8
0
62
0
10
434.956
20
491.984
30
0.000
11
435.144
21
492.696
31
0.000
0
LINE
8
0
62
0
10
435.144
20
492.696
30
0.000
11
435.488
21
493.372
31
0.000
0
LINE
8
0
62
0
10
435.488
20
493.372
30
0.000
11
436.000
21
494.000
31
0.000
0
LINE
8
0
62
0
10
436.000
20
494.000
30
0.000
11
436.713
21
494.732
31
0.000
0
LINE
8
0
62
0
10
436.713
20
494.732
30
0.000
11
437.624
21
495.176
31
0.000
0
LINE
8
0
62
0
10
437.624
20
495.176
30
0.000
11
438.691
21
495.404
31
0.000
0
LINE
8
0
62
0
10
438.691
20
495.404
30
0.000
11
439.872
21
495.488
31
0.000
0
LINE
8
0
62
0
10
439.872
20
495.488
30
0.000
11
441.125
21
495.500
31
0.000
0
LINE
8
0
62
0
10
441.125
20
495.500
30
0.000
11
442.408
21
495.512
31
0.000
0
LINE
8
0
62
0
10
442.408
20
495.512
30
0.000
11
443.679
21
495.596
31
0.000
0
LINE
8
0
62
0
10
443.679
20
495.596
30
0.000
11
444.896
21
495.824
31
0.000
0
LINE
8
0
62
0
10
444.896
20
495.824
30
0.000
11
446.017
21
496.268
31
0.000
0
LINE
8
0
62
0
10
446.017
20
496.268
30
0.000
11
447.000
21
497.000
31
0.000
0
LINE
8
0
62
0
10
447.000
20
497.000
30
0.000
11
446.268
21
496.017
31
0.000
0
LINE
8
0
62
0
10
446.268
20
496.017
30
0.000
11
445.824
21
494.896
31
0.000
0
LINE
8
0
62
0
10
445.824
20
494.896
30
0.000
11
445.596
21
493.679
31
0.000
0
LINE
8
0
62
0
10
445.596
20
493.679
30
0.000
11
445.512
21
492.408
31
0.000
0
LINE
8
0
62
0
10
445.512
20
492.408
30
0.000
11
445.500
21
491.125
31
0.000
0
LINE
8
0
62
0
10
445.500
20
491.125
30
0.000
11
445.488
21
489.872
31
0.000
0
LINE
8
0
62
0
10
445.488
20
489.872
30
0.000
11
445.404
21
488.691
31
0.000
0
LINE
8
0
62
0
10
445.404
20
488.691
30
0.000
11
445.176
21
487.624
31
0.000
0
LINE
8
0
62
0
10
445.176
20
487.624
30
0.000
11
444.732
21
486.713
31
0.000
0
LINE
8
0
62
0
10
444.732
20
486.713
30
0.000
11
444.000
21
486.000
31
0.000
0
LINE
8
0
62
0
10
444.000
20
486.000
30
0.000
11
443.372
21
485.488
31
0.000
0
LINE
8
0
62
0
10
443.372
20
485.488
30
0.000
11
442.696
21
485.144
31
0.000
0
LINE
8
0
62
0
10
442.696
20
485.144
30
0.000
11
441.984
21
484.956
31
0.000
0
LINE
8
0
62
0
10
441.984
20
484.956
30
0.000
11
441.248
21
484.912
31
0.000
0
LINE
8
0
62
0
10
441.248
20
484.912
30
0.000
11
440.500
21
485.000
31
0.000
0
LINE
8
0
62
0
10
440.500
20
485.000
30
0.000
11
439.752
21
485.208
31
0.000
0
LINE
8
0
62
0
10
439.752
20
485.208
30
0.000
11
439.016
21
485.524
31
0.000
0
LINE
8
0
62
0
10
439.016
20
485.524
30
0.000
11
438.304
21
485.936
31
0.000
0
LINE
8
0
62
0
10
438.304
20
485.936
30
0.000
11
437.628
21
486.432
31
0.000
0
LINE
8
0
62
0
10
437.628
20
486.432
30
0.000
11
437.000
21
487.000
31
0.000
0
LINE
8
0
62
0
10
362.000
20
512.000
30
0.000
11
362.568
21
512.628
31
0.000
0
LINE
8
0
62
0
10
362.568
20
512.628
30
0.000
11
363.064
21
513.304
31
0.000
0
LINE
8
0
62
0
10
363.064
20
513.304
30
0.000
11
363.476
21
514.016
31
0.000
0
LINE
8
0
62
0
10
363.476
20
514.016
30
0.000
11
363.792
21
514.752
31
0.000
0
LINE
8
0
62
0
10
363.792
20
514.752
30
0.000
11
364.000
21
515.500
31
0.000
0
LINE
8
0
62
0
10
364.000
20
515.500
30
0.000
11
364.088
21
516.248
31
0.000
0
LINE
8
0
62
0
10
364.088
20
516.248
30
0.000
11
364.044
21
516.984
31
0.000
0
LINE
8
0
62
0
10
364.044
20
516.984
30
0.000
11
363.856
21
517.696
31
0.000
0
LINE
8
0
62
0
10
363.856
20
517.696
30
0.000
11
363.512
21
518.372
31
0.000
0
LINE
8
0
62
0
10
363.512
20
518.372
30
0.000
11
363.000
21
519.000
31
0.000
0
LINE
8
0
62
0
10
363.000
20
519.000
30
0.000
11
362.287
21
519.732
31
0.000
0
LINE
8
0
62
0
10
362.287
20
519.732
30
0.000
11
361.376
21
520.176
31
0.000
0
LINE
8
0
62
0
10
361.376
20
520.176
30
0.000
11
360.309
21
520.404
31
0.000
0
LINE
8
0
62
0
10
360.309
20
520.404
30
0.000
11
359.128
21
520.488
31
0.000
0
LINE
8
0
62
0
10
359.128
20
520.488
30
0.000
11
357.875
21
520.500
31
0.000
0
LINE
8
0
62
0
10
357.875
20
520.500
30
0.000
11
356.592
21
520.512
31
0.000
0
LINE
8
0
62
0
10
356.592
20
520.512
30
0.000
11
355.321
21
520.596
31
0.000
0
LINE
8
0
62
0
10
355.321
20
520.596
30
0.000
11
354.104
21
520.824
31
0.000
0
LINE
8
0
62
0
10
354.104
20
520.824
30
0.000
11
352.983
21
521.268
31
0.000
0
LINE
8
0
62
0
10
352.983
20
521.268
30
0.000
11
352.000
21
522.000
31
0.000
0
LINE
8
0
62
0
10
352.000
20
522.000
30
0.000
11
352.732
21
521.017
31
0.000
0
LINE
8
0
62
0
10
352.732
20
521.017
30
0.000
11
353.176
21
519.896
31
0.000
0
LINE
8
0
62
0
10
353.176
20
519.896
30
0.000
11
353.404
21
518.679
31
0.000
0
LINE
8
0
62
0
10
353.404
20
518.679
30
0.000
11
353.488
21
517.408
31
0.000
0
LINE
8
0
62
0
10
353.488
20
517.408
30
0.000
11
353.500
21
516.125
31
0.000
0
LINE
8
0
62
0
10
353.500
20
516.125
30
0.000
11
353.512
21
514.872
31
0.000
0
LINE
8
0
62
0
10
353.512
20
514.872
30
0.000
11
353.596
21
513.691
31
0.000
0
LINE
8
0
62
0
10
353.596
20
513.691
30
0.000
11
353.824
21
512.624
31
0.000
0
LINE
8
0
62
0
10
353.824
20
512.624
30
0.000
11
354.268
21
511.713
31
0.000
0
LINE
8
0
62
0
10
354.268
20
511.713
30
0.000
11
355.000
21
511.000
31
0.000
0
LINE
8
0
62
0
10
355.000
20
511.000
30
0.000
11
355.628
21
510.488
31
0.000
0
LINE
8
0
62
0
10
355.628
20
510.488
30
0.000
11
356.304
21
510.144
31
0.000
0
LINE
8
0
62
0
10
356.304
20
510.144
30
0.000
11
357.016
21
509.956
31
0.000
0
LINE
8
0
62
0
10
357.016
20
509.956
30
0.000
11
357.752
21
509.912
31
0.000
0
LINE
8
0
62
0
10
357.752
20
509.912
30
0.000
11
358.500
21
510.000
31
0.000
0
LINE
8
0
62
0
10
358.500
20
510.000
30
0.000
11
359.248
21
510.208
31
0.000
0
LINE
8
0
62
0
10
359.248
20
510.208
30
0.000
11
359.984
21
510.524
31
0.000
0
LINE
8
0
62
0
10
359.984
20
510.524
30
0.000
11
360.696
21
510.936
31
0.000
0
LINE
8
0
62
0
10
360.696
20
510.936
30
0.000
11
361.372
21
511.432
31
0.000
0
LINE
8
0
62
0
10
361.372
20
511.432
30
0.000
11
362.000
21
512.000
31
0.000
0
LINE
8
0
62
0
10
337.000
20
462.000
30
0.000
11
337.568
21
462.628
31
0.000
0
LINE
8
0
62
0
10
337.568
20
462.628
30
0.000
11
338.064
21
463.304
31
0.000
0
LINE
8
0
62
0
10
338.064
20
463.304
30
0.000
11
338.476
21
464.016
31
0.000
0
LINE
8
0
62
0
10
338.476
20
464.016
30
0.000
11
338.792
21
464.752
31
0.000
0
LINE
8
0
62
0
10
338.792
20
464.752
30
0.000
11
339.000
21
465.500
31
0.000
0
LINE
8
0
62
0
10
339.000
20
465.500
30
0.000
11
339.088
21
466.248
31
0.000
0
LINE
8
0
62
0
10
339.088
20
466.248
30
0.000
11
339.044
21
466.984
31
0.000
0
LINE
8
0
62
0
10
339.044
20
466.984
30
0.000
11
338.856
21
467.696
31
0.000
0
LINE
8
0
62
0
10
338.856
20
467.696
30
0.000
11
338.512
21
468.372
31
0.000
0
LINE
8
0
62
0
10
338.512
20
468.372
30
0.000
11
338.000
21
469.000
31
0.000
0
LINE
8
0
62
0
10
338.000
20
469.000
30
0.000
11
337.287
21
469.732
31
0.000
0
LINE
8
0
62
0
10
337.287
20
469.732
30
0.000
11
336.376
21
470.176
31
0.000
0
LINE
8
0
62
0
10
336.376
20
470.176
30
0.000
11
335.309
21
470.404
31
0.000
0
LINE
8
0
62
0
10
335.309
20
470.404
30
0.000
11
334.128
21
470.488
31
0.000
0
LINE
8
0
62
0
10
334.128
20
470.488
30
0.000
11
332.875
21
470.500
31
0.000
0
LINE
8
0
62
0
10
332.875
20
470.500
30
0.000
11
331.592
21
470.512
31
0.000
0
LINE
8
0
62
0
10
331.592
20
470.512
30
0.000
11
330.321
21
470.596
31
0.000
0
LINE
8
0
62
0
10
330.321
20
470.596
30
0.000
11
329.104
21
470.824
31
0.000
0
LINE
8
0
62
0
10
329.104
20
470.824
30
0.000
11
327.983
21
471.268
31
0.000
0
LINE
8
0
62
0
10
327.983
20
471.268
30
0.000
11
327.000
21
472.000
31
0.000
0
LINE
8
0
62
0
10
327.000
20
472.000
30
0.000
11
327.732
21
471.017
31
0.000
0
LINE
8
0
62
0
10
327.732
20
471.017
30
0.000
11
328.176
21
469.896
31
0.000
0
LINE
8
0
62
0
10
328.176
20
469.896
30
0.000
11
328.404
21
468.679
31
0.000
0
LINE
8
0
62
0
10
328.404
20
468.679
30
0.000
11
328.488
21
467.408
31
0.000
0
LINE
8
0
62
0
10
328.488
20
467.408
30
0.000
11
328.500
21
466.125
31
0.000
0
LINE
8
0
62
0
10
328.500
20
466.125
30
0.000
11
328.512
21
464.872
31
0.000
0
LINE
8
0
62
0
10
328.512
20
464.872
30
0.000
11
328.596
21
463.691
31
0.000
0
LINE
8
0
62
0
10
328.596
20
463.691
30
0.000
11
328.824
21
462.624
31
0.000
0
LINE
8
0
62
0
10
328.824
20
462.624
30
0.000
11
329.268
21
461.713
31
0.000
0
LINE
8
0
62
0
10
329.268
20
461.713
30
0.000
11
330.000
21
461.000
31
0.000
0
LINE
8
0
62
0
10
330.000
20
461.000
30
0.000
11
330.628
21
460.488
31
0.000
0
LINE
8
0
62
0
10
330.628
20
460.488
30
0.000
11
331.304
21
460.144
31
0.000
0
LINE
8
0
62
0
10
331.304
20
460.144
30
0.000
11
332.016
21
459.956
31
0.000
0
LINE
8
0
62
0
10
332.016
20
459.956
30
0.000
11
332.752
21
459.912
31
0.000
0
LINE
8
0
62
0
10
332.752
20
459.912
30
0.000
11
333.500
21
460.000
31
0.000
0
LINE
8
0
62
0
10
333.500
20
460.000
30
0.000
11
334.248
21
460.208
31
0.000
0
LINE
8
0
62
0
10
334.248
20
460.208
30
0.000
11
334.984
21
460.524
31
0.000
0
LINE
8
0
62
0
10
334.984
20
460.524
30
0.000
11
335.696
21
460.936
31
0.000
0
LINE
8
0
62
0
10
335.696
20
460.936
30
0.000
11
336.372
21
461.432
31
0.000
0
LINE
8
0
62
0
10
336.372
20
461.432
30
0.000
11
337.000
21
462.000
31
0.000
0
LINE
8
0
62
0
10
337.000
20
437.000
30
0.000
11
337.568
21
436.372
31
0.000
0
LINE
8
0
62
0
10
337.568
20
436.372
30
0.000
11
338.064
21
435.696
31
0.000
0
LINE
8
0
62
0
10
338.064
20
435.696
30
0.000
11
338.476
21
434.984
31
0.000
0
LINE
8
0
62
0
10
338.476
20
434.984
30
0.000
11
338.792
21
434.248
31
0.000
0
LINE
8
0
62
0
10
338.792
20
434.248
30
0.000
11
339.000
21
433.500
31
0.000
0
LINE
8
0
62
0
10
339.000
20
433.500
30
0.000
11
339.088
21
432.752
31
0.000
0
LINE
8
0
62
0
10
339.088
20
432.752
30
0.000
11
339.044
21
432.016
31
0.000
0
LINE
8
0
62
0
10
339.044
20
432.016
30
0.000
11
338.856
21
431.304
31
0.000
0
LINE
8
0
62
0
10
338.856
20
431.304
30
0.000
11
338.512
21
430.628
31
0.000
0
LINE
8
0
62
0
10
338.512
20
430.628
30
0.000
11
338.000
21
430.000
31
0.000
0
LINE
8
0
62
0
10
338.000
20
430.000
30
0.000
11
337.287
21
429.268
31
0.000
0
LINE
8
0
62
0
10
337.287
20
429.268
30
0.000
11
336.376
21
428.824
31
0.000
0
LINE
8
0
62
0
10
336.376
20
428.824
30
0.000
11
335.309
21
428.596
31
0.000
0
LINE
8
0
62
0
10
335.309
20
428.596
30
0.000
11
334.128
21
428.512
31
0.000
0
LINE
8
0
62
0
10
334.128
20
428.512
30
0.000
11
332.875
21
428.500
31
0.000
0
LINE
8
0
62
0
10
332.875
20
428.500
30
0.000
11
331.592
21
428.488
31
0.000
0
LINE
8
0
62
0
10
331.592
20
428.488
30
0.000
11
330.321
21
428.404
31
0.000
0
LINE
8
0
62
0
10
330.321
20
428.404
30
0.000
11
329.104
21
428.176
31
0.000
0
LINE
8
0
62
0
10
329.104
20
428.176
30
0.000
11
327.983
21
427.732
31
0.000
0
LINE
8
0
62
0
10
327.983
20
427.732
30
0.000
11
327.000
21
427.000
31
0.000
0
LINE
8
0
62
0
10
327.000
20
427.000
30
0.000
11
327.732
21
427.983
31
0.000
0
LINE
8
0
62
0
10
327.732
20
427.983
30
0.000
11
328.176
21
429.104
31
0.000
0
LINE
8
0
62
0
10
328.176
20
429.104
30
0.000
11
328.404
21
430.321
31
0.000
0
LINE
8
0
62
0
10
328.404
20
430.321
30
0.000
11
328.488
21
431.592
31
0.000
0
LINE
8
0
62
0
10
328.488
20
431.592
30
0.000
11
328.500
21
432.875
31
0.000
0
LINE
8
0
62
0
10
328.500
20
432.875
30
0.000
11
328.512
21
434.128
31
0.000
0
LINE
8
0
62
0
10
328.512
20
434.128
30
0.000
11
328.596
21
435.309
31
0.000
0
LINE
8
0
62
0
10
328.596
20
435.309
30
0.000
11
328.824
21
436.376
31
0.000
0
LINE
8
0
62
0
10
328.824
20
436.376
30
0.000
11
329.268
21
437.287
31
0.000
0
LINE
8
0
62
0
10
329.268
20
437.287
30
0.000
11
330.000
21
438.000
31
0.000
0
LINE
8
0
62
0
10
330.000
20
438.000
30
0.000
11
330.628
21
438.512
31
0.000
0
LINE
8
0
62
0
10
330.628
20
438.512
30
0.000
11
331.304
21
438.856
31
0.000
0
LINE
8
0
62
0
10
331.304
20
438.856
30
0.000
11
332.016
21
439.044
31
0.000
0
LINE
8
0
62
0
10
332.016
20
439.044
30
0.000
11
332.752
21
439.088
31
0.000
0
LINE
8
0
62
0
10
332.752
20
439.088
30
0.000
11
333.500
21
439.000
31
0.000
0
LINE
8
0
62
0
10
333.500
20
439.000
30
0.000
11
334.248
21
438.792
31
0.000
0
LINE
8
0
62
0
10
334.248
20
438.792
30
0.000
11
334.984
21
438.476
31
0.000
0
LINE
8
0
62
0
10
334.984
20
438.476
30
0.000
11
335.696
21
438.064
31
0.000
0
LINE
8
0
62
0
10
335.696
20
438.064
30
0.000
11
336.372
21
437.568
31
0.000
0
LINE
8
0
62
0
10
336.372
20
437.568
30
0.000
11
337.000
21
437.000
31
0.000
0
LINE
8
0
62
0
10
437.000
20
512.000
30
0.000
11
437.568
21
512.628
31
0.000
0
LINE
8
0
62
0
10
437.568
20
512.628
30
0.000
11
438.064
21
513.304
31
0.000
0
LINE
8
0
62
0
10
438.064
20
513.304
30
0.000
11
438.476
21
514.016
31
0.000
0
LINE
8
0
62
0
10
438.476
20
514.016
30
0.000
11
438.792
21
514.752
31
0.000
0
LINE
8
0
62
0
10
438.792
20
514.752
30
0.000
11
439.000
21
515.500
31
0.000
0
LINE
8
0
62
0
10
439.000
20
515.500
30
0.000
11
439.088
21
516.248
31
0.000
0
LINE
8
0
62
0
10
439.088
20
516.248
30
0.000
11
439.044
21
516.984
31
0.000
0
LINE
8
0
62
0
10
439.044
20
516.984
30
0.000
11
438.856
21
517.696
31
0.000
0
LINE
8
0
62
0
10
438.856
20
517.696
30
0.000
11
438.512
21
518.372
31
0.000
0
LINE
8
0
62
0
10
438.512
20
518.372
30
0.000
11
438.000
21
519.000
31
0.000
0
LINE
8
0
62
0
10
438.000
20
519.000
30
0.000
11
437.287
21
519.732
31
0.000
0
LINE
8
0
62
0
10
437.287
20
519.732
30
0.000
11
436.376
21
520.176
31
0.000
0
LINE
8
0
62
0
10
436.376
20
520.176
30
0.000
11
435.309
21
520.404
31
0.000
0
LINE
8
0
62
0
10
435.309
20
520.404
30
0.000
11
434.128
21
520.488
31
0.000
0
LINE
8
0
62
0
10
434.128
20
520.488
30
0.000
11
432.875
21
520.500
31
0.000
0
LINE
8
0
62
0
10
432.875
20
520.500
30
0.000
11
431.592
21
520.512
31
0.000
0
LINE
8
0
62
0
10
431.592
20
520.512
30
0.000
11
430.321
21
520.596
31
0.000
0
LINE
8
0
62
0
10
430.321
20
520.596
30
0.000
11
429.104
21
520.824
31
0.000
0
LINE
8
0
62
0
10
429.104
20
520.824
30
0.000
11
427.983
21
521.268
31
0.000
0
LINE
8
0
62
0
10
427.983
20
521.268
30
0.000
11
427.000
21
522.000
31
0.000
0
LINE
8
0
62
0
10
427.000
20
522.000
30
0.000
11
427.732
21
521.017
31
0.000
0
LINE
8
0
62
0
10
427.732
20
521.017
30
0.000
11
428.176
21
519.896
31
0.000
0
LINE
8
0
62
0
10
428.176
20
519.896
30
0.000
11
428.404
21
518.679
31
0.000
0
LINE
8
0
62
0
10
428.404
20
518.679
30
0.000
11
428.488
21
517.408
31
0.000
0
LINE
8
0
62
0
10
428.488
20
517.408
30
0.000
11
428.500
21
516.125
31
0.000
0
LINE
8
0
62
0
10
428.500
20
516.125
30
0.000
11
428.512
21
514.872
31
0.000
0
LINE
8
0
62
0
10
428.512
20
514.872
30
0.000
11
428.596
21
513.691
31
0.000
0
LINE
8
0
62
0
10
428.596
20
513.691
30
0.000
11
428.824
21
512.624
31
0.000
0
LINE
8
0
62
0
10
428.824
20
512.624
30
0.000
11
429.268
21
511.713
31
0.000
0
LINE
8
0
62
0
10
429.268
20
511.713
30
0.000
11
430.000
21
511.000
31
0.000
0
LINE
8
0
62
0
10
430.000
20
511.000
30
0.000
11
430.628
21
510.488
31
0.000
0
LINE
8
0
62
0
10
430.628
20
510.488
30
0.000
11
431.304
21
510.144
31
0.000
0
LINE
8
0
62
0
10
431.304
20
510.144
30
0.000
11
432.016
21
509.956
31
0.000
0
LINE
8
0
62
0
10
432.016
20
509.956
30
0.000
11
432.752
21
509.912
31
0.000
0
LINE
8
0
62
0
10
432.752
20
509.912
30
0.000
11
433.500
21
510.000
31
0.000
0
LINE
8
0
62
0
10
433.500
20
510.000
30
0.000
11
434.248
21
510.208
31
0.000
0
LINE
8
0
62
0
10
434.248
20
510.208
30
0.000
11
434.984
21
510.524
31
0.000
0
LINE
8
0
62
0
10
434.984
20
510.524
30
0.000
11
435.696
21
510.936
31
0.000
0
LINE
8
0
62
0
10
435.696
20
510.936
30
0.000
11
436.372
21
511.432
31
0.000
0
LINE
8
0
62
0
10
436.372
20
511.432
30
0.000
11
437.000
21
512.000
31
0.000
0
LINE
8
0
62
0
10
412.000
20
512.000
30
0.000
11
411.432
21
512.628
31
0.000
0
LINE
8
0
62
0
10
411.432
20
512.628
30
0.000
11
410.936
21
513.304
31
0.000
0
LINE
8
0
62
0
10
410.936
20
513.304
30
0.000
11
410.524
21
514.016
31
0.000
0
LINE
8
0
62
0
10
410.524
20
514.016
30
0.000
11
410.208
21
514.752
31
0.000
0
LINE
8
0
62
0
10
410.208
20
514.752
30
0.000
11
410.000
21
515.500
31
0.000
0
LINE
8
0
62
0
10
410.000
20
515.500
30
0.000
11
409.912
21
516.248
31
0.000
0
LINE
8
0
62
0
10
409.912
20
516.248
30
0.000
11
409.956
21
516.984
31
0.000
0
LINE
8
0
62
0
10
409.956
20
516.984
30
0.000
11
410.144
21
517.696
31
0.000
0
LINE
8
0
62
0
10
410.144
20
517.696
30
0.000
11
410.488
21
518.372
31
0.000
0
LINE
8
0
62
0
10
410.488
20
518.372
30
0.000
11
411.000
21
519.000
31
0.000
0
LINE
8
0
62
0
10
411.000
20
519.000
30
0.000
11
411.713
21
519.732
31
0.000
0
LINE
8
0
62
0
10
411.713
20
519.732
30
0.000
11
412.624
21
520.176
31
0.000
0
LINE
8
0
62
0
10
412.624
20
520.176
30
0.000
11
413.691
21
520.404
31
0.000
0
LINE
8
0
62
0
10
413.691
20
520.404
30
0.000
11
414.872
21
520.488
31
0.000
0
LINE
8
0
62
0
10
414.872
20
520.488
30
0.000
11
416.125
21
520.500
31
0.000
0
LINE
8
0
62
0
10
416.125
20
520.500
30
0.000
11
417.408
21
520.512
31
0.000
0
LINE
8
0
62
0
10
417.408
20
520.512
30
0.000
11
418.679
21
520.596
31
0.000
0
LINE
8
0
62
0
10
418.679
20
520.596
30
0.000
11
419.896
21
520.824
31
0.000
0
LINE
8
0
62
0
10
419.896
20
520.824
30
0.000
11
421.017
21
521.268
31
0.000
0
LINE
8
0
62
0
10
421.017
20
521.268
30
0.000
11
422.000
21
522.000
31
0.000
0
LINE
8
0
62
0
10
422.000
20
522.000
30
0.000
11
421.268
21
521.017
31
0.000
0
LINE
8
0
62
0
10
421.268
20
521.017
30
0.000
11
420.824
21
519.896
31
0.000
0
LINE
8
0
62
0
10
420.824
20
519.896
30
0.000
11
420.596
21
518.679
31
0.000
0
LINE
8
0
62
0
10
420.596
20
518.679
30
0.000
11
420.512
21
517.408
31
0.000
0
LINE
8
0
62
0
10
420.512
20
517.408
30
0.000
11
420.500
21
516.125
31
0.000
0
LINE
8
0
62
0
10
420.500
20
516.125
30
0.000
11
420.488
21
514.872
31
0.000
0
LINE
8
0
62
0
10
420.488
20
514.872
30
0.000
11
420.404
21
513.691
31
0.000
0
LINE
8
0
62
0
10
420.404
20
513.691
30
0.000
11
420.176
21
512.624
31
0.000
0
LINE
8
0
62
0
10
420.176
20
512.624
30
0.000
11
419.732
21
511.713
31
0.000
0
LINE
8
0
62
0
10
419.732
20
511.713
30
0.000
11
419.000
21
511.000
31
0.000
0
LINE
8
0
62
0
10
419.000
20
511.000
30
0.000
11
418.372
21
510.488
31
0.000
0
LINE
8
0
62
0
10
418.372
20
510.488
30
0.000
11
417.696
21
510.144
31
0.000
0
LINE
8
0
62
0
10
417.696
20
510.144
30
0.000
11
416.984
21
509.956
31
0.000
0
LINE
8
0
62
0
10
416.984
20
509.956
30
0.000
11
416.248
21
509.912
31
0.000
0
LINE
8
0
62
0
10
416.248
20
509.912
30
0.000
11
415.500
21
510.000
31
0.000
0
LINE
8
0
62
0
10
415.500
20
510.000
30
0.000
11
414.752
21
510.208
31
0.000
0
LINE
8
0
62
0
10
414.752
20
510.208
30
0.000
11
414.016
21
510.524
31
0.000
0
LINE
8
0
62
0
10
414.016
20
510.524
30
0.000
11
413.304
21
510.936
31
0.000
0
LINE
8
0
62
0
10
413.304
20
510.936
30
0.000
11
412.628
21
511.432
31
0.000
0
LINE
8
0
62
0
10
412.628
20
511.432
30
0.000
11
412.000
21
512.000
31
0.000
0
LINE
8
0
62
0
10
562.000
20
212.000
30
0.000
11
562.568
21
212.628
31
0.000
0
LINE
8
0
62
0
10
562.568
20
212.628
30
0.000
11
563.064
21
213.304
31
0.000
0
LINE
8
0
62
0
10
563.064
20
213.304
30
0.000
11
563.476
21
214.016
31
0.000
0
LINE
8
0
62
0
10
563.476
20
214.016
30
0.000
11
563.792
21
214.752
31
0.000
0
LINE
8
0
62
0
10
563.792
20
214.752
30
0.000
11
564.000
21
215.500
31
0.000
0
LINE
8
0
62
0
10
564.000
20
215.500
30
0.000
11
564.088
21
216.248
31
0.000
0
LINE
8
0
62
0
10
564.088
20
216.248
30
0.000
11
564.044
21
216.984
31
0.000
0
LINE
8
0
62
0
10
564.044
20
216.984
30
0.000
11
563.856
21
217.696
31
0.000
0
LINE
8
0
62
0
10
563.856
20
217.696
30
0.000
11
563.512
21
218.372
31
0.000
0
LINE
8
0
62
0
10
563.512
20
218.372
30
0.000
11
563.000
21
219.000
31
0.000
0
LINE
8
0
62
0
10
563.000
20
219.000
30
0.000
11
562.287
21
219.732
31
0.000
0
LINE
8
0
62
0
10
562.287
20
219.732
30
0.000
11
561.376
21
220.176
31
0.000
0
LINE
8
0
62
0
10
561.376
20
220.176
30
0.000
11
560.309
21
220.404
31
0.000
0
LINE
8
0
62
0
10
560.309
20
220.404
30
0.000
11
559.128
21
220.488
31
0.000
0
LINE
8
0
62
0
10
559.128
20
220.488
30
0.000
11
557.875
21
220.500
31
0.000
0
LINE
8
0
62
0
10
557.875
20
220.500
30
0.000
11
556.592
21
220.512
31
0.000
0
LINE
8
0
62
0
10
556.592
20
220.512
30
0.000
11
555.321
21
220.596
31
0.000
0
LINE
8
0
62
0
10
555.321
20
220.596
30
0.000
11
554.104
21
220.824
31
0.000
0
LINE
8
0
62
0
10
554.104
20
220.824
30
0.000
11
552.983
21
221.268
31
0.000
0
LINE
8
0
62
0
10
552.983
20
221.268
30
0.000
11
552.000
21
222.000
31
0.000
0
LINE
8
0
62
0
10
552.000
20
222.000
30
0.000
11
552.732
21
221.017
31
0.000
0
LINE
8
0
62
0
10
552.732
20
221.017
30
0.000
11
553.176
21
219.896
31
0.000
0
LINE
8
0
62
0
10
553.176
20
219.896
30
0.000
11
553.404
21
218.679
31
0.000
0
LINE
8
0
62
0
10
553.404
20
218.679
30
0.000
11
553.488
21
217.408
31
0.000
0
LINE
8
0
62
0
10
553.488
20
217.408
30
0.000
11
553.500
21
216.125
31
0.000
0
LINE
8
0
62
0
10
553.500
20
216.125
30
0.000
11
553.512
21
214.872
31
0.000
0
LINE
8
0
62
0
10
553.512
20
214.872
30
0.000
11
553.596
21
213.691
31
0.000
0
LINE
8
0
62
0
10
553.596
20
213.691
30
0.000
11
553.824
21
212.624
31
0.000
0
LINE
8
0
62
0
10
553.824
20
212.624
30
0.000
11
554.268
21
211.713
31
0.000
0
LINE
8
0
62
0
10
554.268
20
211.713
30
0.000
11
555.000
21
211.000
31
0.000
0
LINE
8
0
62
0
10
555.000
20
211.000
30
0.000
11
555.628
21
210.488
31
0.000
0
LINE
8
0
62
0
10
555.628
20
210.488
30
0.000
11
556.304
21
210.144
31
0.000
0
LINE
8
0
62
0
10
556.304
20
210.144
30
0.000
11
557.016
21
209.956
31
0.000
0
LINE
8
0
62
0
10
557.016
20
209.956
30
0.000
11
557.752
21
209.912
31
0.000
0
LINE
8
0
62
0
10
557.752
20
209.912
30
0.000
11
558.500
21
210.000
31
0.000
0
LINE
8
0
62
0
10
558.500
20
210.000
30
0.000
11
559.248
21
210.208
31
0.000
0
LINE
8
0
62
0
10
559.248
20
210.208
30
0.000
11
559.984
21
210.524
31
0.000
0
LINE
8
0
62
0
10
559.984
20
210.524
30
0.000
11
560.696
21
210.936
31
0.000
0
LINE
8
0
62
0
10
560.696
20
210.936
30
0.000
11
561.372
21
211.432
31
0.000
0
LINE
8
0
62
0
10
561.372
20
211.432
30
0.000
11
562.000
21
212.000
31
0.000
0
LINE
8
0
62
0
10
287.000
20
512.000
30
0.000
11
287.568
21
512.628
31
0.000
0
LINE
8
0
62
0
10
287.568
20
512.628
30
0.000
11
288.064
21
513.304
31
0.000
0
LINE
8
0
62
0
10
288.064
20
513.304
30
0.000
11
288.476
21
514.016
31
0.000
0
LINE
8
0
62
0
10
288.476
20
514.016
30
0.000
11
288.792
21
514.752
31
0.000
0
LINE
8
0
62
0
10
288.792
20
514.752
30
0.000
11
289.000
21
515.500
31
0.000
0
LINE
8
0
62
0
10
289.000
20
515.500
30
0.000
11
289.088
21
516.248
31
0.000
0
LINE
8
0
62
0
10
289.088
20
516.248
30
0.000
11
289.044
21
516.984
31
0.000
0
LINE
8
0
62
0
10
289.044
20
516.984
30
0.000
11
288.856
21
517.696
31
0.000
0
LINE
8
0
62
0
10
288.856
20
517.696
30
0.000
11
288.512
21
518.372
31
0.000
0
LINE
8
0
62
0
10
288.512
20
518.372
30
0.000
11
288.000
21
519.000
31
0.000
0
LINE
8
0
62
0
10
288.000
20
519.000
30
0.000
11
287.287
21
519.732
31
0.000
0
LINE
8
0
62
0
10
287.287
20
519.732
30
0.000
11
286.376
21
520.176
31
0.000
0
LINE
8
0
62
0
10
286.376
20
520.176
30
0.000
11
285.309
21
520.404
31
0.000
0
LINE
8
0
62
0
10
285.309
20
520.404
30
0.000
11
284.128
21
520.488
31
0.000
0
LINE
8
0
62
0
10
284.128
20
520.488
30
0.000
11
282.875
21
520.500
31
0.000
0
LINE
8
0
62
0
10
282.875
20
520.500
30
0.000
11
281.592
21
520.512
31
0.000
0
LINE
8
0
62
0
10
281.592
20
520.512
30
0.000
11
280.321
21
520.596
31
0.000
0
LINE
8
0
62
0
10
280.321
20
520.596
30
0.000
11
279.104
21
520.824
31
0.000
0
LINE
8
0
62
0
10
279.104
20
520.824
30
0.000
11
277.983
21
521.268
31
0.000
0
LINE
8
0
62
0
10
277.983
20
521.268
30
0.000
11
277.000
21
522.000
31
0.000
0
LINE
8
0
62
0
10
277.000
20
522.000
30
0.000
11
277.732
21
521.017
31
0.000
0
LINE
8
0
62
0
10
277.732
20
521.017
30
0.000
11
278.176
21
519.896
31
0.000
0
LINE
8
0
62
0
10
278.176
20
519.896
30
0.000
11
278.404
21
518.679
31
0.000
0
LINE
8
0
62
0
10
278.404
20
518.679
30
0.000
11
278.488
21
517.408
31
0.000
0
LINE
8
0
62
0
10
278.488
20
517.408
30
0.000
11
278.500
21
516.125
31
0.000
0
LINE
8
0
62
0
10
278.500
20
516.125
30
0.000
11
278.512
21
514.872
31
0.000
0
LINE
8
0
62
0
10
278.512
20
514.872
30
0.000
11
278.596
21
513.691
31
0.000
0
LINE
8
0
62
0
10
278.596
20
513.691
30
0.000
11
278.824
21
512.624
31
0.000
0
LINE
8
0
62
0
10
278.824
20
512.624
30
0.000
11
279.268
21
511.713
31
0.000
0
LINE
8
0
62
0
10
279.268
20
511.713
30
0.000
11
280.000
21
511.000
31
0.000
0
LINE
8
0
62
0
10
280.000
20
511.000
30
0.000
11
280.628
21
510.488
31
0.000
0
LINE
8
0
62
0
10
280.628
20
510.488
30
0.000
11
281.304
21
510.144
31
0.000
0
LINE
8
0
62
0
10
281.304
20
510.144
30
0.000
11
282.016
21
509.956
31
0.000
0
LINE
8
0
62
0
10
282.016
20
509.956
30
0.000
11
282.752
21
509.912
31
0.000
0
LINE
8
0
62
0
10
282.752
20
509.912
30
0.000
11
283.500
21
510.000
31
0.000
0
LINE
8
0
62
0
10
283.500
20
510.000
30
0.000
11
284.248
21
510.208
31
0.000
0
LINE
8
0
62
0
10
284.248
20
510.208
30
0.000
11
284.984
21
510.524
31
0.000
0
LINE
8
0
62
0
10
284.984
20
510.524
30
0.000
11
285.696
21
510.936
31
0.000
0
LINE
8
0
62
0
10
285.696
20
510.936
30
0.000
11
286.372
21
511.432
31
0.000
0
LINE
8
0
62
0
10
286.372
20
511.432
30
0.000
11
287.000
21
512.000
31
0.000
0
LINE
8
0
62
0
10
537.000
20
187.000
30
0.000
11
537.568
21
187.628
31
0.000
0
LINE
8
0
62
0
10
537.568
20
187.628
30
0.000
11
538.064
21
188.304
31
0.000
0
LINE
8
0
62
0
10
538.064
20
188.304
30
0.000
11
538.476
21
189.016
31
0.000
0
LINE
8
0
62
0
10
538.476
20
189.016
30
0.000
11
538.792
21
189.752
31
0.000
0
LINE
8
0
62
0
10
538.792
20
189.752
30
0.000
11
539.000
21
190.500
31
0.000
0
LINE
8
0
62
0
10
539.000
20
190.500
30
0.000
11
539.088
21
191.248
31
0.000
0
LINE
8
0
62
0
10
539.088
20
191.248
30
0.000
11
539.044
21
191.984
31
0.000
0
LINE
8
0
62
0
10
539.044
20
191.984
30
0.000
11
538.856
21
192.696
31
0.000
0
LINE
8
0
62
0
10
538.856
20
192.696
30
0.000
11
538.512
21
193.372
31
0.000
0
LINE
8
0
62
0
10
538.512
20
193.372
30
0.000
11
538.000
21
194.000
31
0.000
0
LINE
8
0
62
0
10
538.000
20
194.000
30
0.000
11
537.287
21
194.732
31
0.000
0
LINE
8
0
62
0
10
537.287
20
194.732
30
0.000
11
536.376
21
195.176
31
0.000
0
LINE
8
0
62
0
10
536.376
20
195.176
30
0.000
11
535.309
21
195.404
31
0.000
0
LINE
8
0
62
0
10
535.309
20
195.404
30
0.000
11
534.128
21
195.488
31
0.000
0
LINE
8
0
62
0
10
534.128
20
195.488
30
0.000
11
532.875
21
195.500
31
0.000
0
LINE
8
0
62
0
10
532.875
20
195.500
30
0.000
11
531.592
21
195.512
31
0.000
0
LINE
8
0
62
0
10
531.592
20
195.512
30
0.000
11
530.321
21
195.596
31
0.000
0
LINE
8
0
62
0
10
530.321
20
195.596
30
0.000
11
529.104
21
195.824
31
0.000
0
LINE
8
0
62
0
10
529.104
20
195.824
30
0.000
11
527.983
21
196.268
31
0.000
0
LINE
8
0
62
0
10
527.983
20
196.268
30
0.000
11
527.000
21
197.000
31
0.000
0
LINE
8
0
62
0
10
527.000
20
197.000
30
0.000
11
527.732
21
196.017
31
0.000
0
LINE
8
0
62
0
10
527.732
20
196.017
30
0.000
11
528.176
21
194.896
31
0.000
0
LINE
8
0
62
0
10
528.176
20
194.896
30
0.000
11
528.404
21
193.679
31
0.000
0
LINE
8
0
62
0
10
528.404
20
193.679
30
0.000
11
528.488
21
192.408
31
0.000
0
LINE
8
0
62
0
10
528.488
20
192.408
30
0.000
11
528.500
21
191.125
31
0.000
0
LINE
8
0
62
0
10
528.500
20
191.125
30
0.000
11
528.512
21
189.872
31
0.000
0
LINE
8
0
62
0
10
528.512
20
189.872
30
0.000
11
528.596
21
188.691
31
0.000
0
LINE
8
0
62
0
10
528.596
20
188.691
30
0.000
11
528.824
21
187.624
31
0.000
0
LINE
8
0
62
0
10
528.824
20
187.624
30
0.000
11
529.268
21
186.713
31
0.000
0
LINE
8
0
62
0
10
529.268
20
186.713
30
0.000
11
530.000
21
186.000
31
0.000
0
LINE
8
0
62
0
10
530.000
20
186.000
30
0.000
11
530.628
21
185.488
31
0.000
0
LINE
8
0
62
0
10
530.628
20
185.488
30
0.000
11
531.304
21
185.144
31
0.000
0
LINE
8
0
62
0
10
531.304
20
185.144
30
0.000
11
532.016
21
184.956
31
0.000
0
LINE
8
0
62
0
10
532.016
20
184.956
30
0.000
11
532.752
21
184.912
31
0.000
0
LINE
8
0
62
0
10
532.752
20
184.912
30
0.000
11
533.500
21
185.000
31
0.000
0
LINE
8
0
62
0
10
533.500
20
185.000
30
0.000
11
534.248
21
185.208
31
0.000
0
LINE
8
0
62
0
10
534.248
20
185.208
30
0.000
11
534.984
21
185.524
31
0.000
0
LINE
8
0
62
0
10
534.984
20
185.524
30
0.000
11
535.696
21
185.936
31
0.000
0
LINE
8
0
62
0
10
535.696
20
185.936
30
0.000
11
536.372
21
186.432
31
0.000
0
LINE
8
0
62
0
10
536.372
20
186.432
30
0.000
11
537.000
21
187.000
31
0.000
0
LINE
8
0
62
0
10
262.000
20
487.000
30
0.000
11
262.568
21
487.628
31
0.000
0
LINE
8
0
62
0
10
262.568
20
487.628
30
0.000
11
263.064
21
488.304
31
0.000
0
LINE
8
0
62
0
10
263.064
20
488.304
30
0.000
11
263.476
21
489.016
31
0.000
0
LINE
8
0
62
0
10
263.476
20
489.016
30
0.000
11
263.792
21
489.752
31
0.000
0
LINE
8
0
62
0
10
263.792
20
489.752
30
0.000
11
264.000
21
490.500
31
0.000
0
LINE
8
0
62
0
10
264.000
20
490.500
30
0.000
11
264.088
21
491.248
31
0.000
0
LINE
8
0
62
0
10
264.088
20
491.248
30
0.000
11
264.044
21
491.984
31
0.000
0
LINE
8
0
62
0
10
264.044
20
491.984
30
0.000
11
263.856
21
492.696
31
0.000
0
LINE
8
0
62
0
10
263.856
20
492.696
30
0.000
11
263.512
21
493.372
31
0.000
0
LINE
8
0
62
0
10
263.512
20
493.372
30
0.000
11
263.000
21
494.000
31
0.000
0
LINE
8
0
62
0
10
263.000
20
494.000
30
0.000
11
262.287
21
494.732
31
0.000
0
LINE
8
0
62
0
10
262.287
20
494.732
30
0.000
11
261.376
21
495.176
31
0.000
0
LINE
8
0
62
0
10
261.376
20
495.176
30
0.000
11
260.309
21
495.404
31
0.000
0
LINE
8
0
62
0
10
260.309
20
495.404
30
0.000
11
259.128
21
495.488
31
0.000
0
LINE
8
0
62
0
10
259.128
20
495.488
30
0.000
11
257.875
21
495.500
31
0.000
0
LINE
8
0
62
0
10
257.875
20
495.500
30
0.000
11
256.592
21
495.512
31
0.000
0
LINE
8
0
62
0
10
256.592
20
495.512
30
0.000
11
255.321
21
495.596
31
0.000
0
LINE
8
0
62
0
10
255.321
20
495.596
30
0.000
11
254.104
21
495.824
31
0.000
0
LINE
8
0
62
0
10
254.104
20
495.824
30
0.000
11
252.983
21
496.268
31
0.000
0
LINE
8
0
62
0
10
252.983
20
496.268
30
0.000
11
252.000
21
497.000
31
0.000
0
LINE
8
0
62
0
10
252.000
20
497.000
30
0.000
11
252.732
21
496.017
31
0.000
0
LINE
8
0
62
0
10
252.732
20
496.017
30
0.000
11
253.176
21
494.896
31
0.000
0
LINE
8
0
62
0
10
253.176
20
494.896
30
0.000
11
253.404
21
493.679
31
0.000
0
LINE
8
0
62
0
10
253.404
20
493.679
30
0.000
11
253.488
21
492.408
31
0.000
0
LINE
8
0
62
0
10
253.488
20
492.408
30
0.000
11
253.500
21
491.125
31
0.000
0
LINE
8
0
62
0
10
253.500
20
491.125
30
0.000
11
253.512
21
489.872
31
0.000
0
LINE
8
0
62
0
10
253.512
20
489.872
30
0.000
11
253.596
21
488.691
31
0.000
0
LINE
8
0
62
0
10
253.596
20
488.691
30
0.000
11
253.824
21
487.624
31
0.000
0
LINE
8
0
62
0
10
253.824
20
487.624
30
0.000
11
254.268
21
486.713
31
0.000
0
LINE
8
0
62
0
10
254.268
20
486.713
30
0.000
11
255.000
21
486.000
31
0.000
0
LINE
8
0
62
0
10
255.000
20
486.000
30
0.000
11
255.628
21
485.488
31
0.000
0
LINE
8
0
62
0
10
255.628
20
485.488
30
0.000
11
256.304
21
485.144
31
0.000
0
LINE
8
0
62
0
10
256.304
20
485.144
30
0.000
11
257.016
21
484.956
31
0.000
0
LINE
8
0
62
0
10
257.016
20
484.956
30
0.000
11
257.752
21
484.912
31
0.000
0
LINE
8
0
62
0
10
257.752
20
484.912
30
0.000
11
258.500
21
485.000
31
0.000
0
LINE
8
0
62
0
10
258.500
20
485.000
30
0.000
11
259.248
21
485.208
31
0.000
0
LINE
8
0
62
0
10
259.248
20
485.208
30
0.000
11
259.984
21
485.524
31
0.000
0
LINE
8
0
62
0
10
259.984
20
485.524
30
0.000
11
260.696
21
485.936
31
0.000
0
LINE
8
0
62
0
10
260.696
20
485.936
30
0.000
11
261.372
21
486.432
31
0.000
0
LINE
8
0
62
0
10
261.372
20
486.432
30
0.000
11
262.000
21
487.000
31
0.000
0
LINE
8
0
62
0
10
312.000
20
462.000
30
0.000
11
311.432
21
462.628
31
0.000
0
LINE
8
0
62
0
10
311.432
20
462.628
30
0.000
11
310.936
21
463.304
31
0.000
0
LINE
8
0
62
0
10
310.936
20
463.304
30
0.000
11
310.524
21
464.016
31
0.000
0
LINE
8
0
62
0
10
310.524
20
464.016
30
0.000
11
310.208
21
464.752
31
0.000
0
LINE
8
0
62
0
10
310.208
20
464.752
30
0.000
11
310.000
21
465.500
31
0.000
0
LINE
8
0
62
0
10
310.000
20
465.500
30
0.000
11
309.912
21
466.248
31
0.000
0
LINE
8
0
62
0
10
309.912
20
466.248
30
0.000
11
309.956
21
466.984
31
0.000
0
LINE
8
0
62
0
10
309.956
20
466.984
30
0.000
11
310.144
21
467.696
31
0.000
0
LINE
8
0
62
0
10
310.144
20
467.696
30
0.000
11
310.488
21
468.372
31
0.000
0
LINE
8
0
62
0
10
310.488
20
468.372
30
0.000
11
311.000
21
469.000
31
0.000
0
LINE
8
0
62
0
10
311.000
20
469.000
30
0.000
11
311.713
21
469.732
31
0.000
0
LINE
8
0
62
0
10
311.713
20
469.732
30
0.000
11
312.624
21
470.176
31
0.000
0
LINE
8
0
62
0
10
312.624
20
470.176
30
0.000
11
313.691
21
470.404
31
0.000
0
LINE
8
0
62
0
10
313.691
20
470.404
30
0.000
11
314.872
21
470.488
31
0.000
0
LINE
8
0
62
0
10
314.872
20
470.488
30
0.000
11
316.125
21
470.500
31
0.000
0
LINE
8
0
62
0
10
316.125
20
470.500
30
0.000
11
317.408
21
470.512
31
0.000
0
LINE
8
0
62
0
10
317.408
20
470.512
30
0.000
11
318.679
21
470.596
31
0.000
0
LINE
8
0
62
0
10
318.679
20
470.596
30
0.000
11
319.896
21
470.824
31
0.000
0
LINE
8
0
62
0
10
319.896
20
470.824
30
0.000
11
321.017
21
471.268
31
0.000
0
LINE
8
0
62
0
10
321.017
20
471.268
30
0.000
11
322.000
21
472.000
31
0.000
0
LINE
8
0
62
0
10
322.000
20
472.000
30
0.000
11
321.268
21
471.017
31
0.000
0
LINE
8
0
62
0
10
321.268
20
471.017
30
0.000
11
320.824
21
469.896
31
0.000
0
LINE
8
0
62
0
10
320.824
20
469.896
30
0.000
11
320.596
21
468.679
31
0.000
0
LINE
8
0
62
0
10
320.596
20
468.679
30
0.000
11
320.512
21
467.408
31
0.000
0
LINE
8
0
62
0
10
320.512
20
467.408
30
0.000
11
320.500
21
466.125
31
0.000
0
LINE
8
0
62
0
10
320.500
20
466.125
30
0.000
11
320.488
21
464.872
31
0.000
0
LINE
8
0
62
0
10
320.488
20
464.872
30
0.000
11
320.404
21
463.691
31
0.000
0
LINE
8
0
62
0
10
320.404
20
463.691
30
0.000
11
320.176
21
462.624
31
0.000
0
LINE
8
0
62
0
10
320.176
20
462.624
30
0.000
11
319.732
21
461.713
31
0.000
0
LINE
8
0
62
0
10
319.732
20
461.713
30
0.000
11
319.000
21
461.000
31
0.000
0
LINE
8
0
62
0
10
319.000
20
461.000
30
0.000
11
318.372
21
460.488
31
0.000
0
LINE
8
0
62
0
10
318.372
20
460.488
30
0.000
11
317.696
21
460.144
31
0.000
0
LINE
8
0
62
0
10
317.696
20
460.144
30
0.000
11
316.984
21
459.956
31
0.000
0
LINE
8
0
62
0
10
316.984
20
459.956
30
0.000
11
316.248
21
459.912
31
0.000
0
LINE
8
0
62
0
10
316.248
20
459.912
30
0.000
11
315.500
21
460.000
31
0.000
0
LINE
8
0
62
0
10
315.500
20
460.000
30
0.000
11
314.752
21
460.208
31
0.000
0
LINE
8
0
62
0
10
314.752
20
460.208
30
0.000
11
314.016
21
460.524
31
0.000
0
LINE
8
0
62
0
10
314.016
20
460.524
30
0.000
11
313.304
21
460.936
31
0.000
0
LINE
8
0
62
0
10
313.304
20
460.936
30
0.000
11
312.628
21
461.432
31
0.000
0
LINE
8
0
62
0
10
312.628
20
461.432
30
0.000
11
312.000
21
462.000
31
0.000
0
LINE
8
0
62
0
10
237.000
20
462.000
30
0.000
11
237.568
21
462.628
31
0.000
0
LINE
8
0
62
0
10
237.568
20
462.628
30
0.000
11
238.064
21
463.304
31
0.000
0
LINE
8
0
62
0
10
238.064
20
463.304
30
0.000
11
238.476
21
464.016
31
0.000
0
LINE
8
0
62
0
10
238.476
20
464.016
30
0.000
11
238.792
21
464.752
31
0.000
0
LINE
8
0
62
0
10
238.792
20
464.752
30
0.000
11
239.000
21
465.500
31
0.000
0
LINE
8
0
62
0
10
239.000
20
465.500
30
0.000
11
239.088
21
466.248
31
0.000
0
LINE
8
0
62
0
10
239.088
20
466.248
30
0.000
11
239.044
21
466.984
31
0.000
0
LINE
8
0
62
0
10
239.044
20
466.984
30
0.000
11
238.856
21
467.696
31
0.000
0
LINE
8
0
62
0
10
238.856
20
467.696
30
0.000
11
238.512
21
468.372
31
0.000
0
LINE
8
0
62
0
10
238.512
20
468.372
30
0.000
11
238.000
21
469.000
31
0.000
0
LINE
8
0
62
0
10
238.000
20
469.000
30
0.000
11
237.287
21
469.732
31
0.000
0
LINE
8
0
62
0
10
237.287
20
469.732
30
0.000
11
236.376
21
470.176
31
0.000
0
LINE
8
0
62
0
10
236.376
20
470.176
30
0.000
11
235.309
21
470.404
31
0.000
0
LINE
8
0
62
0
10
235.309
20
470.404
30
0.000
11
234.128
21
470.488
31
0.000
0
LINE
8
0
62
0
10
234.128
20
470.488
30
0.000
11
232.875
21
470.500
31
0.000
0
LINE
8
0
62
0
10
232.875
20
470.500
30
0.000
11
231.592
21
470.512
31
0.000
0
LINE
8
0
62
0
10
231.592
20
470.512
30
0.000
11
230.321
21
470.596
31
0.000
0
LINE
8
0
62
0
10
230.321
20
470.596
30
0.000
11
229.104
21
470.824
31
0.000
0
LINE
8
0
62
0
10
229.104
20
470.824
30
0.000
11
227.983
21
471.268
31
0.000
0
LINE
8
0
62
0
10
227.983
20
471.268
30
0.000
11
227.000
21
472.000
31
0.000
0
LINE
8
0
62
0
10
227.000
20
472.000
30
0.000
11
227.732
21
471.017
31
0.000
0
LINE
8
0
62
0
10
227.732
20
471.017
30
0.000
11
228.176
21
469.896
31
0.000
0
LINE
8
0
62
0
10
228.176
20
469.896
30
0.000
11
228.404
21
468.679
31
0.000
0
LINE
8
0
62
0
10
228.404
20
468.679
30
0.000
11
228.488
21
467.408
31
0.000
0
LINE
8
0
62
0
10
228.488
20
467.408
30
0.000
11
228.500
21
466.125
31
0.000
0
LINE
8
0
62
0
10
228.500
20
466.125
30
0.000
11
228.512
21
464.872
31
0.000
0
LINE
8
0
62
0
10
228.512
20
464.872
30
0.000
11
228.596
21
463.691
31
0.000
0
LINE
8
0
62
0
10
228.596
20
463.691
30
0.000
11
228.824
21
462.624
31
0.000
0
LINE
8
0
62
0
10
228.824
20
462.624
30
0.000
11
229.268
21
461.713
31
0.000
0
LINE
8
0
62
0
10
229.268
20
461.713
30
0.000
11
230.000
21
461.000
31
0.000
0
LINE
8
0
62
0
10
230.000
20
461.000
30
0.000
11
230.628
21
460.488
31
0.000
0
LINE
8
0
62
0
10
230.628
20
460.488
30
0.000
11
231.304
21
460.144
31
0.000
0
LINE
8
0
62
0
10
231.304
20
460.144
30
0.000
11
232.016
21
459.956
31
0.000
0
LINE
8
0
62
0
10
232.016
20
459.956
30
0.000
11
232.752
21
459.912
31
0.000
0
LINE
8
0
62
0
10
232.752
20
459.912
30
0.000
11
233.500
21
460.000
31
0.000
0
LINE
8
0
62
0
10
233.500
20
460.000
30
0.000
11
234.248
21
460.208
31
0.000
0
LINE
8
0
62
0
10
234.248
20
460.208
30
0.000
11
234.984
21
460.524
31
0.000
0
LINE
8
0
62
0
10
234.984
20
460.524
30
0.000
11
235.696
21
460.936
31
0.000
0
LINE
8
0
62
0
10
235.696
20
460.936
30
0.000
11
236.372
21
461.432
31
0.000
0
LINE
8
0
62
0
10
236.372
20
461.432
30
0.000
11
237.000
21
462.000
31
0.000
0
LINE
8
0
62
0
10
262.000
20
412.000
30
0.000
11
262.568
21
411.372
31
0.000
0
LINE
8
0
62
0
10
262.568
20
411.372
30
0.000
11
263.064
21
410.696
31
0.000
0
LINE
8
0
62
0
10
263.064
20
410.696
30
0.000
11
263.476
21
409.984
31
0.000
0
LINE
8
0
62
0
10
263.476
20
409.984
30
0.000
11
263.792
21
409.248
31
0.000
0
LINE
8
0
62
0
10
263.792
20
409.248
30
0.000
11
264.000
21
408.500
31
0.000
0
LINE
8
0
62
0
10
264.000
20
408.500
30
0.000
11
264.088
21
407.752
31
0.000
0
LINE
8
0
62
0
10
264.088
20
407.752
30
0.000
11
264.044
21
407.016
31
0.000
0
LINE
8
0
62
0
10
264.044
20
407.016
30
0.000
11
263.856
21
406.304
31
0.000
0
LINE
8
0
62
0
10
263.856
20
406.304
30
0.000
11
263.512
21
405.628
31
0.000
0
LINE
8
0
62
0
10
263.512
20
405.628
30
0.000
11
263.000
21
405.000
31
0.000
0
LINE
8
0
62
0
10
263.000
20
405.000
30
0.000
11
262.287
21
404.268
31
0.000
0
LINE
8
0
62
0
10
262.287
20
404.268
30
0.000
11
261.376
21
403.824
31
0.000
0
LINE
8
0
62
0
10
261.376
20
403.824
30
0.000
11
260.309
21
403.596
31
0.000
0
LINE
8
0
62
0
10
260.309
20
403.596
30
0.000
11
259.128
21
403.512
31
0.000
0
LINE
8
0
62
0
10
259.128
20
403.512
30
0.000
11
257.875
21
403.500
31
0.000
0
LINE
8
0
62
0
10
257.875
20
403.500
30
0.000
11
256.592
21
403.488
31
0.000
0
LINE
8
0
62
0
10
256.592
20
403.488
30
0.000
11
255.321
21
403.404
31
0.000
0
LINE
8
0
62
0
10
255.321
20
403.404
30
0.000
11
254.104
21
403.176
31
0.000
0
LINE
8
0
62
0
10
254.104
20
403.176
30
0.000
11
252.983
21
402.732
31
0.000
0
LINE
8
0
62
0
10
252.983
20
402.732
30
0.000
11
252.000
21
402.000
31
0.000
0
LINE
8
0
62
0
10
252.000
20
402.000
30
0.000
11
252.732
21
402.983
31
0.000
0
LINE
8
0
62
0
10
252.732
20
402.983
30
0.000
11
253.176
21
404.104
31
0.000
0
LINE
8
0
62
0
10
253.176
20
404.104
30
0.000
11
253.404
21
405.321
31
0.000
0
LINE
8
0
62
0
10
253.404
20
405.321
30
0.000
11
253.488
21
406.592
31
0.000
0
LINE
8
0
62
0
10
253.488
20
406.592
30
0.000
11
253.500
21
407.875
31
0.000
0
LINE
8
0
62
0
10
253.500
20
407.875
30
0.000
11
253.512
21
409.128
31
0.000
0
LINE
8
0
62
0
10
253.512
20
409.128
30
0.000
11
253.596
21
410.309
31
0.000
0
LINE
8
0
62
0
10
253.596
20
410.309
30
0.000
11
253.824
21
411.376
31
0.000
0
LINE
8
0
62
0
10
253.824
20
411.376
30
0.000
11
254.268
21
412.287
31
0.000
0
LINE
8
0
62
0
10
254.268
20
412.287
30
0.000
11
255.000
21
413.000
31
0.000
0
LINE
8
0
62
0
10
255.000
20
413.000
30
0.000
11
255.628
21
413.512
31
0.000
0
LINE
8
0
62
0
10
255.628
20
413.512
30
0.000
11
256.304
21
413.856
31
0.000
0
LINE
8
0
62
0
10
256.304
20
413.856
30
0.000
11
257.016
21
414.044
31
0.000
0
LINE
8
0
62
0
10
257.016
20
414.044
30
0.000
11
257.752
21
414.088
31
0.000
0
LINE
8
0
62
0
10
257.752
20
414.088
30
0.000
11
258.500
21
414.000
31
0.000
0
LINE
8
0
62
0
10
258.500
20
414.000
30
0.000
11
259.248
21
413.792
31
0.000
0
LINE
8
0
62
0
10
259.248
20
413.792
30
0.000
11
259.984
21
413.476
31
0.000
0
LINE
8
0
62
0
10
259.984
20
413.476
30
0.000
11
260.696
21
413.064
31
0.000
0
LINE
8
0
62
0
10
260.696
20
413.064
30
0.000
11
261.372
21
412.568
31
0.000
0
LINE
8
0
62
0
10
261.372
20
412.568
30
0.000
11
262.000
21
412.000
31
0.000
0
LINE
8
0
62
0
10
237.000
20
412.000
30
0.000
11
236.432
21
411.372
31
0.000
0
LINE
8
0
62
0
10
236.432
20
411.372
30
0.000
11
235.936
21
410.696
31
0.000
0
LINE
8
0
62
0
10
235.936
20
410.696
30
0.000
11
235.524
21
409.984
31
0.000
0
LINE
8
0
62
0
10
235.524
20
409.984
30
0.000
11
235.208
21
409.248
31
0.000
0
LINE
8
0
62
0
10
235.208
20
409.248
30
0.000
11
235.000
21
408.500
31
0.000
0
LINE
8
0
62
0
10
235.000
20
408.500
30
0.000
11
234.912
21
407.752
31
0.000
0
LINE
8
0
62
0
10
234.912
20
407.752
30
0.000
11
234.956
21
407.016
31
0.000
0
LINE
8
0
62
0
10
234.956
20
407.016
30
0.000
11
235.144
21
406.304
31
0.000
0
LINE
8
0
62
0
10
235.144
20
406.304
30
0.000
11
235.488
21
405.628
31
0.000
0
LINE
8
0
62
0
10
235.488
20
405.628
30
0.000
11
236.000
21
405.000
31
0.000
0
LINE
8
0
62
0
10
236.000
20
405.000
30
0.000
11
236.713
21
404.268
31
0.000
0
LINE
8
0
62
0
10
236.713
20
404.268
30
0.000
11
237.624
21
403.824
31
0.000
0
LINE
8
0
62
0
10
237.624
20
403.824
30
0.000
11
238.691
21
403.596
31
0.000
0
LINE
8
0
62
0
10
238.691
20
403.596
30
0.000
11
239.872
21
403.512
31
0.000
0
LINE
8
0
62
0
10
239.872
20
403.512
30
0.000
11
241.125
21
403.500
31
0.000
0
LINE
8
0
62
0
10
241.125
20
403.500
30
0.000
11
242.408
21
403.488
31
0.000
0
LINE
8
0
62
0
10
242.408
20
403.488
30
0.000
11
243.679
21
403.404
31
0.000
0
LINE
8
0
62
0
10
243.679
20
403.404
30
0.000
11
244.896
21
403.176
31
0.000
0
LINE
8
0
62
0
10
244.896
20
403.176
30
0.000
11
246.017
21
402.732
31
0.000
0
LINE
8
0
62
0
10
246.017
20
402.732
30
0.000
11
247.000
21
402.000
31
0.000
0
LINE
8
0
62
0
10
247.000
20
402.000
30
0.000
11
246.268
21
402.983
31
0.000
0
LINE
8
0
62
0
10
246.268
20
402.983
30
0.000
11
245.824
21
404.104
31
0.000
0
LINE
8
0
62
0
10
245.824
20
404.104
30
0.000
11
245.596
21
405.321
31
0.000
0
LINE
8
0
62
0
10
245.596
20
405.321
30
0.000
11
245.512
21
406.592
31
0.000
0
LINE
8
0
62
0
10
245.512
20
406.592
30
0.000
11
245.500
21
407.875
31
0.000
0
LINE
8
0
62
0
10
245.500
20
407.875
30
0.000
11
245.488
21
409.128
31
0.000
0
LINE
8
0
62
0
10
245.488
20
409.128
30
0.000
11
245.404
21
410.309
31
0.000
0
LINE
8
0
62
0
10
245.404
20
410.309
30
0.000
11
245.176
21
411.376
31
0.000
0
LINE
8
0
62
0
10
245.176
20
411.376
30
0.000
11
244.732
21
412.287
31
0.000
0
LINE
8
0
62
0
10
244.732
20
412.287
30
0.000
11
244.000
21
413.000
31
0.000
0
LINE
8
0
62
0
10
244.000
20
413.000
30
0.000
11
243.372
21
413.512
31
0.000
0
LINE
8
0
62
0
10
243.372
20
413.512
30
0.000
11
242.696
21
413.856
31
0.000
0
LINE
8
0
62
0
10
242.696
20
413.856
30
0.000
11
241.984
21
414.044
31
0.000
0
LINE
8
0
62
0
10
241.984
20
414.044
30
0.000
11
241.248
21
414.088
31
0.000
0
LINE
8
0
62
0
10
241.248
20
414.088
30
0.000
11
240.500
21
414.000
31
0.000
0
LINE
8
0
62
0
10
240.500
20
414.000
30
0.000
11
239.752
21
413.792
31
0.000
0
LINE
8
0
62
0
10
239.752
20
413.792
30
0.000
11
239.016
21
413.476
31
0.000
0
LINE
8
0
62
0
10
239.016
20
413.476
30
0.000
11
238.304
21
413.064
31
0.000
0
LINE
8
0
62
0
10
238.304
20
413.064
30
0.000
11
237.628
21
412.568
31
0.000
0
LINE
8
0
62
0
10
237.628
20
412.568
30
0.000
11
237.000
21
412.000
31
0.000
0
LINE
8
0
62
0
10
212.000
20
437.000
30
0.000
11
212.568
21
437.628
31
0.000
0
LINE
8
0
62
0
10
212.568
20
437.628
30
0.000
11
213.064
21
438.304
31
0.000
0
LINE
8
0
62
0
10
213.064
20
438.304
30
0.000
11
213.476
21
439.016
31
0.000
0
LINE
8
0
62
0
10
213.476
20
439.016
30
0.000
11
213.792
21
439.752
31
0.000
0
LINE
8
0
62
0
10
213.792
20
439.752
30
0.000
11
214.000
21
440.500
31
0.000
0
LINE
8
0
62
0
10
214.000
20
440.500
30
0.000
11
214.088
21
441.248
31
0.000
0
LINE
8
0
62
0
10
214.088
20
441.248
30
0.000
11
214.044
21
441.984
31
0.000
0
LINE
8
0
62
0
10
214.044
20
441.984
30
0.000
11
213.856
21
442.696
31
0.000
0
LINE
8
0
62
0
10
213.856
20
442.696
30
0.000
11
213.512
21
443.372
31
0.000
0
LINE
8
0
62
0
10
213.512
20
443.372
30
0.000
11
213.000
21
444.000
31
0.000
0
LINE
8
0
62
0
10
213.000
20
444.000
30
0.000
11
212.287
21
444.732
31
0.000
0
LINE
8
0
62
0
10
212.287
20
444.732
30
0.000
11
211.376
21
445.176
31
0.000
0
LINE
8
0
62
0
10
211.376
20
445.176
30
0.000
11
210.309
21
445.404
31
0.000
0
LINE
8
0
62
0
10
210.309
20
445.404
30
0.000
11
209.128
21
445.488
31
0.000
0
LINE
8
0
62
0
10
209.128
20
445.488
30
0.000
11
207.875
21
445.500
31
0.000
0
LINE
8
0
62
0
10
207.875
20
445.500
30
0.000
11
206.592
21
445.512
31
0.000
0
LINE
8
0
62
0
10
206.592
20
445.512
30
0.000
11
205.321
21
445.596
31
0.000
0
LINE
8
0
62
0
10
205.321
20
445.596
30
0.000
11
204.104
21
445.824
31
0.000
0
LINE
8
0
62
0
10
204.104
20
445.824
30
0.000
11
202.983
21
446.268
31
0.000
0
LINE
8
0
62
0
10
202.983
20
446.268
30
0.000
11
202.000
21
447.000
31
0.000
0
LINE
8
0
62
0
10
202.000
20
447.000
30
0.000
11
202.732
21
446.017
31
0.000
0
LINE
8
0
62
0
10
202.732
20
446.017
30
0.000
11
203.176
21
444.896
31
0.000
0
LINE
8
0
62
0
10
203.176
20
444.896
30
0.000
11
203.404
21
443.679
31
0.000
0
LINE
8
0
62
0
10
203.404
20
443.679
30
0.000
11
203.488
21
442.408
31
0.000
0
LINE
8
0
62
0
10
203.488
20
442.408
30
0.000
11
203.500
21
441.125
31
0.000
0
LINE
8
0
62
0
10
203.500
20
441.125
30
0.000
11
203.512
21
439.872
31
0.000
0
LINE
8
0
62
0
10
203.512
20
439.872
30
0.000
11
203.596
21
438.691
31
0.000
0
LINE
8
0
62
0
10
203.596
20
438.691
30
0.000
11
203.824
21
437.624
31
0.000
0
LINE
8
0
62
0
10
203.824
20
437.624
30
0.000
11
204.268
21
436.713
31
0.000
0
LINE
8
0
62
0
10
204.268
20
436.713
30
0.000
11
205.000
21
436.000
31
0.000
0
LINE
8
0
62
0
10
205.000
20
436.000
30
0.000
11
205.628
21
435.488
31
0.000
0
LINE
8
0
62
0
10
205.628
20
435.488
30
0.000
11
206.304
21
435.144
31
0.000
0
LINE
8
0
62
0
10
206.304
20
435.144
30
0.000
11
207.016
21
434.956
31
0.000
0
LINE
8
0
62
0
10
207.016
20
434.956
30
0.000
11
207.752
21
434.912
31
0.000
0
LINE
8
0
62
0
10
207.752
20
434.912
30
0.000
11
208.500
21
435.000
31
0.000
0
LINE
8
0
62
0
10
208.500
20
435.000
30
0.000
11
209.248
21
435.208
31
0.000
0
LINE
8
0
62
0
10
209.248
20
435.208
30
0.000
11
209.984
21
435.524
31
0.000
0
LINE
8
0
62
0
10
209.984
20
435.524
30
0.000
11
210.696
21
435.936
31
0.000
0
LINE
8
0
62
0
10
210.696
20
435.936
30
0.000
11
211.372
21
436.432
31
0.000
0
LINE
8
0
62
0
10
211.372
20
436.432
30
0.000
11
212.000
21
437.000
31
0.000
0
LINE
8
0
62
0
10
187.000
20
412.000
30
0.000
11
187.568
21
412.628
31
0.000
0
LINE
8
0
62
0
10
187.568
20
412.628
30
0.000
11
188.064
21
413.304
31
0.000
0
LINE
8
0
62
0
10
188.064
20
413.304
30
0.000
11
188.476
21
414.016
31
0.000
0
LINE
8
0
62
0
10
188.476
20
414.016
30
0.000
11
188.792
21
414.752
31
0.000
0
LINE
8
0
62
0
10
188.792
20
414.752
30
0.000
11
189.000
21
415.500
31
0.000
0
LINE
8
0
62
0
10
189.000
20
415.500
30
0.000
11
189.088
21
416.248
31
0.000
0
LINE
8
0
62
0
10
189.088
20
416.248
30
0.000
11
189.044
21
416.984
31
0.000
0
LINE
8
0
62
0
10
189.044
20
416.984
30
0.000
11
188.856
21
417.696
31
0.000
0
LINE
8
0
62
0
10
188.856
20
417.696
30
0.000
11
188.512
21
418.372
31
0.000
0
LINE
8
0
62
0
10
188.512
20
418.372
30
0.000
11
188.000
21
419.000
31
0.000
0
LINE
8
0
62
0
10
188.000
20
419.000
30
0.000
11
187.287
21
419.732
31
0.000
0
LINE
8
0
62
0
10
187.287
20
419.732
30
0.000
11
186.376
21
420.176
31
0.000
0
LINE
8
0
62
0
10
186.376
20
420.176
30
0.000
11
185.309
21
420.404
31
0.000
0
LINE
8
0
62
0
10
185.309
20
420.404
30
0.000
11
184.128
21
420.488
31
0.000
0
LINE
8
0
62
0
10
184.128
20
420.488
30
0.000
11
182.875
21
420.500
31
0.000
0
LINE
8
0
62
0
10
182.875
20
420.500
30
0.000
11
181.592
21
420.512
31
0.000
0
LINE
8
0
62
0
10
181.592
20
420.512
30
0.000
11
180.321
21
420.596
31
0.000
0
LINE
8
0
62
0
10
180.321
20
420.596
30
0.000
11
179.104
21
420.824
31
0.000
0
LINE
8
0
62
0
10
179.104
20
420.824
30
0.000
11
177.983
21
421.268
31
0.000
0
LINE
8
0
62
0
10
177.983
20
421.268
30
0.000
11
177.000
21
422.000
31
0.000
0
LINE
8
0
62
0
10
177.000
20
422.000
30
0.000
11
177.732
21
421.017
31
0.000
0
LINE
8
0
62
0
10
177.732
20
421.017
30
0.000
11
178.176
21
419.896
31
0.000
0
LINE
8
0
62
0
10
178.176
20
419.896
30
0.000
11
178.404
21
418.679
31
0.000
0
LINE
8
0
62
0
10
178.404
20
418.679
30
0.000
11
178.488
21
417.408
31
0.000
0
LINE
8
0
62
0
10
178.488
20
417.408
30
0.000
11
178.500
21
416.125
31
0.000
0
LINE
8
0
62
0
10
178.500
20
416.125
30
0.000
11
178.512
21
414.872
31
0.000
0
LINE
8
0
62
0
10
178.512
20
414.872
30
0.000
11
178.596
21
413.691
31
0.000
0
LINE
8
0
62
0
10
178.596
20
413.691
30
0.000
11
178.824
21
412.624
31
0.000
0
LINE
8
0
62
0
10
178.824
20
412.624
30
0.000
11
179.268
21
411.713
31
0.000
0
LINE
8
0
62
0
10
179.268
20
411.713
30
0.000
11
180.000
21
411.000
31
0.000
0
LINE
8
0
62
0
10
180.000
20
411.000
30
0.000
11
180.628
21
410.488
31
0.000
0
LINE
8
0
62
0
10
180.628
20
410.488
30
0.000
11
181.304
21
410.144
31
0.000
0
LINE
8
0
62
0
10
181.304
20
410.144
30
0.000
11
182.016
21
409.956
31
0.000
0
LINE
8
0
62
0
10
182.016
20
409.956
30
0.000
11
182.752
21
409.912
31
0.000
0
LINE
8
0
62
0
10
182.752
20
409.912
30
0.000
11
183.500
21
410.000
31
0.000
0
LINE
8
0
62
0
10
183.500
20
410.000
30
0.000
11
184.248
21
410.208
31
0.000
0
LINE
8
0
62
0
10
184.248
20
410.208
30
0.000
11
184.984
21
410.524
31
0.000
0
LINE
8
0
62
0
10
184.984
20
410.524
30
0.000
11
185.696
21
410.936
31
0.000
0
LINE
8
0
62
0
10
185.696
20
410.936
30
0.000
11
186.372
21
411.432
31
0.000
0
LINE
8
0
62
0
10
186.372
20
411.432
30
0.000
11
187.000
21
412.000
31
0.000
0
LINE
8
0
62
0
10
187.000
20
387.000
30
0.000
11
187.568
21
386.372
31
0.000
0
LINE
8
0
62
0
10
187.568
20
386.372
30
0.000
11
188.064
21
385.696
31
0.000
0
LINE
8
0
62
0
10
188.064
20
385.696
30
0.000
11
188.476
21
384.984
31
0.000
0
LINE
8
0
62
0
10
188.476
20
384.984
30
0.000
11
188.792
21
384.248
31
0.000
0
LINE
8
0
62
0
10
188.792
20
384.248
30
0.000
11
189.000
21
383.500
31
0.000
0
LINE
8
0
62
0
10
189.000
20
383.500
30
0.000
11
189.088
21
382.752
31
0.000
0
LINE
8
0
62
0
10
189.088
20
382.752
30
0.000
11
189.044
21
382.016
31
0.000
0
LINE
8
0
62
0
10
189.044
20
382.016
30
0.000
11
188.856
21
381.304
31
0.000
0
LINE
8
0
62
0
10
188.856
20
381.304
30
0.000
11
188.512
21
380.628
31
0.000
0
LINE
8
0
62
0
10
188.512
20
380.628
30
0.000
11
188.000
21
380.000
31
0.000
0
LINE
8
0
62
0
10
188.000
20
380.000
30
0.000
11
187.287
21
379.268
31
0.000
0
LINE
8
0
62
0
10
187.287
20
379.268
30
0.000
11
186.376
21
378.824
31
0.000
0
LINE
8
0
62
0
10
186.376
20
378.824
30
0.000
11
185.309
21
378.596
31
0.000
0
LINE
8
0
62
0
10
185.309
20
378.596
30
0.000
11
184.128
21
378.512
31
0.000
0
LINE
8
0
62
0
10
184.128
20
378.512
30
0.000
11
182.875
21
378.500
31
0.000
0
LINE
8
0
62
0
10
182.875
20
378.500
30
0.000
11
181.592
21
378.488
31
0.000
0
LINE
8
0
62
0
10
181.592
20
378.488
30
0.000
11
180.321
21
378.404
31
0.000
0
LINE
8
0
62
0
10
180.321
20
378.404
30
0.000
11
179.104
21
378.176
31
0.000
0
LINE
8
0
62
0
10
179.104
20
378.176
30
0.000
11
177.983
21
377.732
31
0.000
0
LINE
8
0
62
0
10
177.983
20
377.732
30
0.000
11
177.000
21
377.000
31
0.000
0
LINE
8
0
62
0
10
177.000
20
377.000
30
0.000
11
177.732
21
377.983
31
0.000
0
LINE
8
0
62
0
10
177.732
20
377.983
30
0.000
11
178.176
21
379.104
31
0.000
0
LINE
8
0
62
0
10
178.176
20
379.104
30
0.000
11
178.404
21
380.321
31
0.000
0
LINE
8
0
62
0
10
178.404
20
380.321
30
0.000
11
178.488
21
381.592
31
0.000
0
LINE
8
0
62
0
10
178.488
20
381.592
30
0.000
11
178.500
21
382.875
31
0.000
0
LINE
8
0
62
0
10
178.500
20
382.875
30
0.000
11
178.512
21
384.128
31
0.000
0
LINE
8
0
62
0
10
178.512
20
384.128
30
0.000
11
178.596
21
385.309
31
0.000
0
LINE
8
0
62
0
10
178.596
20
385.309
30
0.000
11
178.824
21
386.376
31
0.000
0
LINE
8
0
62
0
10
178.824
20
386.376
30
0.000
11
179.268
21
387.287
31
0.000
0
LINE
8
0
62
0
10
179.268
20
387.287
30
0.000
11
180.000
21
388.000
31
0.000
0
LINE
8
0
62
0
10
180.000
20
388.000
30
0.000
11
180.628
21
388.512
31
0.000
0
LINE
8
0
62
0
10
180.628
20
388.512
30
0.000
11
181.304
21
388.856
31
0.000
0
LINE
8
0
62
0
10
181.304
20
388.856
30
0.000
11
182.016
21
389.044
31
0.000
0
LINE
8
0
62
0
10
182.016
20
389.044
30
0.000
11
182.752
21
389.088
31
0.000
0
LINE
8
0
62
0
10
182.752
20
389.088
30
0.000
11
183.500
21
389.000
31
0.000
0
LINE
8
0
62
0
10
183.500
20
389.000
30
0.000
11
184.248
21
388.792
31
0.000
0
LINE
8
0
62
0
10
184.248
20
388.792
30
0.000
11
184.984
21
388.476
31
0.000
0
LINE
8
0
62
0
10
184.984
20
388.476
30
0.000
11
185.696
21
388.064
31
0.000
0
LINE
8
0
62
0
10
185.696
20
388.064
30
0.000
11
186.372
21
387.568
31
0.000
0
LINE
8
0
62
0
10
186.372
20
387.568
30
0.000
11
187.000
21
387.000
31
0.000
0
LINE
8
0
62
0
10
262.000
20
362.000
30
0.000
11
262.568
21
362.628
31
0.000
0
LINE
8
0
62
0
10
262.568
20
362.628
30
0.000
11
263.064
21
363.304
31
0.000
0
LINE
8
0
62
0
10
263.064
20
363.304
30
0.000
11
263.476
21
364.016
31
0.000
0
LINE
8
0
62
0
10
263.476
20
364.016
30
0.000
11
263.792
21
364.752
31
0.000
0
LINE
8
0
62
0
10
263.792
20
364.752
30
0.000
11
264.000
21
365.500
31
0.000
0
LINE
8
0
62
0
10
264.000
20
365.500
30
0.000
11
264.088
21
366.248
31
0.000
0
LINE
8
0
62
0
10
264.088
20
366.248
30
0.000
11
264.044
21
366.984
31
0.000
0
LINE
8
0
62
0
10
264.044
20
366.984
30
0.000
11
263.856
21
367.696
31
0.000
0
LINE
8
0
62
0
10
263.856
20
367.696
30
0.000
11
263.512
21
368.372
31
0.000
0
LINE
8
0
62
0
10
263.512
20
368.372
30
0.000
11
263.000
21
369.000
31
0.000
0
LINE
8
0
62
0
10
263.000
20
369.000
30
0.000
11
262.287
21
369.732
31
0.000
0
LINE
8
0
62
0
10
262.287
20
369.732
30
0.000
11
261.376
21
370.176
31
0.000
0
LINE
8
0
62
0
10
261.376
20
370.176
30
0.000
11
260.309
21
370.404
31
0.000
0
LINE
8
0
62
0
10
260.309
20
370.404
30
0.000
11
259.128
21
370.488
31
0.000
0
LINE
8
0
62
0
10
259.128
20
370.488
30
0.000
11
257.875
21
370.500
31
0.000
0
LINE
8
0
62
0
10
257.875
20
370.500
30
0.000
11
256.592
21
370.512
31
0.000
0
LINE
8
0
62
0
10
256.592
20
370.512
30
0.000
11
255.321
21
370.596
31
0.000
0
LINE
8
0
62
0
10
255.321
20
370.596
30
0.000
11
254.104
21
370.824
31
0.000
0
LINE
8
0
62
0
10
254.104
20
370.824
30
0.000
11
252.983
21
371.268
31
0.000
0
LINE
8
0
62
0
10
252.983
20
371.268
30
0.000
11
252.000
21
372.000
31
0.000
0
LINE
8
0
62
0
10
252.000
20
372.000
30
0.000
11
252.732
21
371.017
31
0.000
0
LINE
8
0
62
0
10
252.732
20
371.017
30
0.000
11
253.176
21
369.896
31
0.000
0
LINE
8
0
62
0
10
253.176
20
369.896
30
0.000
11
253.404
21
368.679
31
0.000
0
LINE
8
0
62
0
10
253.404
20
368.679
30
0.000
11
253.488
21
367.408
31
0.000
0
LINE
8
0
62
0
10
253.488
20
367.408
30
0.000
11
253.500
21
366.125
31
0.000
0
LINE
8
0
62
0
10
253.500
20
366.125
30
0.000
11
253.512
21
364.872
31
0.000
0
LINE
8
0
62
0
10
253.512
20
364.872
30
0.000
11
253.596
21
363.691
31
0.000
0
LINE
8
0
62
0
10
253.596
20
363.691
30
0.000
11
253.824
21
362.624
31
0.000
0
LINE
8
0
62
0
10
253.824
20
362.624
30
0.000
11
254.268
21
361.713
31
0.000
0
LINE
8
0
62
0
10
254.268
20
361.713
30
0.000
11
255.000
21
361.000
31
0.000
0
LINE
8
0
62
0
10
255.000
20
361.000
30
0.000
11
255.628
21
360.488
31
0.000
0
LINE
8
0
62
0
10
255.628
20
360.488
30
0.000
11
256.304
21
360.144
31
0.000
0
LINE
8
0
62
0
10
256.304
20
360.144
30
0.000
11
257.016
21
359.956
31
0.000
0
LINE
8
0
62
0
10
257.016
20
359.956
30
0.000
11
257.752
21
359.912
31
0.000
0
LINE
8
0
62
0
10
257.752
20
359.912
30
0.000
11
258.500
21
360.000
31
0.000
0
LINE
8
0
62
0
10
258.500
20
360.000
30
0.000
11
259.248
21
360.208
31
0.000
0
LINE
8
0
62
0
10
259.248
20
360.208
30
0.000
11
259.984
21
360.524
31
0.000
0
LINE
8
0
62
0
10
259.984
20
360.524
30
0.000
11
260.696
21
360.936
31
0.000
0
LINE
8
0
62
0
10
260.696
20
360.936
30
0.000
11
261.372
21
361.432
31
0.000
0
LINE
8
0
62
0
10
261.372
20
361.432
30
0.000
11
262.000
21
362.000
31
0.000
0
LINE
8
0
62
0
10
262.000
20
387.000
30
0.000
11
262.568
21
387.628
31
0.000
0
LINE
8
0
62
0
10
262.568
20
387.628
30
0.000
11
263.064
21
388.304
31
0.000
0
LINE
8
0
62
0
10
263.064
20
388.304
30
0.000
11
263.476
21
389.016
31
0.000
0
LINE
8
0
62
0
10
263.476
20
389.016
30
0.000
11
263.792
21
389.752
31
0.000
0
LINE
8
0
62
0
10
263.792
20
389.752
30
0.000
11
264.000
21
390.500
31
0.000
0
LINE
8
0
62
0
10
264.000
20
390.500
30
0.000
11
264.088
21
391.248
31
0.000
0
LINE
8
0
62
0
10
264.088
20
391.248
30
0.000
11
264.044
21
391.984
31
0.000
0
LINE
8
0
62
0
10
264.044
20
391.984
30
0.000
11
263.856
21
392.696
31
0.000
0
LINE
8
0
62
0
10
263.856
20
392.696
30
0.000
11
263.512
21
393.372
31
0.000
0
LINE
8
0
62
0
10
263.512
20
393.372
30
0.000
11
263.000
21
394.000
31
0.000
0
LINE
8
0
62
0
10
263.000
20
394.000
30
0.000
11
262.287
21
394.732
31
0.000
0
LINE
8
0
62
0
10
262.287
20
394.732
30
0.000
11
261.376
21
395.176
31
0.000
0
LINE
8
0
62
0
10
261.376
20
395.176
30
0.000
11
260.309
21
395.404
31
0.000
0
LINE
8
0
62
0
10
260.309
20
395.404
30
0.000
11
259.128
21
395.488
31
0.000
0
LINE
8
0
62
0
10
259.128
20
395.488
30
0.000
11
257.875
21
395.500
31
0.000
0
LINE
8
0
62
0
10
257.875
20
395.500
30
0.000
11
256.592
21
395.512
31
0.000
0
LINE
8
0
62
0
10
256.592
20
395.512
30
0.000
11
255.321
21
395.596
31
0.000
0
LINE
8
0
62
0
10
255.321
20
395.596
30
0.000
11
254.104
21
395.824
31
0.000
0
LINE
8
0
62
0
10
254.104
20
395.824
30
0.000
11
252.983
21
396.268
31
0.000
0
LINE
8
0
62
0
10
252.983
20
396.268
30
0.000
11
252.000
21
397.000
31
0.000
0
LINE
8
0
62
0
10
252.000
20
397.000
30
0.000
11
252.732
21
396.017
31
0.000
0
LINE
8
0
62
0
10
252.732
20
396.017
30
0.000
11
253.176
21
394.896
31
0.000
0
LINE
8
0
62
0
10
253.176
20
394.896
30
0.000
11
253.404
21
393.679
31
0.000
0
LINE
8
0
62
0
10
253.404
20
393.679
30
0.000
11
253.488
21
392.408
31
0.000
0
LINE
8
0
62
0
10
253.488
20
392.408
30
0.000
11
253.500
21
391.125
31
0.000
0
LINE
8
0
62
0
10
253.500
20
391.125
30
0.000
11
253.512
21
389.872
31
0.000
0
LINE
8
0
62
0
10
253.512
20
389.872
30
0.000
11
253.596
21
388.691
31
0.000
0
LINE
8
0
62
0
10
253.596
20
388.691
30
0.000
11
253.824
21
387.624
31
0.000
0
LINE
8
0
62
0
10
253.824
20
387.624
30
0.000
11
254.268
21
386.713
31
0.000
0
LINE
8
0
62
0
10
254.268
20
386.713
30
0.000
11
255.000
21
386.000
31
0.000
0
LINE
8
0
62
0
10
255.000
20
386.000
30
0.000
11
255.628
21
385.488
31
0.000
0
LINE
8
0
62
0
10
255.628
20
385.488
30
0.000
11
256.304
21
385.144
31
0.000
0
LINE
8
0
62
0
10
256.304
20
385.144
30
0.000
11
257.016
21
384.956
31
0.000
0
LINE
8
0
62
0
10
257.016
20
384.956
30
0.000
11
257.752
21
384.912
31
0.000
0
LINE
8
0
62
0
10
257.752
20
384.912
30
0.000
11
258.500
21
385.000
31
0.000
0
LINE
8
0
62
0
10
258.500
20
385.000
30
0.000
11
259.248
21
385.208
31
0.000
0
LINE
8
0
62
0
10
259.248
20
385.208
30
0.000
11
259.984
21
385.524
31
0.000
0
LINE
8
0
62
0
10
259.984
20
385.524
30
0.000
11
260.696
21
385.936
31
0.000
0
LINE
8
0
62
0
10
260.696
20
385.936
30
0.000
11
261.372
21
386.432
31
0.000
0
LINE
8
0
62
0
10
261.372
20
386.432
30
0.000
11
262.000
21
387.000
31
0.000
0
LINE
8
0
62
0
10
387.000
20
537.000
30
0.000
11
387.568
21
537.628
31
0.000
0
LINE
8
0
62
0
10
387.568
20
537.628
30
0.000
11
388.064
21
538.304
31
0.000
0
LINE
8
0
62
0
10
388.064
20
538.304
30
0.000
11
388.476
21
539.016
31
0.000
0
LINE
8
0
62
0
10
388.476
20
539.016
30
0.000
11
388.792
21
539.752
31
0.000
0
LINE
8
0
62
0
10
388.792
20
539.752
30
0.000
11
389.000
21
540.500
31
0.000
0
LINE
8
0
62
0
10
389.000
20
540.500
30
0.000
11
389.088
21
541.248
31
0.000
0
LINE
8
0
62
0
10
389.088
20
541.248
30
0.000
11
389.044
21
541.984
31
0.000
0
LINE
8
0
62
0
10
389.044
20
541.984
30
0.000
11
388.856
21
542.696
31
0.000
0
LINE
8
0
62
0
10
388.856
20
542.696
30
0.000
11
388.512
21
543.372
31
0.000
0
LINE
8
0
62
0
10
388.512
20
543.372
30
0.000
11
388.000
21
544.000
31
0.000
0
LINE
8
0
62
0
10
388.000
20
544.000
30
0.000
11
387.287
21
544.732
31
0.000
0
LINE
8
0
62
0
10
387.287
20
544.732
30
0.000
11
386.376
21
545.176
31
0.000
0
LINE
8
0
62
0
10
386.376
20
545.176
30
0.000
11
385.309
21
545.404
31
0.000
0
LINE
8
0
62
0
10
385.309
20
545.404
30
0.000
11
384.128
21
545.488
31
0.000
0
LINE
8
0
62
0
10
384.128
20
545.488
30
0.000
11
382.875
21
545.500
31
0.000
0
LINE
8
0
62
0
10
382.875
20
545.500
30
0.000
11
381.592
21
545.512
31
0.000
0
LINE
8
0
62
0
10
381.592
20
545.512
30
0.000
11
380.321
21
545.596
31
0.000
0
LINE
8
0
62
0
10
380.321
20
545.596
30
0.000
11
379.104
21
545.824
31
0.000
0
LINE
8
0
62
0
10
379.104
20
545.824
30
0.000
11
377.983
21
546.268
31
0.000
0
LINE
8
0
62
0
10
377.983
20
546.268
30
0.000
11
377.000
21
547.000
31
0.000
0
LINE
8
0
62
0
10
377.000
20
547.000
30
0.000
11
377.732
21
546.017
31
0.000
0
LINE
8
0
62
0
10
377.732
20
546.017
30
0.000
11
378.176
21
544.896
31
0.000
0
LINE
8
0
62
0
10
378.176
20
544.896
30
0.000
11
378.404
21
543.679
31
0.000
0
LINE
8
0
62
0
10
378.404
20
543.679
30
0.000
11
378.488
21
542.408
31
0.000
0
LINE
8
0
62
0
10
378.488
20
542.408
30
0.000
11
378.500
21
541.125
31
0.000
0
LINE
8
0
62
0
10
378.500
20
541.125
30
0.000
11
378.512
21
539.872
31
0.000
0
LINE
8
0
62
0
10
378.512
20
539.872
30
0.000
11
378.596
21
538.691
31
0.000
0
LINE
8
0
62
0
10
378.596
20
538.691
30
0.000
11
378.824
21
537.624
31
0.000
0
LINE
8
0
62
0
10
378.824
20
537.624
30
0.000
11
379.268
21
536.713
31
0.000
0
LINE
8
0
62
0
10
379.268
20
536.713
30
0.000
11
380.000
21
536.000
31
0.000
0
LINE
8
0
62
0
10
380.000
20
536.000
30
0.000
11
380.628
21
535.488
31
0.000
0
LINE
8
0
62
0
10
380.628
20
535.488
30
0.000
11
381.304
21
535.144
31
0.000
0
LINE
8
0
62
0
10
381.304
20
535.144
30
0.000
11
382.016
21
534.956
31
0.000
0
LINE
8
0
62
0
10
382.016
20
534.956
30
0.000
11
382.752
21
534.912
31
0.000
0
LINE
8
0
62
0
10
382.752
20
534.912
30
0.000
11
383.500
21
535.000
31
0.000
0
LINE
8
0
62
0
10
383.500
20
535.000
30
0.000
11
384.248
21
535.208
31
0.000
0
LINE
8
0
62
0
10
384.248
20
535.208
30
0.000
11
384.984
21
535.524
31
0.000
0
LINE
8
0
62
0
10
384.984
20
535.524
30
0.000
11
385.696
21
535.936
31
0.000
0
LINE
8
0
62
0
10
385.696
20
535.936
30
0.000
11
386.372
21
536.432
31
0.000
0
LINE
8
0
62
0
10
386.372
20
536.432
30
0.000
11
387.000
21
537.000
31
0.000
0
LINE
8
0
62
0
10
312.000
20
412.000
30
0.000
11
312.568
21
411.372
31
0.000
0
LINE
8
0
62
0
10
312.568
20
411.372
30
0.000
11
313.064
21
410.696
31
0.000
0
LINE
8
0
62
0
10
313.064
20
410.696
30
0.000
11
313.476
21
409.984
31
0.000
0
LINE
8
0
62
0
10
313.476
20
409.984
30
0.000
11
313.792
21
409.248
31
0.000
0
LINE
8
0
62
0
10
313.792
20
409.248
30
0.000
11
314.000
21
408.500
31
0.000
0
LINE
8
0
62
0
10
314.000
20
408.500
30
0.000
11
314.088
21
407.752
31
0.000
0
LINE
8
0
62
0
10
314.088
20
407.752
30
0.000
11
314.044
21
407.016
31
0.000
0
LINE
8
0
62
0
10
314.044
20
407.016
30
0.000
11
313.856
21
406.304
31
0.000
0
LINE
8
0
62
0
10
313.856
20
406.304
30
0.000
11
313.512
21
405.628
31
0.000
0
LINE
8
0
62
0
10
313.512
20
405.628
30
0.000
11
313.000
21
405.000
31
0.000
0
LINE
8
0
62
0
10
313.000
20
405.000
30
0.000
11
312.287
21
404.268
31
0.000
0
LINE
8
0
62
0
10
312.287
20
404.268
30
0.000
11
311.376
21
403.824
31
0.000
0
LINE
8
0
62
0
10
311.376
20
403.824
30
0.000
11
310.309
21
403.596
31
0.000
0
LINE
8
0
62
0
10
310.309
20
403.596
30
0.000
11
309.128
21
403.512
31
0.000
0
LINE
8
0
62
0
10
309.128
20
403.512
30
0.000
11
307.875
21
403.500
31
0.000
0
LINE
8
0
62
0
10
307.875
20
403.500
30
0.000
11
306.592
21
403.488
31
0.000
0
LINE
8
0
62
0
10
306.592
20
403.488
30
0.000
11
305.321
21
403.404
31
0.000
0
LINE
8
0
62
0
10
305.321
20
403.404
30
0.000
11
304.104
21
403.176
31
0.000
0
LINE
8
0
62
0
10
304.104
20
403.176
30
0.000
11
302.983
21
402.732
31
0.000
0
LINE
8
0
62
0
10
302.983
20
402.732
30
0.000
11
302.000
21
402.000
31
0.000
0
LINE
8
0
62
0
10
302.000
20
402.000
30
0.000
11
302.732
21
402.983
31
0.000
0
LINE
8
0
62
0
10
302.732
20
402.983
30
0.000
11
303.176
21
404.104
31
0.000
0
LINE
8
0
62
0
10
303.176
20
404.104
30
0.000
11
303.404
21
405.321
31
0.000
0
LINE
8
0
62
0
10
303.404
20
405.321
30
0.000
11
303.488
21
406.592
31
0.000
0
LINE
8
0
62
0
10
303.488
20
406.592
30
0.000
11
303.500
21
407.875
31
0.000
0
LINE
8
0
62
0
10
303.500
20
407.875
30
0.000
11
303.512
21
409.128
31
0.000
0
LINE
8
0
62
0
10
303.512
20
409.128
30
0.000
11
303.596
21
410.309
31
0.000
0
LINE
8
0
62
0
10
303.596
20
410.309
30
0.000
11
303.824
21
411.376
31
0.000
0
LINE
8
0
62
0
10
303.824
20
411.376
30
0.000
11
304.268
21
412.287
31
0.000
0
LINE
8
0
62
0
10
304.268
20
412.287
30
0.000
11
305.000
21
413.000
31
0.000
0
LINE
8
0
62
0
10
305.000
20
413.000
30
0.000
11
305.628
21
413.512
31
0.000
0
LINE
8
0
62
0
10
305.628
20
413.512
30
0.000
11
306.304
21
413.856
31
0.000
0
LINE
8
0
62
0
10
306.304
20
413.856
30
0.000
11
307.016
21
414.044
31
0.000
0
LINE
8
0
62
0
10
307.016
20
414.044
30
0.000
11
307.752
21
414.088
31
0.000
0
LINE
8
0
62
0
10
307.752
20
414.088
30
0.000
11
308.500
21
414.000
31
0.000
0
LINE
8
0
62
0
10
308.500
20
414.000
30
0.000
11
309.248
21
413.792
31
0.000
0
LINE
8
0
62
0
10
309.248
20
413.792
30
0.000
11
309.984
21
413.476
31
0.000
0
LINE
8
0
62
0
10
309.984
20
413.476
30
0.000
11
310.696
21
413.064
31
0.000
0
LINE
8
0
62
0
10
310.696
20
413.064
30
0.000
11
311.372
21
412.568
31
0.000
0
LINE
8
0
62
0
10
311.372
20
412.568
30
0.000
11
312.000
21
412.000
31
0.000
0
LINE
8
0
62
0
10
237.000
20
387.000
30
0.000
11
236.432
21
387.628
31
0.000
0
LINE
8
0
62
0
10
236.432
20
387.628
30
0.000
11
235.936
21
388.304
31
0.000
0
LINE
8
0
62
0
10
235.936
20
388.304
30
0.000
11
235.524
21
389.016
31
0.000
0
LINE
8
0
62
0
10
235.524
20
389.016
30
0.000
11
235.208
21
389.752
31
0.000
0
LINE
8
0
62
0
10
235.208
20
389.752
30
0.000
11
235.000
21
390.500
31
0.000
0
LINE
8
0
62
0
10
235.000
20
390.500
30
0.000
11
234.912
21
391.248
31
0.000
0
LINE
8
0
62
0
10
234.912
20
391.248
30
0.000
11
234.956
21
391.984
31
0.000
0
LINE
8
0
62
0
10
234.956
20
391.984
30
0.000
11
235.144
21
392.696
31
0.000
0
LINE
8
0
62
0
10
235.144
20
392.696
30
0.000
11
235.488
21
393.372
31
0.000
0
LINE
8
0
62
0
10
235.488
20
393.372
30
0.000
11
236.000
21
394.000
31
0.000
0
LINE
8
0
62
0
10
236.000
20
394.000
30
0.000
11
236.713
21
394.732
31
0.000
0
LINE
8
0
62
0
10
236.713
20
394.732
30
0.000
11
237.624
21
395.176
31
0.000
0
LINE
8
0
62
0
10
237.624
20
395.176
30
0.000
11
238.691
21
395.404
31
0.000
0
LINE
8
0
62
0
10
238.691
20
395.404
30
0.000
11
239.872
21
395.488
31
0.000
0
LINE
8
0
62
0
10
239.872
20
395.488
30
0.000
11
241.125
21
395.500
31
0.000
0
LINE
8
0
62
0
10
241.125
20
395.500
30
0.000
11
242.408
21
395.512
31
0.000
0
LINE
8
0
62
0
10
242.408
20
395.512
30
0.000
11
243.679
21
395.596
31
0.000
0
LINE
8
0
62
0
10
243.679
20
395.596
30
0.000
11
244.896
21
395.824
31
0.000
0
LINE
8
0
62
0
10
244.896
20
395.824
30
0.000
11
246.017
21
396.268
31
0.000
0
LINE
8
0
62
0
10
246.017
20
396.268
30
0.000
11
247.000
21
397.000
31
0.000
0
LINE
8
0
62
0
10
247.000
20
397.000
30
0.000
11
246.268
21
396.017
31
0.000
0
LINE
8
0
62
0
10
246.268
20
396.017
30
0.000
11
245.824
21
394.896
31
0.000
0
LINE
8
0
62
0
10
245.824
20
394.896
30
0.000
11
245.596
21
393.679
31
0.000
0
LINE
8
0
62
0
10
245.596
20
393.679
30
0.000
11
245.512
21
392.408
31
0.000
0
LINE
8
0
62
0
10
245.512
20
392.408
30
0.000
11
245.500
21
391.125
31
0.000
0
LINE
8
0
62
0
10
245.500
20
391.125
30
0.000
11
245.488
21
389.872
31
0.000
0
LINE
8
0
62
0
10
245.488
20
389.872
30
0.000
11
245.404
21
388.691
31
0.000
0
LINE
8
0
62
0
10
245.404
20
388.691
30
0.000
11
245.176
21
387.624
31
0.000
0
LINE
8
0
62
0
10
245.176
20
387.624
30
0.000
11
244.732
21
386.713
31
0.000
0
LINE
8
0
62
0
10
244.732
20
386.713
30
0.000
11
244.000
21
386.000
31
0.000
0
LINE
8
0
62
0
10
244.000
20
386.000
30
0.000
11
243.372
21
385.488
31
0.000
0
LINE
8
0
62
0
10
243.372
20
385.488
30
0.000
11
242.696
21
385.144
31
0.000
0
LINE
8
0
62
0
10
242.696
20
385.144
30
0.000
11
241.984
21
384.956
31
0.000
0
LINE
8
0
62
0
10
241.984
20
384.956
30
0.000
11
241.248
21
384.912
31
0.000
0
LINE
8
0
62
0
10
241.248
20
384.912
30
0.000
11
240.500
21
385.000
31
0.000
0
LINE
8
0
62
0
10
240.500
20
385.000
30
0.000
11
239.752
21
385.208
31
0.000
0
LINE
8
0
62
0
10
239.752
20
385.208
30
0.000
11
239.016
21
385.524
31
0.000
0
LINE
8
0
62
0
10
239.016
20
385.524
30
0.000
11
238.304
21
385.936
31
0.000
0
LINE
8
0
62
0
10
238.304
20
385.936
30
0.000
11
237.628
21
386.432
31
0.000
0
LINE
8
0
62
0
10
237.628
20
386.432
30
0.000
11
237.000
21
387.000
31
0.000
0
LINE
8
0
62
0
10
237.000
20
362.000
30
0.000
11
236.432
21
361.372
31
0.000
0
LINE
8
0
62
0
10
236.432
20
361.372
30
0.000
11
235.936
21
360.696
31
0.000
0
LINE
8
0
62
0
10
235.936
20
360.696
30
0.000
11
235.524
21
359.984
31
0.000
0
LINE
8
0
62
0
10
235.524
20
359.984
30
0.000
11
235.208
21
359.248
31
0.000
0
LINE
8
0
62
0
10
235.208
20
359.248
30
0.000
11
235.000
21
358.500
31
0.000
0
LINE
8
0
62
0
10
235.000
20
358.500
30
0.000
11
234.912
21
357.752
31
0.000
0
LINE
8
0
62
0
10
234.912
20
357.752
30
0.000
11
234.956
21
357.016
31
0.000
0
LINE
8
0
62
0
10
234.956
20
357.016
30
0.000
11
235.144
21
356.304
31
0.000
0
LINE
8
0
62
0
10
235.144
20
356.304
30
0.000
11
235.488
21
355.628
31
0.000
0
LINE
8
0
62
0
10
235.488
20
355.628
30
0.000
11
236.000
21
355.000
31
0.000
0
LINE
8
0
62
0
10
236.000
20
355.000
30
0.000
11
236.713
21
354.268
31
0.000
0
LINE
8
0
62
0
10
236.713
20
354.268
30
0.000
11
237.624
21
353.824
31
0.000
0
LINE
8
0
62
0
10
237.624
20
353.824
30
0.000
11
238.691
21
353.596
31
0.000
0
LINE
8
0
62
0
10
238.691
20
353.596
30
0.000
11
239.872
21
353.512
31
0.000
0
LINE
8
0
62
0
10
239.872
20
353.512
30
0.000
11
241.125
21
353.500
31
0.000
0
LINE
8
0
62
0
10
241.125
20
353.500
30
0.000
11
242.408
21
353.488
31
0.000
0
LINE
8
0
62
0
10
242.408
20
353.488
30
0.000
11
243.679
21
353.404
31
0.000
0
LINE
8
0
62
0
10
243.679
20
353.404
30
0.000
11
244.896
21
353.176
31
0.000
0
LINE
8
0
62
0
10
244.896
20
353.176
30
0.000
11
246.017
21
352.732
31
0.000
0
LINE
8
0
62
0
10
246.017
20
352.732
30
0.000
11
247.000
21
352.000
31
0.000
0
LINE
8
0
62
0
10
247.000
20
352.000
30
0.000
11
246.268
21
352.983
31
0.000
0
LINE
8
0
62
0
10
246.268
20
352.983
30
0.000
11
245.824
21
354.104
31
0.000
0
LINE
8
0
62
0
10
245.824
20
354.104
30
0.000
11
245.596
21
355.321
31
0.000
0
LINE
8
0
62
0
10
245.596
20
355.321
30
0.000
11
245.512
21
356.592
31
0.000
0
LINE
8
0
62
0
10
245.512
20
356.592
30
0.000
11
245.500
21
357.875
31
0.000
0
LINE
8
0
62
0
10
245.500
20
357.875
30
0.000
11
245.488
21
359.128
31
0.000
0
LINE
8
0
62
0
10
245.488
20
359.128
30
0.000
11
245.404
21
360.309
31
0.000
0
LINE
8
0
62
0
10
245.404
20
360.309
30
0.000
11
245.176
21
361.376
31
0.000
0
LINE
8
0
62
0
10
245.176
20
361.376
30
0.000
11
244.732
21
362.287
31
0.000
0
LINE
8
0
62
0
10
244.732
20
362.287
30
0.000
11
244.000
21
363.000
31
0.000
0
LINE
8
0
62
0
10
244.000
20
363.000
30
0.000
11
243.372
21
363.512
31
0.000
0
LINE
8
0
62
0
10
243.372
20
363.512
30
0.000
11
242.696
21
363.856
31
0.000
0
LINE
8
0
62
0
10
242.696
20
363.856
30
0.000
11
241.984
21
364.044
31
0.000
0
LINE
8
0
62
0
10
241.984
20
364.044
30
0.000
11
241.248
21
364.088
31
0.000
0
LINE
8
0
62
0
10
241.248
20
364.088
30
0.000
11
240.500
21
364.000
31
0.000
0
LINE
8
0
62
0
10
240.500
20
364.000
30
0.000
11
239.752
21
363.792
31
0.000
0
LINE
8
0
62
0
10
239.752
20
363.792
30
0.000
11
239.016
21
363.476
31
0.000
0
LINE
8
0
62
0
10
239.016
20
363.476
30
0.000
11
238.304
21
363.064
31
0.000
0
LINE
8
0
62
0
10
238.304
20
363.064
30
0.000
11
237.628
21
362.568
31
0.000
0
LINE
8
0
62
0
10
237.628
20
362.568
30
0.000
11
237.000
21
362.000
31
0.000
0
LINE
8
0
62
0
10
237.000
20
337.000
30
0.000
11
237.568
21
337.628
31
0.000
0
LINE
8
0
62
0
10
237.568
20
337.628
30
0.000
11
238.064
21
338.304
31
0.000
0
LINE
8
0
62
0
10
238.064
20
338.304
30
0.000
11
238.476
21
339.016
31
0.000
0
LINE
8
0
62
0
10
238.476
20
339.016
30
0.000
11
238.792
21
339.752
31
0.000
0
LINE
8
0
62
0
10
238.792
20
339.752
30
0.000
11
239.000
21
340.500
31
0.000
0
LINE
8
0
62
0
10
239.000
20
340.500
30
0.000
11
239.088
21
341.248
31
0.000
0
LINE
8
0
62
0
10
239.088
20
341.248
30
0.000
11
239.044
21
341.984
31
0.000
0
LINE
8
0
62
0
10
239.044
20
341.984
30
0.000
11
238.856
21
342.696
31
0.000
0
LINE
8
0
62
0
10
238.856
20
342.696
30
0.000
11
238.512
21
343.372
31
0.000
0
LINE
8
0
62
0
10
238.512
20
343.372
30
0.000
11
238.000
21
344.000
31
0.000
0
LINE
8
0
62
0
10
238.000
20
344.000
30
0.000
11
237.287
21
344.732
31
0.000
0
LINE
8
0
62
0
10
237.287
20
344.732
30
0.000
11
236.376
21
345.176
31
0.000
0
LINE
8
0
62
0
10
236.376
20
345.176
30
0.000
11
235.309
21
345.404
31
0.000
0
LINE
8
0
62
0
10
235.309
20
345.404
30
0.000
11
234.128
21
345.488
31
0.000
0
LINE
8
0
62
0
10
234.128
20
345.488
30
0.000
11
232.875
21
345.500
31
0.000
0
LINE
8
0
62
0
10
232.875
20
345.500
30
0.000
11
231.592
21
345.512
31
0.000
0
LINE
8
0
62
0
10
231.592
20
345.512
30
0.000
11
230.321
21
345.596
31
0.000
0
LINE
8
0
62
0
10
230.321
20
345.596
30
0.000
11
229.104
21
345.824
31
0.000
0
LINE
8
0
62
0
10
229.104
20
345.824
30
0.000
11
227.983
21
346.268
31
0.000
0
LINE
8
0
62
0
10
227.983
20
346.268
30
0.000
11
227.000
21
347.000
31
0.000
0
LINE
8
0
62
0
10
227.000
20
347.000
30
0.000
11
227.732
21
346.017
31
0.000
0
LINE
8
0
62
0
10
227.732
20
346.017
30
0.000
11
228.176
21
344.896
31
0.000
0
LINE
8
0
62
0
10
228.176
20
344.896
30
0.000
11
228.404
21
343.679
31
0.000
0
LINE
8
0
62
0
10
228.404
20
343.679
30
0.000
11
228.488
21
342.408
31
0.000
0
LINE
8
0
62
0
10
228.488
20
342.408
30
0.000
11
228.500
21
341.125
31
0.000
0
LINE
8
0
62
0
10
228.500
20
341.125
30
0.000
11
228.512
21
339.872
31
0.000
0
LINE
8
0
62
0
10
228.512
20
339.872
30
0.000
11
228.596
21
338.691
31
0.000
0
LINE
8
0
62
0
10
228.596
20
338.691
30
0.000
11
228.824
21
337.624
31
0.000
0
LINE
8
0
62
0
10
228.824
20
337.624
30
0.000
11
229.268
21
336.713
31
0.000
0
LINE
8
0
62
0
10
229.268
20
336.713
30
0.000
11
230.000
21
336.000
31
0.000
0
LINE
8
0
62
0
10
230.000
20
336.000
30
0.000
11
230.628
21
335.488
31
0.000
0
LINE
8
0
62
0
10
230.628
20
335.488
30
0.000
11
231.304
21
335.144
31
0.000
0
LINE
8
0
62
0
10
231.304
20
335.144
30
0.000
11
232.016
21
334.956
31
0.000
0
LINE
8
0
62
0
10
232.016
20
334.956
30
0.000
11
232.752
21
334.912
31
0.000
0
LINE
8
0
62
0
10
232.752
20
334.912
30
0.000
11
233.500
21
335.000
31
0.000
0
LINE
8
0
62
0
10
233.500
20
335.000
30
0.000
11
234.248
21
335.208
31
0.000
0
LINE
8
0
62
0
10
234.248
20
335.208
30
0.000
11
234.984
21
335.524
31
0.000
0
LINE
8
0
62
0
10
234.984
20
335.524
30
0.000
11
235.696
21
335.936
31
0.000
0
LINE
8
0
62
0
10
235.696
20
335.936
30
0.000
11
236.372
21
336.432
31
0.000
0
LINE
8
0
62
0
10
236.372
20
336.432
30
0.000
11
237.000
21
337.000
31
0.000
0
LINE
8
0
62
0
10
287.000
20
387.000
30
0.000
11
287.568
21
386.372
31
0.000
0
LINE
8
0
62
0
10
287.568
20
386.372
30
0.000
11
288.064
21
385.696
31
0.000
0
LINE
8
0
62
0
10
288.064
20
385.696
30
0.000
11
288.476
21
384.984
31
0.000
0
LINE
8
0
62
0
10
288.476
20
384.984
30
0.000
11
288.792
21
384.248
31
0.000
0
LINE
8
0
62
0
10
288.792
20
384.248
30
0.000
11
289.000
21
383.500
31
0.000
0
LINE
8
0
62
0
10
289.000
20
383.500
30
0.000
11
289.088
21
382.752
31
0.000
0
LINE
8
0
62
0
10
289.088
20
382.752
30
0.000
11
289.044
21
382.016
31
0.000
0
LINE
8
0
62
0
10
289.044
20
382.016
30
0.000
11
288.856
21
381.304
31
0.000
0
LINE
8
0
62
0
10
288.856
20
381.304
30
0.000
11
288.512
21
380.628
31
0.000
0
LINE
8
0
62
0
10
288.512
20
380.628
30
0.000
11
288.000
21
380.000
31
0.000
0
LINE
8
0
62
0
10
288.000
20
380.000
30
0.000
11
287.287
21
379.268
31
0.000
0
LINE
8
0
62
0
10
287.287
20
379.268
30
0.000
11
286.376
21
378.824
31
0.000
0
LINE
8
0
62
0
10
286.376
20
378.824
30
0.000
11
285.309
21
378.596
31
0.000
0
LINE
8
0
62
0
10
285.309
20
378.596
30
0.000
11
284.128
21
378.512
31
0.000
0
LINE
8
0
62
0
10
284.128
20
378.512
30
0.000
11
282.875
21
378.500
31
0.000
0
LINE
8
0
62
0
10
282.875
20
378.500
30
0.000
11
281.592
21
378.488
31
0.000
0
LINE
8
0
62
0
10
281.592
20
378.488
30
0.000
11
280.321
21
378.404
31
0.000
0
LINE
8
0
62
0
10
280.321
20
378.404
30
0.000
11
279.104
21
378.176
31
0.000
0
LINE
8
0
62
0
10
279.104
20
378.176
30
0.000
11
277.983
21
377.732
31
0.000
0
LINE
8
0
62
0
10
277.983
20
377.732
30
0.000
11
277.000
21
377.000
31
0.000
0
LINE
8
0
62
0
10
277.000
20
377.000
30
0.000
11
277.732
21
377.983
31
0.000
0
LINE
8
0
62
0
10
277.732
20
377.983
30
0.000
11
278.176
21
379.104
31
0.000
0
LINE
8
0
62
0
10
278.176
20
379.104
30
0.000
11
278.404
21
380.321
31
0.000
0
LINE
8
0
62
0
10
278.404
20
380.321
30
0.000
11
278.488
21
381.592
31
0.000
0
LINE
8
0
62
0
10
278.488
20
381.592
30
0.000
11
278.500
21
382.875
31
0.000
0
LINE
8
0
62
0
10
278.500
20
382.875
30
0.000
11
278.512
21
384.128
31
0.000
0
LINE
8
0
62
0
10
278.512
20
384.128
30
0.000
11
278.596
21
385.309
31
0.000
0
LINE
8
0
62
0
10
278.596
20
385.309
30
0.000
11
278.824
21
386.376
31
0.000
0
LINE
8
0
62
0
10
278.824
20
386.376
30
0.000
11
279.268
21
387.287
31
0.000
0
LINE
8
0
62
0
10
279.268
20
387.287
30
0.000
11
280.000
21
388.000
31
0.000
0
LINE
8
0
62
0
10
280.000
20
388.000
30
0.000
11
280.628
21
388.512
31
0.000
0
LINE
8
0
62
0
10
280.628
20
388.512
30
0.000
11
281.304
21
388.856
31
0.000
0
LINE
8
0
62
0
10
281.304
20
388.856
30
0.000
11
282.016
21
389.044
31
0.000
0
LINE
8
0
62
0
10
282.016
20
389.044
30
0.000
11
282.752
21
389.088
31
0.000
0
LINE
8
0
62
0
10
282.752
20
389.088
30
0.000
11
283.500
21
389.000
31
0.000
0
LINE
8
0
62
0
10
283.500
20
389.000
30
0.000
11
284.248
21
388.792
31
0.000
0
LINE
8
0
62
0
10
284.248
20
388.792
30
0.000
11
284.984
21
388.476
31
0.000
0
LINE
8
0
62
0
10
284.984
20
388.476
30
0.000
11
285.696
21
388.064
31
0.000
0
LINE
8
0
62
0
10
285.696
20
388.064
30
0.000
11
286.372
21
387.568
31
0.000
0
LINE
8
0
62
0
10
286.372
20
387.568
30
0.000
11
287.000
21
387.000
31
0.000
0
LINE
8
0
62
0
10
187.000
20
362.000
30
0.000
11
187.568
21
362.628
31
0.000
0
LINE
8
0
62
0
10
187.568
20
362.628
30
0.000
11
188.064
21
363.304
31
0.000
0
LINE
8
0
62
0
10
188.064
20
363.304
30
0.000
11
188.476
21
364.016
31
0.000
0
LINE
8
0
62
0
10
188.476
20
364.016
30
0.000
11
188.792
21
364.752
31
0.000
0
LINE
8
0
62
0
10
188.792
20
364.752
30
0.000
11
189.000
21
365.500
31
0.000
0
LINE
8
0
62
0
10
189.000
20
365.500
30
0.000
11
189.088
21
366.248
31
0.000
0
LINE
8
0
62
0
10
189.088
20
366.248
30
0.000
11
189.044
21
366.984
31
0.000
0
LINE
8
0
62
0
10
189.044
20
366.984
30
0.000
11
188.856
21
367.696
31
0.000
0
LINE
8
0
62
0
10
188.856
20
367.696
30
0.000
11
188.512
21
368.372
31
0.000
0
LINE
8
0
62
0
10
188.512
20
368.372
30
0.000
11
188.000
21
369.000
31
0.000
0
LINE
8
0
62
0
10
188.000
20
369.000
30
0.000
11
187.287
21
369.732
31
0.000
0
LINE
8
0
62
0
10
187.287
20
369.732
30
0.000
11
186.376
21
370.176
31
0.000
0
LINE
8
0
62
0
10
186.376
20
370.176
30
0.000
11
185.309
21
370.404
31
0.000
0
LINE
8
0
62
0
10
185.309
20
370.404
30
0.000
11
184.128
21
370.488
31
0.000
0
LINE
8
0
62
0
10
184.128
20
370.488
30
0.000
11
182.875
21
370.500
31
0.000
0
LINE
8
0
62
0
10
182.875
20
370.500
30
0.000
11
181.592
21
370.512
31
0.000
0
LINE
8
0
62
0
10
181.592
20
370.512
30
0.000
11
180.321
21
370.596
31
0.000
0
LINE
8
0
62
0
10
180.321
20
370.596
30
0.000
11
179.104
21
370.824
31
0.000
0
LINE
8
0
62
0
10
179.104
20
370.824
30
0.000
11
177.983
21
371.268
31
0.000
0
LINE
8
0
62
0
10
177.983
20
371.268
30
0.000
11
177.000
21
372.000
31
0.000
0
LINE
8
0
62
0
10
177.000
20
372.000
30
0.000
11
177.732
21
371.017
31
0.000
0
LINE
8
0
62
0
10
177.732
20
371.017
30
0.000
11
178.176
21
369.896
31
0.000
0
LINE
8
0
62
0
10
178.176
20
369.896
30
0.000
11
178.404
21
368.679
31
0.000
0
LINE
8
0
62
0
10
178.404
20
368.679
30
0.000
11
178.488
21
367.408
31
0.000
0
LINE
8
0
62
0
10
178.488
20
367.408
30
0.000
11
178.500
21
366.125
31
0.000
0
LINE
8
0
62
0
10
178.500
20
366.125
30
0.000
11
178.512
21
364.872
31
0.000
0
LINE
8
0
62
0
10
178.512
20
364.872
30
0.000
11
178.596
21
363.691
31
0.000
0
LINE
8
0
62
0
10
178.596
20
363.691
30
0.000
11
178.824
21
362.624
31
0.000
0
LINE
8
0
62
0
10
178.824
20
362.624
30
0.000
11
179.268
21
361.713
31
0.000
0
LINE
8
0
62
0
10
179.268
20
361.713
30
0.000
11
180.000
21
361.000
31
0.000
0
LINE
8
0
62
0
10
180.000
20
361.000
30
0.000
11
180.628
21
360.488
31
0.000
0
LINE
8
0
62
0
10
180.628
20
360.488
30
0.000
11
181.304
21
360.144
31
0.000
0
LINE
8
0
62
0
10
181.304
20
360.144
30
0.000
11
182.016
21
359.956
31
0.000
0
LINE
8
0
62
0
10
182.016
20
359.956
30
0.000
11
182.752
21
359.912
31
0.000
0
LINE
8
0
62
0
10
182.752
20
359.912
30
0.000
11
183.500
21
360.000
31
0.000
0
LINE
8
0
62
0
10
183.500
20
360.000
30
0.000
11
184.248
21
360.208
31
0.000
0
LINE
8
0
62
0
10
184.248
20
360.208
30
0.000
11
184.984
21
360.524
31
0.000
0
LINE
8
0
62
0
10
184.984
20
360.524
30
0.000
11
185.696
21
360.936
31
0.000
0
LINE
8
0
62
0
10
185.696
20
360.936
30
0.000
11
186.372
21
361.432
31
0.000
0
LINE
8
0
62
0
10
186.372
20
361.432
30
0.000
11
187.000
21
362.000
31
0.000
0
LINE
8
0
62
0
10
212.000
20
337.000
30
0.000
11
211.432
21
336.372
31
0.000
0
LINE
8
0
62
0
10
211.432
20
336.372
30
0.000
11
210.936
21
335.696
31
0.000
0
LINE
8
0
62
0
10
210.936
20
335.696
30
0.000
11
210.524
21
334.984
31
0.000
0
LINE
8
0
62
0
10
210.524
20
334.984
30
0.000
11
210.208
21
334.248
31
0.000
0
LINE
8
0
62
0
10
210.208
20
334.248
30
0.000
11
210.000
21
333.500
31
0.000
0
LINE
8
0
62
0
10
210.000
20
333.500
30
0.000
11
209.912
21
332.752
31
0.000
0
LINE
8
0
62
0
10
209.912
20
332.752
30
0.000
11
209.956
21
332.016
31
0.000
0
LINE
8
0
62
0
10
209.956
20
332.016
30
0.000
11
210.144
21
331.304
31
0.000
0
LINE
8
0
62
0
10
210.144
20
331.304
30
0.000
11
210.488
21
330.628
31
0.000
0
LINE
8
0
62
0
10
210.488
20
330.628
30
0.000
11
211.000
21
330.000
31
0.000
0
LINE
8
0
62
0
10
211.000
20
330.000
30
0.000
11
211.713
21
329.268
31
0.000
0
LINE
8
0
62
0
10
211.713
20
329.268
30
0.000
11
212.624
21
328.824
31
0.000
0
LINE
8
0
62
0
10
212.624
20
328.824
30
0.000
11
213.691
21
328.596
31
0.000
0
LINE
8
0
62
0
10
213.691
20
328.596
30
0.000
11
214.872
21
328.512
31
0.000
0
LINE
8
0
62
0
10
214.872
20
328.512
30
0.000
11
216.125
21
328.500
31
0.000
0
LINE
8
0
62
0
10
216.125
20
328.500
30
0.000
11
217.408
21
328.488
31
0.000
0
LINE
8
0
62
0
10
217.408
20
328.488
30
0.000
11
218.679
21
328.404
31
0.000
0
LINE
8
0
62
0
10
218.679
20
328.404
30
0.000
11
219.896
21
328.176
31
0.000
0
LINE
8
0
62
0
10
219.896
20
328.176
30
0.000
11
221.017
21
327.732
31
0.000
0
LINE
8
0
62
0
10
221.017
20
327.732
30
0.000
11
222.000
21
327.000
31
0.000
0
LINE
8
0
62
0
10
222.000
20
327.000
30
0.000
11
221.268
21
327.983
31
0.000
0
LINE
8
0
62
0
10
221.268
20
327.983
30
0.000
11
220.824
21
329.104
31
0.000
0
LINE
8
0
62
0
10
220.824
20
329.104
30
0.000
11
220.596
21
330.321
31
0.000
0
LINE
8
0
62
0
10
220.596
20
330.321
30
0.000
11
220.512
21
331.592
31
0.000
0
LINE
8
0
62
0
10
220.512
20
331.592
30
0.000
11
220.500
21
332.875
31
0.000
0
LINE
8
0
62
0
10
220.500
20
332.875
30
0.000
11
220.488
21
334.128
31
0.000
0
LINE
8
0
62
0
10
220.488
20
334.128
30
0.000
11
220.404
21
335.309
31
0.000
0
LINE
8
0
62
0
10
220.404
20
335.309
30
0.000
11
220.176
21
336.376
31
0.000
0
LINE
8
0
62
0
10
220.176
20
336.376
30
0.000
11
219.732
21
337.287
31
0.000
0
LINE
8
0
62
0
10
219.732
20
337.287
30
0.000
11
219.000
21
338.000
31
0.000
0
LINE
8
0
62
0
10
219.000
20
338.000
30
0.000
11
218.372
21
338.512
31
0.000
0
LINE
8
0
62
0
10
218.372
20
338.512
30
0.000
11
217.696
21
338.856
31
0.000
0
LINE
8
0
62
0
10
217.696
20
338.856
30
0.000
11
216.984
21
339.044
31
0.000
0
LINE
8
0
62
0
10
216.984
20
339.044
30
0.000
11
216.248
21
339.088
31
0.000
0
LINE
8
0
62
0
10
216.248
20
339.088
30
0.000
11
215.500
21
339.000
31
0.000
0
LINE
8
0
62
0
10
215.500
20
339.000
30
0.000
11
214.752
21
338.792
31
0.000
0
LINE
8
0
62
0
10
214.752
20
338.792
30
0.000
11
214.016
21
338.476
31
0.000
0
LINE
8
0
62
0
10
214.016
20
338.476
30
0.000
11
213.304
21
338.064
31
0.000
0
LINE
8
0
62
0
10
213.304
20
338.064
30
0.000
11
212.628
21
337.568
31
0.000
0
LINE
8
0
62
0
10
212.628
20
337.568
30
0.000
11
212.000
21
337.000
31
0.000
0
LINE
8
0
62
0
10
212.000
20
312.000
30
0.000
11
212.568
21
312.628
31
0.000
0
LINE
8
0
62
0
10
212.568
20
312.628
30
0.000
11
213.064
21
313.304
31
0.000
0
LINE
8
0
62
0
10
213.064
20
313.304
30
0.000
11
213.476
21
314.016
31
0.000
0
LINE
8
0
62
0
10
213.476
20
314.016
30
0.000
11
213.792
21
314.752
31
0.000
0
LINE
8
0
62
0
10
213.792
20
314.752
30
0.000
11
214.000
21
315.500
31
0.000
0
LINE
8
0
62
0
10
214.000
20
315.500
30
0.000
11
214.088
21
316.248
31
0.000
0
LINE
8
0
62
0
10
214.088
20
316.248
30
0.000
11
214.044
21
316.984
31
0.000
0
LINE
8
0
62
0
10
214.044
20
316.984
30
0.000
11
213.856
21
317.696
31
0.000
0
LINE
8
0
62
0
10
213.856
20
317.696
30
0.000
11
213.512
21
318.372
31
0.000
0
LINE
8
0
62
0
10
213.512
20
318.372
30
0.000
11
213.000
21
319.000
31
0.000
0
LINE
8
0
62
0
10
213.000
20
319.000
30
0.000
11
212.287
21
319.732
31
0.000
0
LINE
8
0
62
0
10
212.287
20
319.732
30
0.000
11
211.376
21
320.176
31
0.000
0
LINE
8
0
62
0
10
211.376
20
320.176
30
0.000
11
210.309
21
320.404
31
0.000
0
LINE
8
0
62
0
10
210.309
20
320.404
30
0.000
11
209.128
21
320.488
31
0.000
0
LINE
8
0
62
0
10
209.128
20
320.488
30
0.000
11
207.875
21
320.500
31
0.000
0
LINE
8
0
62
0
10
207.875
20
320.500
30
0.000
11
206.592
21
320.512
31
0.000
0
LINE
8
0
62
0
10
206.592
20
320.512
30
0.000
11
205.321
21
320.596
31
0.000
0
LINE
8
0
62
0
10
205.321
20
320.596
30
0.000
11
204.104
21
320.824
31
0.000
0
LINE
8
0
62
0
10
204.104
20
320.824
30
0.000
11
202.983
21
321.268
31
0.000
0
LINE
8
0
62
0
10
202.983
20
321.268
30
0.000
11
202.000
21
322.000
31
0.000
0
LINE
8
0
62
0
10
202.000
20
322.000
30
0.000
11
202.732
21
321.017
31
0.000
0
LINE
8
0
62
0
10
202.732
20
321.017
30
0.000
11
203.176
21
319.896
31
0.000
0
LINE
8
0
62
0
10
203.176
20
319.896
30
0.000
11
203.404
21
318.679
31
0.000
0
LINE
8
0
62
0
10
203.404
20
318.679
30
0.000
11
203.488
21
317.408
31
0.000
0
LINE
8
0
62
0
10
203.488
20
317.408
30
0.000
11
203.500
21
316.125
31
0.000
0
LINE
8
0
62
0
10
203.500
20
316.125
30
0.000
11
203.512
21
314.872
31
0.000
0
LINE
8
0
62
0
10
203.512
20
314.872
30
0.000
11
203.596
21
313.691
31
0.000
0
LINE
8
0
62
0
10
203.596
20
313.691
30
0.000
11
203.824
21
312.624
31
0.000
0
LINE
8
0
62
0
10
203.824
20
312.624
30
0.000
11
204.268
21
311.713
31
0.000
0
LINE
8
0
62
0
10
204.268
20
311.713
30
0.000
11
205.000
21
311.000
31
0.000
0
LINE
8
0
62
0
10
205.000
20
311.000
30
0.000
11
205.628
21
310.488
31
0.000
0
LINE
8
0
62
0
10
205.628
20
310.488
30
0.000
11
206.304
21
310.144
31
0.000
0
LINE
8
0
62
0
10
206.304
20
310.144
30
0.000
11
207.016
21
309.956
31
0.000
0
LINE
8
0
62
0
10
207.016
20
309.956
30
0.000
11
207.752
21
309.912
31
0.000
0
LINE
8
0
62
0
10
207.752
20
309.912
30
0.000
11
208.500
21
310.000
31
0.000
0
LINE
8
0
62
0
10
208.500
20
310.000
30
0.000
11
209.248
21
310.208
31
0.000
0
LINE
8
0
62
0
10
209.248
20
310.208
30
0.000
11
209.984
21
310.524
31
0.000
0
LINE
8
0
62
0
10
209.984
20
310.524
30
0.000
11
210.696
21
310.936
31
0.000
0
LINE
8
0
62
0
10
210.696
20
310.936
30
0.000
11
211.372
21
311.432
31
0.000
0
LINE
8
0
62
0
10
211.372
20
311.432
30
0.000
11
212.000
21
312.000
31
0.000
0
LINE
8
0
62
0
10
462.000
20
162.000
30
0.000
11
462.568
21
162.628
31
0.000
0
LINE
8
0
62
0
10
462.568
20
162.628
30
0.000
11
463.064
21
163.304
31
0.000
0
LINE
8
0
62
0
10
463.064
20
163.304
30
0.000
11
463.476
21
164.016
31
0.000
0
LINE
8
0
62
0
10
463.476
20
164.016
30
0.000
11
463.792
21
164.752
31
0.000
0
LINE
8
0
62
0
10
463.792
20
164.752
30
0.000
11
464.000
21
165.500
31
0.000
0
LINE
8
0
62
0
10
464.000
20
165.500
30
0.000
11
464.088
21
166.248
31
0.000
0
LINE
8
0
62
0
10
464.088
20
166.248
30
0.000
11
464.044
21
166.984
31
0.000
0
LINE
8
0
62
0
10
464.044
20
166.984
30
0.000
11
463.856
21
167.696
31
0.000
0
LINE
8
0
62
0
10
463.856
20
167.696
30
0.000
11
463.512
21
168.372
31
0.000
0
LINE
8
0
62
0
10
463.512
20
168.372
30
0.000
11
463.000
21
169.000
31
0.000
0
LINE
8
0
62
0
10
463.000
20
169.000
30
0.000
11
462.287
21
169.732
31
0.000
0
LINE
8
0
62
0
10
462.287
20
169.732
30
0.000
11
461.376
21
170.176
31
0.000
0
LINE
8
0
62
0
10
461.376
20
170.176
30
0.000
11
460.309
21
170.404
31
0.000
0
LINE
8
0
62
0
10
460.309
20
170.404
30
0.000
11
459.128
21
170.488
31
0.000
0
LINE
8
0
62
0
10
459.128
20
170.488
30
0.000
11
457.875
21
170.500
31
0.000
0
LINE
8
0
62
0
10
457.875
20
170.500
30
0.000
11
456.592
21
170.512
31
0.000
0
LINE
8
0
62
0
10
456.592
20
170.512
30
0.000
11
455.321
21
170.596
31
0.000
0
LINE
8
0
62
0
10
455.321
20
170.596
30
0.000
11
454.104
21
170.824
31
0.000
0
LINE
8
0
62
0
10
454.104
20
170.824
30
0.000
11
452.983
21
171.268
31
0.000
0
LINE
8
0
62
0
10
452.983
20
171.268
30
0.000
11
452.000
21
172.000
31
0.000
0
LINE
8
0
62
0
10
452.000
20
172.000
30
0.000
11
452.732
21
171.017
31
0.000
0
LINE
8
0
62
0
10
452.732
20
171.017
30
0.000
11
453.176
21
169.896
31
0.000
0
LINE
8
0
62
0
10
453.176
20
169.896
30
0.000
11
453.404
21
168.679
31
0.000
0
LINE
8
0
62
0
10
453.404
20
168.679
30
0.000
11
453.488
21
167.408
31
0.000
0
LINE
8
0
62
0
10
453.488
20
167.408
30
0.000
11
453.500
21
166.125
31
0.000
0
LINE
8
0
62
0
10
453.500
20
166.125
30
0.000
11
453.512
21
164.872
31
0.000
0
LINE
8
0
62
0
10
453.512
20
164.872
30
0.000
11
453.596
21
163.691
31
0.000
0
LINE
8
0
62
0
10
453.596
20
163.691
30
0.000
11
453.824
21
162.624
31
0.000
0
LINE
8
0
62
0
10
453.824
20
162.624
30
0.000
11
454.268
21
161.713
31
0.000
0
LINE
8
0
62
0
10
454.268
20
161.713
30
0.000
11
455.000
21
161.000
31
0.000
0
LINE
8
0
62
0
10
455.000
20
161.000
30
0.000
11
455.628
21
160.488
31
0.000
0
LINE
8
0
62
0
10
455.628
20
160.488
30
0.000
11
456.304
21
160.144
31
0.000
0
LINE
8
0
62
0
10
456.304
20
160.144
30
0.000
11
457.016
21
159.956
31
0.000
0
LINE
8
0
62
0
10
457.016
20
159.956
30
0.000
11
457.752
21
159.912
31
0.000
0
LINE
8
0
62
0
10
457.752
20
159.912
30
0.000
11
458.500
21
160.000
31
0.000
0
LINE
8
0
62
0
10
458.500
20
160.000
30
0.000
11
459.248
21
160.208
31
0.000
0
LINE
8
0
62
0
10
459.248
20
160.208
30
0.000
11
459.984
21
160.524
31
0.000
0
LINE
8
0
62
0
10
459.984
20
160.524
30
0.000
11
460.696
21
160.936
31
0.000
0
LINE
8
0
62
0
10
460.696
20
160.936
30
0.000
11
461.372
21
161.432
31
0.000
0
LINE
8
0
62
0
10
461.372
20
161.432
30
0.000
11
462.000
21
162.000
31
0.000
0
LINE
8
0
62
0
10
187.000
20
312.000
30
0.000
11
186.432
21
311.372
31
0.000
0
LINE
8
0
62
0
10
186.432
20
311.372
30
0.000
11
185.936
21
310.696
31
0.000
0
LINE
8
0
62
0
10
185.936
20
310.696
30
0.000
11
185.524
21
309.984
31
0.000
0
LINE
8
0
62
0
10
185.524
20
309.984
30
0.000
11
185.208
21
309.248
31
0.000
0
LINE
8
0
62
0
10
185.208
20
309.248
30
0.000
11
185.000
21
308.500
31
0.000
0
LINE
8
0
62
0
10
185.000
20
308.500
30
0.000
11
184.912
21
307.752
31
0.000
0
LINE
8
0
62
0
10
184.912
20
307.752
30
0.000
11
184.956
21
307.016
31
0.000
0
LINE
8
0
62
0
10
184.956
20
307.016
30
0.000
11
185.144
21
306.304
31
0.000
0
LINE
8
0
62
0
10
185.144
20
306.304
30
0.000
11
185.488
21
305.628
31
0.000
0
LINE
8
0
62
0
10
185.488
20
305.628
30
0.000
11
186.000
21
305.000
31
0.000
0
LINE
8
0
62
0
10
186.000
20
305.000
30
0.000
11
186.713
21
304.268
31
0.000
0
LINE
8
0
62
0
10
186.713
20
304.268
30
0.000
11
187.624
21
303.824
31
0.000
0
LINE
8
0
62
0
10
187.624
20
303.824
30
0.000
11
188.691
21
303.596
31
0.000
0
LINE
8
0
62
0
10
188.691
20
303.596
30
0.000
11
189.872
21
303.512
31
0.000
0
LINE
8
0
62
0
10
189.872
20
303.512
30
0.000
11
191.125
21
303.500
31
0.000
0
LINE
8
0
62
0
10
191.125
20
303.500
30
0.000
11
192.408
21
303.488
31
0.000
0
LINE
8
0
62
0
10
192.408
20
303.488
30
0.000
11
193.679
21
303.404
31
0.000
0
LINE
8
0
62
0
10
193.679
20
303.404
30
0.000
11
194.896
21
303.176
31
0.000
0
LINE
8
0
62
0
10
194.896
20
303.176
30
0.000
11
196.017
21
302.732
31
0.000
0
LINE
8
0
62
0
10
196.017
20
302.732
30
0.000
11
197.000
21
302.000
31
0.000
0
LINE
8
0
62
0
10
197.000
20
302.000
30
0.000
11
196.268
21
302.983
31
0.000
0
LINE
8
0
62
0
10
196.268
20
302.983
30
0.000
11
195.824
21
304.104
31
0.000
0
LINE
8
0
62
0
10
195.824
20
304.104
30
0.000
11
195.596
21
305.321
31
0.000
0
LINE
8
0
62
0
10
195.596
20
305.321
30
0.000
11
195.512
21
306.592
31
0.000
0
LINE
8
0
62
0
10
195.512
20
306.592
30
0.000
11
195.500
21
307.875
31
0.000
0
LINE
8
0
62
0
10
195.500
20
307.875
30
0.000
11
195.488
21
309.128
31
0.000
0
LINE
8
0
62
0
10
195.488
20
309.128
30
0.000
11
195.404
21
310.309
31
0.000
0
LINE
8
0
62
0
10
195.404
20
310.309
30
0.000
11
195.176
21
311.376
31
0.000
0
LINE
8
0
62
0
10
195.176
20
311.376
30
0.000
11
194.732
21
312.287
31
0.000
0
LINE
8
0
62
0
10
194.732
20
312.287
30
0.000
11
194.000
21
313.000
31
0.000
0
LINE
8
0
62
0
10
194.000
20
313.000
30
0.000
11
193.372
21
313.512
31
0.000
0
LINE
8
0
62
0
10
193.372
20
313.512
30
0.000
11
192.696
21
313.856
31
0.000
0
LINE
8
0
62
0
10
192.696
20
313.856
30
0.000
11
191.984
21
314.044
31
0.000
0
LINE
8
0
62
0
10
191.984
20
314.044
30
0.000
11
191.248
21
314.088
31
0.000
0
LINE
8
0
62
0
10
191.248
20
314.088
30
0.000
11
190.500
21
314.000
31
0.000
0
LINE
8
0
62
0
10
190.500
20
314.000
30
0.000
11
189.752
21
313.792
31
0.000
0
LINE
8
0
62
0
10
189.752
20
313.792
30
0.000
11
189.016
21
313.476
31
0.000
0
LINE
8
0
62
0
10
189.016
20
313.476
30
0.000
11
188.304
21
313.064
31
0.000
0
LINE
8
0
62
0
10
188.304
20
313.064
30
0.000
11
187.628
21
312.568
31
0.000
0
LINE
8
0
62
0
10
187.628
20
312.568
30
0.000
11
187.000
21
312.000
31
0.000
0
LINE
8
0
62
0
10
162.000
20
312.000
30
0.000
11
162.568
21
311.372
31
0.000
0
LINE
8
0
62
0
10
162.568
20
311.372
30
0.000
11
163.064
21
310.696
31
0.000
0
LINE
8
0
62
0
10
163.064
20
310.696
30
0.000
11
163.476
21
309.984
31
0.000
0
LINE
8
0
62
0
10
163.476
20
309.984
30
0.000
11
163.792
21
309.248
31
0.000
0
LINE
8
0
62
0
10
163.792
20
309.248
30
0.000
11
164.000
21
308.500
31
0.000
0
LINE
8
0
62
0
10
164.000
20
308.500
30
0.000
11
164.088
21
307.752
31
0.000
0
LINE
8
0
62
0
10
164.088
20
307.752
30
0.000
11
164.044
21
307.016
31
0.000
0
LINE
8
0
62
0
10
164.044
20
307.016
30
0.000
11
163.856
21
306.304
31
0.000
0
LINE
8
0
62
0
10
163.856
20
306.304
30
0.000
11
163.512
21
305.628
31
0.000
0
LINE
8
0
62
0
10
163.512
20
305.628
30
0.000
11
163.000
21
305.000
31
0.000
0
LINE
8
0
62
0
10
163.000
20
305.000
30
0.000
11
162.287
21
304.268
31
0.000
0
LINE
8
0
62
0
10
162.287
20
304.268
30
0.000
11
161.376
21
303.824
31
0.000
0
LINE
8
0
62
0
10
161.376
20
303.824
30
0.000
11
160.309
21
303.596
31
0.000
0
LINE
8
0
62
0
10
160.309
20
303.596
30
0.000
11
159.128
21
303.512
31
0.000
0
LINE
8
0
62
0
10
159.128
20
303.512
30
0.000
11
157.875
21
303.500
31
0.000
0
LINE
8
0
62
0
10
157.875
20
303.500
30
0.000
11
156.592
21
303.488
31
0.000
0
LINE
8
0
62
0
10
156.592
20
303.488
30
0.000
11
155.321
21
303.404
31
0.000
0
LINE
8
0
62
0
10
155.321
20
303.404
30
0.000
11
154.104
21
303.176
31
0.000
0
LINE
8
0
62
0
10
154.104
20
303.176
30
0.000
11
152.983
21
302.732
31
0.000
0
LINE
8
0
62
0
10
152.983
20
302.732
30
0.000
11
152.000
21
302.000
31
0.000
0
LINE
8
0
62
0
10
152.000
20
302.000
30
0.000
11
152.732
21
302.983
31
0.000
0
LINE
8
0
62
0
10
152.732
20
302.983
30
0.000
11
153.176
21
304.104
31
0.000
0
LINE
8
0
62
0
10
153.176
20
304.104
30
0.000
11
153.404
21
305.321
31
0.000
0
LINE
8
0
62
0
10
153.404
20
305.321
30
0.000
11
153.488
21
306.592
31
0.000
0
LINE
8
0
62
0
10
153.488
20
306.592
30
0.000
11
153.500
21
307.875
31
0.000
0
LINE
8
0
62
0
10
153.500
20
307.875
30
0.000
11
153.512
21
309.128
31
0.000
0
LINE
8
0
62
0
10
153.512
20
309.128
30
0.000
11
153.596
21
310.309
31
0.000
0
LINE
8
0
62
0
10
153.596
20
310.309
30
0.000
11
153.824
21
311.376
31
0.000
0
LINE
8
0
62
0
10
153.824
20
311.376
30
0.000
11
154.268
21
312.287
31
0.000
0
LINE
8
0
62
0
10
154.268
20
312.287
30
0.000
11
155.000
21
313.000
31
0.000
0
LINE
8
0
62
0
10
155.000
20
313.000
30
0.000
11
155.628
21
313.512
31
0.000
0
LINE
8
0
62
0
10
155.628
20
313.512
30
0.000
11
156.304
21
313.856
31
0.000
0
LINE
8
0
62
0
10
156.304
20
313.856
30
0.000
11
157.016
21
314.044
31
0.000
0
LINE
8
0
62
0
10
157.016
20
314.044
30
0.000
11
157.752
21
314.088
31
0.000
0
LINE
8
0
62
0
10
157.752
20
314.088
30
0.000
11
158.500
21
314.000
31
0.000
0
LINE
8
0
62
0
10
158.500
20
314.000
30
0.000
11
159.248
21
313.792
31
0.000
0
LINE
8
0
62
0
10
159.248
20
313.792
30
0.000
11
159.984
21
313.476
31
0.000
0
LINE
8
0
62
0
10
159.984
20
313.476
30
0.000
11
160.696
21
313.064
31
0.000
0
LINE
8
0
62
0
10
160.696
20
313.064
30
0.000
11
161.372
21
312.568
31
0.000
0
LINE
8
0
62
0
10
161.372
20
312.568
30
0.000
11
162.000
21
312.000
31
0.000
0
LINE
8
0
62
0
10
287.000
20
287.000
30
0.000
11
286.432
21
287.628
31
0.000
0
LINE
8
0
62
0
10
286.432
20
287.628
30
0.000
11
285.936
21
288.304
31
0.000
0
LINE
8
0
62
0
10
285.936
20
288.304
30
0.000
11
285.524
21
289.016
31
0.000
0
LINE
8
0
62
0
10
285.524
20
289.016
30
0.000
11
285.208
21
289.752
31
0.000
0
LINE
8
0
62
0
10
285.208
20
289.752
30
0.000
11
285.000
21
290.500
31
0.000
0
LINE
8
0
62
0
10
285.000
20
290.500
30
0.000
11
284.912
21
291.248
31
0.000
0
LINE
8
0
62
0
10
284.912
20
291.248
30
0.000
11
284.956
21
291.984
31
0.000
0
LINE
8
0
62
0
10
284.956
20
291.984
30
0.000
11
285.144
21
292.696
31
0.000
0
LINE
8
0
62
0
10
285.144
20
292.696
30
0.000
11
285.488
21
293.372
31
0.000
0
LINE
8
0
62
0
10
285.488
20
293.372
30
0.000
11
286.000
21
294.000
31
0.000
0
LINE
8
0
62
0
10
286.000
20
294.000
30
0.000
11
286.713
21
294.732
31
0.000
0
LINE
8
0
62
0
10
286.713
20
294.732
30
0.000
11
287.624
21
295.176
31
0.000
0
LINE
8
0
62
0
10
287.624
20
295.176
30
0.000
11
288.691
21
295.404
31
0.000
0
LINE
8
0
62
0
10
288.691
20
295.404
30
0.000
11
289.872
21
295.488
31
0.000
0
LINE
8
0
62
0
10
289.872
20
295.488
30
0.000
11
291.125
21
295.500
31
0.000
0
LINE
8
0
62
0
10
291.125
20
295.500
30
0.000
11
292.408
21
295.512
31
0.000
0
LINE
8
0
62
0
10
292.408
20
295.512
30
0.000
11
293.679
21
295.596
31
0.000
0
LINE
8
0
62
0
10
293.679
20
295.596
30
0.000
11
294.896
21
295.824
31
0.000
0
LINE
8
0
62
0
10
294.896
20
295.824
30
0.000
11
296.017
21
296.268
31
0.000
0
LINE
8
0
62
0
10
296.017
20
296.268
30
0.000
11
297.000
21
297.000
31
0.000
0
LINE
8
0
62
0
10
297.000
20
297.000
30
0.000
11
296.268
21
296.017
31
0.000
0
LINE
8
0
62
0
10
296.268
20
296.017
30
0.000
11
295.824
21
294.896
31
0.000
0
LINE
8
0
62
0
10
295.824
20
294.896
30
0.000
11
295.596
21
293.679
31
0.000
0
LINE
8
0
62
0
10
295.596
20
293.679
30
0.000
11
295.512
21
292.408
31
0.000
0
LINE
8
0
62
0
10
295.512
20
292.408
30
0.000
11
295.500
21
291.125
31
0.000
0
LINE
8
0
62
0
10
295.500
20
291.125
30
0.000
11
295.488
21
289.872
31
0.000
0
LINE
8
0
62
0
10
295.488
20
289.872
30
0.000
11
295.404
21
288.691
31
0.000
0
LINE
8
0
62
0
10
295.404
20
288.691
30
0.000
11
295.176
21
287.624
31
0.000
0
LINE
8
0
62
0
10
295.176
20
287.624
30
0.000
11
294.732
21
286.713
31
0.000
0
LINE
8
0
62
0
10
294.732
20
286.713
30
0.000
11
294.000
21
286.000
31
0.000
0
LINE
8
0
62
0
10
294.000
20
286.000
30
0.000
11
293.372
21
285.488
31
0.000
0
LINE
8
0
62
0
10
293.372
20
285.488
30
0.000
11
292.696
21
285.144
31
0.000
0
LINE
8
0
62
0
10
292.696
20
285.144
30
0.000
11
291.984
21
284.956
31
0.000
0
LINE
8
0
62
0
10
291.984
20
284.956
30
0.000
11
291.248
21
284.912
31
0.000
0
LINE
8
0
62
0
10
291.248
20
284.912
30
0.000
11
290.500
21
285.000
31
0.000
0
LINE
8
0
62
0
10
290.500
20
285.000
30
0.000
11
289.752
21
285.208
31
0.000
0
LINE
8
0
62
0
10
289.752
20
285.208
30
0.000
11
289.016
21
285.524
31
0.000
0
LINE
8
0
62
0
10
289.016
20
285.524
30
0.000
11
288.304
21
285.936
31
0.000
0
LINE
8
0
62
0
10
288.304
20
285.936
30
0.000
11
287.628
21
286.432
31
0.000
0
LINE
8
0
62
0
10
287.628
20
286.432
30
0.000
11
287.000
21
287.000
31
0.000
0
LINE
8
0
62
0
10
187.000
20
287.000
30
0.000
11
187.568
21
287.628
31
0.000
0
LINE
8
0
62
0
10
187.568
20
287.628
30
0.000
11
188.064
21
288.304
31
0.000
0
LINE
8
0
62
0
10
188.064
20
288.304
30
0.000
11
188.476
21
289.016
31
0.000
0
LINE
8
0
62
0
10
188.476
20
289.016
30
0.000
11
188.792
21
289.752
31
0.000
0
LINE
8
0
62
0
10
188.792
20
289.752
30
0.000
11
189.000
21
290.500
31
0.000
0
LINE
8
0
62
0
10
189.000
20
290.500
30
0.000
11
189.088
21
291.248
31
0.000
0
LINE
8
0
62
0
10
189.088
20
291.248
30
0.000
11
189.044
21
291.984
31
0.000
0
LINE
8
0
62
0
10
189.044
20
291.984
30
0.000
11
188.856
21
292.696
31
0.000
0
LINE
8
0
62
0
10
188.856
20
292.696
30
0.000
11
188.512
21
293.372
31
0.000
0
LINE
8
0
62
0
10
188.512
20
293.372
30
0.000
11
188.000
21
294.000
31
0.000
0
LINE
8
0
62
0
10
188.000
20
294.000
30
0.000
11
187.287
21
294.732
31
0.000
0
LINE
8
0
62
0
10
187.287
20
294.732
30
0.000
11
186.376
21
295.176
31
0.000
0
LINE
8
0
62
0
10
186.376
20
295.176
30
0.000
11
185.309
21
295.404
31
0.000
0
LINE
8
0
62
0
10
185.309
20
295.404
30
0.000
11
184.128
21
295.488
31
0.000
0
LINE
8
0
62
0
10
184.128
20
295.488
30
0.000
11
182.875
21
295.500
31
0.000
0
LINE
8
0
62
0
10
182.875
20
295.500
30
0.000
11
181.592
21
295.512
31
0.000
0
LINE
8
0
62
0
10
181.592
20
295.512
30
0.000
11
180.321
21
295.596
31
0.000
0
LINE
8
0
62
0
10
180.321
20
295.596
30
0.000
11
179.104
21
295.824
31
0.000
0
LINE
8
0
62
0
10
179.104
20
295.824
30
0.000
11
177.983
21
296.268
31
0.000
0
LINE
8
0
62
0
10
177.983
20
296.268
30
0.000
11
177.000
21
297.000
31
0.000
0
LINE
8
0
62
0
10
177.000
20
297.000
30
0.000
11
177.732
21
296.017
31
0.000
0
LINE
8
0
62
0
10
177.732
20
296.017
30
0.000
11
178.176
21
294.896
31
0.000
0
LINE
8
0
62
0
10
178.176
20
294.896
30
0.000
11
178.404
21
293.679
31
0.000
0
LINE
8
0
62
0
10
178.404
20
293.679
30
0.000
11
178.488
21
292.408
31
0.000
0
LINE
8
0
62
0
10
178.488
20
292.408
30
0.000
11
178.500
21
291.125
31
0.000
0
LINE
8
0
62
0
10
178.500
20
291.125
30
0.000
11
178.512
21
289.872
31
0.000
0
LINE
8
0
62
0
10
178.512
20
289.872
30
0.000
11
178.596
21
288.691
31
0.000
0
LINE
8
0
62
0
10
178.596
20
288.691
30
0.000
11
178.824
21
287.624
31
0.000
0
LINE
8
0
62
0
10
178.824
20
287.624
30
0.000
11
179.268
21
286.713
31
0.000
0
LINE
8
0
62
0
10
179.268
20
286.713
30
0.000
11
180.000
21
286.000
31
0.000
0
LINE
8
0
62
0
10
180.000
20
286.000
30
0.000
11
180.628
21
285.488
31
0.000
0
LINE
8
0
62
0
10
180.628
20
285.488
30
0.000
11
181.304
21
285.144
31
0.000
0
LINE
8
0
62
0
10
181.304
20
285.144
30
0.000
11
182.016
21
284.956
31
0.000
0
LINE
8
0
62
0
10
182.016
20
284.956
30
0.000
11
182.752
21
284.912
31
0.000
0
LINE
8
0
62
0
10
182.752
20
284.912
30
0.000
11
183.500
21
285.000
31
0.000
0
LINE
8
0
62
0
10
183.500
20
285.000
30
0.000
11
184.248
21
285.208
31
0.000
0
LINE
8
0
62
0
10
184.248
20
285.208
30
0.000
11
184.984
21
285.524
31
0.000
0
LINE
8
0
62
0
10
184.984
20
285.524
30
0.000
11
185.696
21
285.936
31
0.000
0
LINE
8
0
62
0
10
185.696
20
285.936
30
0.000
11
186.372
21
286.432
31
0.000
0
LINE
8
0
62
0
10
186.372
20
286.432
30
0.000
11
187.000
21
287.000
31
0.000
0
LINE
8
0
62
0
10
187.000
20
262.000
30
0.000
11
187.568
21
261.372
31
0.000
0
LINE
8
0
62
0
10
187.568
20
261.372
30
0.000
11
188.064
21
260.696
31
0.000
0
LINE
8
0
62
0
10
188.064
20
260.696
30
0.000
11
188.476
21
259.984
31
0.000
0
LINE
8
0
62
0
10
188.476
20
259.984
30
0.000
11
188.792
21
259.248
31
0.000
0
LINE
8
0
62
0
10
188.792
20
259.248
30
0.000
11
189.000
21
258.500
31
0.000
0
LINE
8
0
62
0
10
189.000
20
258.500
30
0.000
11
189.088
21
257.752
31
0.000
0
LINE
8
0
62
0
10
189.088
20
257.752
30
0.000
11
189.044
21
257.016
31
0.000
0
LINE
8
0
62
0
10
189.044
20
257.016
30
0.000
11
188.856
21
256.304
31
0.000
0
LINE
8
0
62
0
10
188.856
20
256.304
30
0.000
11
188.512
21
255.628
31
0.000
0
LINE
8
0
62
0
10
188.512
20
255.628
30
0.000
11
188.000
21
255.000
31
0.000
0
LINE
8
0
62
0
10
188.000
20
255.000
30
0.000
11
187.287
21
254.268
31
0.000
0
LINE
8
0
62
0
10
187.287
20
254.268
30
0.000
11
186.376
21
253.824
31
0.000
0
LINE
8
0
62
0
10
186.376
20
253.824
30
0.000
11
185.309
21
253.596
31
0.000
0
LINE
8
0
62
0
10
185.309
20
253.596
30
0.000
11
184.128
21
253.512
31
0.000
0
LINE
8
0
62
0
10
184.128
20
253.512
30
0.000
11
182.875
21
253.500
31
0.000
0
LINE
8
0
62
0
10
182.875
20
253.500
30
0.000
11
181.592
21
253.488
31
0.000
0
LINE
8
0
62
0
10
181.592
20
253.488
30
0.000
11
180.321
21
253.404
31
0.000
0
LINE
8
0
62
0
10
180.321
20
253.404
30
0.000
11
179.104
21
253.176
31
0.000
0
LINE
8
0
62
0
10
179.104
20
253.176
30
0.000
11
177.983
21
252.732
31
0.000
0
LINE
8
0
62
0
10
177.983
20
252.732
30
0.000
11
177.000
21
252.000
31
0.000
0
LINE
8
0
62
0
10
177.000
20
252.000
30
0.000
11
177.732
21
252.983
31
0.000
0
LINE
8
0
62
0
10
177.732
20
252.983
30
0.000
11
178.176
21
254.104
31
0.000
0
LINE
8
0
62
0
10
178.176
20
254.104
30
0.000
11
178.404
21
255.321
31
0.000
0
LINE
8
0
62
0
10
178.404
20
255.321
30
0.000
11
178.488
21
256.592
31
0.000
0
LINE
8
0
62
0
10
178.488
20
256.592
30
0.000
11
178.500
21
257.875
31
0.000
0
LINE
8
0
62
0
10
178.500
20
257.875
30
0.000
11
178.512
21
259.128
31
0.000
0
LINE
8
0
62
0
10
178.512
20
259.128
30
0.000
11
178.596
21
260.309
31
0.000
0
LINE
8
0
62
0
10
178.596
20
260.309
30
0.000
11
178.824
21
261.376
31
0.000
0
LINE
8
0
62
0
10
178.824
20
261.376
30
0.000
11
179.268
21
262.287
31
0.000
0
LINE
8
0
62
0
10
179.268
20
262.287
30
0.000
11
180.000
21
263.000
31
0.000
0
LINE
8
0
62
0
10
180.000
20
263.000
30
0.000
11
180.628
21
263.512
31
0.000
0
LINE
8
0
62
0
10
180.628
20
263.512
30
0.000
11
181.304
21
263.856
31
0.000
0
LINE
8
0
62
0
10
181.304
20
263.856
30
0.000
11
182.016
21
264.044
31
0.000
0
LINE
8
0
62
0
10
182.016
20
264.044
30
0.000
11
182.752
21
264.088
31
0.000
0
LINE
8
0
62
0
10
182.752
20
264.088
30
0.000
11
183.500
21
264.000
31
0.000
0
LINE
8
0
62
0
10
183.500
20
264.000
30
0.000
11
184.248
21
263.792
31
0.000
0
LINE
8
0
62
0
10
184.248
20
263.792
30
0.000
11
184.984
21
263.476
31
0.000
0
LINE
8
0
62
0
10
184.984
20
263.476
30
0.000
11
185.696
21
263.064
31
0.000
0
LINE
8
0
62
0
10
185.696
20
263.064
30
0.000
11
186.372
21
262.568
31
0.000
0
LINE
8
0
62
0
10
186.372
20
262.568
30
0.000
11
187.000
21
262.000
31
0.000
0
LINE
8
0
62
0
10
412.000
20
112.000
30
0.000
11
412.568
21
112.628
31
0.000
0
LINE
8
0
62
0
10
412.568
20
112.628
30
0.000
11
413.064
21
113.304
31
0.000
0
LINE
8
0
62
0
10
413.064
20
113.304
30
0.000
11
413.476
21
114.016
31
0.000
0
LINE
8
0
62
0
10
413.476
20
114.016
30
0.000
11
413.792
21
114.752
31
0.000
0
LINE
8
0
62
0
10
413.792
20
114.752
30
0.000
11
414.000
21
115.500
31
0.000
0
LINE
8
0
62
0
10
414.000
20
115.500
30
0.000
11
414.088
21
116.248
31
0.000
0
LINE
8
0
62
0
10
414.088
20
116.248
30
0.000
11
414.044
21
116.984
31
0.000
0
LINE
8
0
62
0
10
414.044
20
116.984
30
0.000
11
413.856
21
117.696
31
0.000
0
LINE
8
0
62
0
10
413.856
20
117.696
30
0.000
11
413.512
21
118.372
31
0.000
0
LINE
8
0
62
0
10
413.512
20
118.372
30
0.000
11
413.000
21
119.000
31
0.000
0
LINE
8
0
62
0
10
413.000
20
119.000
30
0.000
11
412.287
21
119.732
31
0.000
0
LINE
8
0
62
0
10
412.287
20
119.732
30
0.000
11
411.376
21
120.176
31
0.000
0
LINE
8
0
62
0
10
411.376
20
120.176
30
0.000
11
410.309
21
120.404
31
0.000
0
LINE
8
0
62
0
10
410.309
20
120.404
30
0.000
11
409.128
21
120.488
31
0.000
0
LINE
8
0
62
0
10
409.128
20
120.488
30
0.000
11
407.875
21
120.500
31
0.000
0
LINE
8
0
62
0
10
407.875
20
120.500
30
0.000
11
406.592
21
120.512
31
0.000
0
LINE
8
0
62
0
10
406.592
20
120.512
30
0.000
11
405.321
21
120.596
31
0.000
0
LINE
8
0
62
0
10
405.321
20
120.596
30
0.000
11
404.104
21
120.824
31
0.000
0
LINE
8
0
62
0
10
404.104
20
120.824
30
0.000
11
402.983
21
121.268
31
0.000
0
LINE
8
0
62
0
10
402.983
20
121.268
30
0.000
11
402.000
21
122.000
31
0.000
0
LINE
8
0
62
0
10
402.000
20
122.000
30
0.000
11
402.732
21
121.017
31
0.000
0
LINE
8
0
62
0
10
402.732
20
121.017
30
0.000
11
403.176
21
119.896
31
0.000
0
LINE
8
0
62
0
10
403.176
20
119.896
30
0.000
11
403.404
21
118.679
31
0.000
0
LINE
8
0
62
0
10
403.404
20
118.679
30
0.000
11
403.488
21
117.408
31
0.000
0
LINE
8
0
62
0
10
403.488
20
117.408
30
0.000
11
403.500
21
116.125
31
0.000
0
LINE
8
0
62
0
10
403.500
20
116.125
30
0.000
11
403.512
21
114.872
31
0.000
0
LINE
8
0
62
0
10
403.512
20
114.872
30
0.000
11
403.596
21
113.691
31
0.000
0
LINE
8
0
62
0
10
403.596
20
113.691
30
0.000
11
403.824
21
112.624
31
0.000
0
LINE
8
0
62
0
10
403.824
20
112.624
30
0.000
11
404.268
21
111.713
31
0.000
0
LINE
8
0
62
0
10
404.268
20
111.713
30
0.000
11
405.000
21
111.000
31
0.000
0
LINE
8
0
62
0
10
405.000
20
111.000
30
0.000
11
405.628
21
110.488
31
0.000
0
LINE
8
0
62
0
10
405.628
20
110.488
30
0.000
11
406.304
21
110.144
31
0.000
0
LINE
8
0
62
0
10
406.304
20
110.144
30
0.000
11
407.016
21
109.956
31
0.000
0
LINE
8
0
62
0
10
407.016
20
109.956
30
0.000
11
407.752
21
109.912
31
0.000
0
LINE
8
0
62
0
10
407.752
20
109.912
30
0.000
11
408.500
21
110.000
31
0.000
0
LINE
8
0
62
0
10
408.500
20
110.000
30
0.000
11
409.248
21
110.208
31
0.000
0
LINE
8
0
62
0
10
409.248
20
110.208
30
0.000
11
409.984
21
110.524
31
0.000
0
LINE
8
0
62
0
10
409.984
20
110.524
30
0.000
11
410.696
21
110.936
31
0.000
0
LINE
8
0
62
0
10
410.696
20
110.936
30
0.000
11
411.372
21
111.432
31
0.000
0
LINE
8
0
62
0
10
411.372
20
111.432
30
0.000
11
412.000
21
112.000
31
0.000
0
LINE
8
0
62
0
10
262.000
20
212.000
30
0.000
11
262.568
21
211.372
31
0.000
0
LINE
8
0
62
0
10
262.568
20
211.372
30
0.000
11
263.064
21
210.696
31
0.000
0
LINE
8
0
62
0
10
263.064
20
210.696
30
0.000
11
263.476
21
209.984
31
0.000
0
LINE
8
0
62
0
10
263.476
20
209.984
30
0.000
11
263.792
21
209.248
31
0.000
0
LINE
8
0
62
0
10
263.792
20
209.248
30
0.000
11
264.000
21
208.500
31
0.000
0
LINE
8
0
62
0
10
264.000
20
208.500
30
0.000
11
264.088
21
207.752
31
0.000
0
LINE
8
0
62
0
10
264.088
20
207.752
30
0.000
11
264.044
21
207.016
31
0.000
0
LINE
8
0
62
0
10
264.044
20
207.016
30
0.000
11
263.856
21
206.304
31
0.000
0
LINE
8
0
62
0
10
263.856
20
206.304
30
0.000
11
263.512
21
205.628
31
0.000
0
LINE
8
0
62
0
10
263.512
20
205.628
30
0.000
11
263.000
21
205.000
31
0.000
0
LINE
8
0
62
0
10
263.000
20
205.000
30
0.000
11
262.287
21
204.268
31
0.000
0
LINE
8
0
62
0
10
262.287
20
204.268
30
0.000
11
261.376
21
203.824
31
0.000
0
LINE
8
0
62
0
10
261.376
20
203.824
30
0.000
11
260.309
21
203.596
31
0.000
0
LINE
8
0
62
0
10
260.309
20
203.596
30
0.000
11
259.128
21
203.512
31
0.000
0
LINE
8
0
62
0
10
259.128
20
203.512
30
0.000
11
257.875
21
203.500
31
0.000
0
LINE
8
0
62
0
10
257.875
20
203.500
30
0.000
11
256.592
21
203.488
31
0.000
0
LINE
8
0
62
0
10
256.592
20
203.488
30
0.000
11
255.321
21
203.404
31
0.000
0
LINE
8
0
62
0
10
255.321
20
203.404
30
0.000
11
254.104
21
203.176
31
0.000
0
LINE
8
0
62
0
10
254.104
20
203.176
30
0.000
11
252.983
21
202.732
31
0.000
0
LINE
8
0
62
0
10
252.983
20
202.732
30
0.000
11
252.000
21
202.000
31
0.000
0
LINE
8
0
62
0
10
252.000
20
202.000
30
0.000
11
252.732
21
202.983
31
0.000
0
LINE
8
0
62
0
10
252.732
20
202.983
30
0.000
11
253.176
21
204.104
31
0.000
0
LINE
8
0
62
0
10
253.176
20
204.104
30
0.000
11
253.404
21
205.321
31
0.000
0
LINE
8
0
62
0
10
253.404
20
205.321
30
0.000
11
253.488
21
206.592
31
0.000
0
LINE
8
0
62
0
10
253.488
20
206.592
30
0.000
11
253.500
21
207.875
31
0.000
0
LINE
8
0
62
0
10
253.500
20
207.875
30
0.000
11
253.512
21
209.128
31
0.000
0
LINE
8
0
62
0
10
253.512
20
209.128
30
0.000
11
253.596
21
210.309
31
0.000
0
LINE
8
0
62
0
10
253.596
20
210.309
30
0.000
11
253.824
21
211.376
31
0.000
0
LINE
8
0
62
0
10
253.824
20
211.376
30
0.000
11
254.268
21
212.287
31
0.000
0
LINE
8
0
62
0
10
254.268
20
212.287
30
0.000
11
255.000
21
213.000
31
0.000
0
LINE
8
0
62
0
10
255.000
20
213.000
30
0.000
11
255.628
21
213.512
31
0.000
0
LINE
8
0
62
0
10
255.628
20
213.512
30
0.000
11
256.304
21
213.856
31
0.000
0
LINE
8
0
62
0
10
256.304
20
213.856
30
0.000
11
257.016
21
214.044
31
0.000
0
LINE
8
0
62
0
10
257.016
20
214.044
30
0.000
11
257.752
21
214.088
31
0.000
0
LINE
8
0
62
0
10
257.752
20
214.088
30
0.000
11
258.500
21
214.000
31
0.000
0
LINE
8
0
62
0
10
258.500
20
214.000
30
0.000
11
259.248
21
213.792
31
0.000
0
LINE
8
0
62
0
10
259.248
20
213.792
30
0.000
11
259.984
21
213.476
31
0.000
0
LINE
8
0
62
0
10
259.984
20
213.476
30
0.000
11
260.696
21
213.064
31
0.000
0
LINE
8
0
62
0
10
260.696
20
213.064
30
0.000
11
261.372
21
212.568
31
0.000
0
LINE
8
0
62
0
10
261.372
20
212.568
30
0.000
11
262.000
21
212.000
31
0.000
0
LINE
8
0
62
0
10
187.000
20
212.000
30
0.000
11
186.432
21
211.372
31
0.000
0
LINE
8
0
62
0
10
186.432
20
211.372
30
0.000
11
185.936
21
210.696
31
0.000
0
LINE
8
0
62
0
10
185.936
20
210.696
30
0.000
11
185.524
21
209.984
31
0.000
0
LINE
8
0
62
0
10
185.524
20
209.984
30
0.000
11
185.208
21
209.248
31
0.000
0
LINE
8
0
62
0
10
185.208
20
209.248
30
0.000
11
185.000
21
208.500
31
0.000
0
LINE
8
0
62
0
10
185.000
20
208.500
30
0.000
11
184.912
21
207.752
31
0.000
0
LINE
8
0
62
0
10
184.912
20
207.752
30
0.000
11
184.956
21
207.016
31
0.000
0
LINE
8
0
62
0
10
184.956
20
207.016
30
0.000
11
185.144
21
206.304
31
0.000
0
LINE
8
0
62
0
10
185.144
20
206.304
30
0.000
11
185.488
21
205.628
31
0.000
0
LINE
8
0
62
0
10
185.488
20
205.628
30
0.000
11
186.000
21
205.000
31
0.000
0
LINE
8
0
62
0
10
186.000
20
205.000
30
0.000
11
186.713
21
204.268
31
0.000
0
LINE
8
0
62
0
10
186.713
20
204.268
30
0.000
11
187.624
21
203.824
31
0.000
0
LINE
8
0
62
0
10
187.624
20
203.824
30
0.000
11
188.691
21
203.596
31
0.000
0
LINE
8
0
62
0
10
188.691
20
203.596
30
0.000
11
189.872
21
203.512
31
0.000
0
LINE
8
0
62
0
10
189.872
20
203.512
30
0.000
11
191.125
21
203.500
31
0.000
0
LINE
8
0
62
0
10
191.125
20
203.500
30
0.000
11
192.408
21
203.488
31
0.000
0
LINE
8
0
62
0
10
192.408
20
203.488
30
0.000
11
193.679
21
203.404
31
0.000
0
LINE
8
0
62
0
10
193.679
20
203.404
30
0.000
11
194.896
21
203.176
31
0.000
0
LINE
8
0
62
0
10
194.896
20
203.176
30
0.000
11
196.017
21
202.732
31
0.000
0
LINE
8
0
62
0
10
196.017
20
202.732
30
0.000
11
197.000
21
202.000
31
0.000
0
LINE
8
0
62
0
10
197.000
20
202.000
30
0.000
11
196.268
21
202.983
31
0.000
0
LINE
8
0
62
0
10
196.268
20
202.983
30
0.000
11
195.824
21
204.104
31
0.000
0
LINE
8
0
62
0
10
195.824
20
204.104
30
0.000
11
195.596
21
205.321
31
0.000
0
LINE
8
0
62
0
10
195.596
20
205.321
30
0.000
11
195.512
21
206.592
31
0.000
0
LINE
8
0
62
0
10
195.512
20
206.592
30
0.000
11
195.500
21
207.875
31
0.000
0
LINE
8
0
62
0
10
195.500
20
207.875
30
0.000
11
195.488
21
209.128
31
0.000
0
LINE
8
0
62
0
10
195.488
20
209.128
30
0.000
11
195.404
21
210.309
31
0.000
0
LINE
8
0
62
0
10
195.404
20
210.309
30
0.000
11
195.176
21
211.376
31
0.000
0
LINE
8
0
62
0
10
195.176
20
211.376
30
0.000
11
194.732
21
212.287
31
0.000
0
LINE
8
0
62
0
10
194.732
20
212.287
30
0.000
11
194.000
21
213.000
31
0.000
0
LINE
8
0
62
0
10
194.000
20
213.000
30
0.000
11
193.372
21
213.512
31
0.000
0
LINE
8
0
62
0
10
193.372
20
213.512
30
0.000
11
192.696
21
213.856
31
0.000
0
LINE
8
0
62
0
10
192.696
20
213.856
30
0.000
11
191.984
21
214.044
31
0.000
0
LINE
8
0
62
0
10
191.984
20
214.044
30
0.000
11
191.248
21
214.088
31
0.000
0
LINE
8
0
62
0
10
191.248
20
214.088
30
0.000
11
190.500
21
214.000
31
0.000
0
LINE
8
0
62
0
10
190.500
20
214.000
30
0.000
11
189.752
21
213.792
31
0.000
0
LINE
8
0
62
0
10
189.752
20
213.792
30
0.000
11
189.016
21
213.476
31
0.000
0
LINE
8
0
62
0
10
189.016
20
213.476
30
0.000
11
188.304
21
213.064
31
0.000
0
LINE
8
0
62
0
10
188.304
20
213.064
30
0.000
11
187.628
21
212.568
31
0.000
0
LINE
8
0
62
0
10
187.628
20
212.568
30
0.000
11
187.000
21
212.000
31
0.000
0
LINE
8
0
62
0
10
387.000
20
162.000
30
0.000
11
387.568
21
161.372
31
0.000
0
LINE
8
0
62
0
10
387.568
20
161.372
30
0.000
11
388.064
21
160.696
31
0.000
0
LINE
8
0
62
0
10
388.064
20
160.696
30
0.000
11
388.476
21
159.984
31
0.000
0
LINE
8
0
62
0
10
388.476
20
159.984
30
0.000
11
388.792
21
159.248
31
0.000
0
LINE
8
0
62
0
10
388.792
20
159.248
30
0.000
11
389.000
21
158.500
31
0.000
0
LINE
8
0
62
0
10
389.000
20
158.500
30
0.000
11
389.088
21
157.752
31
0.000
0
LINE
8
0
62
0
10
389.088
20
157.752
30
0.000
11
389.044
21
157.016
31
0.000
0
LINE
8
0
62
0
10
389.044
20
157.016
30
0.000
11
388.856
21
156.304
31
0.000
0
LINE
8
0
62
0
10
388.856
20
156.304
30
0.000
11
388.512
21
155.628
31
0.000
0
LINE
8
0
62
0
10
388.512
20
155.628
30
0.000
11
388.000
21
155.000
31
0.000
0
LINE
8
0
62
0
10
388.000
20
155.000
30
0.000
11
387.287
21
154.268
31
0.000
0
LINE
8
0
62
0
10
387.287
20
154.268
30
0.000
11
386.376
21
153.824
31
0.000
0
LINE
8
0
62
0
10
386.376
20
153.824
30
0.000
11
385.309
21
153.596
31
0.000
0
LINE
8
0
62
0
10
385.309
20
153.596
30
0.000
11
384.128
21
153.512
31
0.000
0
LINE
8
0
62
0
10
384.128
20
153.512
30
0.000
11
382.875
21
153.500
31
0.000
0
LINE
8
0
62
0
10
382.875
20
153.500
30
0.000
11
381.592
21
153.488
31
0.000
0
LINE
8
0
62
0
10
381.592
20
153.488
30
0.000
11
380.321
21
153.404
31
0.000
0
LINE
8
0
62
0
10
380.321
20
153.404
30
0.000
11
379.104
21
153.176
31
0.000
0
LINE
8
0
62
0
10
379.104
20
153.176
30
0.000
11
377.983
21
152.732
31
0.000
0
LINE
8
0
62
0
10
377.983
20
152.732
30
0.000
11
377.000
21
152.000
31
0.000
0
LINE
8
0
62
0
10
377.000
20
152.000
30
0.000
11
377.732
21
152.983
31
0.000
0
LINE
8
0
62
0
10
377.732
20
152.983
30
0.000
11
378.176
21
154.104
31
0.000
0
LINE
8
0
62
0
10
378.176
20
154.104
30
0.000
11
378.404
21
155.321
31
0.000
0
LINE
8
0
62
0
10
378.404
20
155.321
30
0.000
11
378.488
21
156.592
31
0.000
0
LINE
8
0
62
0
10
378.488
20
156.592
30
0.000
11
378.500
21
157.875
31
0.000
0
LINE
8
0
62
0
10
378.500
20
157.875
30
0.000
11
378.512
21
159.128
31
0.000
0
LINE
8
0
62
0
10
378.512
20
159.128
30
0.000
11
378.596
21
160.309
31
0.000
0
LINE
8
0
62
0
10
378.596
20
160.309
30
0.000
11
378.824
21
161.376
31
0.000
0
LINE
8
0
62
0
10
378.824
20
161.376
30
0.000
11
379.268
21
162.287
31
0.000
0
LINE
8
0
62
0
10
379.268
20
162.287
30
0.000
11
380.000
21
163.000
31
0.000
0
LINE
8
0
62
0
10
380.000
20
163.000
30
0.000
11
380.628
21
163.512
31
0.000
0
LINE
8
0
62
0
10
380.628
20
163.512
30
0.000
11
381.304
21
163.856
31
0.000
0
LINE
8
0
62
0
10
381.304
20
163.856
30
0.000
11
382.016
21
164.044
31
0.000
0
LINE
8
0
62
0
10
382.016
20
164.044
30
0.000
11
382.752
21
164.088
31
0.000
0
LINE
8
0
62
0
10
382.752
20
164.088
30
0.000
11
383.500
21
164.000
31
0.000
0
LINE
8
0
62
0
10
383.500
20
164.000
30
0.000
11
384.248
21
163.792
31
0.000
0
LINE
8
0
62
0
10
384.248
20
163.792
30
0.000
11
384.984
21
163.476
31
0.000
0
LINE
8
0
62
0
10
384.984
20
163.476
30
0.000
11
385.696
21
163.064
31
0.000
0
LINE
8
0
62
0
10
385.696
20
163.064
30
0.000
11
386.372
21
162.568
31
0.000
0
LINE
8
0
62
0
10
386.372
20
162.568
30
0.000
11
387.000
21
162.000
31
0.000
0
LINE
8
0
62
0
10
312.000
20
212.000
30
0.000
11
311.432
21
212.628
31
0.000
0
LINE
8
0
62
0
10
311.432
20
212.628
30
0.000
11
310.936
21
213.304
31
0.000
0
LINE
8
0
62
0
10
310.936
20
213.304
30
0.000
11
310.524
21
214.016
31
0.000
0
LINE
8
0
62
0
10
310.524
20
214.016
30
0.000
11
310.208
21
214.752
31
0.000
0
LINE
8
0
62
0
10
310.208
20
214.752
30
0.000
11
310.000
21
215.500
31
0.000
0
LINE
8
0
62
0
10
310.000
20
215.500
30
0.000
11
309.912
21
216.248
31
0.000
0
LINE
8
0
62
0
10
309.912
20
216.248
30
0.000
11
309.956
21
216.984
31
0.000
0
LINE
8
0
62
0
10
309.956
20
216.984
30
0.000
11
310.144
21
217.696
31
0.000
0
LINE
8
0
62
0
10
310.144
20
217.696
30
0.000
11
310.488
21
218.372
31
0.000
0
LINE
8
0
62
0
10
310.488
20
218.372
30
0.000
11
311.000
21
219.000
31
0.000
0
LINE
8
0
62
0
10
311.000
20
219.000
30
0.000
11
311.713
21
219.732
31
0.000
0
LINE
8
0
62
0
10
311.713
20
219.732
30
0.000
11
312.624
21
220.176
31
0.000
0
LINE
8
0
62
0
10
312.624
20
220.176
30
0.000
11
313.691
21
220.404
31
0.000
0
LINE
8
0
62
0
10
313.691
20
220.404
30
0.000
11
314.872
21
220.488
31
0.000
0
LINE
8
0
62
0
10
314.872
20
220.488
30
0.000
11
316.125
21
220.500
31
0.000
0
LINE
8
0
62
0
10
316.125
20
220.500
30
0.000
11
317.408
21
220.512
31
0.000
0
LINE
8
0
62
0
10
317.408
20
220.512
30
0.000
11
318.679
21
220.596
31
0.000
0
LINE
8
0
62
0
10
318.679
20
220.596
30
0.000
11
319.896
21
220.824
31
0.000
0
LINE
8
0
62
0
10
319.896
20
220.824
30
0.000
11
321.017
21
221.268
31
0.000
0
LINE
8
0
62
0
10
321.017
20
221.268
30
0.000
11
322.000
21
222.000
31
0.000
0
LINE
8
0
62
0
10
322.000
20
222.000
30
0.000
11
321.268
21
221.017
31
0.000
0
LINE
8
0
62
0
10
321.268
20
221.017
30
0.000
11
320.824
21
219.896
31
0.000
0
LINE
8
0
62
0
10
320.824
20
219.896
30
0.000
11
320.596
21
218.679
31
0.000
0
LINE
8
0
62
0
10
320.596
20
218.679
30
0.000
11
320.512
21
217.408
31
0.000
0
LINE
8
0
62
0
10
320.512
20
217.408
30
0.000
11
320.500
21
216.125
31
0.000
0
LINE
8
0
62
0
10
320.500
20
216.125
30
0.000
11
320.488
21
214.872
31
0.000
0
LINE
8
0
62
0
10
320.488
20
214.872
30
0.000
11
320.404
21
213.691
31
0.000
0
LINE
8
0
62
0
10
320.404
20
213.691
30
0.000
11
320.176
21
212.624
31
0.000
0
LINE
8
0
62
0
10
320.176
20
212.624
30
0.000
11
319.732
21
211.713
31
0.000
0
LINE
8
0
62
0
10
319.732
20
211.713
30
0.000
11
319.000
21
211.000
31
0.000
0
LINE
8
0
62
0
10
319.000
20
211.000
30
0.000
11
318.372
21
210.488
31
0.000
0
LINE
8
0
62
0
10
318.372
20
210.488
30
0.000
11
317.696
21
210.144
31
0.000
0
LINE
8
0
62
0
10
317.696
20
210.144
30
0.000
11
316.984
21
209.956
31
0.000
0
LINE
8
0
62
0
10
316.984
20
209.956
30
0.000
11
316.248
21
209.912
31
0.000
0
LINE
8
0
62
0
10
316.248
20
209.912
30
0.000
11
315.500
21
210.000
31
0.000
0
LINE
8
0
62
0
10
315.500
20
210.000
30
0.000
11
314.752
21
210.208
31
0.000
0
LINE
8
0
62
0
10
314.752
20
210.208
30
0.000
11
314.016
21
210.524
31
0.000
0
LINE
8
0
62
0
10
314.016
20
210.524
30
0.000
11
313.304
21
210.936
31
0.000
0
LINE
8
0
62
0
10
313.304
20
210.936
30
0.000
11
312.628
21
211.432
31
0.000
0
LINE
8
0
62
0
10
312.628
20
211.432
30
0.000
11
312.000
21
212.000
31
0.000
0
LINE
8
0
62
0
10
237.000
20
187.000
30
0.000
11
237.568
21
186.372
31
0.000
0
LINE
8
0
62
0
10
237.568
20
186.372
30
0.000
11
238.064
21
185.696
31
0.000
0
LINE
8
0
62
0
10
238.064
20
185.696
30
0.000
11
238.476
21
184.984
31
0.000
0
LINE
8
0
62
0
10
238.476
20
184.984
30
0.000
11
238.792
21
184.248
31
0.000
0
LINE
8
0
62
0
10
238.792
20
184.248
30
0.000
11
239.000
21
183.500
31
0.000
0
LINE
8
0
62
0
10
239.000
20
183.500
30
0.000
11
239.088
21
182.752
31
0.000
0
LINE
8
0
62
0
10
239.088
20
182.752
30
0.000
11
239.044
21
182.016
31
0.000
0
LINE
8
0
62
0
10
239.044
20
182.016
30
0.000
11
238.856
21
181.304
31
0.000
0
LINE
8
0
62
0
10
238.856
20
181.304
30
0.000
11
238.512
21
180.628
31
0.000
0
LINE
8
0
62
0
10
238.512
20
180.628
30
0.000
11
238.000
21
180.000
31
0.000
0
LINE
8
0
62
0
10
238.000
20
180.000
30
0.000
11
237.287
21
179.268
31
0.000
0
LINE
8
0
62
0
10
237.287
20
179.268
30
0.000
11
236.376
21
178.824
31
0.000
0
LINE
8
0
62
0
10
236.376
20
178.824
30
0.000
11
235.309
21
178.596
31
0.000
0
LINE
8
0
62
0
10
235.309
20
178.596
30
0.000
11
234.128
21
178.512
31
0.000
0
LINE
8
0
62
0
10
234.128
20
178.512
30
0.000
11
232.875
21
178.500
31
0.000
0
LINE
8
0
62
0
10
232.875
20
178.500
30
0.000
11
231.592
21
178.488
31
0.000
0
LINE
8
0
62
0
10
231.592
20
178.488
30
0.000
11
230.321
21
178.404
31
0.000
0
LINE
8
0
62
0
10
230.321
20
178.404
30
0.000
11
229.104
21
178.176
31
0.000
0
LINE
8
0
62
0
10
229.104
20
178.176
30
0.000
11
227.983
21
177.732
31
0.000
0
LINE
8
0
62
0
10
227.983
20
177.732
30
0.000
11
227.000
21
177.000
31
0.000
0
LINE
8
0
62
0
10
227.000
20
177.000
30
0.000
11
227.732
21
177.983
31
0.000
0
LINE
8
0
62
0
10
227.732
20
177.983
30
0.000
11
228.176
21
179.104
31
0.000
0
LINE
8
0
62
0
10
228.176
20
179.104
30
0.000
11
228.404
21
180.321
31
0.000
0
LINE
8
0
62
0
10
228.404
20
180.321
30
0.000
11
228.488
21
181.592
31
0.000
0
LINE
8
0
62
0
10
228.488
20
181.592
30
0.000
11
228.500
21
182.875
31
0.000
0
LINE
8
0
62
0
10
228.500
20
182.875
30
0.000
11
228.512
21
184.128
31
0.000
0
LINE
8
0
62
0
10
228.512
20
184.128
30
0.000
11
228.596
21
185.309
31
0.000
0
LINE
8
0
62
0
10
228.596
20
185.309
30
0.000
11
228.824
21
186.376
31
0.000
0
LINE
8
0
62
0
10
228.824
20
186.376
30
0.000
11
229.268
21
187.287
31
0.000
0
LINE
8
0
62
0
10
229.268
20
187.287
30
0.000
11
230.000
21
188.000
31
0.000
0
LINE
8
0
62
0
10
230.000
20
188.000
30
0.000
11
230.628
21
188.512
31
0.000
0
LINE
8
0
62
0
10
230.628
20
188.512
30
0.000
11
231.304
21
188.856
31
0.000
0
LINE
8
0
62
0
10
231.304
20
188.856
30
0.000
11
232.016
21
189.044
31
0.000
0
LINE
8
0
62
0
10
232.016
20
189.044
30
0.000
11
232.752
21
189.088
31
0.000
0
LINE
8
0
62
0
10
232.752
20
189.088
30
0.000
11
233.500
21
189.000
31
0.000
0
LINE
8
0
62
0
10
233.500
20
189.000
30
0.000
11
234.248
21
188.792
31
0.000
0
LINE
8
0
62
0
10
234.248
20
188.792
30
0.000
11
234.984
21
188.476
31
0.000
0
LINE
8
0
62
0
10
234.984
20
188.476
30
0.000
11
235.696
21
188.064
31
0.000
0
LINE
8
0
62
0
10
235.696
20
188.064
30
0.000
11
236.372
21
187.568
31
0.000
0
LINE
8
0
62
0
10
236.372
20
187.568
30
0.000
11
237.000
21
187.000
31
0.000
0
LINE
8
0
62
0
10
212.000
20
187.000
30
0.000
11
211.432
21
186.372
31
0.000
0
LINE
8
0
62
0
10
211.432
20
186.372
30
0.000
11
210.936
21
185.696
31
0.000
0
LINE
8
0
62
0
10
210.936
20
185.696
30
0.000
11
210.524
21
184.984
31
0.000
0
LINE
8
0
62
0
10
210.524
20
184.984
30
0.000
11
210.208
21
184.248
31
0.000
0
LINE
8
0
62
0
10
210.208
20
184.248
30
0.000
11
210.000
21
183.500
31
0.000
0
LINE
8
0
62
0
10
210.000
20
183.500
30
0.000
11
209.912
21
182.752
31
0.000
0
LINE
8
0
62
0
10
209.912
20
182.752
30
0.000
11
209.956
21
182.016
31
0.000
0
LINE
8
0
62
0
10
209.956
20
182.016
30
0.000
11
210.144
21
181.304
31
0.000
0
LINE
8
0
62
0
10
210.144
20
181.304
30
0.000
11
210.488
21
180.628
31
0.000
0
LINE
8
0
62
0
10
210.488
20
180.628
30
0.000
11
211.000
21
180.000
31
0.000
0
LINE
8
0
62
0
10
211.000
20
180.000
30
0.000
11
211.713
21
179.268
31
0.000
0
LINE
8
0
62
0
10
211.713
20
179.268
30
0.000
11
212.624
21
178.824
31
0.000
0
LINE
8
0
62
0
10
212.624
20
178.824
30
0.000
11
213.691
21
178.596
31
0.000
0
LINE
8
0
62
0
10
213.691
20
178.596
30
0.000
11
214.872
21
178.512
31
0.000
0
LINE
8
0
62
0
10
214.872
20
178.512
30
0.000
11
216.125
21
178.500
31
0.000
0
LINE
8
0
62
0
10
216.125
20
178.500
30
0.000
11
217.408
21
178.488
31
0.000
0
LINE
8
0
62
0
10
217.408
20
178.488
30
0.000
11
218.679
21
178.404
31
0.000
0
LINE
8
0
62
0
10
218.679
20
178.404
30
0.000
11
219.896
21
178.176
31
0.000
0
LINE
8
0
62
0
10
219.896
20
178.176
30
0.000
11
221.017
21
177.732
31
0.000
0
LINE
8
0
62
0
10
221.017
20
177.732
30
0.000
11
222.000
21
177.000
31
0.000
0
LINE
8
0
62
0
10
222.000
20
177.000
30
0.000
11
221.268
21
177.983
31
0.000
0
LINE
8
0
62
0
10
221.268
20
177.983
30
0.000
11
220.824
21
179.104
31
0.000
0
LINE
8
0
62
0
10
220.824
20
179.104
30
0.000
11
220.596
21
180.321
31
0.000
0
LINE
8
0
62
0
10
220.596
20
180.321
30
0.000
11
220.512
21
181.592
31
0.000
0
LINE
8
0
62
0
10
220.512
20
181.592
30
0.000
11
220.500
21
182.875
31
0.000
0
LINE
8
0
62
0
10
220.500
20
182.875
30
0.000
11
220.488
21
184.128
31
0.000
0
LINE
8
0
62
0
10
220.488
20
184.128
30
0.000
11
220.404
21
185.309
31
0.000
0
LINE
8
0
62
0
10
220.404
20
185.309
30
0.000
11
220.176
21
186.376
31
0.000
0
LINE
8
0
62
0
10
220.176
20
186.376
30
0.000
11
219.732
21
187.287
31
0.000
0
LINE
8
0
62
0
10
219.732
20
187.287
30
0.000
11
219.000
21
188.000
31
0.000
0
LINE
8
0
62
0
10
219.000
20
188.000
30
0.000
11
218.372
21
188.512
31
0.000
0
LINE
8
0
62
0
10
218.372
20
188.512
30
0.000
11
217.696
21
188.856
31
0.000
0
LINE
8
0
62
0
10
217.696
20
188.856
30
0.000
11
216.984
21
189.044
31
0.000
0
LINE
8
0
62
0
10
216.984
20
189.044
30
0.000
11
216.248
21
189.088
31
0.000
0
LINE
8
0
62
0
10
216.248
20
189.088
30
0.000
11
215.500
21
189.000
31
0.000
0
LINE
8
0
62
0
10
215.500
20
189.000
30
0.000
11
214.752
21
188.792
31
0.000
0
LINE
8
0
62
0
10
214.752
20
188.792
30
0.000
11
214.016
21
188.476
31
0.000
0
LINE
8
0
62
0
10
214.016
20
188.476
30
0.000
11
213.304
21
188.064
31
0.000
0
LINE
8
0
62
0
10
213.304
20
188.064
30
0.000
11
212.628
21
187.568
31
0.000
0
LINE
8
0
62
0
10
212.628
20
187.568
30
0.000
11
212.000
21
187.000
31
0.000
0
LINE
8
0
62
0
10
337.000
20
187.000
30
0.000
11
336.432
21
187.628
31
0.000
0
LINE
8
0
62
0
10
336.432
20
187.628
30
0.000
11
335.936
21
188.304
31
0.000
0
LINE
8
0
62
0
10
335.936
20
188.304
30
0.000
11
335.524
21
189.016
31
0.000
0
LINE
8
0
62
0
10
335.524
20
189.016
30
0.000
11
335.208
21
189.752
31
0.000
0
LINE
8
0
62
0
10
335.208
20
189.752
30
0.000
11
335.000
21
190.500
31
0.000
0
LINE
8
0
62
0
10
335.000
20
190.500
30
0.000
11
334.912
21
191.248
31
0.000
0
LINE
8
0
62
0
10
334.912
20
191.248
30
0.000
11
334.956
21
191.984
31
0.000
0
LINE
8
0
62
0
10
334.956
20
191.984
30
0.000
11
335.144
21
192.696
31
0.000
0
LINE
8
0
62
0
10
335.144
20
192.696
30
0.000
11
335.488
21
193.372
31
0.000
0
LINE
8
0
62
0
10
335.488
20
193.372
30
0.000
11
336.000
21
194.000
31
0.000
0
LINE
8
0
62
0
10
336.000
20
194.000
30
0.000
11
336.713
21
194.732
31
0.000
0
LINE
8
0
62
0
10
336.713
20
194.732
30
0.000
11
337.624
21
195.176
31
0.000
0
LINE
8
0
62
0
10
337.624
20
195.176
30
0.000
11
338.691
21
195.404
31
0.000
0
LINE
8
0
62
0
10
338.691
20
195.404
30
0.000
11
339.872
21
195.488
31
0.000
0
LINE
8
0
62
0
10
339.872
20
195.488
30
0.000
11
341.125
21
195.500
31
0.000
0
LINE
8
0
62
0
10
341.125
20
195.500
30
0.000
11
342.408
21
195.512
31
0.000
0
LINE
8
0
62
0
10
342.408
20
195.512
30
0.000
11
343.679
21
195.596
31
0.000
0
LINE
8
0
62
0
10
343.679
20
195.596
30
0.000
11
344.896
21
195.824
31
0.000
0
LINE
8
0
62
0
10
344.896
20
195.824
30
0.000
11
346.017
21
196.268
31
0.000
0
LINE
8
0
62
0
10
346.017
20
196.268
30
0.000
11
347.000
21
197.000
31
0.000
0
LINE
8
0
62
0
10
347.000
20
197.000
30
0.000
11
346.268
21
196.017
31
0.000
0
LINE
8
0
62
0
10
346.268
20
196.017
30
0.000
11
345.824
21
194.896
31
0.000
0
LINE
8
0
62
0
10
345.824
20
194.896
30
0.000
11
345.596
21
193.679
31
0.000
0
LINE
8
0
62
0
10
345.596
20
193.679
30
0.000
11
345.512
21
192.408
31
0.000
0
LINE
8
0
62
0
10
345.512
20
192.408
30
0.000
11
345.500
21
191.125
31
0.000
0
LINE
8
0
62
0
10
345.500
20
191.125
30
0.000
11
345.488
21
189.872
31
0.000
0
LINE
8
0
62
0
10
345.488
20
189.872
30
0.000
11
345.404
21
188.691
31
0.000
0
LINE
8
0
62
0
10
345.404
20
188.691
30
0.000
11
345.176
21
187.624
31
0.000
0
LINE
8
0
62
0
10
345.176
20
187.624
30
0.000
11
344.732
21
186.713
31
0.000
0
LINE
8
0
62
0
10
344.732
20
186.713
30
0.000
11
344.000
21
186.000
31
0.000
0
LINE
8
0
62
0
10
344.000
20
186.000
30
0.000
11
343.372
21
185.488
31
0.000
0
LINE
8
0
62
0
10
343.372
20
185.488
30
0.000
11
342.696
21
185.144
31
0.000
0
LINE
8
0
62
0
10
342.696
20
185.144
30
0.000
11
341.984
21
184.956
31
0.000
0
LINE
8
0
62
0
10
341.984
20
184.956
30
0.000
11
341.248
21
184.912
31
0.000
0
LINE
8
0
62
0
10
341.248
20
184.912
30
0.000
11
340.500
21
185.000
31
0.000
0
LINE
8
0
62
0
10
340.500
20
185.000
30
0.000
11
339.752
21
185.208
31
0.000
0
LINE
8
0
62
0
10
339.752
20
185.208
30
0.000
11
339.016
21
185.524
31
0.000
0
LINE
8
0
62
0
10
339.016
20
185.524
30
0.000
11
338.304
21
185.936
31
0.000
0
LINE
8
0
62
0
10
338.304
20
185.936
30
0.000
11
337.628
21
186.432
31
0.000
0
LINE
8
0
62
0
10
337.628
20
186.432
30
0.000
11
337.000
21
187.000
31
0.000
0
LINE
8
0
62
0
10
262.000
20
187.000
30
0.000
11
262.568
21
187.628
31
0.000
0
LINE
8
0
62
0
10
262.568
20
187.628
30
0.000
11
263.064
21
188.304
31
0.000
0
LINE
8
0
62
0
10
263.064
20
188.304
30
0.000
11
263.476
21
189.016
31
0.000
0
LINE
8
0
62
0
10
263.476
20
189.016
30
0.000
11
263.792
21
189.752
31
0.000
0
LINE
8
0
62
0
10
263.792
20
189.752
30
0.000
11
264.000
21
190.500
31
0.000
0
LINE
8
0
62
0
10
264.000
20
190.500
30
0.000
11
264.088
21
191.248
31
0.000
0
LINE
8
0
62
0
10
264.088
20
191.248
30
0.000
11
264.044
21
191.984
31
0.000
0
LINE
8
0
62
0
10
264.044
20
191.984
30
0.000
11
263.856
21
192.696
31
0.000
0
LINE
8
0
62
0
10
263.856
20
192.696
30
0.000
11
263.512
21
193.372
31
0.000
0
LINE
8
0
62
0
10
263.512
20
193.372
30
0.000
11
263.000
21
194.000
31
0.000
0
LINE
8
0
62
0
10
263.000
20
194.000
30
0.000
11
262.287
21
194.732
31
0.000
0
LINE
8
0
62
0
10
262.287
20
194.732
30
0.000
11
261.376
21
195.176
31
0.000
0
LINE
8
0
62
0
10
261.376
20
195.176
30
0.000
11
260.309
21
195.404
31
0.000
0
LINE
8
0
62
0
10
260.309
20
195.404
30
0.000
11
259.128
21
195.488
31
0.000
0
LINE
8
0
62
0
10
259.128
20
195.488
30
0.000
11
257.875
21
195.500
31
0.000
0
LINE
8
0
62
0
10
257.875
20
195.500
30
0.000
11
256.592
21
195.512
31
0.000
0
LINE
8
0
62
0
10
256.592
20
195.512
30
0.000
11
255.321
21
195.596
31
0.000
0
LINE
8
0
62
0
10
255.321
20
195.596
30
0.000
11
254.104
21
195.824
31
0.000
0
LINE
8
0
62
0
10
254.104
20
195.824
30
0.000
11
252.983
21
196.268
31
0.000
0
LINE
8
0
62
0
10
252.983
20
196.268
30
0.000
11
252.000
21
197.000
31
0.000
0
LINE
8
0
62
0
10
252.000
20
197.000
30
0.000
11
252.732
21
196.017
31
0.000
0
LINE
8
0
62
0
10
252.732
20
196.017
30
0.000
11
253.176
21
194.896
31
0.000
0
LINE
8
0
62
0
10
253.176
20
194.896
30
0.000
11
253.404
21
193.679
31
0.000
0
LINE
8
0
62
0
10
253.404
20
193.679
30
0.000
11
253.488
21
192.408
31
0.000
0
LINE
8
0
62
0
10
253.488
20
192.408
30
0.000
11
253.500
21
191.125
31
0.000
0
LINE
8
0
62
0
10
253.500
20
191.125
30
0.000
11
253.512
21
189.872
31
0.000
0
LINE
8
0
62
0
10
253.512
20
189.872
30
0.000
11
253.596
21
188.691
31
0.000
0
LINE
8
0
62
0
10
253.596
20
188.691
30
0.000
11
253.824
21
187.624
31
0.000
0
LINE
8
0
62
0
10
253.824
20
187.624
30
0.000
11
254.268
21
186.713
31
0.000
0
LINE
8
0
62
0
10
254.268
20
186.713
30
0.000
11
255.000
21
186.000
31
0.000
0
LINE
8
0
62
0
10
255.000
20
186.000
30
0.000
11
255.628
21
185.488
31
0.000
0
LINE
8
0
62
0
10
255.628
20
185.488
30
0.000
11
256.304
21
185.144
31
0.000
0
LINE
8
0
62
0
10
256.304
20
185.144
30
0.000
11
257.016
21
184.956
31
0.000
0
LINE
8
0
62
0
10
257.016
20
184.956
30
0.000
11
257.752
21
184.912
31
0.000
0
LINE
8
0
62
0
10
257.752
20
184.912
30
0.000
11
258.500
21
185.000
31
0.000
0
LINE
8
0
62
0
10
258.500
20
185.000
30
0.000
11
259.248
21
185.208
31
0.000
0
LINE
8
0
62
0
10
259.248
20
185.208
30
0.000
11
259.984
21
185.524
31
0.000
0
LINE
8
0
62
0
10
259.984
20
185.524
30
0.000
11
260.696
21
185.936
31
0.000
0
LINE
8
0
62
0
10
260.696
20
185.936
30
0.000
11
261.372
21
186.432
31
0.000
0
LINE
8
0
62
0
10
261.372
20
186.432
30
0.000
11
262.000
21
187.000
31
0.000
0
LINE
8
0
62
0
10
337.000
20
137.000
30
0.000
11
337.568
21
137.628
31
0.000
0
LINE
8
0
62
0
10
337.568
20
137.628
30
0.000
11
338.064
21
138.304
31
0.000
0
LINE
8
0
62
0
10
338.064
20
138.304
30
0.000
11
338.476
21
139.016
31
0.000
0
LINE
8
0
62
0
10
338.476
20
139.016
30
0.000
11
338.792
21
139.752
31
0.000
0
LINE
8
0
62
0
10
338.792
20
139.752
30
0.000
11
339.000
21
140.500
31
0.000
0
LINE
8
0
62
0
10
339.000
20
140.500
30
0.000
11
339.088
21
141.248
31
0.000
0
LINE
8
0
62
0
10
339.088
20
141.248
30
0.000
11
339.044
21
141.984
31
0.000
0
LINE
8
0
62
0
10
339.044
20
141.984
30
0.000
11
338.856
21
142.696
31
0.000
0
LINE
8
0
62
0
10
338.856
20
142.696
30
0.000
11
338.512
21
143.372
31
0.000
0
LINE
8
0
62
0
10
338.512
20
143.372
30
0.000
11
338.000
21
144.000
31
0.000
0
LINE
8
0
62
0
10
338.000
20
144.000
30
0.000
11
337.287
21
144.732
31
0.000
0
LINE
8
0
62
0
10
337.287
20
144.732
30
0.000
11
336.376
21
145.176
31
0.000
0
LINE
8
0
62
0
10
336.376
20
145.176
30
0.000
11
335.309
21
145.404
31
0.000
0
LINE
8
0
62
0
10
335.309
20
145.404
30
0.000
11
334.128
21
145.488
31
0.000
0
LINE
8
0
62
0
10
334.128
20
145.488
30
0.000
11
332.875
21
145.500
31
0.000
0
LINE
8
0
62
0
10
332.875
20
145.500
30
0.000
11
331.592
21
145.512
31
0.000
0
LINE
8
0
62
0
10
331.592
20
145.512
30
0.000
11
330.321
21
145.596
31
0.000
0
LINE
8
0
62
0
10
330.321
20
145.596
30
0.000
11
329.104
21
145.824
31
0.000
0
LINE
8
0
62
0
10
329.104
20
145.824
30
0.000
11
327.983
21
146.268
31
0.000
0
LINE
8
0
62
0
10
327.983
20
146.268
30
0.000
11
327.000
21
147.000
31
0.000
0
LINE
8
0
62
0
10
327.000
20
147.000
30
0.000
11
327.732
21
146.017
31
0.000
0
LINE
8
0
62
0
10
327.732
20
146.017
30
0.000
11
328.176
21
144.896
31
0.000
0
LINE
8
0
62
0
10
328.176
20
144.896
30
0.000
11
328.404
21
143.679
31
0.000
0
LINE
8
0
62
0
10
328.404
20
143.679
30
0.000
11
328.488
21
142.408
31
0.000
0
LINE
8
0
62
0
10
328.488
20
142.408
30
0.000
11
328.500
21
141.125
31
0.000
0
LINE
8
0
62
0
10
328.500
20
141.125
30
0.000
11
328.512
21
139.872
31
0.000
0
LINE
8
0
62
0
10
328.512
20
139.872
30
0.000
11
328.596
21
138.691
31
0.000
0
LINE
8
0
62
0
10
328.596
20
138.691
30
0.000
11
328.824
21
137.624
31
0.000
0
LINE
8
0
62
0
10
328.824
20
137.624
30
0.000
11
329.268
21
136.713
31
0.000
0
LINE
8
0
62
0
10
329.268
20
136.713
30
0.000
11
330.000
21
136.000
31
0.000
0
LINE
8
0
62
0
10
330.000
20
136.000
30
0.000
11
330.628
21
135.488
31
0.000
0
LINE
8
0
62
0
10
330.628
20
135.488
30
0.000
11
331.304
21
135.144
31
0.000
0
LINE
8
0
62
0
10
331.304
20
135.144
30
0.000
11
332.016
21
134.956
31
0.000
0
LINE
8
0
62
0
10
332.016
20
134.956
30
0.000
11
332.752
21
134.912
31
0.000
0
LINE
8
0
62
0
10
332.752
20
134.912
30
0.000
11
333.500
21
135.000
31
0.000
0
LINE
8
0
62
0
10
333.500
20
135.000
30
0.000
11
334.248
21
135.208
31
0.000
0
LINE
8
0
62
0
10
334.248
20
135.208
30
0.000
11
334.984
21
135.524
31
0.000
0
LINE
8
0
62
0
10
334.984
20
135.524
30
0.000
11
335.696
21
135.936
31
0.000
0
LINE
8
0
62
0
10
335.696
20
135.936
30
0.000
11
336.372
21
136.432
31
0.000
0
LINE
8
0
62
0
10
336.372
20
136.432
30
0.000
11
337.000
21
137.000
31
0.000
0
LINE
8
0
62
0
10
337.000
20
112.000
30
0.000
11
337.568
21
111.372
31
0.000
0
LINE
8
0
62
0
10
337.568
20
111.372
30
0.000
11
338.064
21
110.696
31
0.000
0
LINE
8
0
62
0
10
338.064
20
110.696
30
0.000
11
338.476
21
109.984
31
0.000
0
LINE
8
0
62
0
10
338.476
20
109.984
30
0.000
11
338.792
21
109.248
31
0.000
0
LINE
8
0
62
0
10
338.792
20
109.248
30
0.000
11
339.000
21
108.500
31
0.000
0
LINE
8
0
62
0
10
339.000
20
108.500
30
0.000
11
339.088
21
107.752
31
0.000
0
LINE
8
0
62
0
10
339.088
20
107.752
30
0.000
11
339.044
21
107.016
31
0.000
0
LINE
8
0
62
0
10
339.044
20
107.016
30
0.000
11
338.856
21
106.304
31
0.000
0
LINE
8
0
62
0
10
338.856
20
106.304
30
0.000
11
338.512
21
105.628
31
0.000
0
LINE
8
0
62
0
10
338.512
20
105.628
30
0.000
11
338.000
21
105.000
31
0.000
0
LINE
8
0
62
0
10
338.000
20
105.000
30
0.000
11
337.287
21
104.268
31
0.000
0
LINE
8
0
62
0
10
337.287
20
104.268
30
0.000
11
336.376
21
103.824
31
0.000
0
LINE
8
0
62
0
10
336.376
20
103.824
30
0.000
11
335.309
21
103.596
31
0.000
0
LINE
8
0
62
0
10
335.309
20
103.596
30
0.000
11
334.128
21
103.512
31
0.000
0
LINE
8
0
62
0
10
334.128
20
103.512
30
0.000
11
332.875
21
103.500
31
0.000
0
LINE
8
0
62
0
10
332.875
20
103.500
30
0.000
11
331.592
21
103.488
31
0.000
0
LINE
8
0
62
0
10
331.592
20
103.488
30
0.000
11
330.321
21
103.404
31
0.000
0
LINE
8
0
62
0
10
330.321
20
103.404
30
0.000
11
329.104
21
103.176
31
0.000
0
LINE
8
0
62
0
10
329.104
20
103.176
30
0.000
11
327.983
21
102.732
31
0.000
0
LINE
8
0
62
0
10
327.983
20
102.732
30
0.000
11
327.000
21
102.000
31
0.000
0
LINE
8
0
62
0
10
327.000
20
102.000
30
0.000
11
327.732
21
102.983
31
0.000
0
LINE
8
0
62
0
10
327.732
20
102.983
30
0.000
11
328.176
21
104.104
31
0.000
0
LINE
8
0
62
0
10
328.176
20
104.104
30
0.000
11
328.404
21
105.321
31
0.000
0
LINE
8
0
62
0
10
328.404
20
105.321
30
0.000
11
328.488
21
106.592
31
0.000
0
LINE
8
0
62
0
10
328.488
20
106.592
30
0.000
11
328.500
21
107.875
31
0.000
0
LINE
8
0
62
0
10
328.500
20
107.875
30
0.000
11
328.512
21
109.128
31
0.000
0
LINE
8
0
62
0
10
328.512
20
109.128
30
0.000
11
328.596
21
110.309
31
0.000
0
LINE
8
0
62
0
10
328.596
20
110.309
30
0.000
11
328.824
21
111.376
31
0.000
0
LINE
8
0
62
0
10
328.824
20
111.376
30
0.000
11
329.268
21
112.287
31
0.000
0
LINE
8
0
62
0
10
329.268
20
112.287
30
0.000
11
330.000
21
113.000
31
0.000
0
LINE
8
0
62
0
10
330.000
20
113.000
30
0.000
11
330.628
21
113.512
31
0.000
0
LINE
8
0
62
0
10
330.628
20
113.512
30
0.000
11
331.304
21
113.856
31
0.000
0
LINE
8
0
62
0
10
331.304
20
113.856
30
0.000
11
332.016
21
114.044
31
0.000
0
LINE
8
0
62
0
10
332.016
20
114.044
30
0.000
11
332.752
21
114.088
31
0.000
0
LINE
8
0
62
0
10
332.752
20
114.088
30
0.000
11
333.500
21
114.000
31
0.000
0
LINE
8
0
62
0
10
333.500
20
114.000
30
0.000
11
334.248
21
113.792
31
0.000
0
LINE
8
0
62
0
10
334.248
20
113.792
30
0.000
11
334.984
21
113.476
31
0.000
0
LINE
8
0
62
0
10
334.984
20
113.476
30
0.000
11
335.696
21
113.064
31
0.000
0
LINE
8
0
62
0
10
335.696
20
113.064
30
0.000
11
336.372
21
112.568
31
0.000
0
LINE
8
0
62
0
10
336.372
20
112.568
30
0.000
11
337.000
21
112.000
31
0.000
0
LINE
8
0
62
0
10
362.000
20
162.000
30
0.000
11
361.432
21
162.628
31
0.000
0
LINE
8
0
62
0
10
361.432
20
162.628
30
0.000
11
360.936
21
163.304
31
0.000
0
LINE
8
0
62
0
10
360.936
20
163.304
30
0.000
11
360.524
21
164.016
31
0.000
0
LINE
8
0
62
0
10
360.524
20
164.016
30
0.000
11
360.208
21
164.752
31
0.000
0
LINE
8
0
62
0
10
360.208
20
164.752
30
0.000
11
360.000
21
165.500
31
0.000
0
LINE
8
0
62
0
10
360.000
20
165.500
30
0.000
11
359.912
21
166.248
31
0.000
0
LINE
8
0
62
0
10
359.912
20
166.248
30
0.000
11
359.956
21
166.984
31
0.000
0
LINE
8
0
62
0
10
359.956
20
166.984
30
0.000
11
360.144
21
167.696
31
0.000
0
LINE
8
0
62
0
10
360.144
20
167.696
30
0.000
11
360.488
21
168.372
31
0.000
0
LINE
8
0
62
0
10
360.488
20
168.372
30
0.000
11
361.000
21
169.000
31
0.000
0
LINE
8
0
62
0
10
361.000
20
169.000
30
0.000
11
361.713
21
169.732
31
0.000
0
LINE
8
0
62
0
10
361.713
20
169.732
30
0.000
11
362.624
21
170.176
31
0.000
0
LINE
8
0
62
0
10
362.624
20
170.176
30
0.000
11
363.691
21
170.404
31
0.000
0
LINE
8
0
62
0
10
363.691
20
170.404
30
0.000
11
364.872
21
170.488
31
0.000
0
LINE
8
0
62
0
10
364.872
20
170.488
30
0.000
11
366.125
21
170.500
31
0.000
0
LINE
8
0
62
0
10
366.125
20
170.500
30
0.000
11
367.408
21
170.512
31
0.000
0
LINE
8
0
62
0
10
367.408
20
170.512
30
0.000
11
368.679
21
170.596
31
0.000
0
LINE
8
0
62
0
10
368.679
20
170.596
30
0.000
11
369.896
21
170.824
31
0.000
0
LINE
8
0
62
0
10
369.896
20
170.824
30
0.000
11
371.017
21
171.268
31
0.000
0
LINE
8
0
62
0
10
371.017
20
171.268
30
0.000
11
372.000
21
172.000
31
0.000
0
LINE
8
0
62
0
10
372.000
20
172.000
30
0.000
11
371.268
21
171.017
31
0.000
0
LINE
8
0
62
0
10
371.268
20
171.017
30
0.000
11
370.824
21
169.896
31
0.000
0
LINE
8
0
62
0
10
370.824
20
169.896
30
0.000
11
370.596
21
168.679
31
0.000
0
LINE
8
0
62
0
10
370.596
20
168.679
30
0.000
11
370.512
21
167.408
31
0.000
0
LINE
8
0
62
0
10
370.512
20
167.408
30
0.000
11
370.500
21
166.125
31
0.000
0
LINE
8
0
62
0
10
370.500
20
166.125
30
0.000
11
370.488
21
164.872
31
0.000
0
LINE
8
0
62
0
10
370.488
20
164.872
30
0.000
11
370.404
21
163.691
31
0.000
0
LINE
8
0
62
0
10
370.404
20
163.691
30
0.000
11
370.176
21
162.624
31
0.000
0
LINE
8
0
62
0
10
370.176
20
162.624
30
0.000
11
369.732
21
161.713
31
0.000
0
LINE
8
0
62
0
10
369.732
20
161.713
30
0.000
11
369.000
21
161.000
31
0.000
0
LINE
8
0
62
0
10
369.000
20
161.000
30
0.000
11
368.372
21
160.488
31
0.000
0
LINE
8
0
62
0
10
368.372
20
160.488
30
0.000
11
367.696
21
160.144
31
0.000
0
LINE
8
0
62
0
10
367.696
20
160.144
30
0.000
11
366.984
21
159.956
31
0.000
0
LINE
8
0
62
0
10
366.984
20
159.956
30
0.000
11
366.248
21
159.912
31
0.000
0
LINE
8
0
62
0
10
366.248
20
159.912
30
0.000
11
365.500
21
160.000
31
0.000
0
LINE
8
0
62
0
10
365.500
20
160.000
30
0.000
11
364.752
21
160.208
31
0.000
0
LINE
8
0
62
0
10
364.752
20
160.208
30
0.000
11
364.016
21
160.524
31
0.000
0
LINE
8
0
62
0
10
364.016
20
160.524
30
0.000
11
363.304
21
160.936
31
0.000
0
LINE
8
0
62
0
10
363.304
20
160.936
30
0.000
11
362.628
21
161.432
31
0.000
0
LINE
8
0
62
0
10
362.628
20
161.432
30
0.000
11
362.000
21
162.000
31
0.000
0
LINE
8
0
62
0
10
262.000
20
137.000
30
0.000
11
261.432
21
136.372
31
0.000
0
LINE
8
0
62
0
10
261.432
20
136.372
30
0.000
11
260.936
21
135.696
31
0.000
0
LINE
8
0
62
0
10
260.936
20
135.696
30
0.000
11
260.524
21
134.984
31
0.000
0
LINE
8
0
62
0
10
260.524
20
134.984
30
0.000
11
260.208
21
134.248
31
0.000
0
LINE
8
0
62
0
10
260.208
20
134.248
30
0.000
11
260.000
21
133.500
31
0.000
0
LINE
8
0
62
0
10
260.000
20
133.500
30
0.000
11
259.912
21
132.752
31
0.000
0
LINE
8
0
62
0
10
259.912
20
132.752
30
0.000
11
259.956
21
132.016
31
0.000
0
LINE
8
0
62
0
10
259.956
20
132.016
30
0.000
11
260.144
21
131.304
31
0.000
0
LINE
8
0
62
0
10
260.144
20
131.304
30
0.000
11
260.488
21
130.628
31
0.000
0
LINE
8
0
62
0
10
260.488
20
130.628
30
0.000
11
261.000
21
130.000
31
0.000
0
LINE
8
0
62
0
10
261.000
20
130.000
30
0.000
11
261.713
21
129.268
31
0.000
0
LINE
8
0
62
0
10
261.713
20
129.268
30
0.000
11
262.624
21
128.824
31
0.000
0
LINE
8
0
62
0
10
262.624
20
128.824
30
0.000
11
263.691
21
128.596
31
0.000
0
LINE
8
0
62
0
10
263.691
20
128.596
30
0.000
11
264.872
21
128.512
31
0.000
0
LINE
8
0
62
0
10
264.872
20
128.512
30
0.000
11
266.125
21
128.500
31
0.000
0
LINE
8
0
62
0
10
266.125
20
128.500
30
0.000
11
267.408
21
128.488
31
0.000
0
LINE
8
0
62
0
10
267.408
20
128.488
30
0.000
11
268.679
21
128.404
31
0.000
0
LINE
8
0
62
0
10
268.679
20
128.404
30
0.000
11
269.896
21
128.176
31
0.000
0
LINE
8
0
62
0
10
269.896
20
128.176
30
0.000
11
271.017
21
127.732
31
0.000
0
LINE
8
0
62
0
10
271.017
20
127.732
30
0.000
11
272.000
21
127.000
31
0.000
0
LINE
8
0
62
0
10
272.000
20
127.000
30
0.000
11
271.268
21
127.983
31
0.000
0
LINE
8
0
62
0
10
271.268
20
127.983
30
0.000
11
270.824
21
129.104
31
0.000
0
LINE
8
0
62
0
10
270.824
20
129.104
30
0.000
11
270.596
21
130.321
31
0.000
0
LINE
8
0
62
0
10
270.596
20
130.321
30
0.000
11
270.512
21
131.592
31
0.000
0
LINE
8
0
62
0
10
270.512
20
131.592
30
0.000
11
270.500
21
132.875
31
0.000
0
LINE
8
0
62
0
10
270.500
20
132.875
30
0.000
11
270.488
21
134.128
31
0.000
0
LINE
8
0
62
0
10
270.488
20
134.128
30
0.000
11
270.404
21
135.309
31
0.000
0
LINE
8
0
62
0
10
270.404
20
135.309
30
0.000
11
270.176
21
136.376
31
0.000
0
LINE
8
0
62
0
10
270.176
20
136.376
30
0.000
11
269.732
21
137.287
31
0.000
0
LINE
8
0
62
0
10
269.732
20
137.287
30
0.000
11
269.000
21
138.000
31
0.000
0
LINE
8
0
62
0
10
269.000
20
138.000
30
0.000
11
268.372
21
138.512
31
0.000
0
LINE
8
0
62
0
10
268.372
20
138.512
30
0.000
11
267.696
21
138.856
31
0.000
0
LINE
8
0
62
0
10
267.696
20
138.856
30
0.000
11
266.984
21
139.044
31
0.000
0
LINE
8
0
62
0
10
266.984
20
139.044
30
0.000
11
266.248
21
139.088
31
0.000
0
LINE
8
0
62
0
10
266.248
20
139.088
30
0.000
11
265.500
21
139.000
31
0.000
0
LINE
8
0
62
0
10
265.500
20
139.000
30
0.000
11
264.752
21
138.792
31
0.000
0
LINE
8
0
62
0
10
264.752
20
138.792
30
0.000
11
264.016
21
138.476
31
0.000
0
LINE
8
0
62
0
10
264.016
20
138.476
30
0.000
11
263.304
21
138.064
31
0.000
0
LINE
8
0
62
0
10
263.304
20
138.064
30
0.000
11
262.628
21
137.568
31
0.000
0
LINE
8
0
62
0
10
262.628
20
137.568
30
0.000
11
262.000
21
137.000
31
0.000
0
LINE
8
0
62
0
10
237.000
20
162.000
30
0.000
11
237.568
21
162.628
31
0.000
0
LINE
8
0
62
0
10
237.568
20
162.628
30
0.000
11
238.064
21
163.304
31
0.000
0
LINE
8
0
62
0
10
238.064
20
163.304
30
0.000
11
238.476
21
164.016
31
0.000
0
LINE
8
0
62
0
10
238.476
20
164.016
30
0.000
11
238.792
21
164.752
31
0.000
0
LINE
8
0
62
0
10
238.792
20
164.752
30
0.000
11
239.000
21
165.500
31
0.000
0
LINE
8
0
62
0
10
239.000
20
165.500
30
0.000
11
239.088
21
166.248
31
0.000
0
LINE
8
0
62
0
10
239.088
20
166.248
30
0.000
11
239.044
21
166.984
31
0.000
0
LINE
8
0
62
0
10
239.044
20
166.984
30
0.000
11
238.856
21
167.696
31
0.000
0
LINE
8
0
62
0
10
238.856
20
167.696
30
0.000
11
238.512
21
168.372
31
0.000
0
LINE
8
0
62
0
10
238.512
20
168.372
30
0.000
11
238.000
21
169.000
31
0.000
0
LINE
8
0
62
0
10
238.000
20
169.000
30
0.000
11
237.287
21
169.732
31
0.000
0
LINE
8
0
62
0
10
237.287
20
169.732
30
0.000
11
236.376
21
170.176
31
0.000
0
LINE
8
0
62
0
10
236.376
20
170.176
30
0.000
11
235.309
21
170.404
31
0.000
0
LINE
8
0
62
0
10
235.309
20
170.404
30
0.000
11
234.128
21
170.488
31
0.000
0
LINE
8
0
62
0
10
234.128
20
170.488
30
0.000
11
232.875
21
170.500
31
0.000
0
LINE
8
0
62
0
10
232.875
20
170.500
30
0.000
11
231.592
21
170.512
31
0.000
0
LINE
8
0
62
0
10
231.592
20
170.512
30
0.000
11
230.321
21
170.596
31
0.000
0
LINE
8
0
62
0
10
230.321
20
170.596
30
0.000
11
229.104
21
170.824
31
0.000
0
LINE
8
0
62
0
10
229.104
20
170.824
30
0.000
11
227.983
21
171.268
31
0.000
0
LINE
8
0
62
0
10
227.983
20
171.268
30
0.000
11
227.000
21
172.000
31
0.000
0
LINE
8
0
62
0
10
227.000
20
172.000
30
0.000
11
227.732
21
171.017
31
0.000
0
LINE
8
0
62
0
10
227.732
20
171.017
30
0.000
11
228.176
21
169.896
31
0.000
0
LINE
8
0
62
0
10
228.176
20
169.896
30
0.000
11
228.404
21
168.679
31
0.000
0
LINE
8
0
62
0
10
228.404
20
168.679
30
0.000
11
228.488
21
167.408
31
0.000
0
LINE
8
0
62
0
10
228.488
20
167.408
30
0.000
11
228.500
21
166.125
31
0.000
0
LINE
8
0
62
0
10
228.500
20
166.125
30
0.000
11
228.512
21
164.872
31
0.000
0
LINE
8
0
62
0
10
228.512
20
164.872
30
0.000
11
228.596
21
163.691
31
0.000
0
LINE
8
0
62
0
10
228.596
20
163.691
30
0.000
11
228.824
21
162.624
31
0.000
0
LINE
8
0
62
0
10
228.824
20
162.624
30
0.000
11
229.268
21
161.713
31
0.000
0
LINE
8
0
62
0
10
229.268
20
161.713
30
0.000
11
230.000
21
161.000
31
0.000
0
LINE
8
0
62
0
10
230.000
20
161.000
30
0.000
11
230.628
21
160.488
31
0.000
0
LINE
8
0
62
0
10
230.628
20
160.488
30
0.000
11
231.304
21
160.144
31
0.000
0
LINE
8
0
62
0
10
231.304
20
160.144
30
0.000
11
232.016
21
159.956
31
0.000
0
LINE
8
0
62
0
10
232.016
20
159.956
30
0.000
11
232.752
21
159.912
31
0.000
0
LINE
8
0
62
0
10
232.752
20
159.912
30
0.000
11
233.500
21
160.000
31
0.000
0
LINE
8
0
62
0
10
233.500
20
160.000
30
0.000
11
234.248
21
160.208
31
0.000
0
LINE
8
0
62
0
10
234.248
20
160.208
30
0.000
11
234.984
21
160.524
31
0.000
0
LINE
8
0
62
0
10
234.984
20
160.524
30
0.000
11
235.696
21
160.936
31
0.000
0
LINE
8
0
62
0
10
235.696
20
160.936
30
0.000
11
236.372
21
161.432
31
0.000
0
LINE
8
0
62
0
10
236.372
20
161.432
30
0.000
11
237.000
21
162.000
31
0.000
0
LINE
8
0
62
0
10
387.000
20
112.000
30
0.000
11
386.432
21
112.628
31
0.000
0
LINE
8
0
62
0
10
386.432
20
112.628
30
0.000
11
385.936
21
113.304
31
0.000
0
LINE
8
0
62
0
10
385.936
20
113.304
30
0.000
11
385.524
21
114.016
31
0.000
0
LINE
8
0
62
0
10
385.524
20
114.016
30
0.000
11
385.208
21
114.752
31
0.000
0
LINE
8
0
62
0
10
385.208
20
114.752
30
0.000
11
385.000
21
115.500
31
0.000
0
LINE
8
0
62
0
10
385.000
20
115.500
30
0.000
11
384.912
21
116.248
31
0.000
0
LINE
8
0
62
0
10
384.912
20
116.248
30
0.000
11
384.956
21
116.984
31
0.000
0
LINE
8
0
62
0
10
384.956
20
116.984
30
0.000
11
385.144
21
117.696
31
0.000
0
LINE
8
0
62
0
10
385.144
20
117.696
30
0.000
11
385.488
21
118.372
31
0.000
0
LINE
8
0
62
0
10
385.488
20
118.372
30
0.000
11
386.000
21
119.000
31
0.000
0
LINE
8
0
62
0
10
386.000
20
119.000
30
0.000
11
386.713
21
119.732
31
0.000
0
LINE
8
0
62
0
10
386.713
20
119.732
30
0.000
11
387.624
21
120.176
31
0.000
0
LINE
8
0
62
0
10
387.624
20
120.176
30
0.000
11
388.691
21
120.404
31
0.000
0
LINE
8
0
62
0
10
388.691
20
120.404
30
0.000
11
389.872
21
120.488
31
0.000
0
LINE
8
0
62
0
10
389.872
20
120.488
30
0.000
11
391.125
21
120.500
31
0.000
0
LINE
8
0
62
0
10
391.125
20
120.500
30
0.000
11
392.408
21
120.512
31
0.000
0
LINE
8
0
62
0
10
392.408
20
120.512
30
0.000
11
393.679
21
120.596
31
0.000
0
LINE
8
0
62
0
10
393.679
20
120.596
30
0.000
11
394.896
21
120.824
31
0.000
0
LINE
8
0
62
0
10
394.896
20
120.824
30
0.000
11
396.017
21
121.268
31
0.000
0
LINE
8
0
62
0
10
396.017
20
121.268
30
0.000
11
397.000
21
122.000
31
0.000
0
LINE
8
0
62
0
10
397.000
20
122.000
30
0.000
11
396.268
21
121.017
31
0.000
0
LINE
8
0
62
0
10
396.268
20
121.017
30
0.000
11
395.824
21
119.896
31
0.000
0
LINE
8
0
62
0
10
395.824
20
119.896
30
0.000
11
395.596
21
118.679
31
0.000
0
LINE
8
0
62
0
10
395.596
20
118.679
30
0.000
11
395.512
21
117.408
31
0.000
0
LINE
8
0
62
0
10
395.512
20
117.408
30
0.000
11
395.500
21
116.125
31
0.000
0
LINE
8
0
62
0
10
395.500
20
116.125
30
0.000
11
395.488
21
114.872
31
0.000
0
LINE
8
0
62
0
10
395.488
20
114.872
30
0.000
11
395.404
21
113.691
31
0.000
0
LINE
8
0
62
0
10
395.404
20
113.691
30
0.000
11
395.176
21
112.624
31
0.000
0
LINE
8
0
62
0
10
395.176
20
112.624
30
0.000
11
394.732
21
111.713
31
0.000
0
LINE
8
0
62
0
10
394.732
20
111.713
30
0.000
11
394.000
21
111.000
31
0.000
0
LINE
8
0
62
0
10
394.000
20
111.000
30
0.000
11
393.372
21
110.488
31
0.000
0
LINE
8
0
62
0
10
393.372
20
110.488
30
0.000
11
392.696
21
110.144
31
0.000
0
LINE
8
0
62
0
10
392.696
20
110.144
30
0.000
11
391.984
21
109.956
31
0.000
0
LINE
8
0
62
0
10
391.984
20
109.956
30
0.000
11
391.248
21
109.912
31
0.000
0
LINE
8
0
62
0
10
391.248
20
109.912
30
0.000
11
390.500
21
110.000
31
0.000
0
LINE
8
0
62
0
10
390.500
20
110.000
30
0.000
11
389.752
21
110.208
31
0.000
0
LINE
8
0
62
0
10
389.752
20
110.208
30
0.000
11
389.016
21
110.524
31
0.000
0
LINE
8
0
62
0
10
389.016
20
110.524
30
0.000
11
388.304
21
110.936
31
0.000
0
LINE
8
0
62
0
10
388.304
20
110.936
30
0.000
11
387.628
21
111.432
31
0.000
0
LINE
8
0
62
0
10
387.628
20
111.432
30
0.000
11
387.000
21
112.000
31
0.000
0
LINE
8
0
62
0
10
312.000
20
112.000
30
0.000
11
312.568
21
111.372
31
0.000
0
LINE
8
0
62
0
10
312.568
20
111.372
30
0.000
11
313.064
21
110.696
31
0.000
0
LINE
8
0
62
0
10
313.064
20
110.696
30
0.000
11
313.476
21
109.984
31
0.000
0
LINE
8
0
62
0
10
313.476
20
109.984
30
0.000
11
313.792
21
109.248
31
0.000
0
LINE
8
0
62
0
10
313.792
20
109.248
30
0.000
11
314.000
21
108.500
31
0.000
0
LINE
8
0
62
0
10
314.000
20
108.500
30
0.000
11
314.088
21
107.752
31
0.000
0
LINE
8
0
62
0
10
314.088
20
107.752
30
0.000
11
314.044
21
107.016
31
0.000
0
LINE
8
0
62
0
10
314.044
20
107.016
30
0.000
11
313.856
21
106.304
31
0.000
0
LINE
8
0
62
0
10
313.856
20
106.304
30
0.000
11
313.512
21
105.628
31
0.000
0
LINE
8
0
62
0
10
313.512
20
105.628
30
0.000
11
313.000
21
105.000
31
0.000
0
LINE
8
0
62
0
10
313.000
20
105.000
30
0.000
11
312.287
21
104.268
31
0.000
0
LINE
8
0
62
0
10
312.287
20
104.268
30
0.000
11
311.376
21
103.824
31
0.000
0
LINE
8
0
62
0
10
311.376
20
103.824
30
0.000
11
310.309
21
103.596
31
0.000
0
LINE
8
0
62
0
10
310.309
20
103.596
30
0.000
11
309.128
21
103.512
31
0.000
0
LINE
8
0
62
0
10
309.128
20
103.512
30
0.000
11
307.875
21
103.500
31
0.000
0
LINE
8
0
62
0
10
307.875
20
103.500
30
0.000
11
306.592
21
103.488
31
0.000
0
LINE
8
0
62
0
10
306.592
20
103.488
30
0.000
11
305.321
21
103.404
31
0.000
0
LINE
8
0
62
0
10
305.321
20
103.404
30
0.000
11
304.104
21
103.176
31
0.000
0
LINE
8
0
62
0
10
304.104
20
103.176
30
0.000
11
302.983
21
102.732
31
0.000
0
LINE
8
0
62
0
10
302.983
20
102.732
30
0.000
11
302.000
21
102.000
31
0.000
0
LINE
8
0
62
0
10
302.000
20
102.000
30
0.000
11
302.732
21
102.983
31
0.000
0
LINE
8
0
62
0
10
302.732
20
102.983
30
0.000
11
303.176
21
104.104
31
0.000
0
LINE
8
0
62
0
10
303.176
20
104.104
30
0.000
11
303.404
21
105.321
31
0.000
0
LINE
8
0
62
0
10
303.404
20
105.321
30
0.000
11
303.488
21
106.592
31
0.000
0
LINE
8
0
62
0
10
303.488
20
106.592
30
0.000
11
303.500
21
107.875
31
0.000
0
LINE
8
0
62
0
10
303.500
20
107.875
30
0.000
11
303.512
21
109.128
31
0.000
0
LINE
8
0
62
0
10
303.512
20
109.128
30
0.000
11
303.596
21
110.309
31
0.000
0
LINE
8
0
62
0
10
303.596
20
110.309
30
0.000
11
303.824
21
111.376
31
0.000
0
LINE
8
0
62
0
10
303.824
20
111.376
30
0.000
11
304.268
21
112.287
31
0.000
0
LINE
8
0
62
0
10
304.268
20
112.287
30
0.000
11
305.000
21
113.000
31
0.000
0
LINE
8
0
62
0
10
305.000
20
113.000
30
0.000
11
305.628
21
113.512
31
0.000
0
LINE
8
0
62
0
10
305.628
20
113.512
30
0.000
11
306.304
21
113.856
31
0.000
0
LINE
8
0
62
0
10
306.304
20
113.856
30
0.000
11
307.016
21
114.044
31
0.000
0
LINE
8
0
62
0
10
307.016
20
114.044
30
0.000
11
307.752
21
114.088
31
0.000
0
LINE
8
0
62
0
10
307.752
20
114.088
30
0.000
11
308.500
21
114.000
31
0.000
0
LINE
8
0
62
0
10
308.500
20
114.000
30
0.000
11
309.248
21
113.792
31
0.000
0
LINE
8
0
62
0
10
309.248
20
113.792
30
0.000
11
309.984
21
113.476
31
0.000
0
LINE
8
0
62
0
10
309.984
20
113.476
30
0.000
11
310.696
21
113.064
31
0.000
0
LINE
8
0
62
0
10
310.696
20
113.064
30
0.000
11
311.372
21
112.568
31
0.000
0
LINE
8
0
62
0
10
311.372
20
112.568
30
0.000
11
312.000
21
112.000
31
0.000
0
LINE
8
0
62
0
10
287.000
20
112.000
30
0.000
11
286.432
21
111.372
31
0.000
0
LINE
8
0
62
0
10
286.432
20
111.372
30
0.000
11
285.936
21
110.696
31
0.000
0
LINE
8
0
62
0
10
285.936
20
110.696
30
0.000
11
285.524
21
109.984
31
0.000
0
LINE
8
0
62
0
10
285.524
20
109.984
30
0.000
11
285.208
21
109.248
31
0.000
0
LINE
8
0
62
0
10
285.208
20
109.248
30
0.000
11
285.000
21
108.500
31
0.000
0
LINE
8
0
62
0
10
285.000
20
108.500
30
0.000
11
284.912
21
107.752
31
0.000
0
LINE
8
0
62
0
10
284.912
20
107.752
30
0.000
11
284.956
21
107.016
31
0.000
0
LINE
8
0
62
0
10
284.956
20
107.016
30
0.000
11
285.144
21
106.304
31
0.000
0
LINE
8
0
62
0
10
285.144
20
106.304
30
0.000
11
285.488
21
105.628
31
0.000
0
LINE
8
0
62
0
10
285.488
20
105.628
30
0.000
11
286.000
21
105.000
31
0.000
0
LINE
8
0
62
0
10
286.000
20
105.000
30
0.000
11
286.713
21
104.268
31
0.000
0
LINE
8
0
62
0
10
286.713
20
104.268
30
0.000
11
287.624
21
103.824
31
0.000
0
LINE
8
0
62
0
10
287.624
20
103.824
30
0.000
11
288.691
21
103.596
31
0.000
0
LINE
8
0
62
0
10
288.691
20
103.596
30
0.000
11
289.872
21
103.512
31
0.000
0
LINE
8
0
62
0
10
289.872
20
103.512
30
0.000
11
291.125
21
103.500
31
0.000
0
LINE
8
0
62
0
10
291.125
20
103.500
30
0.000
11
292.408
21
103.488
31
0.000
0
LINE
8
0
62
0
10
292.408
20
103.488
30
0.000
11
293.679
21
103.404
31
0.000
0
LINE
8
0
62
0
10
293.679
20
103.404
30
0.000
11
294.896
21
103.176
31
0.000
0
LINE
8
0
62
0
10
294.896
20
103.176
30
0.000
11
296.017
21
102.732
31
0.000
0
LINE
8
0
62
0
10
296.017
20
102.732
30
0.000
11
297.000
21
102.000
31
0.000
0
LINE
8
0
62
0
10
297.000
20
102.000
30
0.000
11
296.268
21
102.983
31
0.000
0
LINE
8
0
62
0
10
296.268
20
102.983
30
0.000
11
295.824
21
104.104
31
0.000
0
LINE
8
0
62
0
10
295.824
20
104.104
30
0.000
11
295.596
21
105.321
31
0.000
0
LINE
8
0
62
0
10
295.596
20
105.321
30
0.000
11
295.512
21
106.592
31
0.000
0
LINE
8
0
62
0
10
295.512
20
106.592
30
0.000
11
295.500
21
107.875
31
0.000
0
LINE
8
0
62
0
10
295.500
20
107.875
30
0.000
11
295.488
21
109.128
31
0.000
0
LINE
8
0
62
0
10
295.488
20
109.128
30
0.000
11
295.404
21
110.309
31
0.000
0
LINE
8
0
62
0
10
295.404
20
110.309
30
0.000
11
295.176
21
111.376
31
0.000
0
LINE
8
0
62
0
10
295.176
20
111.376
30
0.000
11
294.732
21
112.287
31
0.000
0
LINE
8
0
62
0
10
294.732
20
112.287
30
0.000
11
294.000
21
113.000
31
0.000
0
LINE
8
0
62
0
10
294.000
20
113.000
30
0.000
11
293.372
21
113.512
31
0.000
0
LINE
8
0
62
0
10
293.372
20
113.512
30
0.000
11
292.696
21
113.856
31
0.000
0
LINE
8
0
62
0
10
292.696
20
113.856
30
0.000
11
291.984
21
114.044
31
0.000
0
LINE
8
0
62
0
10
291.984
20
114.044
30
0.000
11
291.248
21
114.088
31
0.000
0
LINE
8
0
62
0
10
291.248
20
114.088
30
0.000
11
290.500
21
114.000
31
0.000
0
LINE
8
0
62
0
10
290.500
20
114.000
30
0.000
11
289.752
21
113.792
31
0.000
0
LINE
8
0
62
0
10
289.752
20
113.792
30
0.000
11
289.016
21
113.476
31
0.000
0
LINE
8
0
62
0
10
289.016
20
113.476
30
0.000
11
288.304
21
113.064
31
0.000
0
LINE
8
0
62
0
10
288.304
20
113.064
30
0.000
11
287.628
21
112.568
31
0.000
0
LINE
8
0
62
0
10
287.628
20
112.568
30
0.000
11
287.000
21
112.000
31
0.000
0
ENDSEC
0
EOF
