  0
SECTION
  2
HEADER
  9
$ACADVER
  1
AC1027
  9
$ACADMAINTVER
 70
   105
  9
$DWGCODEPAGE
  3
ANSI_1252
  9
$REQUIREDVERSIONS
160
                 0
  9
$INSBASE
 10
0.0
 20
0.0
 30
0.0
  9
$EXTMIN
 10
1.000000000000000E+20
 20
1.000000000000000E+20
 30
1.000000000000000E+20
  9
$EXTMAX
 10
-1.000000000000000E+20
 20
-1.000000000000000E+20
 30
-1.000000000000000E+20
  9
$LIMMIN
 10
0.0
 20
0.0
  9
$LIMMAX
 10
12.0
 20
9.0
  9
$ORTHOMODE
 70
     0
  9
$REGENMODE
 70
     1
  9
$FILLMODE
 70
     1
  9
$QTEXTMODE
 70
     0
  9
$MIRRTEXT
 70
     1
  9
$LTSCALE
 40
1.0
  9
$ATTMODE
 70
     1
  9
$TEXTSIZE
 40
0.2
  9
$TRACEWID
 40
0.05
  9
$TEXTSTYLE
  7
Standard
  9
$CLAYER
  8
layer 3
  9
$CELTYPE
  6
ByLayer
  9
$CECOLOR
 62
    18
  9
$CELTSCALE
 40
1.0
  9
$DISPSILH
 70
     0
  9
$DIMSCALE
 40
1.0
  9
$DIMASZ
 40
2.5
  9
$DIMEXO
 40
0.625
  9
$DIMDLI
 40
0.38
  9
$DIMRND
 40
0.0
  9
$DIMDLE
 40
0.0
  9
$DIMEXE
 40
1.25
  9
$DIMTP
 40
0.0
  9
$DIMTM
 40
0.0
  9
$DIMTXT
 40
2.5
  9
$DIMCEN
 40
0.09
  9
$DIMTSZ
 40
0.0
  9
$DIMTOL
 70
     0
  9
$DIMLIM
 70
     0
  9
$DIMTIH
 70
     1
  9
$DIMTOH
 70
     1
  9
$DIMSE1
 70
     0
  9
$DIMSE2
 70
     0
  9
$DIMTAD
 70
     0
  9
$DIMZIN
 70
     8
  9
$DIMBLK
  1

  9
$DIMASO
 70
     1
  9
$DIMSHO
 70
     1
  9
$DIMPOST
  1

  9
$DIMAPOST
  1

  9
$DIMALT
 70
     0
  9
$DIMALTD
 70
     2
  9
$DIMALTF
 40
25.4
  9
$DIMLFAC
 40
1.0
  9
$DIMTOFL
 70
     0
  9
$DIMTVP
 40
0.0
  9
$DIMTIX
 70
     0
  9
$DIMSOXD
 70
     0
  9
$DIMSAH
 70
     0
  9
$DIMBLK1
  1

  9
$DIMBLK2
  1

  9
$DIMSTYLE
  2
Standard
  9
$DIMCLRD
 70
    18
  9
$DIMCLRE
 70
    18
  9
$DIMCLRT
 70
    18
  9
$DIMTFAC
 40
1.0
  9
$DIMGAP
 40
0.625
  9
$DIMJUST
 70
     0
  9
$DIMSD1
 70
     0
  9
$DIMSD2
 70
     0
  9
$DIMTOLJ
 70
     1
  9
$DIMTZIN
 70
     0
  9
$DIMALTZ
 70
     0
  9
$DIMALTTZ
 70
     0
  9
$DIMUPT
 70
     0
  9
$DIMDEC
 70
     4
  9
$DIMTDEC
 70
     4
  9
$DIMALTU
 70
     2
  9
$DIMALTTD
 70
     2
  9
$DIMTXSTY
  7
Standard
  9
$DIMAUNIT
 70
     0
  9
$DIMADEC
 70
     0
  9
$DIMALTRND
 40
0.0
  9
$DIMAZIN
 70
     2
  9
$DIMDSEP
 70
    46
  9
$DIMATFIT
 70
     3
  9
$DIMFRAC
 70
     0
  9
$DIMLDRBLK
  1

  9
$DIMLUNIT
 70
     2
  9
$DIMLWD
 70
    -2
  9
$DIMLWE
 70
    -2
  9
$DIMTMOVE
 70
     0
  9
$DIMFXL
 40
1.0
  9
$DIMFXLON
 70
     0
  9
$DIMJOGANG
 40
0.7853981633974483
  9
$DIMTFILL
 70
     0
  9
$DIMTFILLCLR
 70
     0
  9
$DIMARCSYM
 70
     0
  9
$DIMLTYPE
  6

  9
$DIMLTEX1
  6

  9
$DIMLTEX2
  6

  9
$DIMTXTDIRECTION
 70
     0
  9
$LUNITS
 70
     2
  9
$LUPREC
 70
     4
  9
$SKETCHINC
 40
0.1
  9
$FILLETRAD
 40
0.5
  9
$AUNITS
 70
     0
  9
$AUPREC
 70
     0
  9
$MENU
  1
.
  9
$ELEVATION
 40
0.0
  9
$PELEVATION
 40
0.0
  9
$THICKNESS
 40
0.0
  9
$LIMCHECK
 70
     0
  9
$CHAMFERA
 40
0.0
  9
$CHAMFERB
 40
0.0
  9
$CHAMFERC
 40
0.0
  9
$CHAMFERD
 40
0.0
  9
$SKPOLY
 70
     0
  9
$TDCREATE
 40
2458304.483282731
  9
$TDUCREATE
 40
2458304.399949398
  9
$TDUPDATE
 40
2458304.483282731
  9
$TDUUPDATE
 40
2458304.399949398
  9
$TDINDWG
 40
0.0000000116
  9
$TDUSRTIMER
 40
0.0000000116
  9
$USRTIMER
 70
     1
  9
$ANGBASE
 50
0.0
  9
$ANGDIR
 70
     0
  9
$PDMODE
 70
     0
  9
$PDSIZE
 40
0.0
  9
$PLINEWID
 40
0.0
  9
$SPLFRAME
 70
     0
  9
$SPLINETYPE
 70
     6
  9
$SPLINESEGS
 70
     8
  9
$HANDSEED
  5
A97
  9
$SURFTAB1
 70
     6
  9
$SURFTAB2
 70
     6
  9
$SURFTYPE
 70
     6
  9
$SURFU
 70
     6
  9
$SURFV
 70
     6
  9
$UCSBASE
  2

  9
$UCSNAME
  2

  9
$UCSORG
 10
0.0
 20
0.0
 30
0.0
  9
$UCSXDIR
 10
1.0
 20
0.0
 30
0.0
  9
$UCSYDIR
 10
0.0
 20
1.0
 30
0.0
  9
$UCSORTHOREF
  2

  9
$UCSORTHOVIEW
 70
     0
  9
$UCSORGTOP
 10
0.0
 20
0.0
 30
0.0
  9
$UCSORGBOTTOM
 10
0.0
 20
0.0
 30
0.0
  9
$UCSORGLEFT
 10
0.0
 20
0.0
 30
0.0
  9
$UCSORGRIGHT
 10
0.0
 20
0.0
 30
0.0
  9
$UCSORGFRONT
 10
0.0
 20
0.0
 30
0.0
  9
$UCSORGBACK
 10
0.0
 20
0.0
 30
0.0
  9
$PUCSBASE
  2

  9
$PUCSNAME
  2

  9
$PUCSORG
 10
0.0
 20
0.0
 30
0.0
  9
$PUCSXDIR
 10
1.0
 20
0.0
 30
0.0
  9
$PUCSYDIR
 10
0.0
 20
1.0
 30
0.0
  9
$PUCSORTHOREF
  2

  9
$PUCSORTHOVIEW
 70
     0
  9
$PUCSORGTOP
 10
0.0
 20
0.0
 30
0.0
  9
$PUCSORGBOTTOM
 10
0.0
 20
0.0
 30
0.0
  9
$PUCSORGLEFT
 10
0.0
 20
0.0
 30
0.0
  9
$PUCSORGRIGHT
 10
0.0
 20
0.0
 30
0.0
  9
$PUCSORGFRONT
 10
0.0
 20
0.0
 30
0.0
  9
$PUCSORGBACK
 10
0.0
 20
0.0
 30
0.0
  9
$USERI1
 70
     0
  9
$USERI2
 70
     0
  9
$USERI3
 70
     0
  9
$USERI4
 70
     0
  9
$USERI5
 70
     0
  9
$USERR1
 40
0.0
  9
$USERR2
 40
0.0
  9
$USERR3
 40
0.0
  9
$USERR4
 40
0.0
  9
$USERR5
 40
0.0
  9
$WORLDVIEW
 70
     1
  9
$SHADEDGE
 70
     3
  9
$SHADEDIF
 70
    70
  9
$TILEMODE
 70
     1
  9
$MAXACTVP
 70
    32
  9
$PINSBASE
 10
0.0
 20
0.0
 30
0.0
  9
$PLIMCHECK
 70
     0
  9
$PEXTMIN
 10
0.0
 20
0.0
 30
0.0
  9
$PEXTMAX
 10
0.0
 20
0.0
 30
0.0
  9
$PLIMMIN
 10
-20.0
 20
-7.5
  9
$PLIMMAX
 10
277.0
 20
202.5
  9
$UNITMODE
 70
     0
  9
$VISRETAIN
 70
     1
  9
$PLINEGEN
 70
     0
  9
$PSLTSCALE
 70
     1
  9
$TREEDEPTH
 70
  3020
  9
$CMLSTYLE
  2
Standard
  9
$CMLJUST
 70
     0
  9
$CMLSCALE
 40
1.0
  9
$PROXYGRAPHICS
 70
     1
  9
$MEASUREMENT
 70
     1
  9
$CELWEIGHT
370
    -1
  9
$ENDCAPS
280
     0
  9
$JOINSTYLE
280
     0
  9
$LWDISPLAY
290
     0
  9
$INSUNITS
 70
     4
  9
$HYPERLINKBASE
  1

  9
$STYLESHEET
  1

  9
$XEDIT
290
     1
  9
$CEPSNTYPE
380
     0
  9
$PSTYLEMODE
290
     1
  9
$FINGERPRINTGUID
  2
{1E90CC12-9B3F-44E5-BBD0-21F12370A200}
  9
$VERSIONGUID
  2
{FAEB1C32-E019-11D5-929B-00C0DF256EC4}
  9
$EXTNAMES
290
     1
  9
$PSVPSCALE
 40
0.0
  9
$OLESTARTUP
290
     0
  9
$SORTENTS
280
   127
  9
$INDEXCTL
280
     0
  9
$HIDETEXT
280
     1
  9
$XCLIPFRAME
280
     2
  9
$HALOGAP
280
     0
  9
$OBSCOLOR
 70
   257
  9
$OBSLTYPE
280
     0
  9
$INTERSECTIONDISPLAY
280
     0
  9
$INTERSECTIONCOLOR
 70
   257
  9
$DIMASSOC
280
     2
  9
$PROJECTNAME
  1

  9
$CAMERADISPLAY
290
     0
  9
$LENSLENGTH
 40
50.0
  9
$CAMERAHEIGHT
 40
0.0
  9
$STEPSPERSEC
 40
2.0
  9
$STEPSIZE
 40
6.0
  9
$3DDWFPREC
 40
2.0
  9
$PSOLWIDTH
 40
0.25
  9
$PSOLHEIGHT
 40
4.0
  9
$LOFTANG1
 40
1.570796326794897
  9
$LOFTANG2
 40
1.570796326794897
  9
$LOFTMAG1
 40
0.0
  9
$LOFTMAG2
 40
0.0
  9
$LOFTPARAM
 70
     7
  9
$LOFTNORMALS
280
     1
  9
$LATITUDE
 40
37.795
  9
$LONGITUDE
 40
-122.394
  9
$NORTHDIRECTION
 40
0.0
  9
$TIMEZONE
 70
 -8000
  9
$LIGHTGLYPHDISPLAY
280
     1
  9
$TILEMODELIGHTSYNCH
280
     1
  9
$CMATERIAL
347
9E5
  9
$SOLIDHIST
280
     0
  9
$SHOWHIST
280
     1
  9
$DWFFRAME
280
     2
  9
$DGNFRAME
280
     2
  9
$REALWORLDSCALE
290
     1
  9
$INTERFERECOLOR
 62
   256
  9
$CSHADOW
280
     0
  9
$SHADOWPLANELOCATION
 40
0.0
  0
ENDSEC
  0
SECTION
  2
CLASSES
  0
CLASS
  1
ACDBDICTIONARYWDFLT
  2
AcDbDictionaryWithDefault
  3
ObjectDBX Classes
 90
        0
 91
        3
280
     0
281
     0
  0
CLASS
  1
VISUALSTYLE
  2
AcDbVisualStyle
  3
ObjectDBX Classes
 90
     4095
 91
        3
280
     0
281
     0
  0
CLASS
  1
MATERIAL
  2
AcDbMaterial
  3
ObjectDBX Classes
 90
     1153
 91
        3
280
     0
281
     0
  0
CLASS
  1
SCALE
  2
AcDbScale
  3
ObjectDBX Classes
 90
     1153
 91
        3
280
     0
281
     0
  0
CLASS
  1
TABLESTYLE
  2
AcDbTableStyle
  3
ObjectDBX Classes
 90
     4095
 91
        3
280
     0
281
     0
  0
CLASS
  1
MLEADERSTYLE
  2
AcDbMLeaderStyle
  3
ACDB_MLEADERSTYLE_CLASS
 90
     4095
 91
        3
280
     0
281
     0
  0
CLASS
  1
SUN
  2
AcDbSun
  3
SCENEOE
 90
     1153
 91
        3
280
     0
281
     0
  0
CLASS
  1
DICTIONARYVAR
  2
AcDbDictionaryVar
  3
ObjectDBX Classes
 90
        0
 91
        3
280
     0
281
     0
  0
CLASS
  1
CELLSTYLEMAP
  2
AcDbCellStyleMap
  3
ObjectDBX Classes
 90
     1152
 91
        3
280
     0
281
     0
  0
ENDSEC
  0
SECTION
  2
TABLES
  0
TABLE
  2
VPORT
  5
9AA
330
0
100
AcDbSymbolTable
 70
     1
  0
VPORT
  5
9CA
330
9AA
100
AcDbSymbolTableRecord
100
AcDbViewportTableRecord
  2
*Active
 70
     0
 10
0.0
 20
0.0
 11
1.0
 21
1.0
 12
177.9250328660522
 22
-46.25000000000527
 13
0.0
 23
0.0
 14
0.5
 24
0.5
 15
0.5
 25
0.5
 16
0.0
 26
0.0
 36
1.0
 17
0.0
 27
0.0
 37
0.0
 40
237.4787518279369
 41
1.265151515151515
 42
50.0
 43
0.0
 44
0.0
 50
0.0
 51
0.0
 71
     0
 72
   100
 73
     1
 74
     3
 75
     0
 76
     0
 77
     0
 78
     0
281
     0
 65
     1
110
0.0
120
0.0
130
0.0
111
1.0
121
0.0
131
0.0
112
0.0
122
1.0
132
0.0
 79
     0
146
0.0
348
9D0
 60
     3
 61
     5
292
     1
282
     1
141
0.0
142
0.0
 63
   250
361
A0E
  0
ENDTAB
  0
TABLE
  2
LTYPE
  5
9A7
330
0
100
AcDbSymbolTable
 70
    52
  0
LTYPE
  5
9B5
330
9A7
100
AcDbSymbolTableRecord
100
AcDbLinetypeTableRecord
  2
ByBlock
 70
     0
  3

 72
    65
 73
     0
 40
0.0
  0
LTYPE
  5
9B6
330
9A7
100
AcDbSymbolTableRecord
100
AcDbLinetypeTableRecord
  2
ByLayer
 70
     0
  3

 72
    65
 73
     0
 40
0.0
  0
LTYPE
  5
9B7
330
9A7
100
AcDbSymbolTableRecord
100
AcDbLinetypeTableRecord
  2
Continuous
 70
     0
  3
Solid line
 72
    65
 73
     0
 40
0.0
  0
LTYPE
  5
A45
330
9A7
100
AcDbSymbolTableRecord
100
AcDbLinetypeTableRecord
  2
DASHDOTX2
 70
     0
  3
Dash dot (2x) ____  .  ____  .  ____  .  ___
 72
    65
 73
     4
 40
50.8
 49
25.4
 74
     0
 49
-12.7
 74
     0
 49
0.0
 74
     0
 49
-12.7
 74
     0
  0
LTYPE
  5
A46
330
9A7
100
AcDbSymbolTableRecord
100
AcDbLinetypeTableRecord
  2
DASHDOT2
 70
     0
  3
Dash dot (.5x) _._._._._._._._._._._._._._._.
 72
    65
 73
     4
 40
12.7
 49
6.35
 74
     0
 49
-3.175
 74
     0
 49
0.0
 74
     0
 49
-3.175
 74
     0
  0
LTYPE
  5
A48
330
9A7
100
AcDbSymbolTableRecord
100
AcDbLinetypeTableRecord
  2
DRAINAGE
 70
     0
  3
Drainage ---->---->---->----
 72
    65
 73
     2
 40
10.16
 49
5.08
 74
     2
 75
     0
340
A47
 46
2.54
 50
180.0
 44
0.0
 45
0.0
  9
RIGHT_ARROW
 49
5.08
 74
     0
  0
LTYPE
  5
A49
330
9A7
100
AcDbSymbolTableRecord
100
AcDbLinetypeTableRecord
  2
DOTX2
 70
     0
  3
Dot (2x) .  .  .  .  .  .  .  .  .  .  .  .  .  .
 72
    65
 73
     2
 40
12.7
 49
0.0
 74
     0
 49
-12.7
 74
     0
  0
LTYPE
  5
A4B
330
9A7
100
AcDbSymbolTableRecord
100
AcDbLinetypeTableRecord
  2
FENCELINE1
 70
     0
  3
Fenceline circle ----0-----0----0-----0----0-----0--
 72
    65
 73
     4
 40
36.83
 49
6.35
 74
     0
 49
-2.54
 74
     2
 75
     0
340
A4A
 46
2.54
 50
0.0
 44
-2.54
 45
0.0
  9
CIRC1
 49
-2.54
 74
     0
 49
25.4
 74
     0
  0
LTYPE
  5
A4D
330
9A7
100
AcDbSymbolTableRecord
100
AcDbLinetypeTableRecord
  2
DRAINAGE2
 70
     0
  3
Drainage reversed----<----<----<----
 72
    65
 73
     2
 40
10.16
 49
5.08
 74
     2
 75
     0
340
A4C
 46
2.54
 50
0.0
 44
0.0
 45
0.0
  9
RIGHT_ARROW
 49
5.08
 74
     0
  0
LTYPE
  5
A4E
330
9A7
100
AcDbSymbolTableRecord
100
AcDbLinetypeTableRecord
  2
DIVIDEX2
 70
     0
  3
Divide (2x) ________  .  .  ________  .  .  _
 72
    65
 73
     6
 40
63.5
 49
25.4
 74
     0
 49
-12.7
 74
     0
 49
0.0
 74
     0
 49
-12.7
 74
     0
 49
0.0
 74
     0
 49
-12.7
 74
     0
  0
LTYPE
  5
A4F
330
9A7
100
AcDbSymbolTableRecord
100
AcDbLinetypeTableRecord
  2
DIVIDE2
 70
     0
  3
Divide (.5x) __..__..__..__..__..__..__..__.._
 72
    65
 73
     6
 40
15.875
 49
6.35
 74
     0
 49
-3.175
 74
     0
 49
0.0
 74
     0
 49
-3.175
 74
     0
 49
0.0
 74
     0
 49
-3.175
 74
     0
  0
LTYPE
  5
A50
330
9A7
100
AcDbSymbolTableRecord
100
AcDbLinetypeTableRecord
  2
DOT2
 70
     0
  3
Dot (.5x) ........................................
 72
    65
 73
     2
 40
3.175
 49
0.0
 74
     0
 49
-3.175
 74
     0
  0
LTYPE
  5
A51
330
9A7
100
AcDbSymbolTableRecord
100
AcDbLinetypeTableRecord
  2
DOT
 70
     0
  3
Dot . . . . . . . . . . . . . . . . . . . . . . . .
 72
    65
 73
     2
 40
6.35
 49
0.0
 74
     0
 49
-6.35
 74
     0
  0
LTYPE
  5
A53
330
9A7
100
AcDbSymbolTableRecord
100
AcDbLinetypeTableRecord
  2
HOT_WATER_SUPPLY
 70
     0
  3
Hot water supply ---- HW ---- HW ---- HW ----
 72
    65
 73
     3
 40
22.86
 49
12.7
 74
     0
 49
-5.08
 74
     2
 75
     0
340
A52
 46
2.54
 50
0.0
 44
-2.54
 45
-1.27
  9
HW
 49
-5.08
 74
     0
  0
LTYPE
  5
A54
330
9A7
100
AcDbSymbolTableRecord
100
AcDbLinetypeTableRecord
  2
HIDDENX2
 70
     0
  3
Hidden (2x) ____ ____ ____ ____ ____ ____ ____ 
 72
    65
 73
     2
 40
19.05
 49
12.7
 74
     0
 49
-6.35
 74
     0
  0
LTYPE
  5
A55
330
9A7
100
AcDbSymbolTableRecord
100
AcDbLinetypeTableRecord
  2
PHANTOM2
 70
     0
  3
Phantom (.5x) ___ _ _ ___ _ _ ___ _ _ ___ _ _
 72
    65
 73
     6
 40
31.75
 49
15.875
 74
     0
 49
-3.175
 74
     0
 49
3.175
 74
     0
 49
-3.175
 74
     0
 49
3.175
 74
     0
 49
-3.175
 74
     0
  0
LTYPE
  5
A56
330
9A7
100
AcDbSymbolTableRecord
100
AcDbLinetypeTableRecord
  2
PHANTOM
 70
     0
  3
Phantom ______  __  __  ______  __  __  ______ 
 72
    65
 73
     6
 40
63.50000000000001
 49
31.75
 74
     0
 49
-6.35
 74
     0
 49
6.35
 74
     0
 49
-6.35
 74
     0
 49
6.35
 74
     0
 49
-6.35
 74
     0
  0
LTYPE
  5
A58
330
9A7
100
AcDbSymbolTableRecord
100
AcDbLinetypeTableRecord
  2
GAS_LINE
 70
     0
  3
Gas line ----GAS----GAS----GAS----GAS----GAS----GAS--
 72
    65
 73
     3
 40
24.13
 49
12.7
 74
     0
 49
-5.08
 74
     2
 75
     0
340
A57
 46
2.54
 50
0.0
 44
-2.54
 45
-1.27
  9
GAS
 49
-6.35
 74
     0
  0
LTYPE
  5
A5A
330
9A7
100
AcDbSymbolTableRecord
100
AcDbLinetypeTableRecord
  2
FENCELINE2
 70
     0
  3
Fenceline square ----[]-----[]----[]-----[]----[]---
 72
    65
 73
     4
 40
36.83
 49
6.35
 74
     0
 49
-2.54
 74
     2
 75
     0
340
A59
 46
2.54
 50
0.0
 44
-2.54
 45
0.0
  9
BOX
 49
-2.54
 74
     0
 49
25.4
 74
     0
  0
LTYPE
  5
A5B
330
9A7
100
AcDbSymbolTableRecord
100
AcDbLinetypeTableRecord
  2
HIDDEN2
 70
     0
  3
Hidden (.5x) _ _ _ _ _ _ _ _ _ _ _ _ _ _ _ _ _ 
 72
    65
 73
     2
 40
4.762499999999999
 49
3.175
 74
     0
 49
-1.5875
 74
     0
  0
LTYPE
  5
A5C
330
9A7
100
AcDbSymbolTableRecord
100
AcDbLinetypeTableRecord
  2
HIDDEN
 70
     0
  3
Hidden __ __ __ __ __ __ __ __ __ __ __ __ __ __
 72
    65
 73
     2
 40
9.524999999999999
 49
6.35
 74
     0
 49
-3.175
 74
     0
  0
LTYPE
  5
A5E
330
9A7
100
AcDbSymbolTableRecord
100
AcDbLinetypeTableRecord
  2
TRACKS
 70
     0
  3
Tracks -|-|-|-|-|-|-|-|-|-|-|-|-|-|-|-|-|-|-|-|-|-|-|-|-
 72
    65
 73
     2
 40
7.62
 49
3.81
 74
     2
 75
     0
340
A5D
 46
6.35
 50
0.0
 44
0.0
 45
0.0
  9
TRACK1
 49
3.81
 74
     0
  0
LTYPE
  5
A5F
330
9A7
100
AcDbSymbolTableRecord
100
AcDbLinetypeTableRecord
  2
PHANTOMX2
 70
     0
  3
Phantom (2x) ____________    ____    ____   _
 72
    65
 73
     6
 40
127.0
 49
63.5
 74
     0
 49
-12.7
 74
     0
 49
12.7
 74
     0
 49
-12.7
 74
     0
 49
12.7
 74
     0
 49
-12.7
 74
     0
  0
LTYPE
  5
A62
330
9A7
100
AcDbSymbolTableRecord
100
AcDbLinetypeTableRecord
  2
ZIGZAG
 70
     0
  3
Zig zag /\/\/\/\/\/\/\/\/\/\/\/\/\/\/\/\/\/\/\/\/\/\/\/
 72
    65
 73
     4
 40
20.32254
 49
0.00254
 74
     0
 49
-5.08
 74
     2
 75
     0
340
A60
 46
5.08
 50
0.0
 44
-5.08
 45
0.0
  9
ZIG
 49
-10.16
 74
     2
 75
     0
340
A61
 46
5.08
 50
180.0
 44
5.08
 45
0.0
  9
ZIG
 49
-5.08
 74
     0
  0
LTYPE
  5
A63
330
9A7
100
AcDbSymbolTableRecord
100
AcDbLinetypeTableRecord
  2
ACAD_ISO07W100
 70
     0
  3
ISO dot . . . . . . . . . . . . . . . . . . . . 
 72
    65
 73
     2
 40
3.0
 49
0.0
 74
     0
 49
-3.0
 74
     0
  0
LTYPE
  5
A64
330
9A7
100
AcDbSymbolTableRecord
100
AcDbLinetypeTableRecord
  2
ACAD_ISO06W100
 70
     0
  3
ISO long-dash triple-dot ____ ... ____ ... ____
 72
    65
 73
     8
 40
36.0
 49
24.0
 74
     0
 49
-3.0
 74
     0
 49
0.0
 74
     0
 49
-3.0
 74
     0
 49
0.0
 74
     0
 49
-3.0
 74
     0
 49
0.0
 74
     0
 49
-3.0
 74
     0
  0
LTYPE
  5
A65
330
9A7
100
AcDbSymbolTableRecord
100
AcDbLinetypeTableRecord
  2
ACAD_ISO09W100
 70
     0
  3
ISO long-dash double-short-dash ____ __ __ ____
 72
    65
 73
     6
 40
45.0
 49
24.0
 74
     0
 49
-3.0
 74
     0
 49
6.0
 74
     0
 49
-3.0
 74
     0
 49
6.0
 74
     0
 49
-3.0
 74
     0
  0
LTYPE
  5
A66
330
9A7
100
AcDbSymbolTableRecord
100
AcDbLinetypeTableRecord
  2
ACAD_ISO08W100
 70
     0
  3
ISO long-dash short-dash ____ __ ____ __ ____ _
 72
    65
 73
     4
 40
36.0
 49
24.0
 74
     0
 49
-3.0
 74
     0
 49
6.0
 74
     0
 49
-3.0
 74
     0
  0
LTYPE
  5
A67
330
9A7
100
AcDbSymbolTableRecord
100
AcDbLinetypeTableRecord
  2
ACAD_ISO03W100
 70
     0
  3
ISO dash space __    __    __    __    __    __
 72
    65
 73
     2
 40
30.0
 49
12.0
 74
     0
 49
-18.0
 74
     0
  0
LTYPE
  5
A68
330
9A7
100
AcDbSymbolTableRecord
100
AcDbLinetypeTableRecord
  2
ACAD_ISO02W100
 70
     0
  3
ISO dash __ __ __ __ __ __ __ __ __ __ __ __ __
 72
    65
 73
     2
 40
15.0
 49
12.0
 74
     0
 49
-3.0
 74
     0
  0
LTYPE
  5
A69
330
9A7
100
AcDbSymbolTableRecord
100
AcDbLinetypeTableRecord
  2
ACAD_ISO05W100
 70
     0
  3
ISO long-dash double-dot ____ .. ____ .. ____ . 
 72
    65
 73
     6
 40
33.0
 49
24.0
 74
     0
 49
-3.0
 74
     0
 49
0.0
 74
     0
 49
-3.0
 74
     0
 49
0.0
 74
     0
 49
-3.0
 74
     0
  0
LTYPE
  5
A6A
330
9A7
100
AcDbSymbolTableRecord
100
AcDbLinetypeTableRecord
  2
ACAD_ISO04W100
 70
     0
  3
ISO long-dash dot ____ . ____ . ____ . ____ . _
 72
    65
 73
     4
 40
30.0
 49
24.0
 74
     0
 49
-3.0
 74
     0
 49
0.0
 74
     0
 49
-3.0
 74
     0
  0
LTYPE
  5
A6B
330
9A7
100
AcDbSymbolTableRecord
100
AcDbLinetypeTableRecord
  2
ACAD_ISO15W100
 70
     0
  3
ISO double-dash triple-dot __ __ . . . __ __ . .
 72
    65
 73
    10
 40
39.0
 49
12.0
 74
     0
 49
-3.0
 74
     0
 49
12.0
 74
     0
 49
-3.0
 74
     0
 49
0.0
 74
     0
 49
-3.0
 74
     0
 49
0.0
 74
     0
 49
-3.0
 74
     0
 49
0.0
 74
     0
 49
-3.0
 74
     0
  0
LTYPE
  5
A6C
330
9A7
100
AcDbSymbolTableRecord
100
AcDbLinetypeTableRecord
  2
ACAD_ISO14W100
 70
     0
  3
ISO dash triple-dot __ . . . __ . . . __ . . . _
 72
    65
 73
     8
 40
24.0
 49
12.0
 74
     0
 49
-3.0
 74
     0
 49
0.0
 74
     0
 49
-3.0
 74
     0
 49
0.0
 74
     0
 49
-3.0
 74
     0
 49
0.0
 74
     0
 49
-3.0
 74
     0
  0
LTYPE
  5
A6D
330
9A7
100
AcDbSymbolTableRecord
100
AcDbLinetypeTableRecord
  2
BORDER
 70
     0
  3
Border __ __ . __ __ . __ __ . __ __ . __ __ .
 72
    65
 73
     6
 40
44.45
 49
12.7
 74
     0
 49
-6.35
 74
     0
 49
12.7
 74
     0
 49
-6.35
 74
     0
 49
0.0
 74
     0
 49
-6.35
 74
     0
  0
LTYPE
  5
A70
330
9A7
100
AcDbSymbolTableRecord
100
AcDbLinetypeTableRecord
  2
BATTING
 70
     0
  3
Batting SSSSSSSSSSSSSSSSSSSSSSSSSSSSSSSSSSSSSSSSSSSSSSS
 72
    65
 73
     4
 40
10.16254
 49
0.00254
 74
     0
 49
-2.54
 74
     2
 75
     0
340
A6E
 46
2.54
 50
0.0
 44
-2.54
 45
0.0
  9
BAT
 49
-5.08
 74
     2
 75
     0
340
A6F
 46
2.54
 50
180.0
 44
2.54
 45
0.0
  9
BAT
 49
-2.54
 74
     0
  0
LTYPE
  5
A71
330
9A7
100
AcDbSymbolTableRecord
100
AcDbLinetypeTableRecord
  2
ACAD_ISO11W100
 70
     0
  3
ISO double-dash dot __ __ . __ __ . __ __ . __ _
 72
    65
 73
     6
 40
33.0
 49
12.0
 74
     0
 49
-3.0
 74
     0
 49
12.0
 74
     0
 49
-3.0
 74
     0
 49
0.0
 74
     0
 49
-3.0
 74
     0
  0
LTYPE
  5
A72
330
9A7
100
AcDbSymbolTableRecord
100
AcDbLinetypeTableRecord
  2
ACAD_ISO10W100
 70
     0
  3
ISO dash dot __ . __ . __ . __ . __ . __ . __ . 
 72
    65
 73
     4
 40
18.0
 49
12.0
 74
     0
 49
-3.0
 74
     0
 49
0.0
 74
     0
 49
-3.0
 74
     0
  0
LTYPE
  5
A73
330
9A7
100
AcDbSymbolTableRecord
100
AcDbLinetypeTableRecord
  2
ACAD_ISO13W100
 70
     0
  3
ISO double-dash double-dot __ __ . . __ __ . . _
 72
    65
 73
     8
 40
36.0
 49
12.0
 74
     0
 49
-3.0
 74
     0
 49
12.0
 74
     0
 49
-3.0
 74
     0
 49
0.0
 74
     0
 49
-3.0
 74
     0
 49
0.0
 74
     0
 49
-3.0
 74
     0
  0
LTYPE
  5
A74
330
9A7
100
AcDbSymbolTableRecord
100
AcDbLinetypeTableRecord
  2
ACAD_ISO12W100
 70
     0
  3
ISO dash double-dot __ . . __ . . __ . . __ . . 
 72
    65
 73
     6
 40
21.0
 49
12.0
 74
     0
 49
-3.0
 74
     0
 49
0.0
 74
     0
 49
-3.0
 74
     0
 49
0.0
 74
     0
 49
-3.0
 74
     0
  0
LTYPE
  5
A76
330
9A7
100
AcDbSymbolTableRecord
100
AcDbLinetypeTableRecord
  2
CUTLEFT
 70
     0
  3
G41 ----\----\----\----
 72
    65
 73
     2
 40
10.16
 49
5.08
 74
     2
 75
     0
340
A75
 46
2.54
 50
180.0
 44
0.0
 45
0.0
  9
LRIGHT_ARROW
 49
5.08
 74
     0
  0
LTYPE
  5
A77
330
9A7
100
AcDbSymbolTableRecord
100
AcDbLinetypeTableRecord
  2
CENTERX2
 70
     0
  3
Center (2x) ________  __  ________  __  _____
 72
    65
 73
     4
 40
101.6
 49
63.5
 74
     0
 49
-12.7
 74
     0
 49
12.7
 74
     0
 49
-12.7
 74
     0
  0
LTYPE
  5
A79
330
9A7
100
AcDbSymbolTableRecord
100
AcDbLinetypeTableRecord
  2
CUTRIGHT
 70
     0
  3
G42 ----/----/-----/---
 72
    65
 73
     2
 40
10.16
 49
5.08
 74
     2
 75
     0
340
A78
 46
2.54
 50
180.0
 44
0.0
 45
0.0
  9
HRIGHT_ARROW
 49
5.08
 74
     0
  0
LTYPE
  5
A7B
330
9A7
100
AcDbSymbolTableRecord
100
AcDbLinetypeTableRecord
  2
CUTLEFT2
 70
     0
  3
G41 reversed----/----/----/----
 72
    65
 73
     2
 40
10.16
 49
5.08
 74
     2
 75
     0
340
A7A
 46
2.54
 50
0.0
 44
0.0
 45
0.0
  9
LRIGHT_ARROW
 49
5.08
 74
     0
  0
LTYPE
  5
A7C
330
9A7
100
AcDbSymbolTableRecord
100
AcDbLinetypeTableRecord
  2
BORDERX2
 70
     0
  3
Border (2x) ____  ____  .  ____  ____  .  ___
 72
    65
 73
     6
 40
88.89999999999999
 49
25.4
 74
     0
 49
-12.7
 74
     0
 49
25.4
 74
     0
 49
-12.7
 74
     0
 49
0.0
 74
     0
 49
-12.7
 74
     0
  0
LTYPE
  5
A7D
330
9A7
100
AcDbSymbolTableRecord
100
AcDbLinetypeTableRecord
  2
BORDER2
 70
     0
  3
Border (.5x) __.__.__.__.__.__.__.__.__.__.__.
 72
    65
 73
     6
 40
22.225
 49
6.35
 74
     0
 49
-3.175
 74
     0
 49
6.35
 74
     0
 49
-3.175
 74
     0
 49
0.0
 74
     0
 49
-3.175
 74
     0
  0
LTYPE
  5
A7E
330
9A7
100
AcDbSymbolTableRecord
100
AcDbLinetypeTableRecord
  2
CENTER2
 70
     0
  3
Center (.5x) ___ _ ___ _ ___ _ ___ _ ___ _ ___
 72
    65
 73
     4
 40
28.575
 49
19.05
 74
     0
 49
-3.175
 74
     0
 49
3.175
 74
     0
 49
-3.175
 74
     0
  0
LTYPE
  5
A7F
330
9A7
100
AcDbSymbolTableRecord
100
AcDbLinetypeTableRecord
  2
CENTER
 70
     0
  3
Center ____ _ ____ _ ____ _ ____ _ ____ _ ____
 72
    65
 73
     4
 40
50.8
 49
31.75
 74
     0
 49
-6.35
 74
     0
 49
6.35
 74
     0
 49
-6.35
 74
     0
  0
LTYPE
  5
A80
330
9A7
100
AcDbSymbolTableRecord
100
AcDbLinetypeTableRecord
  2
DASHED2
 70
     0
  3
Dashed (.5x) _ _ _ _ _ _ _ _ _ _ _ _ _ _ _ _ _ 
 72
    65
 73
     2
 40
9.524999999999999
 49
6.35
 74
     0
 49
-3.175
 74
     0
  0
LTYPE
  5
A81
330
9A7
100
AcDbSymbolTableRecord
100
AcDbLinetypeTableRecord
  2
DASHED
 70
     0
  3
Dashed __ __ __ __ __ __ __ __ __ __ __ __ __ _
 72
    65
 73
     2
 40
19.05
 49
12.7
 74
     0
 49
-6.35
 74
     0
  0
LTYPE
  5
A82
330
9A7
100
AcDbSymbolTableRecord
100
AcDbLinetypeTableRecord
  2
DIVIDE
 70
     0
  3
Divide ____ . . ____ . . ____ . . ____ . . ____
 72
    65
 73
     6
 40
31.75
 49
12.7
 74
     0
 49
-6.35
 74
     0
 49
0.0
 74
     0
 49
-6.35
 74
     0
 49
0.0
 74
     0
 49
-6.35
 74
     0
  0
LTYPE
  5
A83
330
9A7
100
AcDbSymbolTableRecord
100
AcDbLinetypeTableRecord
  2
DASHEDX2
 70
     0
  3
Dashed (2x) ____  ____  ____  ____  ____  ___
 72
    65
 73
     2
 40
38.09999999999999
 49
25.4
 74
     0
 49
-12.7
 74
     0
  0
LTYPE
  5
A84
330
9A7
100
AcDbSymbolTableRecord
100
AcDbLinetypeTableRecord
  2
DASHDOT
 70
     0
  3
Dash dot __ . __ . __ . __ . __ . __ . __ . __
 72
    65
 73
     4
 40
25.4
 49
12.7
 74
     0
 49
-6.35
 74
     0
 49
0.0
 74
     0
 49
-6.35
 74
     0
  0
LTYPE
  5
A86
330
9A7
100
AcDbSymbolTableRecord
100
AcDbLinetypeTableRecord
  2
CUTRIGHT2
 70
     0
  3
G42 reversed----\----\----\----
 72
    65
 73
     2
 40
10.16
 49
5.08
 74
     2
 75
     0
340
A85
 46
2.54
 50
0.0
 44
0.0
 45
0.0
  9
HRIGHT_ARROW
 49
5.08
 74
     0
  0
ENDTAB
  0
TABLE
  2
LAYER
  5
9A5
330
0
100
AcDbSymbolTable
 70
     6
  0
LAYER
  5
9B2
330
9A5
100
AcDbSymbolTableRecord
100
AcDbLayerTableRecord
  2
0
 70
     1
 62
   -18
420
        0
  6
Continuous
370
    25
390
9B1
347
9E7
348
0
  0
LAYER
  5
A87
330
9A5
100
AcDbSymbolTableRecord
100
AcDbLayerTableRecord
  2
layer 4
 70
     1
 62
    -3
420
    65280
  6
Continuous
370
    25
390
9B1
347
9E7
348
0
  0
LAYER
  5
A88
330
9A5
100
AcDbSymbolTableRecord
100
AcDbLayerTableRecord
  2
layer 5
 70
     0
 62
     6
420
 16711935
  6
Continuous
370
    25
390
9B1
347
9E7
348
0
  0
LAYER
  5
A89
330
9A5
100
AcDbSymbolTableRecord
100
AcDbLayerTableRecord
  2
layer 2
 70
     0
 62
     5
420
      255
  6
Continuous
370
    25
390
9B1
347
9E7
348
0
  0
LAYER
  5
A8A
330
9A5
100
AcDbSymbolTableRecord
100
AcDbLayerTableRecord
  2
layer 3
 70
     0
 62
     1
420
 16711680
  6
Continuous
370
    25
390
9B1
347
9E7
348
0
  0
LAYER
  5
A8B
330
9A5
100
AcDbSymbolTableRecord
100
AcDbLayerTableRecord
  2
layer 1
 70
     1
 62
   -18
420
        0
  6
Continuous
370
    25
390
9B1
347
9E7
348
0
  0
ENDTAB
  0
TABLE
  2
STYLE
  5
9A6
330
0
100
AcDbSymbolTable
 70
    17
  0
STYLE
  5
9B3
330
9A6
100
AcDbSymbolTableRecord
100
AcDbTextStyleTableRecord
  2
Standard
 70
     0
 40
0.0
 41
1.0
 50
0.0
 71
     0
 42
0.2
  3
txt
  4

  0
STYLE
  5
A43
330
9A6
100
AcDbSymbolTableRecord
100
AcDbTextStyleTableRecord
  2
QCADDimTextStyle
 70
     0
 40
0.0
 41
1.0
 50
0.0
 71
     0
 42
0.2
  3

  4

  0
STYLE
  5
A47
330
9A6
100
AcDbSymbolTableRecord
100
AcDbTextStyleTableRecord
  2
textstyle0
 70
     0
 40
0.0
 41
1.0
 50
0.0
 71
     0
 42
0.2
  3
qcadshp.shx
  4

  0
STYLE
  5
A4A
330
9A6
100
AcDbSymbolTableRecord
100
AcDbTextStyleTableRecord
  2
textstyle1
 70
     0
 40
0.0
 41
1.0
 50
0.0
 71
     0
 42
0.2
  3
ltypeshp.shx
  4

  0
STYLE
  5
A4C
330
9A6
100
AcDbSymbolTableRecord
100
AcDbTextStyleTableRecord
  2
textstyle2
 70
     0
 40
0.0
 41
1.0
 50
0.0
 71
     0
 42
0.2
  3
qcadshp.shx
  4

  0
STYLE
  5
A52
330
9A6
100
AcDbSymbolTableRecord
100
AcDbTextStyleTableRecord
  2
textstyle3
 70
     0
 40
0.0
 41
1.0
 50
0.0
 71
     0
 42
0.2
  3
STANDARD
  4

  0
STYLE
  5
A57
330
9A6
100
AcDbSymbolTableRecord
100
AcDbTextStyleTableRecord
  2
textstyle4
 70
     0
 40
0.0
 41
1.0
 50
0.0
 71
     0
 42
0.2
  3
STANDARD
  4

  0
STYLE
  5
A59
330
9A6
100
AcDbSymbolTableRecord
100
AcDbTextStyleTableRecord
  2
textstyle5
 70
     0
 40
0.0
 41
1.0
 50
0.0
 71
     0
 42
0.2
  3
ltypeshp.shx
  4

  0
STYLE
  5
A5D
330
9A6
100
AcDbSymbolTableRecord
100
AcDbTextStyleTableRecord
  2
textstyle6
 70
     0
 40
0.0
 41
1.0
 50
0.0
 71
     0
 42
0.2
  3
ltypeshp.shx
  4

  0
STYLE
  5
A60
330
9A6
100
AcDbSymbolTableRecord
100
AcDbTextStyleTableRecord
  2
textstyle7
 70
     0
 40
0.0
 41
1.0
 50
0.0
 71
     0
 42
0.2
  3
ltypeshp.shx
  4

  0
STYLE
  5
A61
330
9A6
100
AcDbSymbolTableRecord
100
AcDbTextStyleTableRecord
  2
textstyle8
 70
     0
 40
0.0
 41
1.0
 50
0.0
 71
     0
 42
0.2
  3
ltypeshp.shx
  4

  0
STYLE
  5
A6E
330
9A6
100
AcDbSymbolTableRecord
100
AcDbTextStyleTableRecord
  2
textstyle9
 70
     0
 40
0.0
 41
1.0
 50
0.0
 71
     0
 42
0.2
  3
ltypeshp.shx
  4

  0
STYLE
  5
A6F
330
9A6
100
AcDbSymbolTableRecord
100
AcDbTextStyleTableRecord
  2
textstyle10
 70
     0
 40
0.0
 41
1.0
 50
0.0
 71
     0
 42
0.2
  3
ltypeshp.shx
  4

  0
STYLE
  5
A75
330
9A6
100
AcDbSymbolTableRecord
100
AcDbTextStyleTableRecord
  2
textstyle11
 70
     0
 40
0.0
 41
1.0
 50
0.0
 71
     0
 42
0.2
  3
qcadshp.shx
  4

  0
STYLE
  5
A78
330
9A6
100
AcDbSymbolTableRecord
100
AcDbTextStyleTableRecord
  2
textstyle12
 70
     0
 40
0.0
 41
1.0
 50
0.0
 71
     0
 42
0.2
  3
qcadshp.shx
  4

  0
STYLE
  5
A7A
330
9A6
100
AcDbSymbolTableRecord
100
AcDbTextStyleTableRecord
  2
textstyle13
 70
     0
 40
0.0
 41
1.0
 50
0.0
 71
     0
 42
0.2
  3
qcadshp.shx
  4

  0
STYLE
  5
A85
330
9A6
100
AcDbSymbolTableRecord
100
AcDbTextStyleTableRecord
  2
textstyle14
 70
     0
 40
0.0
 41
1.0
 50
0.0
 71
     0
 42
0.2
  3
qcadshp.shx
  4

  0
ENDTAB
  0
TABLE
  2
VIEW
  5
9A8
330
0
100
AcDbSymbolTable
 70
     0
  0
ENDTAB
  0
TABLE
  2
UCS
  5
9A9
330
0
100
AcDbSymbolTable
 70
     0
  0
ENDTAB
  0
TABLE
  2
APPID
  5
9AB
330
0
100
AcDbSymbolTable
 70
     2
  0
APPID
  5
9B4
330
9AB
100
AcDbSymbolTableRecord
100
AcDbRegAppTableRecord
  2
ACAD
 70
     0
  0
APPID
  5
A0F
330
9AB
100
AcDbSymbolTableRecord
100
AcDbRegAppTableRecord
  2
QCAD
 70
     0
  0
ENDTAB
  0
TABLE
  2
DIMSTYLE
  5
9AC
330
0
100
AcDbSymbolTable
 70
     2
100
AcDbDimStyleTable
  0
DIMSTYLE
105
9C8
330
9AC
100
AcDbSymbolTableRecord
100
AcDbDimStyleTableRecord
  2
Standard
 70
     0
178
     0
340
9B3
  0
DIMSTYLE
105
A44
330
9AC
100
AcDbSymbolTableRecord
100
AcDbDimStyleTableRecord
  2
QCADDimStyle
 70
     0
 41
2.5
 42
0.625
 44
1.25
 73
     0
 77
     1
140
2.5
147
0.625
178
     0
340
A43
  0
ENDTAB
  0
TABLE
  2
BLOCK_RECORD
  5
9A4
330
0
100
AcDbSymbolTable
 70
     0
  0
BLOCK_RECORD
  5
9C0
330
9A4
100
AcDbSymbolTableRecord
100
AcDbBlockTableRecord
  2
*Model_Space
340
9C3
 70
     0
280
     1
281
     0
  0
BLOCK_RECORD
  5
9BC
330
9A4
100
AcDbSymbolTableRecord
100
AcDbBlockTableRecord
  2
*Paper_Space
340
9BF
 70
     0
280
     1
281
     0
  0
ENDTAB
  0
ENDSEC
  0
SECTION
  2
BLOCKS
  0
BLOCK
  5
9C1
330
9C0
100
AcDbEntity
  8
0
100
AcDbBlockBegin
  2
*Model_Space
 70
     0
 10
0.0
 20
0.0
 30
0.0
  3
*Model_Space
  1

  0
ENDBLK
  5
9C2
330
9C0
100
AcDbEntity
  8
0
100
AcDbBlockEnd
  0
BLOCK
  5
9BD
330
9BC
100
AcDbEntity
 67
     1
  8
0
100
AcDbBlockBegin
  2
*Paper_Space
 70
     0
 10
0.0
 20
0.0
 30
0.0
  3
*Paper_Space
  1

  0
ENDBLK
  5
9BE
330
9BC
100
AcDbEntity
 67
     1
  8
0
100
AcDbBlockEnd
  0
ENDSEC
  0
SECTION
  2
ENTITIES
  0
CIRCLE
  5
9A
330
9C0
100
AcDbEntity
  8
layer 3
100
AcDbCircle
 10
161.5
 20
-69.99999999999997
 30
0.0
 40
1.5
  0
CIRCLE
  5
3D4
330
9C0
100
AcDbEntity
  8
layer 3
100
AcDbCircle
 10
39.23030399291331
 20
-69.5000000000106
 30
0.0
 40
1.5
  0
CIRCLE
  5
9B
330
9C0
100
AcDbEntity
  8
layer 3
100
AcDbCircle
 10
257.5
 20
-70.0
 30
0.0
 40
1.5
  0
CIRCLE
  5
3D5
330
9C0
100
AcDbEntity
  8
layer 3
100
AcDbCircle
 10
135.2303039929133
 20
-69.50000000001063
 30
0.0
 40
1.5
  0
CIRCLE
  5
9C
330
9C0
100
AcDbEntity
  8
layer 3
100
AcDbCircle
 10
257.5
 20
41.0
 30
0.0
 40
1.5
  0
CIRCLE
  5
3D6
330
9C0
100
AcDbEntity
  8
layer 3
100
AcDbCircle
 10
135.2303039929133
 20
41.49999999998938
 30
0.0
 40
1.5
  0
CIRCLE
  5
9D
330
9C0
100
AcDbEntity
  8
layer 3
100
AcDbCircle
 10
161.5
 20
41.0
 30
0.0
 40
1.5
  0
CIRCLE
  5
3D7
330
9C0
100
AcDbEntity
  8
layer 3
100
AcDbCircle
 10
39.23030399291331
 20
41.49999999998938
 30
0.0
 40
1.5
  0
LINE
  5
1C4
330
9C0
100
AcDbEntity
  8
layer 2
100
AcDbLine
 10
163.0
 20
-76.49999999999997
 30
0.0
 11
256.0
 21
-76.5
 31
0.0
  0
LINE
  5
3D8
330
9C0
100
AcDbEntity
  8
layer 2
100
AcDbLine
 10
40.73030399291331
 20
-76.0000000000106
 30
0.0
 11
133.7303039929133
 21
-76.00000000001063
 31
0.0
  0
ARC
  5
1C8
330
9C0
100
AcDbEntity
  8
layer 2
100
AcDbCircle
 10
164.159992069268
 20
-69.13405550261704
 30
0.0
 40
7.456723136826956
100
AcDbArc
 50
175.1231411603236
 51
261.0505357689359
  0
ARC
  5
3D9
330
9C0
100
AcDbEntity
  8
layer 2
100
AcDbCircle
 10
41.89029606218121
 20
-68.63405550262766
 30
0.0
 40
7.456723136826956
100
AcDbArc
 50
175.1231411603236
 51
261.0505357689359
  0
ARC
  5
1C9
330
9C0
100
AcDbEntity
  8
layer 2
100
AcDbCircle
 10
254.8400079307318
 20
-69.13405550261636
 30
0.0
 40
7.456723136827699
100
AcDbArc
 50
278.9494642310652
 51
4.876858839673069
1001
QCAD
1000
reversed:1
  0
ARC
  5
3DA
330
9C0
100
AcDbEntity
  8
layer 2
100
AcDbCircle
 10
132.5703119236451
 20
-68.63405550262698
 30
0.0
 40
7.456723136827699
100
AcDbArc
 50
278.9494642310652
 51
4.876858839673069
1001
QCAD
1000
reversed:1
  0
ARC
  5
1CF
330
9C0
100
AcDbEntity
  8
layer 2
100
AcDbCircle
 10
209.5
 20
-529.0
 30
0.0
 40
577.0
100
AcDbArc
 50
85.22811193922239
 51
94.77188806077764
1001
QCAD
1000
reversed:1
  0
ARC
  5
3DB
330
9C0
100
AcDbEntity
  8
layer 2
100
AcDbCircle
 10
87.23030399291329
 20
-528.5000000000106
 30
0.0
 40
577.0
100
AcDbArc
 50
85.22811193922239
 51
94.77188806077764
1001
QCAD
1000
reversed:1
  0
ARC
  5
1D0
330
9C0
100
AcDbEntity
  8
layer 2
100
AcDbCircle
 10
257.4157815682123
 20
40.93820056648381
 30
0.0
 40
5.062499999933829
100
AcDbArc
 50
343.4955985147455
 51
89.046798360461
  0
ARC
  5
3DC
330
9C0
100
AcDbEntity
  8
layer 2
100
AcDbCircle
 10
135.1460855611255
 20
41.43820056647318
 30
0.0
 40
5.062499999933829
100
AcDbArc
 50
343.4955985147455
 51
89.046798360461
  0
ARC
  5
1D1
330
9C0
100
AcDbEntity
  8
layer 2
100
AcDbCircle
 10
161.5842184318661
 20
40.9382005664314
 30
0.0
 40
5.06249999999421
100
AcDbArc
 50
90.95320163928638
 51
196.5044014843233
  0
ARC
  5
3DD
330
9C0
100
AcDbEntity
  8
layer 2
100
AcDbCircle
 10
39.3145224247794
 20
41.43820056642078
 30
0.0
 40
5.06249999999421
100
AcDbArc
 50
90.95320163928638
 51
196.5044014843233
  0
LINE
  5
1D3
330
9C0
100
AcDbEntity
  8
layer 4
100
AcDbLine
 10
165.9999999999999
 20
43.99999999999994
 30
0.0
 11
253.0
 21
44.0
 31
0.0
  0
LINE
  5
1D5
330
9C0
100
AcDbEntity
  8
layer 4
100
AcDbLine
 10
253.0
 20
44.0
 30
0.0
 11
253.0
 21
44.0
 31
0.0
  0
LINE
  5
1D6
330
9C0
100
AcDbEntity
  8
layer 4
100
AcDbLine
 10
253.0
 20
44.0
 30
0.0
 11
253.0
 21
-73.0
 31
0.0
  0
LINE
  5
1D7
330
9C0
100
AcDbEntity
  8
layer 4
100
AcDbLine
 10
253.0
 20
-73.0
 30
0.0
 11
166.0
 21
-72.99999999999997
 31
0.0
  0
LINE
  5
1D8
330
9C0
100
AcDbEntity
  8
layer 4
100
AcDbLine
 10
166.0
 20
-72.99999999999997
 30
0.0
 11
165.9999999999999
 21
43.99999999999994
 31
0.0
  0
LINE
  5
1D9
330
9C0
100
AcDbEntity
  8
layer 4
100
AcDbLine
 10
169.0
 20
41.0
 30
0.0
 11
250.0
 21
41.0
 31
0.0
  0
LINE
  5
1DA
330
9C0
100
AcDbEntity
  8
layer 4
100
AcDbLine
 10
250.0
 20
41.0
 30
0.0
 11
250.0
 21
-70.0
 31
0.0
  0
LINE
  5
1DB
330
9C0
100
AcDbEntity
  8
layer 4
100
AcDbLine
 10
250.0
 20
-70.0
 30
0.0
 11
169.0
 21
-69.99999999999997
 31
0.0
  0
LINE
  5
1DC
330
9C0
100
AcDbEntity
  8
layer 4
100
AcDbLine
 10
169.0
 20
-69.99999999999997
 30
0.0
 11
169.0
 21
40.99999999999999
 31
0.0
  0
LWPOLYLINE
  5
1E6
330
9C0
100
AcDbEntity
  8
layer 4
100
AcDbPolyline
 90
        4
 70
   129
 43
0.0
 10
165.9999999999999
 20
40.99999999999994
 10
175.9999999999999
 20
40.99999999999994
 10
175.9999999999999
 20
43.99999999999994
 10
165.9999999999999
 20
43.99999999999994
  0
LWPOLYLINE
  5
1E7
330
9C0
100
AcDbEntity
  8
layer 4
100
AcDbPolyline
 90
        4
 70
   129
 43
0.0
 10
175.9999999999999
 20
40.99999999999994
 10
195.9999999999999
 20
40.99999999999994
 10
195.9999999999999
 20
43.99999999999994
 10
175.9999999999999
 20
43.99999999999994
  0
LWPOLYLINE
  5
1E8
330
9C0
100
AcDbEntity
  8
layer 4
100
AcDbPolyline
 90
        4
 70
   129
 43
0.0
 10
243.0
 20
41.00000000000001
 10
253.0
 20
41.0
 10
253.0
 20
44.0
 10
243.0
 20
44.00000000000001
  0
LWPOLYLINE
  5
1E9
330
9C0
100
AcDbEntity
  8
layer 4
100
AcDbPolyline
 90
        4
 70
   129
 43
0.0
 10
223.0
 20
41.0
 10
243.0
 20
40.99999999999999
 10
243.0
 20
43.99999999999999
 10
223.0
 20
44.0
  0
LWPOLYLINE
  5
1EA
330
9C0
100
AcDbEntity
  8
layer 4
100
AcDbPolyline
 90
        4
 70
   129
 43
0.0
 10
243.0
 20
-73.0
 10
253.0
 20
-73.0
 10
253.0
 20
-70.0
 10
243.0
 20
-70.0
  0
LWPOLYLINE
  5
1EB
330
9C0
100
AcDbEntity
  8
layer 4
100
AcDbPolyline
 90
        4
 70
   129
 43
0.0
 10
223.0
 20
-72.99999999999999
 10
243.0
 20
-73.0
 10
243.0
 20
-70.0
 10
223.0
 20
-70.0
  0
LWPOLYLINE
  5
1EC
330
9C0
100
AcDbEntity
  8
layer 4
100
AcDbPolyline
 90
        4
 70
   129
 43
0.0
 10
166.0
 20
-72.99999999999997
 10
176.0
 20
-72.99999999999997
 10
176.0
 20
-69.99999999999997
 10
166.0
 20
-69.99999999999997
  0
LWPOLYLINE
  5
1ED
330
9C0
100
AcDbEntity
  8
layer 4
100
AcDbPolyline
 90
        4
 70
   129
 43
0.0
 10
176.0
 20
-72.99999999999997
 10
196.0
 20
-72.99999999999997
 10
196.0
 20
-69.99999999999997
 10
176.0
 20
-69.99999999999997
  0
LINE
  5
1EF
330
9C0
100
AcDbEntity
  8
layer 3
100
AcDbLine
 10
243.0
 20
-70.0
 30
0.0
 11
223.0
 21
-69.99999999999999
 31
0.0
  0
LINE
  5
3DE
330
9C0
100
AcDbEntity
  8
layer 3
100
AcDbLine
 10
120.7303039929133
 20
-69.50000000001063
 30
0.0
 11
100.7303039929133
 21
-69.5000000000106
 31
0.0
  0
LINE
  5
1F1
330
9C0
100
AcDbEntity
  8
layer 3
100
AcDbLine
 10
223.0
 20
-73.19999999999999
 30
0.0
 11
243.0
 21
-73.2
 31
0.0
  0
LINE
  5
3DF
330
9C0
100
AcDbEntity
  8
layer 3
100
AcDbLine
 10
100.7303039929133
 20
-72.70000000001062
 30
0.0
 11
120.7303039929133
 21
-72.70000000001062
 31
0.0
  0
LINE
  5
1F3
330
9C0
100
AcDbEntity
  8
layer 3
100
AcDbLine
 10
176.0
 20
-69.99999999999997
 30
0.0
 11
196.0
 21
-69.99999999999999
 31
0.0
  0
LINE
  5
1F5
330
9C0
100
AcDbEntity
  8
layer 3
100
AcDbLine
 10
196.0
 20
-73.19999999999999
 30
0.0
 11
176.0
 21
-73.19999999999997
 31
0.0
  0
LINE
  5
3E0
330
9C0
100
AcDbEntity
  8
layer 3
100
AcDbLine
 10
73.73030399291326
 20
-72.70000000001062
 30
0.0
 11
53.73030399291331
 21
-72.70000000001059
 31
0.0
  0
LINE
  5
1F7
330
9C0
100
AcDbEntity
  8
layer 3
100
AcDbLine
 10
243.0
 20
41.0
 30
0.0
 11
223.0
 21
41.0
 31
0.0
  0
LINE
  5
3E1
330
9C0
100
AcDbEntity
  8
layer 3
100
AcDbLine
 10
120.7303039929133
 20
41.49999999998938
 30
0.0
 11
100.7303039929133
 21
41.49999999998938
 31
0.0
  0
LINE
  5
1F9
330
9C0
100
AcDbEntity
  8
layer 3
100
AcDbLine
 10
223.0
 20
44.19999999999997
 30
0.0
 11
243.0
 21
44.19999999999999
 31
0.0
  0
LINE
  5
3E2
330
9C0
100
AcDbEntity
  8
layer 3
100
AcDbLine
 10
100.7303039929133
 20
44.69999999998937
 30
0.0
 11
120.7303039929133
 21
44.69999999998938
 31
0.0
  0
LINE
  5
1FB
330
9C0
100
AcDbEntity
  8
layer 3
100
AcDbLine
 10
195.9999999999999
 20
41.0
 30
0.0
 11
175.9999999999999
 21
40.99999999999994
 31
0.0
  0
LINE
  5
3E3
330
9C0
100
AcDbEntity
  8
layer 3
100
AcDbLine
 10
73.73030399291315
 20
41.49999999998938
 30
0.0
 11
53.73030399291311
 21
41.49999999998932
 31
0.0
  0
LINE
  5
1FD
330
9C0
100
AcDbEntity
  8
layer 3
100
AcDbLine
 10
175.9999999999999
 20
44.19999999999993
 30
0.0
 11
195.9999999999999
 21
44.19999999999993
 31
0.0
  0
LINE
  5
3E4
330
9C0
100
AcDbEntity
  8
layer 3
100
AcDbLine
 10
53.73030399291311
 20
44.69999999998933
 30
0.0
 11
73.73030399291318
 21
44.69999999998933
 31
0.0
  0
LWPOLYLINE
  5
1FE
330
9C0
100
AcDbEntity
  8
layer 4
100
AcDbPolyline
 90
        4
 70
   129
 43
0.0
 10
166.0
 20
-72.99999999999999
 10
169.0
 20
-72.99999999999999
 10
169.0
 20
-62.99999999999999
 10
166.0
 20
-62.99999999999999
  0
LWPOLYLINE
  5
1FF
330
9C0
100
AcDbEntity
  8
layer 4
100
AcDbPolyline
 90
        4
 70
   129
 43
0.0
 10
166.0
 20
-62.99999999999998
 10
169.0
 20
-62.99999999999998
 10
169.0
 20
-42.99999999999998
 10
166.0
 20
-42.99999999999998
  0
LWPOLYLINE
  5
202
330
9C0
100
AcDbEntity
  8
layer 4
100
AcDbPolyline
 90
        4
 70
   129
 43
0.0
 10
165.9999999999998
 20
33.99999999999994
 10
168.9999999999998
 20
33.99999999999994
 10
168.9999999999998
 20
43.99999999999994
 10
165.9999999999998
 20
43.99999999999994
  0
LWPOLYLINE
  5
203
330
9C0
100
AcDbEntity
  8
layer 4
100
AcDbPolyline
 90
        4
 70
   129
 43
0.0
 10
165.9999999999999
 20
13.99999999999994
 10
168.9999999999999
 20
13.99999999999993
 10
168.9999999999999
 20
33.99999999999994
 10
165.9999999999999
 20
33.99999999999994
  0
LWPOLYLINE
  5
204
330
9C0
100
AcDbEntity
  8
layer 4
100
AcDbPolyline
 90
        4
 70
   129
 43
0.0
 10
250.0
 20
34.0
 10
253.0
 20
34.0
 10
253.0
 20
44.0
 10
250.0
 20
44.0
  0
LWPOLYLINE
  5
205
330
9C0
100
AcDbEntity
  8
layer 4
100
AcDbPolyline
 90
        4
 70
   129
 43
0.0
 10
250.0
 20
14.0
 10
253.0
 20
14.0
 10
253.0
 20
34.0
 10
250.0
 20
34.0
  0
LWPOLYLINE
  5
206
330
9C0
100
AcDbEntity
  8
layer 4
100
AcDbPolyline
 90
        4
 70
   129
 43
0.0
 10
166.0
 20
3.999999999999947
 10
169.0
 20
3.999999999999943
 10
169.0
 20
33.99999999999994
 10
166.0
 20
33.99999999999994
  0
LWPOLYLINE
  5
207
330
9C0
100
AcDbEntity
  8
layer 4
100
AcDbPolyline
 90
        4
 70
   129
 43
0.0
 10
250.0
 20
4.000000000000004
 10
253.0
 20
4.0
 10
253.0
 20
34.0
 10
250.0
 20
34.0
  0
LWPOLYLINE
  5
209
330
9C0
100
AcDbEntity
  8
layer 4
100
AcDbPolyline
 90
        4
 70
   129
 43
0.0
 10
166.0
 20
-62.99999999999999
 10
169.0
 20
-62.99999999999999
 10
169.0
 20
-32.99999999999999
 10
166.0
 20
-32.99999999999999
  0
LINE
  5
22D
330
9C0
100
AcDbEntity
  8
layer 3
100
AcDbLine
 10
169.0
 20
-62.99999999999999
 30
0.0
 11
169.0
 21
-42.99999999999999
 31
0.0
  0
LINE
  5
3E5
330
9C0
100
AcDbEntity
  8
layer 3
100
AcDbLine
 10
46.73030399291331
 20
-62.50000000001059
 30
0.0
 11
46.73030399291331
 21
-42.50000000001059
 31
0.0
  0
LINE
  5
22C
330
9C0
100
AcDbEntity
  8
layer 3
100
AcDbLine
 10
165.8
 20
-42.99999999999999
 30
0.0
 11
165.8
 21
-62.99999999999999
 31
0.0
  0
LINE
  5
3E6
330
9C0
100
AcDbEntity
  8
layer 3
100
AcDbLine
 10
43.5303039929133
 20
-42.50000000001059
 30
0.0
 11
43.5303039929133
 21
-62.50000000001059
 31
0.0
  0
LINE
  5
228
330
9C0
100
AcDbEntity
  8
layer 3
100
AcDbLine
 10
253.2
 20
13.99999999999999
 30
0.0
 11
253.2
 21
33.99999999999999
 31
0.0
  0
LINE
  5
3E7
330
9C0
100
AcDbEntity
  8
layer 3
100
AcDbLine
 10
130.9303039929133
 20
14.49999999998938
 30
0.0
 11
130.9303039929133
 21
34.49999999998938
 31
0.0
  0
LINE
  5
229
330
9C0
100
AcDbEntity
  8
layer 3
100
AcDbLine
 10
250.0
 20
34.0
 30
0.0
 11
250.0
 21
14.0
 31
0.0
  0
LINE
  5
3E8
330
9C0
100
AcDbEntity
  8
layer 3
100
AcDbLine
 10
127.7303039929133
 20
34.49999999998938
 30
0.0
 11
127.7303039929133
 21
14.49999999998938
 31
0.0
  0
LINE
  5
22B
330
9C0
100
AcDbEntity
  8
layer 3
100
AcDbLine
 10
165.7999999999999
 20
33.99999999999992
 30
0.0
 11
165.7999999999999
 21
13.99999999999993
 31
0.0
  0
LINE
  5
3E9
330
9C0
100
AcDbEntity
  8
layer 3
100
AcDbLine
 10
43.5303039929132
 20
34.49999999998931
 30
0.0
 11
43.5303039929132
 21
14.49999999998932
 31
0.0
  0
LINE
  5
22A
330
9C0
100
AcDbEntity
  8
layer 3
100
AcDbLine
 10
169.0
 20
13.99999999999993
 30
0.0
 11
169.0
 21
33.99999999999994
 31
0.0
  0
LINE
  5
3EA
330
9C0
100
AcDbEntity
  8
layer 3
100
AcDbLine
 10
46.73030399291331
 20
14.49999999998932
 30
0.0
 11
46.73030399291331
 21
34.49999999998934
 31
0.0
  0
ARC
  5
21A
330
9C0
100
AcDbEntity
  8
layer 2
100
AcDbCircle
 10
-132.3703956209534
 20
-14.49995697086421
 30
0.0
 40
294.1006798191443
100
AcDbArc
 50
349.4198288494028
 51
10.58012914490141
1001
QCAD
1000
reversed:1
  0
ARC
  5
3EB
330
9C0
100
AcDbEntity
  8
layer 2
100
AcDbCircle
 10
-254.6400916280401
 20
-13.99995697087483
 30
0.0
 40
294.1006798191443
100
AcDbArc
 50
349.4198288494028
 51
10.58012914490141
1001
QCAD
1000
reversed:1
  0
ARC
  5
21B
330
9C0
100
AcDbEntity
  8
layer 2
100
AcDbCircle
 10
551.3703956209002
 20
-14.4999569708595
 30
0.0
 40
294.1006798190924
100
AcDbArc
 50
169.4198708550995
 51
190.5801711506001
1001
QCAD
1000
reversed:1
  0
ARC
  5
3EC
330
9C0
100
AcDbEntity
  8
layer 2
100
AcDbCircle
 10
429.1006996138136
 20
-13.99995697087012
 30
0.0
 40
294.1006798190924
100
AcDbArc
 50
169.4198708550995
 51
190.5801711506001
1001
QCAD
1000
reversed:1
  0
LWPOLYLINE
  5
21F
330
9C0
100
AcDbEntity
  8
layer 4
100
AcDbPolyline
 90
        4
 70
   129
 43
0.0
 10
250.0
 20
-73.0
 10
253.0
 20
-73.0
 10
253.0
 20
-63.0
 10
250.0
 20
-63.0
  0
LWPOLYLINE
  5
220
330
9C0
100
AcDbEntity
  8
layer 4
100
AcDbPolyline
 90
        4
 70
   129
 43
0.0
 10
250.0
 20
-63.0
 10
253.0
 20
-63.0
 10
253.0
 20
-43.0
 10
250.0
 20
-43.0
  0
LINE
  5
222
330
9C0
100
AcDbEntity
  8
layer 3
100
AcDbLine
 10
253.2
 20
-43.00000000000001
 30
0.0
 11
253.2
 21
-63.00000000000001
 31
0.0
  0
LINE
  5
3ED
330
9C0
100
AcDbEntity
  8
layer 3
100
AcDbLine
 10
130.9303039929133
 20
-42.50000000001062
 30
0.0
 11
130.9303039929133
 21
-62.50000000001062
 31
0.0
  0
LINE
  5
224
330
9C0
100
AcDbEntity
  8
layer 3
100
AcDbLine
 10
250.0
 20
-63.0
 30
0.0
 11
250.0
 21
-43.0
 31
0.0
  0
LINE
  5
3EE
330
9C0
100
AcDbEntity
  8
layer 3
100
AcDbLine
 10
127.7303039929133
 20
-62.50000000001062
 30
0.0
 11
127.7303039929133
 21
-42.50000000001062
 31
0.0
  0
LWPOLYLINE
  5
22E
330
9C0
100
AcDbEntity
  8
layer 4
100
AcDbPolyline
 90
        4
 70
   129
 43
0.0
 10
250.0
 20
-22.0
 10
253.0
 20
-22.0
 10
253.0
 20
-7.0
 10
250.0
 20
-7.0
  0
LWPOLYLINE
  5
22F
330
9C0
100
AcDbEntity
  8
layer 4
100
AcDbPolyline
 90
        4
 70
   129
 43
0.0
 10
165.9999999999999
 20
-22.00000000000001
 10
168.9999999999999
 20
-22.00000000000001
 10
168.9999999999999
 20
-7.000000000000016
 10
165.9999999999999
 20
-7.000000000000014
  0
LINE
  5
231
330
9C0
100
AcDbEntity
  8
layer 3
100
AcDbLine
 10
253.2
 20
-7.000000000000007
 30
0.0
 11
253.2
 21
-22.00000000000001
 31
0.0
  0
LINE
  5
3EF
330
9C0
100
AcDbEntity
  8
layer 3
100
AcDbLine
 10
130.9303039929133
 20
-6.500000000010623
 30
0.0
 11
130.9303039929133
 21
-21.50000000001062
 31
0.0
  0
LINE
  5
233
330
9C0
100
AcDbEntity
  8
layer 3
100
AcDbLine
 10
250.0
 20
-22.0
 30
0.0
 11
250.0
 21
-7.0
 31
0.0
  0
LINE
  5
3F0
330
9C0
100
AcDbEntity
  8
layer 3
100
AcDbLine
 10
127.7303039929133
 20
-21.50000000001062
 30
0.0
 11
127.7303039929133
 21
-6.500000000010623
 31
0.0
  0
LINE
  5
235
330
9C0
100
AcDbEntity
  8
layer 3
100
AcDbLine
 10
169.0
 20
-7.000000000000018
 30
0.0
 11
169.0
 21
-22.00000000000001
 31
0.0
  0
LINE
  5
3F1
330
9C0
100
AcDbEntity
  8
layer 3
100
AcDbLine
 10
46.73030399291331
 20
-6.500000000010623
 30
0.0
 11
46.73030399291331
 21
-21.50000000001062
 31
0.0
  0
LINE
  5
237
330
9C0
100
AcDbEntity
  8
layer 3
100
AcDbLine
 10
165.8
 20
-22.00000000000002
 30
0.0
 11
165.8
 21
-7.000000000000023
 31
0.0
  0
LINE
  5
3F2
330
9C0
100
AcDbEntity
  8
layer 3
100
AcDbLine
 10
43.5303039929133
 20
-21.50000000001062
 30
0.0
 11
43.5303039929133
 21
-6.500000000010623
 31
0.0
  0
LINE
  5
263
330
9C0
100
AcDbEntity
  8
layer 2
100
AcDbLine
 10
274.2584302936469
 20
14.49478620205676
 30
0.0
 11
274.2584302936469
 21
-6.505213797943242
 31
0.0
  0
LINE
  5
896
330
9C0
100
AcDbEntity
  8
layer 2
100
AcDbLine
 10
303.5980433073192
 20
14.74649009795822
 30
0.0
 11
303.5980433073192
 21
-6.253509902041785
 31
0.0
  0
LINE
  5
25D
330
9C0
100
AcDbEntity
  8
layer 2
100
AcDbLine
 10
274.2584302936469
 20
44.49478620205676
 30
0.0
 11
274.2584302936469
 21
34.49478620205676
 31
0.0
  0
LINE
  5
897
330
9C0
100
AcDbEntity
  8
layer 2
100
AcDbLine
 10
303.5980433073192
 20
44.74649009795822
 30
0.0
 11
303.5980433073192
 21
34.74649009795822
 31
0.0
  0
LINE
  5
268
330
9C0
100
AcDbEntity
  8
layer 2
100
AcDbLine
 10
274.2584302936469
 20
-62.50521379794324
 30
0.0
 11
274.2584302936469
 21
-72.50521379794324
 31
0.0
  0
LINE
  5
898
330
9C0
100
AcDbEntity
  8
layer 2
100
AcDbLine
 10
303.5980433073192
 20
-62.25350990204178
 30
0.0
 11
303.5980433073192
 21
-72.25350990204178
 31
0.0
  0
LINE
  5
267
330
9C0
100
AcDbEntity
  8
layer 2
100
AcDbLine
 10
274.2584302936469
 20
-21.50521379794324
 30
0.0
 11
274.2584302936469
 21
-42.50521379794324
 31
0.0
  0
LINE
  5
899
330
9C0
100
AcDbEntity
  8
layer 2
100
AcDbLine
 10
303.5980433073192
 20
-21.25350990204178
 30
0.0
 11
303.5980433073192
 21
-42.25350990204178
 31
0.0
  0
LINE
  5
273
330
9C0
100
AcDbEntity
  8
layer 2
100
AcDbLine
 10
274.2584302936469
 20
-72.50521379794324
 30
0.0
 11
278.7584302936469
 21
-72.50521379794324
 31
0.0
  0
LINE
  5
89A
330
9C0
100
AcDbEntity
  8
layer 2
100
AcDbLine
 10
303.5980433073192
 20
-72.25350990204178
 30
0.0
 11
308.0980433073192
 21
-72.25350990204178
 31
0.0
  0
LINE
  5
274
330
9C0
100
AcDbEntity
  8
layer 2
100
AcDbLine
 10
284.7584302936469
 20
-72.50521379794324
 30
0.0
 11
289.2584302936469
 21
-72.50521379794324
 31
0.0
  0
LINE
  5
89B
330
9C0
100
AcDbEntity
  8
layer 2
100
AcDbLine
 10
314.0980433073192
 20
-72.25350990204178
 30
0.0
 11
318.5980433073192
 21
-72.25350990204178
 31
0.0
  0
LINE
  5
26E
330
9C0
100
AcDbEntity
  8
layer 2
100
AcDbLine
 10
284.7584302936469
 20
44.49478620205676
 30
0.0
 11
289.2584302936469
 21
44.49478620205676
 31
0.0
  0
LINE
  5
89C
330
9C0
100
AcDbEntity
  8
layer 2
100
AcDbLine
 10
314.0980433073192
 20
44.74649009795822
 30
0.0
 11
318.5980433073192
 21
44.74649009795822
 31
0.0
  0
LINE
  5
26D
330
9C0
100
AcDbEntity
  8
layer 2
100
AcDbLine
 10
274.2584302936469
 20
44.49478620205676
 30
0.0
 11
278.7584302936469
 21
44.49478620205676
 31
0.0
  0
LINE
  5
89D
330
9C0
100
AcDbEntity
  8
layer 2
100
AcDbLine
 10
303.5980433073192
 20
44.74649009795822
 30
0.0
 11
308.0980433073192
 21
44.74649009795822
 31
0.0
  0
LINE
  5
262
330
9C0
100
AcDbEntity
  8
layer 2
100
AcDbLine
 10
289.2584302936469
 20
-6.505213797943242
 30
0.0
 11
289.2584302936469
 21
14.49478620205676
 31
0.0
  0
LINE
  5
89E
330
9C0
100
AcDbEntity
  8
layer 2
100
AcDbLine
 10
318.5980433073192
 20
-6.253509902041785
 30
0.0
 11
318.5980433073192
 21
14.74649009795822
 31
0.0
  0
LINE
  5
260
330
9C0
100
AcDbEntity
  8
layer 2
100
AcDbLine
 10
289.2584302936469
 20
34.49478620205676
 30
0.0
 11
289.2584302936469
 21
44.49478620205676
 31
0.0
  0
LINE
  5
89F
330
9C0
100
AcDbEntity
  8
layer 2
100
AcDbLine
 10
318.5980433073192
 20
34.74649009795822
 30
0.0
 11
318.5980433073192
 21
44.74649009795822
 31
0.0
  0
LINE
  5
266
330
9C0
100
AcDbEntity
  8
layer 2
100
AcDbLine
 10
289.2584302936469
 20
-42.50521379794324
 30
0.0
 11
289.2584302936469
 21
-21.50521379794325
 31
0.0
  0
LINE
  5
8A0
330
9C0
100
AcDbEntity
  8
layer 2
100
AcDbLine
 10
318.5980433073192
 20
-42.25350990204178
 30
0.0
 11
318.5980433073192
 21
-21.2535099020418
 31
0.0
  0
LINE
  5
265
330
9C0
100
AcDbEntity
  8
layer 2
100
AcDbLine
 10
289.2584302936469
 20
-72.50521379794324
 30
0.0
 11
289.2584302936469
 21
-62.50521379794324
 31
0.0
  0
LINE
  5
8A1
330
9C0
100
AcDbEntity
  8
layer 2
100
AcDbLine
 10
318.5980433073192
 20
-72.25350990204178
 30
0.0
 11
318.5980433073192
 21
-62.25350990204178
 31
0.0
  0
LINE
  5
24B
330
9C0
100
AcDbEntity
  8
layer 2
100
AcDbLine
 10
289.2584302936469
 20
14.49478620205676
 30
0.0
 11
292.2584302936469
 21
14.49478620205676
 31
0.0
  0
LINE
  5
8A2
330
9C0
100
AcDbEntity
  8
layer 2
100
AcDbLine
 10
318.5980433073192
 20
14.74649009795822
 30
0.0
 11
321.5980433073192
 21
14.74649009795822
 31
0.0
  0
LINE
  5
24C
330
9C0
100
AcDbEntity
  8
layer 2
100
AcDbLine
 10
289.2584302936469
 20
-6.505213797943242
 30
0.0
 11
292.2584302936469
 21
-6.505213797943242
 31
0.0
  0
LINE
  5
8A3
330
9C0
100
AcDbEntity
  8
layer 2
100
AcDbLine
 10
318.5980433073192
 20
-6.253509902041785
 30
0.0
 11
321.5980433073192
 21
-6.253509902041785
 31
0.0
  0
LINE
  5
24D
330
9C0
100
AcDbEntity
  8
layer 2
100
AcDbLine
 10
289.2584302936469
 20
-42.50521379794324
 30
0.0
 11
292.2584302936469
 21
-42.50521379794324
 31
0.0
  0
LINE
  5
8A4
330
9C0
100
AcDbEntity
  8
layer 2
100
AcDbLine
 10
318.5980433073192
 20
-42.25350990204178
 30
0.0
 11
321.5980433073192
 21
-42.25350990204178
 31
0.0
  0
LINE
  5
24E
330
9C0
100
AcDbEntity
  8
layer 2
100
AcDbLine
 10
289.2584302936469
 20
-62.50521379794324
 30
0.0
 11
292.2584302936469
 21
-62.50521379794324
 31
0.0
  0
LINE
  5
8A5
330
9C0
100
AcDbEntity
  8
layer 2
100
AcDbLine
 10
318.5980433073192
 20
-62.25350990204178
 30
0.0
 11
321.5980433073192
 21
-62.25350990204178
 31
0.0
  0
LINE
  5
24F
330
9C0
100
AcDbEntity
  8
layer 2
100
AcDbLine
 10
289.2584302936469
 20
-21.50521379794324
 30
0.0
 11
292.2584302936469
 21
-21.50521379794324
 31
0.0
  0
LINE
  5
8A6
330
9C0
100
AcDbEntity
  8
layer 2
100
AcDbLine
 10
318.5980433073192
 20
-21.25350990204178
 30
0.0
 11
321.5980433073192
 21
-21.25350990204178
 31
0.0
  0
LINE
  5
250
330
9C0
100
AcDbEntity
  8
layer 2
100
AcDbLine
 10
289.2584302936469
 20
34.49478620205676
 30
0.0
 11
292.2584302936469
 21
34.49478620205676
 31
0.0
  0
LINE
  5
8A7
330
9C0
100
AcDbEntity
  8
layer 2
100
AcDbLine
 10
318.5980433073192
 20
34.74649009795822
 30
0.0
 11
321.5980433073192
 21
34.74649009795822
 31
0.0
  0
LINE
  5
251
330
9C0
100
AcDbEntity
  8
layer 2
100
AcDbLine
 10
271.2584302936469
 20
34.49478620205676
 30
0.0
 11
274.2584302936469
 21
34.49478620205676
 31
0.0
  0
LINE
  5
8A8
330
9C0
100
AcDbEntity
  8
layer 2
100
AcDbLine
 10
300.5980433073192
 20
34.74649009795822
 30
0.0
 11
303.5980433073192
 21
34.74649009795822
 31
0.0
  0
LINE
  5
252
330
9C0
100
AcDbEntity
  8
layer 2
100
AcDbLine
 10
271.2584302936469
 20
14.49478620205676
 30
0.0
 11
274.2584302936469
 21
14.49478620205676
 31
0.0
  0
LINE
  5
8A9
330
9C0
100
AcDbEntity
  8
layer 2
100
AcDbLine
 10
300.5980433073192
 20
14.74649009795822
 30
0.0
 11
303.5980433073192
 21
14.74649009795822
 31
0.0
  0
LINE
  5
253
330
9C0
100
AcDbEntity
  8
layer 2
100
AcDbLine
 10
271.2584302936469
 20
-6.505213797943242
 30
0.0
 11
274.2584302936469
 21
-6.505213797943242
 31
0.0
  0
LINE
  5
8AA
330
9C0
100
AcDbEntity
  8
layer 2
100
AcDbLine
 10
300.5980433073192
 20
-6.253509902041785
 30
0.0
 11
303.5980433073192
 21
-6.253509902041785
 31
0.0
  0
LINE
  5
254
330
9C0
100
AcDbEntity
  8
layer 2
100
AcDbLine
 10
271.2584302936469
 20
-21.50521379794324
 30
0.0
 11
274.2584302936469
 21
-21.50521379794324
 31
0.0
  0
LINE
  5
8AB
330
9C0
100
AcDbEntity
  8
layer 2
100
AcDbLine
 10
300.5980433073192
 20
-21.25350990204178
 30
0.0
 11
303.5980433073192
 21
-21.25350990204178
 31
0.0
  0
LINE
  5
255
330
9C0
100
AcDbEntity
  8
layer 2
100
AcDbLine
 10
271.2584302936469
 20
-42.50521379794324
 30
0.0
 11
274.2584302936469
 21
-42.50521379794324
 31
0.0
  0
LINE
  5
8AC
330
9C0
100
AcDbEntity
  8
layer 2
100
AcDbLine
 10
300.5980433073192
 20
-42.25350990204178
 30
0.0
 11
303.5980433073192
 21
-42.25350990204178
 31
0.0
  0
LINE
  5
256
330
9C0
100
AcDbEntity
  8
layer 2
100
AcDbLine
 10
271.2584302936469
 20
-62.50521379794324
 30
0.0
 11
274.2584302936469
 21
-62.50521379794324
 31
0.0
  0
LINE
  5
8AD
330
9C0
100
AcDbEntity
  8
layer 2
100
AcDbLine
 10
300.5980433073192
 20
-62.25350990204178
 30
0.0
 11
303.5980433073192
 21
-62.25350990204178
 31
0.0
  0
LINE
  5
257
330
9C0
100
AcDbEntity
  8
layer 2
100
AcDbLine
 10
271.2584302936469
 20
-62.50521379794324
 30
0.0
 11
271.2584302936469
 21
-42.50521379794324
 31
0.0
  0
LINE
  5
8AE
330
9C0
100
AcDbEntity
  8
layer 2
100
AcDbLine
 10
300.5980433073192
 20
-62.25350990204178
 30
0.0
 11
300.5980433073192
 21
-42.25350990204178
 31
0.0
  0
LINE
  5
258
330
9C0
100
AcDbEntity
  8
layer 2
100
AcDbLine
 10
292.2584302936469
 20
-62.50521379794324
 30
0.0
 11
292.2584302936469
 21
-42.50521379794324
 31
0.0
  0
LINE
  5
8AF
330
9C0
100
AcDbEntity
  8
layer 2
100
AcDbLine
 10
321.5980433073192
 20
-62.25350990204178
 30
0.0
 11
321.5980433073192
 21
-42.25350990204178
 31
0.0
  0
LINE
  5
259
330
9C0
100
AcDbEntity
  8
layer 2
100
AcDbLine
 10
292.2584302936469
 20
14.49478620205676
 30
0.0
 11
292.2584302936469
 21
34.49478620205676
 31
0.0
  0
LINE
  5
8B0
330
9C0
100
AcDbEntity
  8
layer 2
100
AcDbLine
 10
321.5980433073192
 20
14.74649009795822
 30
0.0
 11
321.5980433073192
 21
34.74649009795822
 31
0.0
  0
LINE
  5
25A
330
9C0
100
AcDbEntity
  8
layer 2
100
AcDbLine
 10
271.2584302936469
 20
14.49478620205676
 30
0.0
 11
271.2584302936469
 21
34.49478620205676
 31
0.0
  0
LINE
  5
8B1
330
9C0
100
AcDbEntity
  8
layer 2
100
AcDbLine
 10
300.5980433073192
 20
14.74649009795822
 30
0.0
 11
300.5980433073192
 21
34.74649009795822
 31
0.0
  0
LINE
  5
25B
330
9C0
100
AcDbEntity
  8
layer 2
100
AcDbLine
 10
271.2584302936469
 20
-21.50521379794324
 30
0.0
 11
271.2584302936469
 21
-6.505213797943242
 31
0.0
  0
LINE
  5
8B2
330
9C0
100
AcDbEntity
  8
layer 2
100
AcDbLine
 10
300.5980433073192
 20
-21.25350990204178
 30
0.0
 11
300.5980433073192
 21
-6.253509902041785
 31
0.0
  0
LINE
  5
25C
330
9C0
100
AcDbEntity
  8
layer 2
100
AcDbLine
 10
292.2584302936469
 20
-21.50521379794324
 30
0.0
 11
292.2584302936469
 21
-6.505213797943242
 31
0.0
  0
LINE
  5
8B3
330
9C0
100
AcDbEntity
  8
layer 2
100
AcDbLine
 10
321.5980433073192
 20
-21.25350990204178
 30
0.0
 11
321.5980433073192
 21
-6.253509902041785
 31
0.0
  0
LINE
  5
26A
330
9C0
100
AcDbEntity
  8
layer 2
100
AcDbLine
 10
278.7584302936469
 20
41.49478620205676
 30
0.0
 11
278.7584302936469
 21
44.49478620205676
 31
0.0
  0
LINE
  5
8B4
330
9C0
100
AcDbEntity
  8
layer 2
100
AcDbLine
 10
308.0980433073192
 20
41.74649009795822
 30
0.0
 11
308.0980433073192
 21
44.74649009795822
 31
0.0
  0
LINE
  5
26B
330
9C0
100
AcDbEntity
  8
layer 2
100
AcDbLine
 10
284.7584302936469
 20
41.49478620205676
 30
0.0
 11
284.7584302936469
 21
44.49478620205676
 31
0.0
  0
LINE
  5
8B5
330
9C0
100
AcDbEntity
  8
layer 2
100
AcDbLine
 10
314.0980433073192
 20
41.74649009795822
 30
0.0
 11
314.0980433073192
 21
44.74649009795822
 31
0.0
  0
LINE
  5
26C
330
9C0
100
AcDbEntity
  8
layer 2
100
AcDbLine
 10
278.7584302936469
 20
41.49478620205676
 30
0.0
 11
284.7584302936469
 21
41.49478620205676
 31
0.0
  0
LINE
  5
8B6
330
9C0
100
AcDbEntity
  8
layer 2
100
AcDbLine
 10
308.0980433073192
 20
41.74649009795822
 30
0.0
 11
314.0980433073192
 21
41.74649009795822
 31
0.0
  0
LINE
  5
270
330
9C0
100
AcDbEntity
  8
layer 2
100
AcDbLine
 10
278.7584302936469
 20
-69.50521379794324
 30
0.0
 11
284.7584302936469
 21
-69.50521379794324
 31
0.0
  0
LINE
  5
8B7
330
9C0
100
AcDbEntity
  8
layer 2
100
AcDbLine
 10
308.0980433073192
 20
-69.25350990204178
 30
0.0
 11
314.0980433073192
 21
-69.25350990204178
 31
0.0
  0
LINE
  5
271
330
9C0
100
AcDbEntity
  8
layer 2
100
AcDbLine
 10
278.7584302936469
 20
-72.50521379794324
 30
0.0
 11
278.7584302936469
 21
-69.50521379794324
 31
0.0
  0
LINE
  5
8B8
330
9C0
100
AcDbEntity
  8
layer 2
100
AcDbLine
 10
308.0980433073192
 20
-72.25350990204178
 30
0.0
 11
308.0980433073192
 21
-69.25350990204178
 31
0.0
  0
LINE
  5
272
330
9C0
100
AcDbEntity
  8
layer 2
100
AcDbLine
 10
284.7584302936469
 20
-72.50521379794324
 30
0.0
 11
284.7584302936469
 21
-69.50521379794324
 31
0.0
  0
LINE
  5
8B9
330
9C0
100
AcDbEntity
  8
layer 2
100
AcDbLine
 10
314.0980433073192
 20
-72.25350990204178
 30
0.0
 11
314.0980433073192
 21
-69.25350990204178
 31
0.0
  0
LINE
  5
29D
330
9C0
100
AcDbEntity
  8
layer 2
100
AcDbLine
 10
196.0
 20
-123.0
 30
0.0
 11
223.0
 21
-123.0
 31
0.0
  0
LINE
  5
29B
330
9C0
100
AcDbEntity
  8
layer 2
100
AcDbLine
 10
169.0
 20
-123.0
 30
0.0
 11
176.0
 21
-123.0
 31
0.0
  0
LINE
  5
2A6
330
9C0
100
AcDbEntity
  8
layer 2
100
AcDbLine
 10
169.5
 20
-92.49999999999999
 30
0.0
 11
176.5
 21
-92.49999999999999
 31
0.0
  0
LINE
  5
2A7
330
9C0
100
AcDbEntity
  8
layer 2
100
AcDbLine
 10
243.5
 20
-92.5
 30
0.0
 11
250.5
 21
-92.5
 31
0.0
  0
LINE
  5
2A4
330
9C0
100
AcDbEntity
  8
layer 2
100
AcDbLine
 10
243.0
 20
-123.0
 30
0.0
 11
250.0
 21
-123.0
 31
0.0
  0
LINE
  5
2A5
330
9C0
100
AcDbEntity
  8
layer 2
100
AcDbLine
 10
196.5
 20
-92.49999999999999
 30
0.0
 11
223.5
 21
-92.49999999999999
 31
0.0
  0
LINE
  5
297
330
9C0
100
AcDbEntity
  8
layer 2
100
AcDbLine
 10
166.0
 20
-133.5
 30
0.0
 11
166.0
 21
-127.5
 31
0.0
  0
LINE
  5
2A8
330
9C0
100
AcDbEntity
  8
layer 2
100
AcDbLine
 10
166.5
 20
-103.0
 30
0.0
 11
166.5
 21
-96.99999999999996
 31
0.0
  0
LINE
  5
2A9
330
9C0
100
AcDbEntity
  8
layer 2
100
AcDbLine
 10
253.5
 20
-103.0
 30
0.0
 11
253.5
 21
-97.0
 31
0.0
  0
LINE
  5
2A3
330
9C0
100
AcDbEntity
  8
layer 2
100
AcDbLine
 10
253.0
 20
-133.5
 30
0.0
 11
253.0
 21
-127.5
 31
0.0
  0
LINE
  5
29F
330
9C0
100
AcDbEntity
  8
layer 2
100
AcDbLine
 10
196.0
 20
-138.0
 30
0.0
 11
223.0
 21
-138.0
 31
0.0
  0
LINE
  5
299
330
9C0
100
AcDbEntity
  8
layer 2
100
AcDbLine
 10
169.0
 20
-138.0
 30
0.0
 11
176.0
 21
-138.0
 31
0.0
  0
LINE
  5
2AC
330
9C0
100
AcDbEntity
  8
layer 2
100
AcDbLine
 10
196.5
 20
-107.5
 30
0.0
 11
223.5
 21
-107.5
 31
0.0
  0
LINE
  5
2AA
330
9C0
100
AcDbEntity
  8
layer 2
100
AcDbLine
 10
169.5
 20
-107.5
 30
0.0
 11
176.5
 21
-107.5
 31
0.0
  0
LINE
  5
2AB
330
9C0
100
AcDbEntity
  8
layer 2
100
AcDbLine
 10
243.5
 20
-107.5
 30
0.0
 11
250.5
 21
-107.5
 31
0.0
  0
LINE
  5
2A2
330
9C0
100
AcDbEntity
  8
layer 2
100
AcDbLine
 10
243.0
 20
-138.0
 30
0.0
 11
250.0
 21
-138.0
 31
0.0
  0
LINE
  5
27F
330
9C0
100
AcDbEntity
  8
layer 2
100
AcDbLine
 10
176.0
 20
-141.0
 30
0.0
 11
176.0
 21
-138.0
 31
0.0
  0
LINE
  5
2AD
330
9C0
100
AcDbEntity
  8
layer 2
100
AcDbLine
 10
176.5
 20
-110.5
 30
0.0
 11
176.5
 21
-107.5
 31
0.0
  0
LINE
  5
280
330
9C0
100
AcDbEntity
  8
layer 2
100
AcDbLine
 10
196.0
 20
-141.0
 30
0.0
 11
196.0
 21
-138.0
 31
0.0
  0
LINE
  5
2AE
330
9C0
100
AcDbEntity
  8
layer 2
100
AcDbLine
 10
196.5
 20
-110.5
 30
0.0
 11
196.5
 21
-107.5
 31
0.0
  0
LINE
  5
281
330
9C0
100
AcDbEntity
  8
layer 2
100
AcDbLine
 10
223.0
 20
-141.0
 30
0.0
 11
223.0
 21
-138.0
 31
0.0
  0
LINE
  5
2AF
330
9C0
100
AcDbEntity
  8
layer 2
100
AcDbLine
 10
223.5
 20
-110.5
 30
0.0
 11
223.5
 21
-107.5
 31
0.0
  0
LINE
  5
282
330
9C0
100
AcDbEntity
  8
layer 2
100
AcDbLine
 10
243.0
 20
-141.0
 30
0.0
 11
243.0
 21
-138.0
 31
0.0
  0
LINE
  5
2B0
330
9C0
100
AcDbEntity
  8
layer 2
100
AcDbLine
 10
243.5
 20
-110.5
 30
0.0
 11
243.5
 21
-107.5
 31
0.0
  0
LINE
  5
283
330
9C0
100
AcDbEntity
  8
layer 2
100
AcDbLine
 10
243.0
 20
-123.0
 30
0.0
 11
243.0
 21
-120.0
 31
0.0
  0
LINE
  5
2B1
330
9C0
100
AcDbEntity
  8
layer 2
100
AcDbLine
 10
243.5
 20
-92.5
 30
0.0
 11
243.5
 21
-89.5
 31
0.0
  0
LINE
  5
284
330
9C0
100
AcDbEntity
  8
layer 2
100
AcDbLine
 10
223.0
 20
-123.0
 30
0.0
 11
223.0
 21
-120.0
 31
0.0
  0
LINE
  5
2B2
330
9C0
100
AcDbEntity
  8
layer 2
100
AcDbLine
 10
223.5
 20
-92.5
 30
0.0
 11
223.5
 21
-89.5
 31
0.0
  0
LINE
  5
285
330
9C0
100
AcDbEntity
  8
layer 2
100
AcDbLine
 10
196.0
 20
-123.0
 30
0.0
 11
196.0
 21
-120.0
 31
0.0
  0
LINE
  5
2B3
330
9C0
100
AcDbEntity
  8
layer 2
100
AcDbLine
 10
196.5
 20
-92.5
 30
0.0
 11
196.5
 21
-89.5
 31
0.0
  0
LINE
  5
286
330
9C0
100
AcDbEntity
  8
layer 2
100
AcDbLine
 10
176.0
 20
-123.0
 30
0.0
 11
176.0
 21
-120.0
 31
0.0
  0
LINE
  5
2B4
330
9C0
100
AcDbEntity
  8
layer 2
100
AcDbLine
 10
176.5
 20
-92.49999999999999
 30
0.0
 11
176.5
 21
-89.49999999999999
 31
0.0
  0
LINE
  5
287
330
9C0
100
AcDbEntity
  8
layer 2
100
AcDbLine
 10
176.0
 20
-120.0
 30
0.0
 11
196.0
 21
-120.0
 31
0.0
  0
LINE
  5
2B5
330
9C0
100
AcDbEntity
  8
layer 2
100
AcDbLine
 10
176.5
 20
-89.49999999999999
 30
0.0
 11
196.5
 21
-89.49999999999999
 31
0.0
  0
LINE
  5
288
330
9C0
100
AcDbEntity
  8
layer 2
100
AcDbLine
 10
223.0
 20
-120.0
 30
0.0
 11
243.0
 21
-120.0
 31
0.0
  0
LINE
  5
2B6
330
9C0
100
AcDbEntity
  8
layer 2
100
AcDbLine
 10
223.5
 20
-89.5
 30
0.0
 11
243.5
 21
-89.5
 31
0.0
  0
LINE
  5
289
330
9C0
100
AcDbEntity
  8
layer 2
100
AcDbLine
 10
223.0
 20
-141.0
 30
0.0
 11
243.0
 21
-141.0
 31
0.0
  0
LINE
  5
2B7
330
9C0
100
AcDbEntity
  8
layer 2
100
AcDbLine
 10
223.5
 20
-110.5
 30
0.0
 11
243.5
 21
-110.5
 31
0.0
  0
LINE
  5
28A
330
9C0
100
AcDbEntity
  8
layer 2
100
AcDbLine
 10
176.0
 20
-141.0
 30
0.0
 11
196.0
 21
-141.0
 31
0.0
  0
LINE
  5
2B8
330
9C0
100
AcDbEntity
  8
layer 2
100
AcDbLine
 10
176.5
 20
-110.5
 30
0.0
 11
196.5
 21
-110.5
 31
0.0
  0
LINE
  5
28D
330
9C0
100
AcDbEntity
  8
layer 2
100
AcDbLine
 10
250.0
 20
-127.5
 30
0.0
 11
250.0
 21
-123.0
 31
0.0
  0
LINE
  5
2B9
330
9C0
100
AcDbEntity
  8
layer 2
100
AcDbLine
 10
250.5
 20
-97.0
 30
0.0
 11
250.5
 21
-92.5
 31
0.0
  0
LINE
  5
28E
330
9C0
100
AcDbEntity
  8
layer 2
100
AcDbLine
 10
169.0
 20
-127.5
 30
0.0
 11
169.0
 21
-123.0
 31
0.0
  0
LINE
  5
2BA
330
9C0
100
AcDbEntity
  8
layer 2
100
AcDbLine
 10
169.5
 20
-96.99999999999997
 30
0.0
 11
169.5
 21
-92.49999999999997
 31
0.0
  0
LINE
  5
28F
330
9C0
100
AcDbEntity
  8
layer 2
100
AcDbLine
 10
169.0
 20
-138.0
 30
0.0
 11
169.0
 21
-133.5
 31
0.0
  0
LINE
  5
2BB
330
9C0
100
AcDbEntity
  8
layer 2
100
AcDbLine
 10
169.5
 20
-107.5
 30
0.0
 11
169.5
 21
-103.0
 31
0.0
  0
LINE
  5
290
330
9C0
100
AcDbEntity
  8
layer 2
100
AcDbLine
 10
250.0
 20
-138.0
 30
0.0
 11
250.0
 21
-133.5
 31
0.0
  0
LINE
  5
2BC
330
9C0
100
AcDbEntity
  8
layer 2
100
AcDbLine
 10
250.5
 20
-107.5
 30
0.0
 11
250.5
 21
-103.0
 31
0.0
  0
LINE
  5
291
330
9C0
100
AcDbEntity
  8
layer 2
100
AcDbLine
 10
166.0
 20
-127.5
 30
0.0
 11
169.0
 21
-127.5
 31
0.0
  0
LINE
  5
2BD
330
9C0
100
AcDbEntity
  8
layer 2
100
AcDbLine
 10
166.5
 20
-96.99999999999997
 30
0.0
 11
169.5
 21
-96.99999999999997
 31
0.0
  0
LINE
  5
292
330
9C0
100
AcDbEntity
  8
layer 2
100
AcDbLine
 10
166.0
 20
-133.5
 30
0.0
 11
169.0
 21
-133.5
 31
0.0
  0
LINE
  5
2BE
330
9C0
100
AcDbEntity
  8
layer 2
100
AcDbLine
 10
166.5
 20
-103.0
 30
0.0
 11
169.5
 21
-103.0
 31
0.0
  0
LINE
  5
293
330
9C0
100
AcDbEntity
  8
layer 2
100
AcDbLine
 10
250.0
 20
-127.5
 30
0.0
 11
253.0
 21
-127.5
 31
0.0
  0
LINE
  5
2BF
330
9C0
100
AcDbEntity
  8
layer 2
100
AcDbLine
 10
250.5
 20
-97.0
 30
0.0
 11
253.5
 21
-97.0
 31
0.0
  0
LINE
  5
294
330
9C0
100
AcDbEntity
  8
layer 2
100
AcDbLine
 10
250.0
 20
-133.5
 30
0.0
 11
253.0
 21
-133.5
 31
0.0
  0
LINE
  5
2C0
330
9C0
100
AcDbEntity
  8
layer 2
100
AcDbLine
 10
250.5
 20
-103.0
 30
0.0
 11
253.5
 21
-103.0
 31
0.0
  0
LINE
  5
3B7
330
9C0
100
AcDbEntity
  8
layer 3
100
AcDbLine
 10
172.5
 20
-97.5
 30
0.0
 11
213.9906353473983
 21
-97.5
 31
0.0
  0
LINE
  5
3B8
330
9C0
100
AcDbEntity
  8
layer 3
100
AcDbLine
 10
172.5
 20
-104.5
 30
0.0
 11
213.9824799851232
 21
-104.5
 31
0.0
  0
LINE
  5
3F3
330
9C0
100
AcDbEntity
  8
layer 3
100
AcDbLine
 10
43.5303039929133
 20
-42.50000000001059
 30
0.0
 11
46.73030399291331
 21
-42.50000000001059
 31
0.0
  0
LINE
  5
333
330
9C0
100
AcDbEntity
  8
layer 3
100
AcDbLine
 10
165.8
 20
-42.99999999999999
 30
0.0
 11
169.0
 21
-42.99999999999999
 31
0.0
  0
LINE
  5
3F4
330
9C0
100
AcDbEntity
  8
layer 3
100
AcDbLine
 10
43.5303039929133
 20
-62.50000000001059
 30
0.0
 11
46.73030399291331
 21
-62.50000000001059
 31
0.0
  0
LINE
  5
334
330
9C0
100
AcDbEntity
  8
layer 3
100
AcDbLine
 10
165.8
 20
-62.99999999999999
 30
0.0
 11
169.0
 21
-62.99999999999999
 31
0.0
  0
LINE
  5
3F5
330
9C0
100
AcDbEntity
  8
layer 3
100
AcDbLine
 10
43.5303039929133
 20
-21.50000000001062
 30
0.0
 11
46.73030399291331
 21
-21.50000000001062
 31
0.0
  0
LINE
  5
335
330
9C0
100
AcDbEntity
  8
layer 3
100
AcDbLine
 10
165.8
 20
-22.00000000000001
 30
0.0
 11
169.0
 21
-22.00000000000001
 31
0.0
  0
LINE
  5
3F6
330
9C0
100
AcDbEntity
  8
layer 3
100
AcDbLine
 10
43.5303039929133
 20
-6.500000000010623
 30
0.0
 11
46.73030399291331
 21
-6.500000000010623
 31
0.0
  0
LINE
  5
336
330
9C0
100
AcDbEntity
  8
layer 3
100
AcDbLine
 10
165.8
 20
-7.000000000000018
 30
0.0
 11
169.0
 21
-7.000000000000018
 31
0.0
  0
LINE
  5
3F7
330
9C0
100
AcDbEntity
  8
layer 3
100
AcDbLine
 10
43.5303039929133
 20
14.49999999998932
 30
0.0
 11
46.73030399291331
 21
14.49999999998932
 31
0.0
  0
LINE
  5
337
330
9C0
100
AcDbEntity
  8
layer 3
100
AcDbLine
 10
165.8
 20
13.99999999999993
 30
0.0
 11
169.0
 21
13.99999999999993
 31
0.0
  0
LINE
  5
3F8
330
9C0
100
AcDbEntity
  8
layer 3
100
AcDbLine
 10
43.5303039929133
 20
34.49999999998934
 30
0.0
 11
46.73030399291331
 21
34.49999999998934
 31
0.0
  0
LINE
  5
338
330
9C0
100
AcDbEntity
  8
layer 3
100
AcDbLine
 10
165.8
 20
33.99999999999994
 30
0.0
 11
169.0
 21
33.99999999999994
 31
0.0
  0
LINE
  5
3F9
330
9C0
100
AcDbEntity
  8
layer 3
100
AcDbLine
 10
127.7303039929133
 20
34.49999999998938
 30
0.0
 11
130.9303039929133
 21
34.49999999998938
 31
0.0
  0
LINE
  5
339
330
9C0
100
AcDbEntity
  8
layer 3
100
AcDbLine
 10
250.0
 20
34.0
 30
0.0
 11
253.2
 21
34.0
 31
0.0
  0
LINE
  5
3FA
330
9C0
100
AcDbEntity
  8
layer 3
100
AcDbLine
 10
127.7303039929133
 20
14.49999999998938
 30
0.0
 11
130.9303039929133
 21
14.49999999998938
 31
0.0
  0
LINE
  5
33A
330
9C0
100
AcDbEntity
  8
layer 3
100
AcDbLine
 10
250.0
 20
14.0
 30
0.0
 11
253.2
 21
14.0
 31
0.0
  0
LINE
  5
3FB
330
9C0
100
AcDbEntity
  8
layer 3
100
AcDbLine
 10
127.7303039929133
 20
-6.500000000010623
 30
0.0
 11
130.9303039929133
 21
-6.500000000010623
 31
0.0
  0
LINE
  5
33B
330
9C0
100
AcDbEntity
  8
layer 3
100
AcDbLine
 10
250.0
 20
-7.0
 30
0.0
 11
253.2
 21
-7.0
 31
0.0
  0
LINE
  5
3FC
330
9C0
100
AcDbEntity
  8
layer 3
100
AcDbLine
 10
127.7303039929133
 20
-21.50000000001062
 30
0.0
 11
130.9303039929133
 21
-21.50000000001062
 31
0.0
  0
LINE
  5
33C
330
9C0
100
AcDbEntity
  8
layer 3
100
AcDbLine
 10
250.0
 20
-22.0
 30
0.0
 11
253.2
 21
-22.0
 31
0.0
  0
LINE
  5
3FD
330
9C0
100
AcDbEntity
  8
layer 3
100
AcDbLine
 10
127.7303039929133
 20
-42.50000000001062
 30
0.0
 11
130.9303039929133
 21
-42.50000000001062
 31
0.0
  0
LINE
  5
33D
330
9C0
100
AcDbEntity
  8
layer 3
100
AcDbLine
 10
250.0
 20
-43.0
 30
0.0
 11
253.2
 21
-43.0
 31
0.0
  0
LINE
  5
3FE
330
9C0
100
AcDbEntity
  8
layer 3
100
AcDbLine
 10
127.7303039929133
 20
-62.50000000001062
 30
0.0
 11
130.9303039929133
 21
-62.50000000001062
 31
0.0
  0
LINE
  5
33E
330
9C0
100
AcDbEntity
  8
layer 3
100
AcDbLine
 10
250.0
 20
-63.0
 30
0.0
 11
253.2
 21
-63.0
 31
0.0
  0
LINE
  5
3FF
330
9C0
100
AcDbEntity
  8
layer 3
100
AcDbLine
 10
53.73030399291311
 20
41.49999999998932
 30
0.0
 11
53.73030399291311
 21
44.69999999998934
 31
0.0
  0
LINE
  5
33F
330
9C0
100
AcDbEntity
  8
layer 3
100
AcDbLine
 10
175.9999999999999
 20
40.99999999999994
 30
0.0
 11
175.9999999999999
 21
44.19999999999994
 31
0.0
  0
LINE
  5
400
330
9C0
100
AcDbEntity
  8
layer 3
100
AcDbLine
 10
73.73030399291315
 20
41.49999999998938
 30
0.0
 11
73.73030399291315
 21
44.69999999998939
 31
0.0
  0
LINE
  5
340
330
9C0
100
AcDbEntity
  8
layer 3
100
AcDbLine
 10
195.9999999999999
 20
41.0
 30
0.0
 11
195.9999999999999
 21
44.2
 31
0.0
  0
LINE
  5
401
330
9C0
100
AcDbEntity
  8
layer 3
100
AcDbLine
 10
100.7303039929133
 20
41.49999999998938
 30
0.0
 11
100.7303039929133
 21
44.69999999998939
 31
0.0
  0
LINE
  5
341
330
9C0
100
AcDbEntity
  8
layer 3
100
AcDbLine
 10
223.0
 20
41.0
 30
0.0
 11
223.0
 21
44.2
 31
0.0
  0
LINE
  5
402
330
9C0
100
AcDbEntity
  8
layer 3
100
AcDbLine
 10
120.7303039929133
 20
41.49999999998938
 30
0.0
 11
120.7303039929133
 21
44.69999999998939
 31
0.0
  0
LINE
  5
342
330
9C0
100
AcDbEntity
  8
layer 3
100
AcDbLine
 10
243.0
 20
41.0
 30
0.0
 11
243.0
 21
44.2
 31
0.0
  0
LINE
  5
403
330
9C0
100
AcDbEntity
  8
layer 3
100
AcDbLine
 10
53.73030399291331
 20
-72.70000000001059
 30
0.0
 11
53.73030399291331
 21
-69.50000000001057
 31
0.0
  0
LINE
  5
343
330
9C0
100
AcDbEntity
  8
layer 3
100
AcDbLine
 10
176.0
 20
-73.19999999999997
 30
0.0
 11
176.0
 21
-69.99999999999997
 31
0.0
  0
LINE
  5
404
330
9C0
100
AcDbEntity
  8
layer 3
100
AcDbLine
 10
73.73030399291326
 20
-72.70000000001062
 30
0.0
 11
73.73030399291326
 21
-69.5000000000106
 31
0.0
  0
LINE
  5
344
330
9C0
100
AcDbEntity
  8
layer 3
100
AcDbLine
 10
196.0
 20
-73.19999999999999
 30
0.0
 11
196.0
 21
-69.99999999999999
 31
0.0
  0
LINE
  5
405
330
9C0
100
AcDbEntity
  8
layer 3
100
AcDbLine
 10
100.7303039929133
 20
-72.70000000001062
 30
0.0
 11
100.7303039929133
 21
-69.5000000000106
 31
0.0
  0
LINE
  5
345
330
9C0
100
AcDbEntity
  8
layer 3
100
AcDbLine
 10
223.0
 20
-73.19999999999999
 30
0.0
 11
223.0
 21
-69.99999999999999
 31
0.0
  0
LINE
  5
406
330
9C0
100
AcDbEntity
  8
layer 3
100
AcDbLine
 10
120.7303039929133
 20
-72.70000000001062
 30
0.0
 11
120.7303039929133
 21
-69.50000000001063
 31
0.0
  0
LINE
  5
346
330
9C0
100
AcDbEntity
  8
layer 3
100
AcDbLine
 10
243.0
 20
-73.2
 30
0.0
 11
243.0
 21
-70.0
 31
0.0
  0
LWPOLYLINE
  5
407
330
9C0
100
AcDbEntity
  8
layer 1
100
AcDbPolyline
 90
        4
 70
   129
 43
0.0
 10
47.23030399291331
 20
-69.0000000000106
 10
127.2303039929133
 20
-69.00000000001063
 10
127.2303039929133
 20
40.99999999998937
 10
47.23030399291331
 20
40.99999999998938
  0
LINE
  5
408
330
9C0
100
AcDbEntity
  8
layer 1
100
AcDbLine
 10
47.23030399291331
 20
-47.75000000001062
 30
0.0
 11
127.2303039929133
 21
-47.75000000001062
 31
0.0
  0
LINE
  5
409
330
9C0
100
AcDbEntity
  8
layer 1
100
AcDbLine
 10
47.23030399291331
 20
-31.25000000001062
 30
0.0
 11
127.2303039929133
 21
-31.25000000001062
 31
0.0
  0
LINE
  5
40A
330
9C0
100
AcDbEntity
  8
layer 1
100
AcDbLine
 10
47.23030399291331
 20
-15.00000000001061
 30
0.0
 11
127.2303039929133
 21
-15.00000000001061
 31
0.0
  0
LINE
  5
40B
330
9C0
100
AcDbEntity
  8
layer 1
100
AcDbLine
 10
57.23030399291331
 20
-69.0000000000106
 30
0.0
 11
57.23030399291331
 21
40.99999999998938
 31
0.0
  0
LINE
  5
40C
330
9C0
100
AcDbEntity
  8
layer 1
100
AcDbLine
 10
72.73030399291329
 20
-69.0000000000106
 30
0.0
 11
72.73030399291329
 21
40.99999999998938
 31
0.0
  0
LINE
  5
40D
330
9C0
100
AcDbEntity
  8
layer 1
100
AcDbLine
 10
88.23030399291329
 20
-69.0000000000106
 30
0.0
 11
88.23030399291329
 21
40.99999999998938
 31
0.0
  0
LINE
  5
40E
330
9C0
100
AcDbEntity
  8
layer 1
100
AcDbLine
 10
101.9803039929133
 20
-69.0000000000106
 30
0.0
 11
101.9803039929133
 21
40.99999999998938
 31
0.0
  0
LINE
  5
40F
330
9C0
100
AcDbEntity
  8
layer 1
100
AcDbLine
 10
117.4803039929133
 20
-69.0000000000106
 30
0.0
 11
117.4803039929133
 21
40.99999999998938
 31
0.0
  0
LINE
  5
362
330
9C0
100
AcDbEntity
  8
layer 4
100
AcDbLine
 10
209.5
 20
-76.49999999999999
 30
0.0
 11
209.5
 21
-72.99999999999999
 31
0.0
  0
LINE
  5
3AD
330
9C0
100
AcDbEntity
  8
layer 4
100
AcDbLine
 10
59.99999999999099
 20
-82.24999999999997
 30
0.0
 11
59.99999999999099
 21
-78.74999999999997
 31
0.0
  0
LINE
  5
410
330
9C0
100
AcDbEntity
  8
layer 3
100
AcDbLine
 10
50.73030399291331
 20
-62.50000000001058
 30
0.0
 11
90.73030399291328
 21
-62.50000000001055
 31
0.0
  0
LINE
  5
411
330
9C0
100
AcDbEntity
  8
layer 3
100
AcDbLine
 10
90.73030399291332
 20
-69.50000000001063
 30
0.0
 11
73.73030399291326
 21
-69.50000000001057
 31
0.0
  0
LINE
  5
412
330
9C0
100
AcDbEntity
  8
layer 3
100
AcDbLine
 10
53.73030399291331
 20
-69.50000000001057
 30
0.0
 11
50.73030399291331
 21
-69.50000000001057
 31
0.0
  0
ARC
  5
3B5
330
9C0
100
AcDbEntity
  8
layer 3
100
AcDbCircle
 10
178.125
 20
-101.0
 30
0.0
 40
6.625
100
AcDbArc
 50
148.1092081981543
 51
211.8907918018457
  0
ARC
  5
3B6
330
9C0
100
AcDbEntity
  8
layer 3
100
AcDbCircle
 10
208.3344106504493
 20
-100.9934149562077
 30
0.0
 40
6.648069334673919
100
AcDbArc
 50
328.1660595251603
 51
31.83394047483957
1001
QCAD
1000
reversed:1
  0
ARC
  5
3B9
330
9C0
100
AcDbEntity
  8
layer 3
100
AcDbCircle
 10
234.5
 20
-97.5
 30
0.0
 40
5.0
100
AcDbArc
 50
143.130102354156
 51
216.869897645844
1001
QCAD
1000
reversed:1
  0
ARC
  5
3BA
330
9C0
100
AcDbEntity
  8
layer 3
100
AcDbCircle
 10
237.5
 20
-97.5
 30
0.0
 40
5.0
100
AcDbArc
 50
323.130102354156
 51
36.86989764584401
1001
QCAD
1000
reversed:1
  0
ARC
  5
413
330
9C0
100
AcDbEntity
  8
layer 3
100
AcDbCircle
 10
56.35530399291331
 20
-66.00000000001057
 30
0.0
 40
6.625
100
AcDbArc
 50
148.1092081981543
 51
211.8907918018457
1001
QCAD
1000
reversed:1
  0
ARC
  5
414
330
9C0
100
AcDbEntity
  8
layer 3
100
AcDbCircle
 10
85.10530399291318
 20
-66.0000000000106
 30
0.0
 40
6.625000000000124
100
AcDbArc
 50
328.1092081981547
 51
31.89079180184543
1001
QCAD
1000
reversed:1
  0
CIRCLE
  5
3D1
330
9C0
100
AcDbEntity
  8
layer 3
100
AcDbCircle
 10
174.2933276540417
 20
-3.064318373865067
 30
0.0
 40
2.5
  0
CIRCLE
  5
3D2
330
9C0
100
AcDbEntity
  8
layer 3
100
AcDbCircle
 10
243.2933276540417
 20
-3.064318373865081
 30
0.0
 40
2.5
  0
CIRCLE
  5
3D3
330
9C0
100
AcDbEntity
  8
layer 3
100
AcDbCircle
 10
223.2933276540417
 20
-59.56431837386506
 30
0.0
 40
2.5
  0
LWPOLYLINE
  5
842
330
9C0
100
AcDbEntity
  8
layer 1
100
AcDbPolyline
 90
        3
 70
   128
 43
0.0
 10
69.68030399291328
 20
-21.05000000001062
 10
69.68030399291328
 20
-18.05000000001062
 10
66.68030399291328
 20
-18.05000000001062
  0
LWPOLYLINE
  5
866
330
9C0
100
AcDbEntity
  8
layer 1
100
AcDbPolyline
 90
        3
 70
   128
 43
0.0
 10
69.68030399291328
 20
-37.30000000001062
 10
69.68030399291328
 20
-34.30000000001062
 10
66.68030399291328
 20
-34.30000000001062
  0
LWPOLYLINE
  5
85A
330
9C0
100
AcDbEntity
  8
layer 1
100
AcDbPolyline
 90
        3
 70
   128
 43
0.0
 10
114.4303039929133
 20
-21.05000000001062
 10
114.4303039929133
 20
-18.05000000001062
 10
111.4303039929133
 20
-18.05000000001062
  0
LWPOLYLINE
  5
84E
330
9C0
100
AcDbEntity
  8
layer 1
100
AcDbPolyline
 90
        3
 70
   128
 43
0.0
 10
98.93030399291331
 20
-21.05000000001062
 10
98.93030399291331
 20
-18.05000000001062
 10
95.93030399291331
 20
-18.05000000001062
  0
LWPOLYLINE
  5
88A
330
9C0
100
AcDbEntity
  8
layer 1
100
AcDbPolyline
 90
        3
 70
   128
 43
0.0
 10
85.1803039929133
 20
-37.30000000001062
 10
85.1803039929133
 20
-34.30000000001062
 10
82.1803039929133
 20
-34.30000000001062
  0
LWPOLYLINE
  5
87E
330
9C0
100
AcDbEntity
  8
layer 1
100
AcDbPolyline
 90
        3
 70
   128
 43
0.0
 10
54.18030399291331
 20
-37.30000000001062
 10
54.18030399291331
 20
-34.30000000001062
 10
51.18030399291331
 20
-34.30000000001062
  0
LWPOLYLINE
  5
872
330
9C0
100
AcDbEntity
  8
layer 1
100
AcDbPolyline
 90
        3
 70
   128
 43
0.0
 10
69.6803039929133
 20
-53.80000000001061
 10
69.6803039929133
 20
-50.80000000001061
 10
66.6803039929133
 20
-50.80000000001061
  0
LWPOLYLINE
  5
867
330
9C0
100
AcDbEntity
  8
layer 1
100
AcDbPolyline
 90
        3
 70
   128
 43
0.0
 10
78.78030399291328
 20
-34.30000000001062
 10
75.78030399291328
 20
-34.30000000001062
 10
75.78030399291328
 20
-37.30000000001062
  0
LWPOLYLINE
  5
85B
330
9C0
100
AcDbEntity
  8
layer 1
100
AcDbPolyline
 90
        3
 70
   128
 43
0.0
 10
123.5303039929133
 20
-18.05000000001062
 10
120.5303039929133
 20
-18.05000000001062
 10
120.5303039929133
 20
-21.05000000001062
  0
LWPOLYLINE
  5
84F
330
9C0
100
AcDbEntity
  8
layer 1
100
AcDbPolyline
 90
        3
 70
   128
 43
0.0
 10
108.0303039929133
 20
-18.05000000001062
 10
105.0303039929133
 20
-18.05000000001062
 10
105.0303039929133
 20
-21.05000000001062
  0
LWPOLYLINE
  5
87F
330
9C0
100
AcDbEntity
  8
layer 1
100
AcDbPolyline
 90
        3
 70
   128
 43
0.0
 10
63.2803039929133
 20
-34.30000000001062
 10
60.2803039929133
 20
-34.30000000001062
 10
60.2803039929133
 20
-37.30000000001062
  0
LWPOLYLINE
  5
873
330
9C0
100
AcDbEntity
  8
layer 1
100
AcDbPolyline
 90
        3
 70
   128
 43
0.0
 10
78.78030399291329
 20
-50.80000000001061
 10
75.78030399291329
 20
-50.80000000001061
 10
75.78030399291329
 20
-53.80000000001061
  0
LWPOLYLINE
  5
88B
330
9C0
100
AcDbEntity
  8
layer 1
100
AcDbPolyline
 90
        3
 70
   128
 43
0.0
 10
94.28030399291329
 20
-34.30000000001062
 10
91.28030399291329
 20
-34.30000000001062
 10
91.28030399291329
 20
-37.30000000001062
  0
LWPOLYLINE
  5
843
330
9C0
100
AcDbEntity
  8
layer 1
100
AcDbPolyline
 90
        3
 70
   128
 43
0.0
 10
78.78030399291328
 20
-18.05000000001062
 10
75.78030399291328
 20
-18.05000000001062
 10
75.78030399291328
 20
-21.05000000001062
  0
LWPOLYLINE
  5
868
330
9C0
100
AcDbEntity
  8
layer 1
100
AcDbPolyline
 90
        3
 70
   128
 43
0.0
 10
66.68030399291328
 20
-28.20000000001061
 10
69.68030399291328
 20
-28.20000000001061
 10
69.68030399291328
 20
-25.20000000001061
  0
LWPOLYLINE
  5
85C
330
9C0
100
AcDbEntity
  8
layer 1
100
AcDbPolyline
 90
        3
 70
   128
 43
0.0
 10
111.4303039929133
 20
-11.95000000001061
 10
114.4303039929133
 20
-11.95000000001061
 10
114.4303039929133
 20
-8.950000000010615
  0
LWPOLYLINE
  5
850
330
9C0
100
AcDbEntity
  8
layer 1
100
AcDbPolyline
 90
        3
 70
   128
 43
0.0
 10
95.93030399291331
 20
-11.95000000001061
 10
98.93030399291331
 20
-11.95000000001061
 10
98.93030399291331
 20
-8.950000000010615
  0
LWPOLYLINE
  5
880
330
9C0
100
AcDbEntity
  8
layer 1
100
AcDbPolyline
 90
        3
 70
   128
 43
0.0
 10
51.18030399291331
 20
-28.20000000001061
 10
54.18030399291331
 20
-28.20000000001061
 10
54.18030399291331
 20
-25.20000000001061
  0
LWPOLYLINE
  5
874
330
9C0
100
AcDbEntity
  8
layer 1
100
AcDbPolyline
 90
        3
 70
   128
 43
0.0
 10
66.6803039929133
 20
-44.70000000001061
 10
69.6803039929133
 20
-44.70000000001061
 10
69.6803039929133
 20
-41.70000000001061
  0
LWPOLYLINE
  5
88C
330
9C0
100
AcDbEntity
  8
layer 1
100
AcDbPolyline
 90
        3
 70
   128
 43
0.0
 10
82.1803039929133
 20
-28.20000000001061
 10
85.1803039929133
 20
-28.20000000001061
 10
85.1803039929133
 20
-25.20000000001061
  0
LWPOLYLINE
  5
844
330
9C0
100
AcDbEntity
  8
layer 1
100
AcDbPolyline
 90
        3
 70
   128
 43
0.0
 10
66.68030399291328
 20
-11.95000000001061
 10
69.68030399291328
 20
-11.95000000001061
 10
69.68030399291328
 20
-8.950000000010615
  0
LWPOLYLINE
  5
845
330
9C0
100
AcDbEntity
  8
layer 1
100
AcDbPolyline
 90
        3
 70
   128
 43
0.0
 10
75.78030399291328
 20
-8.950000000010615
 10
75.78030399291328
 20
-11.95000000001061
 10
78.78030399291328
 20
-11.95000000001061
  0
LWPOLYLINE
  5
869
330
9C0
100
AcDbEntity
  8
layer 1
100
AcDbPolyline
 90
        3
 70
   128
 43
0.0
 10
75.78030399291328
 20
-25.20000000001061
 10
75.78030399291328
 20
-28.20000000001061
 10
78.78030399291328
 20
-28.20000000001061
  0
LWPOLYLINE
  5
85D
330
9C0
100
AcDbEntity
  8
layer 1
100
AcDbPolyline
 90
        3
 70
   128
 43
0.0
 10
120.5303039929133
 20
-8.950000000010615
 10
120.5303039929133
 20
-11.95000000001061
 10
123.5303039929133
 20
-11.95000000001061
  0
LWPOLYLINE
  5
851
330
9C0
100
AcDbEntity
  8
layer 1
100
AcDbPolyline
 90
        3
 70
   128
 43
0.0
 10
105.0303039929133
 20
-8.950000000010615
 10
105.0303039929133
 20
-11.95000000001061
 10
108.0303039929133
 20
-11.95000000001061
  0
LWPOLYLINE
  5
881
330
9C0
100
AcDbEntity
  8
layer 1
100
AcDbPolyline
 90
        3
 70
   128
 43
0.0
 10
60.2803039929133
 20
-25.20000000001061
 10
60.2803039929133
 20
-28.20000000001061
 10
63.2803039929133
 20
-28.20000000001061
  0
LWPOLYLINE
  5
875
330
9C0
100
AcDbEntity
  8
layer 1
100
AcDbPolyline
 90
        3
 70
   128
 43
0.0
 10
75.78030399291329
 20
-41.70000000001061
 10
75.78030399291329
 20
-44.70000000001061
 10
78.78030399291329
 20
-44.70000000001061
  0
LWPOLYLINE
  5
88D
330
9C0
100
AcDbEntity
  8
layer 1
100
AcDbPolyline
 90
        3
 70
   128
 43
0.0
 10
91.28030399291329
 20
-25.20000000001061
 10
91.28030399291329
 20
-28.20000000001061
 10
94.28030399291329
 20
-28.20000000001061
  0
ARC
  5
846
330
9C0
100
AcDbEntity
  8
layer 3
100
AcDbCircle
 10
69.68030399291328
 20
-11.95000000001061
 30
0.0
 40
3.0
100
AcDbArc
 50
90.0
 51
180.0
  0
ARC
  5
86A
330
9C0
100
AcDbEntity
  8
layer 3
100
AcDbCircle
 10
69.68030399291328
 20
-28.20000000001061
 30
0.0
 40
3.0
100
AcDbArc
 50
90.0
 51
180.0
  0
ARC
  5
85E
330
9C0
100
AcDbEntity
  8
layer 3
100
AcDbCircle
 10
114.4303039929133
 20
-11.95000000001061
 30
0.0
 40
3.0
100
AcDbArc
 50
90.0
 51
180.0
  0
ARC
  5
852
330
9C0
100
AcDbEntity
  8
layer 3
100
AcDbCircle
 10
98.93030399291331
 20
-11.95000000001061
 30
0.0
 40
3.0
100
AcDbArc
 50
90.0
 51
180.0
  0
ARC
  5
882
330
9C0
100
AcDbEntity
  8
layer 3
100
AcDbCircle
 10
54.18030399291331
 20
-28.20000000001061
 30
0.0
 40
3.0
100
AcDbArc
 50
90.0
 51
180.0
  0
ARC
  5
876
330
9C0
100
AcDbEntity
  8
layer 3
100
AcDbCircle
 10
69.6803039929133
 20
-44.70000000001061
 30
0.0
 40
3.0
100
AcDbArc
 50
90.0
 51
180.0
  0
ARC
  5
88E
330
9C0
100
AcDbEntity
  8
layer 3
100
AcDbCircle
 10
85.1803039929133
 20
-28.20000000001061
 30
0.0
 40
3.0
100
AcDbArc
 50
90.0
 51
180.0
  0
ARC
  5
847
330
9C0
100
AcDbEntity
  8
layer 3
100
AcDbCircle
 10
75.78030399291328
 20
-11.95000000001061
 30
0.0
 40
3.0
100
AcDbArc
 50
0.0
 51
90.0
  0
ARC
  5
85F
330
9C0
100
AcDbEntity
  8
layer 3
100
AcDbCircle
 10
120.5303039929133
 20
-11.95000000001061
 30
0.0
 40
3.0
100
AcDbArc
 50
0.0
 51
90.0
  0
ARC
  5
853
330
9C0
100
AcDbEntity
  8
layer 3
100
AcDbCircle
 10
105.0303039929133
 20
-11.95000000001061
 30
0.0
 40
3.0
100
AcDbArc
 50
0.0
 51
90.0
  0
ARC
  5
883
330
9C0
100
AcDbEntity
  8
layer 3
100
AcDbCircle
 10
60.2803039929133
 20
-28.20000000001061
 30
0.0
 40
3.0
100
AcDbArc
 50
0.0
 51
90.0
  0
ARC
  5
877
330
9C0
100
AcDbEntity
  8
layer 3
100
AcDbCircle
 10
75.78030399291329
 20
-44.70000000001061
 30
0.0
 40
3.0
100
AcDbArc
 50
0.0
 51
90.0
  0
ARC
  5
86B
330
9C0
100
AcDbEntity
  8
layer 3
100
AcDbCircle
 10
75.78030399291328
 20
-28.20000000001061
 30
0.0
 40
3.0
100
AcDbArc
 50
0.0
 51
90.0
  0
ARC
  5
88F
330
9C0
100
AcDbEntity
  8
layer 3
100
AcDbCircle
 10
91.28030399291329
 20
-28.20000000001061
 30
0.0
 40
3.0
100
AcDbArc
 50
0.0
 51
90.0
  0
ARC
  5
848
330
9C0
100
AcDbEntity
  8
layer 3
100
AcDbCircle
 10
75.78030399291328
 20
-18.05000000001062
 30
0.0
 40
3.0
100
AcDbArc
 50
270.0
 51
0.0
  0
ARC
  5
860
330
9C0
100
AcDbEntity
  8
layer 3
100
AcDbCircle
 10
120.5303039929133
 20
-18.05000000001062
 30
0.0
 40
3.0
100
AcDbArc
 50
270.0
 51
0.0
  0
ARC
  5
854
330
9C0
100
AcDbEntity
  8
layer 3
100
AcDbCircle
 10
105.0303039929133
 20
-18.05000000001062
 30
0.0
 40
3.0
100
AcDbArc
 50
270.0
 51
0.0
  0
ARC
  5
884
330
9C0
100
AcDbEntity
  8
layer 3
100
AcDbCircle
 10
60.2803039929133
 20
-34.30000000001062
 30
0.0
 40
3.0
100
AcDbArc
 50
270.0
 51
0.0
  0
ARC
  5
878
330
9C0
100
AcDbEntity
  8
layer 3
100
AcDbCircle
 10
75.78030399291329
 20
-50.80000000001061
 30
0.0
 40
3.0
100
AcDbArc
 50
270.0
 51
0.0
  0
ARC
  5
86C
330
9C0
100
AcDbEntity
  8
layer 3
100
AcDbCircle
 10
75.78030399291328
 20
-34.30000000001062
 30
0.0
 40
3.0
100
AcDbArc
 50
270.0
 51
0.0
  0
ARC
  5
890
330
9C0
100
AcDbEntity
  8
layer 3
100
AcDbCircle
 10
91.28030399291329
 20
-34.30000000001062
 30
0.0
 40
3.0
100
AcDbArc
 50
270.0
 51
0.0
  0
ARC
  5
849
330
9C0
100
AcDbEntity
  8
layer 3
100
AcDbCircle
 10
69.68030399291328
 20
-18.05000000001062
 30
0.0
 40
3.0
100
AcDbArc
 50
180.0
 51
270.0
  0
ARC
  5
861
330
9C0
100
AcDbEntity
  8
layer 3
100
AcDbCircle
 10
114.4303039929133
 20
-18.05000000001062
 30
0.0
 40
3.0
100
AcDbArc
 50
180.0
 51
270.0
  0
ARC
  5
855
330
9C0
100
AcDbEntity
  8
layer 3
100
AcDbCircle
 10
98.93030399291331
 20
-18.05000000001062
 30
0.0
 40
3.0
100
AcDbArc
 50
180.0
 51
270.0
  0
ARC
  5
885
330
9C0
100
AcDbEntity
  8
layer 3
100
AcDbCircle
 10
54.18030399291331
 20
-34.30000000001062
 30
0.0
 40
3.0
100
AcDbArc
 50
180.0
 51
270.0
  0
ARC
  5
879
330
9C0
100
AcDbEntity
  8
layer 3
100
AcDbCircle
 10
69.6803039929133
 20
-50.80000000001061
 30
0.0
 40
3.0
100
AcDbArc
 50
180.0
 51
270.0
  0
ARC
  5
86D
330
9C0
100
AcDbEntity
  8
layer 3
100
AcDbCircle
 10
69.68030399291328
 20
-34.30000000001062
 30
0.0
 40
3.0
100
AcDbArc
 50
180.0
 51
270.0
  0
ARC
  5
891
330
9C0
100
AcDbEntity
  8
layer 3
100
AcDbCircle
 10
85.1803039929133
 20
-34.30000000001062
 30
0.0
 40
3.0
100
AcDbArc
 50
180.0
 51
270.0
  0
LINE
  5
4C7
330
9C0
100
AcDbEntity
  8
layer 3
100
AcDbLine
 10
230.5
 20
-94.5
 30
0.0
 11
241.5
 21
-94.5
 31
0.0
  0
LINE
  5
4C8
330
9C0
100
AcDbEntity
  8
layer 3
100
AcDbLine
 10
230.5
 20
-100.5
 30
0.0
 11
241.5
 21
-100.5
 31
0.0
  0
LINE
  5
84A
330
9C0
100
AcDbEntity
  8
layer 3
100
AcDbLine
 10
66.68030399291328
 20
-18.05000000001062
 30
0.0
 11
66.68030399291328
 21
-11.95000000001061
 31
0.0
  0
LINE
  5
862
330
9C0
100
AcDbEntity
  8
layer 3
100
AcDbLine
 10
111.4303039929133
 20
-18.05000000001062
 30
0.0
 11
111.4303039929133
 21
-11.95000000001061
 31
0.0
  0
LINE
  5
856
330
9C0
100
AcDbEntity
  8
layer 3
100
AcDbLine
 10
95.93030399291331
 20
-18.05000000001062
 30
0.0
 11
95.93030399291331
 21
-11.95000000001061
 31
0.0
  0
LINE
  5
886
330
9C0
100
AcDbEntity
  8
layer 3
100
AcDbLine
 10
51.18030399291331
 20
-34.30000000001062
 30
0.0
 11
51.18030399291331
 21
-28.20000000001061
 31
0.0
  0
LINE
  5
87A
330
9C0
100
AcDbEntity
  8
layer 3
100
AcDbLine
 10
66.6803039929133
 20
-50.80000000001061
 30
0.0
 11
66.6803039929133
 21
-44.70000000001061
 31
0.0
  0
LINE
  5
86E
330
9C0
100
AcDbEntity
  8
layer 3
100
AcDbLine
 10
66.68030399291328
 20
-34.30000000001062
 30
0.0
 11
66.68030399291328
 21
-28.20000000001061
 31
0.0
  0
LINE
  5
892
330
9C0
100
AcDbEntity
  8
layer 3
100
AcDbLine
 10
82.1803039929133
 20
-34.30000000001062
 30
0.0
 11
82.1803039929133
 21
-28.20000000001061
 31
0.0
  0
LINE
  5
863
330
9C0
100
AcDbEntity
  8
layer 3
100
AcDbLine
 10
123.5303039929133
 20
-18.05000000001062
 30
0.0
 11
123.5303039929133
 21
-11.95000000001061
 31
0.0
  0
LINE
  5
857
330
9C0
100
AcDbEntity
  8
layer 3
100
AcDbLine
 10
108.0303039929133
 20
-18.05000000001062
 30
0.0
 11
108.0303039929133
 21
-11.95000000001061
 31
0.0
  0
LINE
  5
84B
330
9C0
100
AcDbEntity
  8
layer 3
100
AcDbLine
 10
78.78030399291328
 20
-18.05000000001062
 30
0.0
 11
78.78030399291328
 21
-11.95000000001061
 31
0.0
  0
LINE
  5
887
330
9C0
100
AcDbEntity
  8
layer 3
100
AcDbLine
 10
63.2803039929133
 20
-34.30000000001062
 30
0.0
 11
63.2803039929133
 21
-28.20000000001061
 31
0.0
  0
LINE
  5
87B
330
9C0
100
AcDbEntity
  8
layer 3
100
AcDbLine
 10
78.78030399291329
 20
-50.80000000001061
 30
0.0
 11
78.78030399291329
 21
-44.70000000001061
 31
0.0
  0
LINE
  5
86F
330
9C0
100
AcDbEntity
  8
layer 3
100
AcDbLine
 10
78.78030399291328
 20
-34.30000000001062
 30
0.0
 11
78.78030399291328
 21
-28.20000000001061
 31
0.0
  0
LINE
  5
893
330
9C0
100
AcDbEntity
  8
layer 3
100
AcDbLine
 10
94.28030399291329
 20
-34.30000000001062
 30
0.0
 11
94.28030399291329
 21
-28.20000000001061
 31
0.0
  0
LINE
  5
864
330
9C0
100
AcDbEntity
  8
layer 3
100
AcDbLine
 10
114.4303039929133
 20
-8.950000000010615
 30
0.0
 11
120.5303039929133
 21
-8.950000000010615
 31
0.0
  0
LINE
  5
858
330
9C0
100
AcDbEntity
  8
layer 3
100
AcDbLine
 10
98.93030399291331
 20
-8.950000000010615
 30
0.0
 11
105.0303039929133
 21
-8.950000000010615
 31
0.0
  0
LINE
  5
84C
330
9C0
100
AcDbEntity
  8
layer 3
100
AcDbLine
 10
69.68030399291328
 20
-8.950000000010615
 30
0.0
 11
75.78030399291328
 21
-8.950000000010615
 31
0.0
  0
LINE
  5
888
330
9C0
100
AcDbEntity
  8
layer 3
100
AcDbLine
 10
54.18030399291331
 20
-25.20000000001061
 30
0.0
 11
60.2803039929133
 21
-25.20000000001061
 31
0.0
  0
LINE
  5
87C
330
9C0
100
AcDbEntity
  8
layer 3
100
AcDbLine
 10
69.6803039929133
 20
-41.70000000001061
 30
0.0
 11
75.78030399291329
 21
-41.70000000001061
 31
0.0
  0
LINE
  5
870
330
9C0
100
AcDbEntity
  8
layer 3
100
AcDbLine
 10
69.68030399291328
 20
-25.20000000001061
 30
0.0
 11
75.78030399291328
 21
-25.20000000001061
 31
0.0
  0
LINE
  5
894
330
9C0
100
AcDbEntity
  8
layer 3
100
AcDbLine
 10
85.1803039929133
 20
-25.20000000001061
 30
0.0
 11
91.28030399291329
 21
-25.20000000001061
 31
0.0
  0
LINE
  5
865
330
9C0
100
AcDbEntity
  8
layer 3
100
AcDbLine
 10
114.4303039929133
 20
-21.05000000001062
 30
0.0
 11
120.5303039929133
 21
-21.05000000001062
 31
0.0
  0
LINE
  5
859
330
9C0
100
AcDbEntity
  8
layer 3
100
AcDbLine
 10
98.93030399291331
 20
-21.05000000001062
 30
0.0
 11
105.0303039929133
 21
-21.05000000001062
 31
0.0
  0
LINE
  5
84D
330
9C0
100
AcDbEntity
  8
layer 3
100
AcDbLine
 10
69.68030399291328
 20
-21.05000000001062
 30
0.0
 11
75.78030399291328
 21
-21.05000000001062
 31
0.0
  0
LINE
  5
889
330
9C0
100
AcDbEntity
  8
layer 3
100
AcDbLine
 10
54.18030399291331
 20
-37.30000000001062
 30
0.0
 11
60.2803039929133
 21
-37.30000000001062
 31
0.0
  0
LINE
  5
87D
330
9C0
100
AcDbEntity
  8
layer 3
100
AcDbLine
 10
69.6803039929133
 20
-53.80000000001061
 30
0.0
 11
75.78030399291329
 21
-53.80000000001061
 31
0.0
  0
LINE
  5
871
330
9C0
100
AcDbEntity
  8
layer 3
100
AcDbLine
 10
69.68030399291328
 20
-37.30000000001062
 30
0.0
 11
75.78030399291328
 21
-37.30000000001062
 31
0.0
  0
LINE
  5
895
330
9C0
100
AcDbEntity
  8
layer 3
100
AcDbLine
 10
85.1803039929133
 20
-37.30000000001062
 30
0.0
 11
91.28030399291329
 21
-37.30000000001062
 31
0.0
  0
VIEWPORT
  5
A8C
330
9BC
100
AcDbEntity
 67
     1
  8
0
 62
    18
420
        0
100
AcDbViewport
 10
128.5
 20
97.5
 30
0.0
 40
314.226
 41
222.18
 68
     1
 69
     1
 12
128.5
 22
97.5
 13
0.0
 23
0.0
 14
10.0
 24
10.0
 15
10.0
 25
10.0
 16
0.0
 26
0.0
 36
1.0
 17
0.0
 27
0.0
 37
0.0
 42
50.0
 43
0.0
 44
0.0
 45
222.18
 50
0.0
 51
0.0
 72
   100
 90
   557152
  1

281
     0
 71
     1
 74
     0
110
0.0
120
0.0
130
0.0
111
1.0
121
0.0
131
0.0
112
0.0
122
1.0
132
0.0
 79
     0
146
0.0
170
     0
 61
     5
348
9D0
292
     1
282
     1
141
0.0
142
0.0
 63
   256
361
A8D
  0
ENDSEC
  0
SECTION
  2
OBJECTS
  0
DICTIONARY
  5
9AE
330
0
100
AcDbDictionary
281
     1
  3
ACAD_DETAILVIEWSTYLE
350
A95
  3
ACAD_GROUP
350
9AF
  3
ACAD_LAYOUT
350
9BB
  3
ACAD_MATERIAL
350
9E4
  3
ACAD_MLEADERSTYLE
350
A0C
  3
ACAD_MLINESTYLE
350
9B8
  3
ACAD_PLOTSETTINGS
350
9BA
  3
ACAD_PLOTSTYLENAME
350
9B0
  3
ACAD_SCALELIST
350
9E8
  3
ACAD_SECTIONVIEWSTYLE
350
A96
  3
ACAD_TABLESTYLE
350
A0A
  3
ACAD_VISUALSTYLE
350
9CB
  3
ACDB_RECOMPOSE_DATA
350
A92
  3
AcDbVariableDictionary
350
A8E
  3
QCAD_OBJECTS
350
A10
  0
SUN
  5
A0E
330
9CA
100
AcDbSun
 90
        1
290
     0
 63
     7
421
 16777215
 40
1.0
291
     1
 91
  2455826
 92
 54000000
292
     0
 70
     2
 71
   256
280
     1
  0
SUN
  5
A8D
330
A8C
100
AcDbSun
 90
        1
290
     0
 63
     7
421
 16777215
 40
1.0
291
     1
 91
  2455826
 92
 54000000
292
     0
 70
     2
 71
   256
280
     1
  0
DICTIONARY
  5
A95
102
{ACAD_REACTORS
330
9AE
102
}
330
9AE
100
AcDbDictionary
281
     1
  0
DICTIONARY
  5
9AF
102
{ACAD_REACTORS
330
9AE
102
}
330
9AE
100
AcDbDictionary
281
     1
  0
DICTIONARY
  5
9BB
102
{ACAD_REACTORS
330
9AE
102
}
330
9AE
100
AcDbDictionary
281
     1
  3
Layout1
350
9BF
  3
Model
350
9C3
  0
DICTIONARY
  5
9E4
102
{ACAD_REACTORS
330
9AE
102
}
330
9AE
100
AcDbDictionary
281
     1
  3
ByBlock
350
9E6
  3
ByLayer
350
9E5
  3
Global
350
9E7
  0
DICTIONARY
  5
A0C
102
{ACAD_REACTORS
330
9AE
102
}
330
9AE
100
AcDbDictionary
281
     1
  3
Standard
350
A0D
  0
DICTIONARY
  5
9B8
102
{ACAD_REACTORS
330
9AE
102
}
330
9AE
100
AcDbDictionary
281
     1
  3
Standard
350
9B9
  0
DICTIONARY
  5
9BA
102
{ACAD_REACTORS
330
9AE
102
}
330
9AE
100
AcDbDictionary
281
     1
  0
ACDBDICTIONARYWDFLT
  5
9B0
102
{ACAD_REACTORS
330
9AE
102
}
330
9AE
100
AcDbDictionary
281
     1
  3
Normal
350
9B1
100
AcDbDictionaryWithDefault
340
9B1
  0
DICTIONARY
  5
9E8
102
{ACAD_REACTORS
330
9AE
102
}
330
9AE
100
AcDbDictionary
281
     1
  3
A0
350
9E9
  3
A1
350
9EA
  3
A2
350
9EB
  3
A3
350
9EC
  3
A4
350
9ED
  3
A5
350
9EE
  3
A6
350
9EF
  3
A7
350
9F0
  3
A8
350
9F1
  3
A9
350
9F2
  3
B0
350
9F3
  3
B1
350
9F4
  3
B2
350
9F5
  3
B3
350
9F6
  3
B4
350
9F7
  3
B5
350
9F8
  3
B6
350
9F9
  3
B7
350
9FA
  3
B8
350
9FB
  3
B9
350
9FC
  3
C0
350
9FD
  3
C1
350
9FE
  3
C2
350
9FF
  3
C3
350
A00
  3
C4
350
A01
  3
C5
350
A02
  3
C6
350
A03
  3
C7
350
A04
  3
C8
350
A05
  3
C9
350
A06
  3
D0
350
A07
  3
D1
350
A08
  3
D2
350
A09
  0
DICTIONARY
  5
A96
102
{ACAD_REACTORS
330
9AE
102
}
330
9AE
100
AcDbDictionary
281
     1
  0
DICTIONARY
  5
A0A
102
{ACAD_REACTORS
330
9AE
102
}
330
9AE
100
AcDbDictionary
281
     1
  3
Standard
350
A0B
  0
DICTIONARY
  5
9CB
102
{ACAD_REACTORS
330
9AE
102
}
330
9AE
100
AcDbDictionary
281
     1
  3
2dWireframe
350
9D0
  3
Basic
350
9D3
  3
Brighten
350
9D7
  3
ColorChange
350
9DB
  3
Conceptual
350
9D5
  3
Dim
350
9D6
  3
EdgeColorOff
350
9DE
  3
Facepattern
350
9DA
  3
Flat
350
9CC
  3
FlatWithEdges
350
9CD
  3
Gouraud
350
9CE
  3
GouraudWithEdges
350
9CF
  3
Hidden
350
9D2
  3
JitterOff
350
9DC
  3
Linepattern
350
9D9
  3
OverhangOff
350
9DD
  3
Realistic
350
9D4
  3
Shaded
350
9E3
  3
Shaded with edges
350
9E2
  3
Shades of Gray
350
9DF
  3
Sketchy
350
9E0
  3
Thicken
350
9D8
  3
Wireframe
350
9D1
  3
X-Ray
350
9E1
  0
XRECORD
  5
A92
102
{ACAD_REACTORS
330
9AE
102
}
330
9AE
100
AcDbXrecord
280
     1
 90
        1
330
A0B
  0
DICTIONARY
  5
A8E
102
{ACAD_REACTORS
330
9AE
102
}
330
9AE
100
AcDbDictionary
281
     1
  3
CANNOSCALE
350
A8F
  3
CMLEADERSTYLE
350
A94
  3
CTABLESTYLE
350
A93
  0
DICTIONARY
  5
A10
102
{ACAD_REACTORS
330
9AE
102
}
330
9AE
100
AcDbDictionary
281
     1
  3
ColorSettings/BackgroundColor
350
A12
  3
ColorSettings/ColorMode
350
A13
  3
Grid/DisplayGrid00
350
A14
  3
Grid/DisplayGrid01
350
A15
  3
Grid/DisplayGrid02
350
A16
  3
Grid/DisplayGrid03
350
A17
  3
Grid/GridSpacingX00
350
A18
  3
Grid/GridSpacingX01
350
A19
  3
Grid/GridSpacingX02
350
A1A
  3
Grid/GridSpacingX03
350
A1B
  3
Grid/GridSpacingY00
350
A1C
  3
Grid/GridSpacingY01
350
A1D
  3
Grid/GridSpacingY02
350
A1E
  3
Grid/GridSpacingY03
350
A1F
  3
Grid/IsometricGrid00
350
A20
  3
Grid/IsometricGrid01
350
A21
  3
Grid/IsometricGrid02
350
A22
  3
Grid/IsometricGrid03
350
A23
  3
Grid/IsometricProjection00
350
A24
  3
Grid/IsometricProjection01
350
A25
  3
Grid/IsometricProjection02
350
A26
  3
Grid/IsometricProjection03
350
A27
  3
Grid/MetaGridSpacingX00
350
A28
  3
Grid/MetaGridSpacingX01
350
A29
  3
Grid/MetaGridSpacingX02
350
A2A
  3
Grid/MetaGridSpacingX03
350
A2B
  3
Grid/MetaGridSpacingY00
350
A2C
  3
Grid/MetaGridSpacingY01
350
A2D
  3
Grid/MetaGridSpacingY02
350
A2E
  3
Grid/MetaGridSpacingY03
350
A2F
  3
MultiPageSettings/Columns
350
A30
  3
MultiPageSettings/GlueMarginsBottom
350
A31
  3
MultiPageSettings/GlueMarginsLeft
350
A32
  3
MultiPageSettings/GlueMarginsRight
350
A33
  3
MultiPageSettings/GlueMarginsTop
350
A34
  3
MultiPageSettings/PrintCropMarks
350
A35
  3
MultiPageSettings/Rows
350
A36
  3
PageSettings/OffsetX
350
A37
  3
PageSettings/OffsetY
350
A38
  3
PageSettings/PageOrientation
350
A39
  3
PageSettings/PaperHeight
350
A3A
  3
PageSettings/PaperWidth
350
A3B
  3
PageSettings/Scale
350
A3C
  3
PageSettings/ShowPaperBorders
350
A3D
  3
QCADVersion
350
A3E
  3
UnitSettings/PaperUnit
350
A3F
  3
ViewportCenter
350
A40
  3
ViewportHeight
350
A41
  3
ViewportWidth
350
A42
  0
LAYOUT
  5
9BF
102
{ACAD_REACTORS
330
9BB
102
}
330
9BB
100
AcDbPlotSettings
  1

  2
none_device
  4
ISO_A4_(210.00_x_297.00_MM)
  6

 40
7.5
 41
20.0
 42
7.5
 43
20.0
 44
210.0
 45
297.0
 46
0.0
 47
0.0
 48
0.0
 49
0.0
140
0.0
141
0.0
142
1.0
143
1.0
 70
   688
 72
     1
 73
     1
 74
     5
  7

 75
    16
 76
     0
 77
     2
 78
   300
147
1.0
148
0.0
149
0.0
100
AcDbLayout
  1
Layout1
 70
     1
 71
     0
 10
-20.0
 20
-7.5
 11
277.0
 21
202.5
 12
0.0
 22
0.0
 32
0.0
 14
0.0
 24
0.0
 34
0.0
 15
0.0
 25
0.0
 35
0.0
146
0.0
 13
0.0
 23
0.0
 33
0.0
 16
1.0
 26
0.0
 36
0.0
 17
0.0
 27
1.0
 37
0.0
 76
     0
330
9BC
331
A8C
  0
LAYOUT
  5
9C3
102
{ACAD_REACTORS
330
9BB
102
}
330
9BB
100
AcDbPlotSettings
  1

  2
none_device
  4
Letter_(8.50_x_11.00_Inches)
  6

 40
6.35
 41
6.35
 42
6.35000508
 43
6.35000508
 44
215.9
 45
279.4
 46
0.0
 47
0.0
 48
0.0
 49
0.0
140
0.0
141
0.0
142
1.0
143
1.0
 70
  1712
 72
     0
 73
     0
 74
     0
  7

 75
     0
 76
     0
 77
     2
 78
   300
147
1.0
148
0.0
149
0.0
100
AcDbLayout
  1
Model
 70
     1
 71
     0
 10
0.0
 20
0.0
 11
12.0
 21
9.0
 12
0.0
 22
0.0
 32
0.0
 14
1.000000000000000E+20
 24
1.000000000000000E+20
 34
1.000000000000000E+20
 15
-1.000000000000000E+20
 25
-1.000000000000000E+20
 35
-1.000000000000000E+20
146
0.0
 13
0.0
 23
0.0
 33
0.0
 16
1.0
 26
0.0
 36
0.0
 17
0.0
 27
1.0
 37
0.0
 76
     0
330
9C0
331
9CA
  0
MATERIAL
  5
9E6
102
{ACAD_REACTORS
330
9E4
102
}
330
9E4
100
AcDbMaterial
  1
ByBlock
 72
     1
 94
      127
  0
MATERIAL
  5
9E5
102
{ACAD_REACTORS
330
9E4
102
}
330
9E4
100
AcDbMaterial
  1
ByLayer
 72
     1
 94
      127
  0
MATERIAL
  5
9E7
102
{ACAD_REACTORS
330
9E4
102
}
330
9E4
100
AcDbMaterial
  1
Global
 72
     1
 94
      127
  0
MLEADERSTYLE
  5
A0D
102
{ACAD_REACTORS
330
A0C
102
}
330
A0C
100
AcDbMLeaderStyle
179
     2
170
     2
171
     1
172
     0
 90
        2
 40
0.0
 41
0.0
173
     1
 91
-1056964608
340
9B5
 92
       -2
290
     1
 42
0.09
291
     1
 43
0.36
  3
Standard
341
0
 44
0.18
300

342
9B3
174
     1
178
     6
175
     1
176
     0
 93
-1056964608
 45
0.18
292
     0
297
     0
 46
0.18
343
0
 94
-1056964608
 47
1.0
 49
1.0
140
1.0
293
     1
141
0.0
294
     1
177
     0
142
1.0
295
     0
296
     0
143
0.125
271
     0
272
     9
273
     9
298
     0
  0
MLINESTYLE
  5
9B9
102
{ACAD_REACTORS
330
9B8
102
}
330
9B8
100
AcDbMlineStyle
  2
Standard
 70
     0
  3

 62
   256
 51
90.0
 52
90.0
 71
     2
 49
0.5
 62
   256
  6
BYLAYER
 49
-0.5
 62
   256
  6
BYLAYER
  0
ACDBPLACEHOLDER
  5
9B1
102
{ACAD_REACTORS
330
9B0
102
}
330
9B0
  0
SCALE
  5
9E9
102
{ACAD_REACTORS
330
9E8
102
}
330
9E8
100
AcDbScale
 70
     0
300
1:1
140
1.0
141
1.0
290
     1
  0
SCALE
  5
9EA
102
{ACAD_REACTORS
330
9E8
102
}
330
9E8
100
AcDbScale
 70
     0
300
1:2
140
1.0
141
2.0
290
     0
  0
SCALE
  5
9EB
102
{ACAD_REACTORS
330
9E8
102
}
330
9E8
100
AcDbScale
 70
     0
300
1:4
140
1.0
141
4.0
290
     0
  0
SCALE
  5
9EC
102
{ACAD_REACTORS
330
9E8
102
}
330
9E8
100
AcDbScale
 70
     0
300
1:5
140
1.0
141
5.0
290
     0
  0
SCALE
  5
9ED
102
{ACAD_REACTORS
330
9E8
102
}
330
9E8
100
AcDbScale
 70
     0
300
1:8
140
1.0
141
8.0
290
     0
  0
SCALE
  5
9EE
102
{ACAD_REACTORS
330
9E8
102
}
330
9E8
100
AcDbScale
 70
     0
300
1:10
140
1.0
141
10.0
290
     0
  0
SCALE
  5
9EF
102
{ACAD_REACTORS
330
9E8
102
}
330
9E8
100
AcDbScale
 70
     0
300
1:16
140
1.0
141
16.0
290
     0
  0
SCALE
  5
9F0
102
{ACAD_REACTORS
330
9E8
102
}
330
9E8
100
AcDbScale
 70
     0
300
1:20
140
1.0
141
20.0
290
     0
  0
SCALE
  5
9F1
102
{ACAD_REACTORS
330
9E8
102
}
330
9E8
100
AcDbScale
 70
     0
300
1:30
140
1.0
141
30.0
290
     0
  0
SCALE
  5
9F2
102
{ACAD_REACTORS
330
9E8
102
}
330
9E8
100
AcDbScale
 70
     0
300
1:40
140
1.0
141
40.0
290
     0
  0
SCALE
  5
9F3
102
{ACAD_REACTORS
330
9E8
102
}
330
9E8
100
AcDbScale
 70
     0
300
1:50
140
1.0
141
50.0
290
     0
  0
SCALE
  5
9F4
102
{ACAD_REACTORS
330
9E8
102
}
330
9E8
100
AcDbScale
 70
     0
300
1:100
140
1.0
141
100.0
290
     0
  0
SCALE
  5
9F5
102
{ACAD_REACTORS
330
9E8
102
}
330
9E8
100
AcDbScale
 70
     0
300
2:1
140
2.0
141
1.0
290
     0
  0
SCALE
  5
9F6
102
{ACAD_REACTORS
330
9E8
102
}
330
9E8
100
AcDbScale
 70
     0
300
4:1
140
4.0
141
1.0
290
     0
  0
SCALE
  5
9F7
102
{ACAD_REACTORS
330
9E8
102
}
330
9E8
100
AcDbScale
 70
     0
300
8:1
140
8.0
141
1.0
290
     0
  0
SCALE
  5
9F8
102
{ACAD_REACTORS
330
9E8
102
}
330
9E8
100
AcDbScale
 70
     0
300
10:1
140
10.0
141
1.0
290
     0
  0
SCALE
  5
9F9
102
{ACAD_REACTORS
330
9E8
102
}
330
9E8
100
AcDbScale
 70
     0
300
100:1
140
100.0
141
1.0
290
     0
  0
SCALE
  5
9FA
102
{ACAD_REACTORS
330
9E8
102
}
330
9E8
100
AcDbScale
 70
     0
300
1/128" = 1'-0"
140
0.0078125
141
12.0
290
     0
  0
SCALE
  5
9FB
102
{ACAD_REACTORS
330
9E8
102
}
330
9E8
100
AcDbScale
 70
     0
300
1/64" = 1'-0"
140
0.015625
141
12.0
290
     0
  0
SCALE
  5
9FC
102
{ACAD_REACTORS
330
9E8
102
}
330
9E8
100
AcDbScale
 70
     0
300
1/32" = 1'-0"
140
0.03125
141
12.0
290
     0
  0
SCALE
  5
9FD
102
{ACAD_REACTORS
330
9E8
102
}
330
9E8
100
AcDbScale
 70
     0
300
1/16" = 1'-0"
140
0.0625
141
12.0
290
     0
  0
SCALE
  5
9FE
102
{ACAD_REACTORS
330
9E8
102
}
330
9E8
100
AcDbScale
 70
     0
300
3/32" = 1'-0"
140
0.09375
141
12.0
290
     0
  0
SCALE
  5
9FF
102
{ACAD_REACTORS
330
9E8
102
}
330
9E8
100
AcDbScale
 70
     0
300
1/8" = 1'-0"
140
0.125
141
12.0
290
     0
  0
SCALE
  5
A00
102
{ACAD_REACTORS
330
9E8
102
}
330
9E8
100
AcDbScale
 70
     0
300
3/16" = 1'-0"
140
0.1875
141
12.0
290
     0
  0
SCALE
  5
A01
102
{ACAD_REACTORS
330
9E8
102
}
330
9E8
100
AcDbScale
 70
     0
300
1/4" = 1'-0"
140
0.25
141
12.0
290
     0
  0
SCALE
  5
A02
102
{ACAD_REACTORS
330
9E8
102
}
330
9E8
100
AcDbScale
 70
     0
300
3/8" = 1'-0"
140
0.375
141
12.0
290
     0
  0
SCALE
  5
A03
102
{ACAD_REACTORS
330
9E8
102
}
330
9E8
100
AcDbScale
 70
     0
300
1/2" = 1'-0"
140
0.5
141
12.0
290
     0
  0
SCALE
  5
A04
102
{ACAD_REACTORS
330
9E8
102
}
330
9E8
100
AcDbScale
 70
     0
300
3/4" = 1'-0"
140
0.75
141
12.0
290
     0
  0
SCALE
  5
A05
102
{ACAD_REACTORS
330
9E8
102
}
330
9E8
100
AcDbScale
 70
     0
300
1" = 1'-0"
140
1.0
141
12.0
290
     0
  0
SCALE
  5
A06
102
{ACAD_REACTORS
330
9E8
102
}
330
9E8
100
AcDbScale
 70
     0
300
1-1/2" = 1'-0"
140
1.5
141
12.0
290
     0
  0
SCALE
  5
A07
102
{ACAD_REACTORS
330
9E8
102
}
330
9E8
100
AcDbScale
 70
     0
300
3" = 1'-0"
140
3.0
141
12.0
290
     0
  0
SCALE
  5
A08
102
{ACAD_REACTORS
330
9E8
102
}
330
9E8
100
AcDbScale
 70
     0
300
6" = 1'-0"
140
6.0
141
12.0
290
     0
  0
SCALE
  5
A09
102
{ACAD_REACTORS
330
9E8
102
}
330
9E8
100
AcDbScale
 70
     0
300
1'-0" = 1'-0"
140
12.0
141
12.0
290
     0
  0
TABLESTYLE
  5
A0B
102
{ACAD_REACTORS
330
A0A
102
}
102
{ACAD_XDICTIONARY
360
A90
102
}
330
A0A
100
AcDbTableStyle
  3
Standard
 70
     0
 71
     0
 40
0.06
 41
0.06
280
     0
281
     0
  7
Standard
140
0.18
170
     2
 62
     0
 63
   257
283
     0
 90
        4
 91
        0
  1

274
    -2
284
     1
 64
     0
275
    -2
285
     1
 65
     0
276
    -2
286
     1
 66
     0
277
    -2
287
     1
 67
     0
278
    -2
288
     1
 68
     0
279
    -2
289
     1
 69
     0
  7
Standard
140
0.25
170
     5
 62
     0
 63
   257
283
     0
 90
        4
 91
        0
  1

274
    -2
284
     1
 64
     0
275
    -2
285
     1
 65
     0
276
    -2
286
     1
 66
     0
277
    -2
287
     1
 67
     0
278
    -2
288
     1
 68
     0
279
    -2
289
     1
 69
     0
  7
Standard
140
0.18
170
     5
 62
     0
 63
   257
283
     0
 90
        4
 91
        0
  1

274
    -2
284
     1
 64
     0
275
    -2
285
     1
 65
     0
276
    -2
286
     1
 66
     0
277
    -2
287
     1
 67
     0
278
    -2
288
     1
 68
     0
279
    -2
289
     1
 69
     0
  0
VISUALSTYLE
  5
9D0
102
{ACAD_REACTORS
330
9CB
102
}
330
9CB
100
AcDbVisualStyle
  2
2dWireframe
 70
     4
177
     3
291
     0
 70
    58
 90
        0
176
     1
 90
        2
176
     1
 90
        0
176
     1
 90
        0
176
     1
 40
0.6
176
     1
 40
30.0
176
     1
 62
     7
420
 16777215
176
     1
 90
        1
176
     1
 90
        4
176
     1
 62
     7
176
     1
 62
   257
176
     1
 90
        1
176
     1
 90
        1
176
     1
 40
1.0
176
     1
 90
        0
176
     1
 62
   257
176
     1
 40
1.0
176
     1
 90
        1
176
     1
 90
        6
176
     1
 90
        2
176
     1
 62
     7
176
     1
 90
        5
176
     1
 90
        0
176
     1
 90
        0
176
     1
290
     0
176
     1
 90
        1
176
     1
 40
0.0
176
     1
 90
        0
176
     1
290
     1
176
     1
290
     1
176
     1
290
     0
176
     1
290
     0
176
     1
290
     0
176
     1
290
     0
176
     1
290
     0
176
     1
290
     0
176
     1
290
     0
176
     1
 90
       50
176
     1
 40
0.0
176
     1
 40
1.0
176
     1
 90
        0
176
     1
 62
    18
420
        0
176
     1
 90
       50
176
     1
 90
        3
176
     1
 62
     5
420
      255
176
     1
290
     0
176
     1
 90
       50
176
     1
 90
       50
176
     1
 90
       50
176
     1
290
     0
176
     1
 90
       50
176
     1
 62
   256
176
     0
 40
1.0
176
     0
 90
        2
176
     1
  1
strokes_ogs.tif
176
     1
290
     0
176
     1
 40
1.0
176
     1
 40
1.0
176
     1
  0
VISUALSTYLE
  5
9D3
102
{ACAD_REACTORS
330
9CB
102
}
330
9CB
100
AcDbVisualStyle
  2
Basic
 70
     7
177
     3
291
     1
 70
    58
 90
        1
176
     1
 90
        0
176
     1
 90
        1
176
     1
 90
        0
176
     1
 40
0.6
176
     1
 40
30.0
176
     1
 62
     7
420
 16777215
176
     1
 90
        0
176
     1
 90
        4
176
     1
 62
     7
176
     1
 62
   257
176
     1
 90
        1
176
     1
 90
        1
176
     1
 40
1.0
176
     1
 90
        8
176
     1
 62
     7
176
     1
 40
1.0
176
     1
 90
        1
176
     1
 90
        6
176
     1
 90
        2
176
     1
 62
     7
176
     1
 90
        5
176
     1
 90
        0
176
     1
 90
        0
176
     1
290
     0
176
     1
 90
        1
176
     1
 40
0.0
176
     1
 90
        0
176
     1
290
     0
176
     1
290
     1
176
     1
290
     1
176
     1
290
     0
176
     1
290
     0
176
     1
290
     0
176
     1
290
     0
176
     1
290
     0
176
     1
290
     0
176
     1
 90
       50
176
     1
 40
0.0
176
     1
 40
1.0
176
     1
 90
        0
176
     1
 62
    18
420
        0
176
     1
 90
       50
176
     1
 90
        3
176
     1
 62
     5
420
      255
176
     1
290
     0
176
     1
 90
       50
176
     1
 90
       50
176
     1
 90
       50
176
     1
290
     0
176
     1
 90
       50
176
     1
 62
   256
176
     0
 40
1.0
176
     0
 90
        2
176
     1
  1
strokes_ogs.tif
176
     1
290
     0
176
     1
 40
1.0
176
     1
 40
1.0
176
     1
  0
VISUALSTYLE
  5
9D7
102
{ACAD_REACTORS
330
9CB
102
}
330
9CB
100
AcDbVisualStyle
  2
Brighten
 70
    12
177
     3
291
     1
 70
    58
 90
        2
176
     1
 90
        2
176
     1
 90
        0
176
     1
 90
        0
176
     1
 40
0.6
176
     1
 40
30.0
176
     1
 62
     7
420
 16777215
176
     1
 90
        1
176
     1
 90
        4
176
     1
 62
     7
176
     1
 62
   257
176
     1
 90
        1
176
     1
 90
        1
176
     1
 40
1.0
176
     1
 90
        8
176
     1
 62
     7
176
     1
 40
1.0
176
     1
 90
        1
176
     1
 90
        6
176
     1
 90
        2
176
     1
 62
     7
176
     1
 90
        5
176
     1
 90
        0
176
     1
 90
        0
176
     1
290
     0
176
     1
 90
        1
176
     1
 40
50.0
176
     1
 90
        0
176
     1
290
     0
176
     1
290
     1
176
     1
290
     1
176
     1
290
     0
176
     1
290
     0
176
     1
290
     0
176
     1
290
     0
176
     1
290
     0
176
     1
290
     0
176
     1
 90
       50
176
     1
 40
0.0
176
     1
 40
1.0
176
     1
 90
        0
176
     1
 62
    18
420
        0
176
     1
 90
       50
176
     1
 90
        3
176
     1
 62
     5
420
      255
176
     1
290
     0
176
     1
 90
       50
176
     1
 90
       50
176
     1
 90
       50
176
     1
290
     0
176
     1
 90
       50
176
     1
 62
   256
176
     0
 40
1.0
176
     0
 90
        2
176
     1
  1
strokes_ogs.tif
176
     1
290
     0
176
     1
 40
1.0
176
     1
 40
1.0
176
     1
  0
VISUALSTYLE
  5
9DB
102
{ACAD_REACTORS
330
9CB
102
}
330
9CB
100
AcDbVisualStyle
  2
ColorChange
 70
    16
177
     3
291
     1
 70
    58
 90
        2
176
     1
 90
        2
176
     1
 90
        3
176
     1
 90
        0
176
     1
 40
0.6
176
     1
 40
30.0
176
     1
 62
     8
420
  8421504
176
     1
 90
        1
176
     1
 90
        4
176
     1
 62
     7
176
     1
 62
   257
176
     1
 90
        1
176
     1
 90
        1
176
     1
 40
1.0
176
     1
 90
        8
176
     1
 62
     8
420
  8421504
176
     1
 40
1.0
176
     1
 90
        1
176
     1
 90
        6
176
     1
 90
        2
176
     1
 62
     7
176
     1
 90
        5
176
     1
 90
        0
176
     1
 90
        0
176
     1
290
     0
176
     1
 90
        1
176
     1
 40
0.0
176
     1
 90
        0
176
     1
290
     0
176
     1
290
     1
176
     1
290
     1
176
     1
290
     0
176
     1
290
     0
176
     1
290
     0
176
     1
290
     0
176
     1
290
     0
176
     1
290
     0
176
     1
 90
       50
176
     1
 40
0.0
176
     1
 40
1.0
176
     1
 90
        0
176
     1
 62
    18
420
        0
176
     1
 90
       50
176
     1
 90
        3
176
     1
 62
     5
420
      255
176
     1
290
     0
176
     1
 90
       50
176
     1
 90
       50
176
     1
 90
       50
176
     1
290
     0
176
     1
 90
       50
176
     1
 62
   256
176
     0
 40
1.0
176
     0
 90
        2
176
     1
  1
strokes_ogs.tif
176
     1
290
     0
176
     1
 40
1.0
176
     1
 40
1.0
176
     1
  0
VISUALSTYLE
  5
9D5
102
{ACAD_REACTORS
330
9CB
102
}
330
9CB
100
AcDbVisualStyle
  2
Conceptual
 70
     9
177
     3
291
     0
 70
    58
 90
        3
176
     1
 90
        2
176
     1
 90
        0
176
     1
 90
        0
176
     1
 40
0.6
176
     1
 40
30.0
176
     1
 62
     7
420
 16777215
176
     1
 90
        2
176
     1
 90
        2
176
     1
 62
     7
176
     1
 62
   257
176
     1
 90
        1
176
     1
 90
        1
176
     1
 40
179.0
176
     1
 90
        8
176
     1
 62
     7
176
     1
 40
1.0
176
     1
 90
        1
176
     1
 90
        6
176
     1
 90
        2
176
     1
 62
     7
176
     1
 90
        3
176
     1
 90
        0
176
     1
 90
        0
176
     1
290
     0
176
     1
 90
        1
176
     1
 40
0.0
176
     1
 90
        0
176
     1
290
     0
176
     1
290
     1
176
     1
290
     1
176
     1
290
     0
176
     1
290
     0
176
     1
290
     0
176
     1
290
     0
176
     1
290
     0
176
     1
290
     0
176
     1
 90
       50
176
     1
 40
0.0
176
     1
 40
1.0
176
     1
 90
        0
176
     1
 62
    18
420
        0
176
     1
 90
       50
176
     1
 90
        3
176
     1
 62
     5
420
      255
176
     1
290
     0
176
     1
 90
       50
176
     1
 90
       50
176
     1
 90
       50
176
     1
290
     0
176
     1
 90
       50
176
     1
 62
   256
176
     0
 40
1.0
176
     0
 90
        2
176
     1
  1
strokes_ogs.tif
176
     1
290
     0
176
     1
 40
1.0
176
     1
 40
1.0
176
     1
  0
VISUALSTYLE
  5
9D6
102
{ACAD_REACTORS
330
9CB
102
}
330
9CB
100
AcDbVisualStyle
  2
Dim
 70
    11
177
     3
291
     1
 70
    58
 90
        2
176
     1
 90
        2
176
     1
 90
        0
176
     1
 90
        0
176
     1
 40
0.6
176
     1
 40
30.0
176
     1
 62
     7
420
 16777215
176
     1
 90
        1
176
     1
 90
        4
176
     1
 62
     7
176
     1
 62
   257
176
     1
 90
        1
176
     1
 90
        1
176
     1
 40
1.0
176
     1
 90
        8
176
     1
 62
     7
176
     1
 40
1.0
176
     1
 90
        1
176
     1
 90
        6
176
     1
 90
        2
176
     1
 62
     7
176
     1
 90
        5
176
     1
 90
        0
176
     1
 90
        0
176
     1
290
     0
176
     1
 90
        1
176
     1
 40
-50.0
176
     1
 90
        0
176
     1
290
     0
176
     1
290
     1
176
     1
290
     1
176
     1
290
     0
176
     1
290
     0
176
     1
290
     0
176
     1
290
     0
176
     1
290
     0
176
     1
290
     0
176
     1
 90
       50
176
     1
 40
0.0
176
     1
 40
1.0
176
     1
 90
        0
176
     1
 62
    18
420
        0
176
     1
 90
       50
176
     1
 90
        3
176
     1
 62
     5
420
      255
176
     1
290
     0
176
     1
 90
       50
176
     1
 90
       50
176
     1
 90
       50
176
     1
290
     0
176
     1
 90
       50
176
     1
 62
   256
176
     0
 40
1.0
176
     0
 90
        2
176
     1
  1
strokes_ogs.tif
176
     1
290
     0
176
     1
 40
1.0
176
     1
 40
1.0
176
     1
  0
VISUALSTYLE
  5
9DE
102
{ACAD_REACTORS
330
9CB
102
}
330
9CB
100
AcDbVisualStyle
  2
EdgeColorOff
 70
    22
177
     3
291
     1
 70
    58
 90
        2
176
     0
 90
        2
176
     0
 90
        0
176
     0
 90
        0
176
     0
 40
0.6
176
     0
 40
30.0
176
     0
 62
     7
420
 16777215
176
     0
 90
        1
176
     0
 90
        4
176
     0
 62
     7
176
     0
 62
   257
176
     0
 90
        1
176
     0
 90
        1
176
     0
 40
1.0
176
     0
 90
        8
176
     2
 62
     7
176
     0
 40
1.0
176
     0
 90
        1
176
     0
 90
        6
176
     0
 90
        2
176
     0
 62
     7
176
     0
 90
        5
176
     0
 90
        0
176
     0
 90
        0
176
     0
290
     0
176
     0
 90
        1
176
     0
 40
0.0
176
     0
 90
        0
176
     0
290
     0
176
     0
290
     1
176
     0
290
     1
176
     0
290
     0
176
     0
290
     0
176
     0
290
     0
176
     0
290
     0
176
     0
290
     0
176
     0
290
     0
176
     0
 90
       50
176
     0
 40
0.0
176
     0
 40
1.0
176
     0
 90
        0
176
     0
 62
    18
420
        0
176
     0
 90
       50
176
     0
 90
        3
176
     0
 62
     5
420
      255
176
     0
290
     0
176
     0
 90
       50
176
     0
 90
       50
176
     0
 90
       50
176
     0
290
     0
176
     0
 90
       50
176
     0
 62
   256
176
     0
 40
1.0
176
     0
 90
        2
176
     0
  1
strokes_ogs.tif
176
     0
290
     0
176
     0
 40
1.0
176
     0
 40
1.0
176
     0
  0
VISUALSTYLE
  5
9DA
102
{ACAD_REACTORS
330
9CB
102
}
330
9CB
100
AcDbVisualStyle
  2
Facepattern
 70
    15
177
     3
291
     1
 70
    58
 90
        2
176
     1
 90
        2
176
     1
 90
        0
176
     1
 90
        0
176
     1
 40
0.6
176
     1
 40
30.0
176
     1
 62
     7
420
 16777215
176
     1
 90
        1
176
     1
 90
        4
176
     1
 62
     7
176
     1
 62
   257
176
     1
 90
        1
176
     1
 90
        1
176
     1
 40
1.0
176
     1
 90
        8
176
     1
 62
     7
176
     1
 40
1.0
176
     1
 90
        1
176
     1
 90
        6
176
     1
 90
        2
176
     1
 62
     7
176
     1
 90
        5
176
     1
 90
        0
176
     1
 90
        0
176
     1
290
     0
176
     1
 90
        1
176
     1
 40
0.0
176
     1
 90
        0
176
     1
290
     0
176
     1
290
     1
176
     1
290
     1
176
     1
290
     0
176
     1
290
     0
176
     1
290
     0
176
     1
290
     0
176
     1
290
     0
176
     1
290
     0
176
     1
 90
       50
176
     1
 40
0.0
176
     1
 40
1.0
176
     1
 90
        0
176
     1
 62
    18
420
        0
176
     1
 90
       50
176
     1
 90
        3
176
     1
 62
     5
420
      255
176
     1
290
     0
176
     1
 90
       50
176
     1
 90
       50
176
     1
 90
       50
176
     1
290
     0
176
     1
 90
       50
176
     1
 62
   256
176
     0
 40
1.0
176
     0
 90
        2
176
     1
  1
strokes_ogs.tif
176
     1
290
     0
176
     1
 40
1.0
176
     1
 40
1.0
176
     1
  0
VISUALSTYLE
  5
9CC
102
{ACAD_REACTORS
330
9CB
102
}
330
9CB
100
AcDbVisualStyle
  2
Flat
 70
     0
177
     3
291
     1
 70
    58
 90
        2
176
     1
 90
        1
176
     1
 90
        1
176
     1
 90
        2
176
     1
 40
0.6
176
     1
 40
30.0
176
     1
 62
     7
420
 16777215
176
     1
 90
        0
176
     1
 90
        0
176
     1
 62
     7
176
     1
 62
   257
176
     1
 90
        1
176
     1
 90
        1
176
     1
 40
1.0
176
     1
 90
        8
176
     1
 62
     7
176
     1
 40
1.0
176
     1
 90
        1
176
     1
 90
        6
176
     1
 90
        2
176
     1
 62
     7
176
     1
 90
        5
176
     1
 90
        0
176
     1
 90
        0
176
     1
290
     0
176
     1
 90
       13
176
     1
 40
0.0
176
     1
 90
        0
176
     1
290
     0
176
     1
290
     1
176
     1
290
     1
176
     1
290
     0
176
     1
290
     0
176
     1
290
     0
176
     1
290
     0
176
     1
290
     0
176
     1
290
     0
176
     1
 90
       50
176
     1
 40
0.0
176
     1
 40
1.0
176
     1
 90
        0
176
     1
 62
    18
420
        0
176
     1
 90
       50
176
     1
 90
        3
176
     1
 62
     5
420
      255
176
     1
290
     0
176
     1
 90
       50
176
     1
 90
       50
176
     1
 90
       50
176
     1
290
     0
176
     1
 90
       50
176
     1
 62
   256
176
     0
 40
1.0
176
     0
 90
        2
176
     1
  1
strokes_ogs.tif
176
     1
290
     0
176
     1
 40
1.0
176
     1
 40
1.0
176
     1
  0
VISUALSTYLE
  5
9CD
102
{ACAD_REACTORS
330
9CB
102
}
330
9CB
100
AcDbVisualStyle
  2
FlatWithEdges
 70
     1
177
     3
291
     1
 70
    58
 90
        2
176
     1
 90
        1
176
     1
 90
        1
176
     1
 90
        2
176
     1
 40
0.6
176
     1
 40
30.0
176
     1
 62
     7
420
 16777215
176
     1
 90
        1
176
     1
 90
        0
176
     1
 62
     7
176
     1
 62
   257
176
     1
 90
        1
176
     1
 90
        1
176
     1
 40
1.0
176
     1
 90
        0
176
     1
 62
   257
176
     1
 40
1.0
176
     1
 90
        1
176
     1
 90
        6
176
     1
 90
        2
176
     1
 62
     7
176
     1
 90
        5
176
     1
 90
        0
176
     1
 90
        0
176
     1
290
     0
176
     1
 90
       13
176
     1
 40
0.0
176
     1
 90
        0
176
     1
290
     0
176
     1
290
     1
176
     1
290
     1
176
     1
290
     0
176
     1
290
     0
176
     1
290
     0
176
     1
290
     0
176
     1
290
     0
176
     1
290
     0
176
     1
 90
       50
176
     1
 40
0.0
176
     1
 40
1.0
176
     1
 90
        0
176
     1
 62
    18
420
        0
176
     1
 90
       50
176
     1
 90
        3
176
     1
 62
     5
420
      255
176
     1
290
     0
176
     1
 90
       50
176
     1
 90
       50
176
     1
 90
       50
176
     1
290
     0
176
     1
 90
       50
176
     1
 62
   256
176
     0
 40
1.0
176
     0
 90
        2
176
     1
  1
strokes_ogs.tif
176
     1
290
     0
176
     1
 40
1.0
176
     1
 40
1.0
176
     1
  0
VISUALSTYLE
  5
9CE
102
{ACAD_REACTORS
330
9CB
102
}
330
9CB
100
AcDbVisualStyle
  2
Gouraud
 70
     2
177
     3
291
     1
 70
    58
 90
        2
176
     1
 90
        2
176
     1
 90
        1
176
     1
 90
        2
176
     1
 40
0.6
176
     1
 40
30.0
176
     1
 62
     7
420
 16777215
176
     1
 90
        0
176
     1
 90
        0
176
     1
 62
     7
176
     1
 62
   257
176
     1
 90
        1
176
     1
 90
        1
176
     1
 40
1.0
176
     1
 90
        0
176
     1
 62
     7
176
     1
 40
1.0
176
     1
 90
        1
176
     1
 90
        6
176
     1
 90
        2
176
     1
 62
     7
176
     1
 90
        5
176
     1
 90
        0
176
     1
 90
        0
176
     1
290
     0
176
     1
 90
       13
176
     1
 40
0.0
176
     1
 90
        0
176
     1
290
     0
176
     1
290
     1
176
     1
290
     1
176
     1
290
     0
176
     1
290
     0
176
     1
290
     0
176
     1
290
     0
176
     1
290
     0
176
     1
290
     0
176
     1
 90
       50
176
     1
 40
0.0
176
     1
 40
1.0
176
     1
 90
        0
176
     1
 62
    18
420
        0
176
     1
 90
       50
176
     1
 90
        3
176
     1
 62
     5
420
      255
176
     1
290
     0
176
     1
 90
       50
176
     1
 90
       50
176
     1
 90
       50
176
     1
290
     0
176
     1
 90
       50
176
     1
 62
   256
176
     0
 40
1.0
176
     0
 90
        2
176
     1
  1
strokes_ogs.tif
176
     1
290
     0
176
     1
 40
1.0
176
     1
 40
1.0
176
     1
  0
VISUALSTYLE
  5
9CF
102
{ACAD_REACTORS
330
9CB
102
}
330
9CB
100
AcDbVisualStyle
  2
GouraudWithEdges
 70
     3
177
     3
291
     1
 70
    58
 90
        2
176
     1
 90
        2
176
     1
 90
        1
176
     1
 90
        2
176
     1
 40
0.6
176
     1
 40
30.0
176
     1
 62
     7
420
 16777215
176
     1
 90
        1
176
     1
 90
        0
176
     1
 62
     7
176
     1
 62
   257
176
     1
 90
        1
176
     1
 90
        1
176
     1
 40
1.0
176
     1
 90
        0
176
     1
 62
   257
176
     1
 40
1.0
176
     1
 90
        1
176
     1
 90
        6
176
     1
 90
        2
176
     1
 62
     7
176
     1
 90
        5
176
     1
 90
        0
176
     1
 90
        0
176
     1
290
     0
176
     1
 90
       13
176
     1
 40
0.0
176
     1
 90
        0
176
     1
290
     0
176
     1
290
     1
176
     1
290
     1
176
     1
290
     0
176
     1
290
     0
176
     1
290
     0
176
     1
290
     0
176
     1
290
     0
176
     1
290
     0
176
     1
 90
       50
176
     1
 40
0.0
176
     1
 40
1.0
176
     1
 90
        0
176
     1
 62
    18
420
        0
176
     1
 90
       50
176
     1
 90
        3
176
     1
 62
     5
420
      255
176
     1
290
     0
176
     1
 90
       50
176
     1
 90
       50
176
     1
 90
       50
176
     1
290
     0
176
     1
 90
       50
176
     1
 62
   256
176
     0
 40
1.0
176
     0
 90
        2
176
     1
  1
strokes_ogs.tif
176
     1
290
     0
176
     1
 40
1.0
176
     1
 40
1.0
176
     1
  0
VISUALSTYLE
  5
9D2
102
{ACAD_REACTORS
330
9CB
102
}
330
9CB
100
AcDbVisualStyle
  2
Hidden
 70
     6
177
     3
291
     0
 70
    58
 90
        1
176
     1
 90
        2
176
     1
 90
        2
176
     1
 90
        0
176
     1
 40
0.6
176
     1
 40
30.0
176
     1
 62
     7
420
 16777215
176
     1
 90
        2
176
     1
 90
        2
176
     1
 62
     7
176
     1
 62
   257
176
     1
 90
        2
176
     1
 90
        1
176
     1
 40
40.0
176
     1
 90
        0
176
     1
 62
   257
176
     1
 40
1.0
176
     1
 90
        1
176
     1
 90
        6
176
     1
 90
        2
176
     1
 62
     7
176
     1
 90
        3
176
     1
 90
        0
176
     1
 90
        0
176
     1
290
     0
176
     1
 90
        1
176
     1
 40
0.0
176
     1
 90
        0
176
     1
290
     0
176
     1
290
     1
176
     1
290
     1
176
     1
290
     0
176
     1
290
     0
176
     1
290
     0
176
     1
290
     0
176
     1
290
     0
176
     1
290
     0
176
     1
 90
       50
176
     1
 40
0.0
176
     1
 40
1.0
176
     1
 90
        0
176
     1
 62
    18
420
        0
176
     1
 90
       50
176
     1
 90
        3
176
     1
 62
     5
420
      255
176
     1
290
     0
176
     1
 90
       50
176
     1
 90
       50
176
     1
 90
       50
176
     1
290
     0
176
     1
 90
       50
176
     1
 62
   256
176
     0
 40
1.0
176
     0
 90
        2
176
     1
  1
strokes_ogs.tif
176
     1
290
     0
176
     1
 40
1.0
176
     1
 40
1.0
176
     1
  0
VISUALSTYLE
  5
9DC
102
{ACAD_REACTORS
330
9CB
102
}
330
9CB
100
AcDbVisualStyle
  2
JitterOff
 70
    20
177
     3
291
     1
 70
    58
 90
        2
176
     0
 90
        2
176
     0
 90
        0
176
     0
 90
        0
176
     0
 40
0.6
176
     0
 40
30.0
176
     0
 62
     7
420
 16777215
176
     0
 90
        1
176
     0
 90
        4
176
     0
 62
     7
176
     0
 62
   257
176
     0
 90
        1
176
     0
 90
        1
176
     0
 40
1.0
176
     0
 90
       10
176
     2
 62
     7
176
     0
 40
1.0
176
     0
 90
        1
176
     0
 90
        6
176
     0
 90
        2
176
     0
 62
     7
176
     0
 90
        5
176
     0
 90
        0
176
     0
 90
        0
176
     0
290
     0
176
     0
 90
        1
176
     0
 40
0.0
176
     0
 90
        0
176
     0
290
     0
176
     0
290
     1
176
     0
290
     1
176
     0
290
     0
176
     0
290
     0
176
     0
290
     0
176
     0
290
     0
176
     0
290
     0
176
     0
290
     0
176
     0
 90
       50
176
     0
 40
0.0
176
     0
 40
1.0
176
     0
 90
        0
176
     0
 62
    18
420
        0
176
     0
 90
       50
176
     0
 90
        3
176
     0
 62
     5
420
      255
176
     0
290
     0
176
     0
 90
       50
176
     0
 90
       50
176
     0
 90
       50
176
     0
290
     0
176
     0
 90
       50
176
     0
 62
   256
176
     0
 40
1.0
176
     0
 90
        2
176
     0
  1
strokes_ogs.tif
176
     0
290
     0
176
     0
 40
1.0
176
     0
 40
1.0
176
     0
  0
VISUALSTYLE
  5
9D9
102
{ACAD_REACTORS
330
9CB
102
}
330
9CB
100
AcDbVisualStyle
  2
Linepattern
 70
    14
177
     3
291
     1
 70
    58
 90
        2
176
     1
 90
        2
176
     1
 90
        0
176
     1
 90
        0
176
     1
 40
0.6
176
     1
 40
30.0
176
     1
 62
     7
420
 16777215
176
     1
 90
        1
176
     1
 90
        4
176
     1
 62
     7
176
     1
 62
   257
176
     1
 90
        7
176
     1
 90
        7
176
     1
 40
1.0
176
     1
 90
        8
176
     1
 62
     7
176
     1
 40
1.0
176
     1
 90
        1
176
     1
 90
        6
176
     1
 90
        2
176
     1
 62
     7
176
     1
 90
        5
176
     1
 90
        0
176
     1
 90
        0
176
     1
290
     0
176
     1
 90
        1
176
     1
 40
0.0
176
     1
 90
        0
176
     1
290
     0
176
     1
290
     1
176
     1
290
     1
176
     1
290
     0
176
     1
290
     0
176
     1
290
     0
176
     1
290
     0
176
     1
290
     0
176
     1
290
     0
176
     1
 90
       50
176
     1
 40
0.0
176
     1
 40
1.0
176
     1
 90
        0
176
     1
 62
    18
420
        0
176
     1
 90
       50
176
     1
 90
        3
176
     1
 62
     5
420
      255
176
     1
290
     0
176
     1
 90
       50
176
     1
 90
       50
176
     1
 90
       50
176
     1
290
     0
176
     1
 90
       50
176
     1
 62
   256
176
     0
 40
1.0
176
     0
 90
        2
176
     1
  1
strokes_ogs.tif
176
     1
290
     0
176
     1
 40
1.0
176
     1
 40
1.0
176
     1
  0
VISUALSTYLE
  5
9DD
102
{ACAD_REACTORS
330
9CB
102
}
330
9CB
100
AcDbVisualStyle
  2
OverhangOff
 70
    21
177
     3
291
     1
 70
    58
 90
        2
176
     0
 90
        2
176
     0
 90
        0
176
     0
 90
        0
176
     0
 40
0.6
176
     0
 40
30.0
176
     0
 62
     7
420
 16777215
176
     0
 90
        1
176
     0
 90
        4
176
     0
 62
     7
176
     0
 62
   257
176
     0
 90
        1
176
     0
 90
        1
176
     0
 40
1.0
176
     0
 90
        9
176
     2
 62
     7
176
     0
 40
1.0
176
     0
 90
        1
176
     0
 90
        6
176
     0
 90
        2
176
     0
 62
     7
176
     0
 90
        5
176
     0
 90
        0
176
     0
 90
        0
176
     0
290
     0
176
     0
 90
        1
176
     0
 40
0.0
176
     0
 90
        0
176
     0
290
     0
176
     0
290
     1
176
     0
290
     1
176
     0
290
     0
176
     0
290
     0
176
     0
290
     0
176
     0
290
     0
176
     0
290
     0
176
     0
290
     0
176
     0
 90
       50
176
     0
 40
0.0
176
     0
 40
1.0
176
     0
 90
        0
176
     0
 62
    18
420
        0
176
     0
 90
       50
176
     0
 90
        3
176
     0
 62
     5
420
      255
176
     0
290
     0
176
     0
 90
       50
176
     0
 90
       50
176
     0
 90
       50
176
     0
290
     0
176
     0
 90
       50
176
     0
 62
   256
176
     0
 40
1.0
176
     0
 90
        2
176
     0
  1
strokes_ogs.tif
176
     0
290
     0
176
     0
 40
1.0
176
     0
 40
1.0
176
     0
  0
VISUALSTYLE
  5
9D4
102
{ACAD_REACTORS
330
9CB
102
}
330
9CB
100
AcDbVisualStyle
  2
Realistic
 70
     8
177
     3
291
     0
 70
    58
 90
        2
176
     1
 90
        3
176
     1
 90
        0
176
     1
 90
        2
176
     1
 40
0.6
176
     1
 40
30.0
176
     1
 62
     7
420
 16777215
176
     1
 90
        0
176
     1
 90
        0
176
     1
 62
     7
176
     1
 62
   257
176
     1
 90
        1
176
     1
 90
        1
176
     1
 40
1.0
176
     1
 90
        8
176
     1
 62
   257
176
     1
 40
1.0
176
     1
 90
        1
176
     1
 90
        6
176
     1
 90
        2
176
     1
 62
     7
176
     1
 90
        3
176
     1
 90
        0
176
     1
 90
        0
176
     1
290
     0
176
     1
 90
       13
176
     1
 40
0.0
176
     1
 90
        0
176
     1
290
     0
176
     1
290
     1
176
     1
290
     1
176
     1
290
     0
176
     1
290
     0
176
     1
290
     0
176
     1
290
     0
176
     1
290
     0
176
     1
290
     0
176
     1
 90
       50
176
     1
 40
0.0
176
     1
 40
1.0
176
     1
 90
        0
176
     1
 62
    18
420
        0
176
     1
 90
       50
176
     1
 90
        3
176
     1
 62
     5
420
      255
176
     1
290
     0
176
     1
 90
       50
176
     1
 90
       50
176
     1
 90
       50
176
     1
290
     0
176
     1
 90
       50
176
     1
 62
   256
176
     0
 40
1.0
176
     0
 90
        2
176
     1
  1
strokes_ogs.tif
176
     1
290
     0
176
     1
 40
1.0
176
     1
 40
1.0
176
     1
  0
VISUALSTYLE
  5
9E3
102
{ACAD_REACTORS
330
9CB
102
}
330
9CB
100
AcDbVisualStyle
  2
Shaded
 70
    27
177
     3
291
     0
 70
    58
 90
        2
176
     1
 90
        2
176
     1
 90
        1
176
     1
 90
        2
176
     1
 40
0.6
176
     1
 40
30.0
176
     1
 62
     7
420
 16777215
176
     1
 90
        0
176
     1
 90
        4
176
     1
 62
     7
176
     1
 62
   257
176
     1
 90
        1
176
     1
 90
        1
176
     1
 40
1.0
176
     1
 90
        8
176
     1
 62
   257
176
     1
 40
1.0
176
     1
 90
        1
176
     1
 90
        6
176
     1
 90
        2
176
     1
 62
     8
420
  7895160
176
     1
 90
        3
176
     1
 90
        0
176
     1
 90
        0
176
     1
290
     0
176
     1
 90
        5
176
     1
 40
0.0
176
     1
 90
        0
176
     1
290
     0
176
     1
290
     1
176
     1
290
     1
176
     1
290
     0
176
     1
290
     0
176
     1
290
     0
176
     1
290
     0
176
     1
290
     0
176
     1
290
     0
176
     1
 90
       50
176
     1
 40
0.0
176
     1
 40
1.0
176
     1
 90
        0
176
     1
 62
    18
420
        0
176
     1
 90
       50
176
     1
 90
        3
176
     1
 62
     5
420
      255
176
     1
290
     0
176
     1
 90
       50
176
     1
 90
       50
176
     1
 90
       50
176
     1
290
     0
176
     1
 90
       50
176
     1
 62
   256
176
     0
 40
1.0
176
     0
 90
        2
176
     1
  1
strokes_ogs.tif
176
     1
290
     0
176
     1
 40
1.0
176
     1
 40
1.0
176
     1
  0
VISUALSTYLE
  5
9E2
102
{ACAD_REACTORS
330
9CB
102
}
330
9CB
100
AcDbVisualStyle
  2
Shaded with edges
 70
    26
177
     3
291
     0
 70
    58
 90
        2
176
     1
 90
        2
176
     1
 90
        1
176
     1
 90
        2
176
     1
 40
0.6
176
     1
 40
30.0
176
     1
 62
     7
420
 16777215
176
     1
 90
        1
176
     1
 90
       10
176
     1
 62
     7
176
     1
 62
   257
176
     1
 90
        2
176
     1
 90
        1
176
     1
 40
1.0
176
     1
 90
        8
176
     1
 62
   257
176
     1
 40
1.0
176
     1
 90
        1
176
     1
 90
        6
176
     1
 90
        2
176
     1
 62
     7
176
     1
 90
        3
176
     1
 90
        0
176
     1
 90
        0
176
     1
290
     0
176
     1
 90
        5
176
     1
 40
0.0
176
     1
 90
        0
176
     1
290
     0
176
     1
290
     1
176
     1
290
     1
176
     1
290
     0
176
     1
290
     0
176
     1
290
     0
176
     1
290
     0
176
     1
290
     0
176
     1
290
     0
176
     1
 90
       50
176
     1
 40
0.0
176
     1
 40
1.0
176
     1
 90
        0
176
     1
 62
    18
420
        0
176
     1
 90
       50
176
     1
 90
        3
176
     1
 62
     5
420
      255
176
     1
290
     0
176
     1
 90
       50
176
     1
 90
       50
176
     1
 90
       50
176
     1
290
     0
176
     1
 90
       50
176
     1
 62
   256
176
     0
 40
1.0
176
     0
 90
        2
176
     1
  1
strokes_ogs.tif
176
     1
290
     0
176
     1
 40
1.0
176
     1
 40
1.0
176
     1
  0
VISUALSTYLE
  5
9DF
102
{ACAD_REACTORS
330
9CB
102
}
330
9CB
100
AcDbVisualStyle
  2
Shades of Gray
 70
    23
177
     3
291
     0
 70
    58
 90
        2
176
     1
 90
        2
176
     1
 90
        3
176
     1
 90
        0
176
     1
 40
0.6
176
     1
 40
30.0
176
     1
 62
     7
420
 16777215
176
     1
 90
        2
176
     1
 90
        2
176
     1
 62
     7
176
     1
 62
     7
176
     1
 90
        1
176
     1
 90
        1
176
     1
 40
40.0
176
     1
 90
        8
176
     1
 62
     7
176
     1
 40
1.0
176
     1
 90
        1
176
     1
 90
        6
176
     1
 90
        2
176
     1
 62
     7
176
     1
 90
        3
176
     1
 90
        0
176
     1
 90
        0
176
     1
290
     0
176
     1
 90
        1
176
     1
 40
0.0
176
     1
 90
        0
176
     1
290
     0
176
     1
290
     1
176
     1
290
     1
176
     1
290
     0
176
     1
290
     0
176
     1
290
     0
176
     1
290
     0
176
     1
290
     0
176
     1
290
     0
176
     1
 90
       50
176
     1
 40
0.0
176
     1
 40
1.0
176
     1
 90
        0
176
     1
 62
    18
420
        0
176
     1
 90
       50
176
     1
 90
        3
176
     1
 62
     5
420
      255
176
     1
290
     0
176
     1
 90
       50
176
     1
 90
       50
176
     1
 90
       50
176
     1
290
     0
176
     1
 90
       50
176
     1
 62
   256
176
     0
 40
1.0
176
     0
 90
        2
176
     1
  1
strokes_ogs.tif
176
     1
290
     0
176
     1
 40
1.0
176
     1
 40
1.0
176
     1
  0
VISUALSTYLE
  5
9E0
102
{ACAD_REACTORS
330
9CB
102
}
330
9CB
100
AcDbVisualStyle
  2
Sketchy
 70
    24
177
     3
291
     0
 70
    58
 90
        1
176
     1
 90
        2
176
     1
 90
        2
176
     1
 90
        0
176
     1
 40
0.6
176
     1
 40
30.0
176
     1
 62
     7
420
 16777215
176
     1
 90
        2
176
     1
 90
        2
176
     1
 62
     7
176
     1
 62
     7
176
     1
 90
        1
176
     1
 90
        1
176
     1
 40
40.0
176
     1
 90
       11
176
     1
 62
     7
176
     1
 40
1.0
176
     1
 90
        1
176
     1
 90
        6
176
     1
 90
        2
176
     1
 62
     7
176
     1
 90
        6
176
     1
 90
        0
176
     1
 90
        0
176
     1
290
     0
176
     1
 90
        1
176
     1
 40
0.0
176
     1
 90
        0
176
     1
290
     0
176
     1
290
     1
176
     1
290
     1
176
     1
290
     0
176
     1
290
     0
176
     1
290
     0
176
     1
290
     0
176
     1
290
     0
176
     1
290
     0
176
     1
 90
       50
176
     1
 40
0.0
176
     1
 40
1.0
176
     1
 90
        0
176
     1
 62
    18
420
        0
176
     1
 90
       50
176
     1
 90
        3
176
     1
 62
     5
420
      255
176
     1
290
     0
176
     1
 90
       50
176
     1
 90
       50
176
     1
 90
       50
176
     1
290
     0
176
     1
 90
       50
176
     1
 62
   256
176
     0
 40
1.0
176
     0
 90
        2
176
     1
  1
strokes_ogs.tif
176
     1
290
     0
176
     1
 40
1.0
176
     1
 40
1.0
176
     1
  0
VISUALSTYLE
  5
9D8
102
{ACAD_REACTORS
330
9CB
102
}
330
9CB
100
AcDbVisualStyle
  2
Thicken
 70
    13
177
     3
291
     1
 70
    58
 90
        2
176
     1
 90
        2
176
     1
 90
        0
176
     1
 90
        0
176
     1
 40
0.6
176
     1
 40
30.0
176
     1
 62
     7
420
 16777215
176
     1
 90
        1
176
     1
 90
        4
176
     1
 62
     7
176
     1
 62
   257
176
     1
 90
        1
176
     1
 90
        1
176
     1
 40
1.0
176
     1
 90
       12
176
     1
 62
     7
176
     1
 40
1.0
176
     1
 90
        1
176
     1
 90
        6
176
     1
 90
        2
176
     1
 62
     7
176
     1
 90
        5
176
     1
 90
        0
176
     1
 90
        0
176
     1
290
     0
176
     1
 90
        1
176
     1
 40
0.0
176
     1
 90
        0
176
     1
290
     0
176
     1
290
     1
176
     1
290
     1
176
     1
290
     0
176
     1
290
     0
176
     1
290
     0
176
     1
290
     0
176
     1
290
     0
176
     1
290
     0
176
     1
 90
       50
176
     1
 40
0.0
176
     1
 40
1.0
176
     1
 90
        0
176
     1
 62
    18
420
        0
176
     1
 90
       50
176
     1
 90
        3
176
     1
 62
     5
420
      255
176
     1
290
     0
176
     1
 90
       50
176
     1
 90
       50
176
     1
 90
       50
176
     1
290
     0
176
     1
 90
       50
176
     1
 62
   256
176
     0
 40
1.0
176
     0
 90
        2
176
     1
  1
strokes_ogs.tif
176
     1
290
     0
176
     1
 40
1.0
176
     1
 40
1.0
176
     1
  0
VISUALSTYLE
  5
9D1
102
{ACAD_REACTORS
330
9CB
102
}
330
9CB
100
AcDbVisualStyle
  2
Wireframe
 70
     5
177
     3
291
     0
 70
    58
 90
        0
176
     1
 90
        2
176
     1
 90
        0
176
     1
 90
        0
176
     1
 40
0.6
176
     1
 40
30.0
176
     1
 62
     7
420
 16777215
176
     1
 90
        1
176
     1
 90
        4
176
     1
 62
     7
176
     1
 62
   257
176
     1
 90
        1
176
     1
 90
        1
176
     1
 40
1.0
176
     1
 90
        0
176
     1
 62
   257
176
     1
 40
1.0
176
     1
 90
        1
176
     1
 90
        6
176
     1
 90
        2
176
     1
 62
     7
176
     1
 90
        3
176
     1
 90
        0
176
     1
 90
        0
176
     1
290
     0
176
     1
 90
        1
176
     1
 40
0.0
176
     1
 90
        0
176
     1
290
     0
176
     1
290
     1
176
     1
290
     1
176
     1
290
     0
176
     1
290
     0
176
     1
290
     0
176
     1
290
     0
176
     1
290
     0
176
     1
290
     0
176
     1
 90
       50
176
     1
 40
0.0
176
     1
 40
1.0
176
     1
 90
        0
176
     1
 62
    18
420
        0
176
     1
 90
       50
176
     1
 90
        3
176
     1
 62
     5
420
      255
176
     1
290
     0
176
     1
 90
       50
176
     1
 90
       50
176
     1
 90
       50
176
     1
290
     0
176
     1
 90
       50
176
     1
 62
   256
176
     0
 40
1.0
176
     0
 90
        2
176
     1
  1
strokes_ogs.tif
176
     1
290
     0
176
     1
 40
1.0
176
     1
 40
1.0
176
     1
  0
VISUALSTYLE
  5
9E1
102
{ACAD_REACTORS
330
9CB
102
}
330
9CB
100
AcDbVisualStyle
  2
X-Ray
 70
    25
177
     3
291
     0
 70
    58
 90
        2
176
     1
 90
        2
176
     1
 90
        1
176
     1
 90
        1
176
     1
 40
0.5
176
     1
 40
30.0
176
     1
 62
     7
420
 16777215
176
     1
 90
        1
176
     1
 90
        0
176
     1
 62
     7
176
     1
 62
   257
176
     1
 90
        1
176
     1
 90
        1
176
     1
 40
1.0
176
     1
 90
        8
176
     1
 62
     7
176
     1
 40
1.0
176
     1
 90
        1
176
     1
 90
        6
176
     1
 90
        2
176
     1
 62
     7
176
     1
 90
        3
176
     1
 90
        0
176
     1
 90
        0
176
     1
290
     0
176
     1
 90
       13
176
     1
 40
0.0
176
     1
 90
        0
176
     1
290
     0
176
     1
290
     1
176
     1
290
     1
176
     1
290
     0
176
     1
290
     0
176
     1
290
     0
176
     1
290
     0
176
     1
290
     0
176
     1
290
     0
176
     1
 90
       50
176
     1
 40
0.0
176
     1
 40
1.0
176
     1
 90
        0
176
     1
 62
    18
420
        0
176
     1
 90
       50
176
     1
 90
        3
176
     1
 62
     5
420
      255
176
     1
290
     0
176
     1
 90
       50
176
     1
 90
       50
176
     1
 90
       50
176
     1
290
     0
176
     1
 90
       50
176
     1
 62
   256
176
     0
 40
1.0
176
     0
 90
        2
176
     1
  1
strokes_ogs.tif
176
     1
290
     0
176
     1
 40
1.0
176
     1
 40
1.0
176
     1
  0
DICTIONARYVAR
  5
A8F
102
{ACAD_REACTORS
330
A8E
102
}
330
A8E
100
DictionaryVariables
280
     0
  1
1:1
  0
DICTIONARYVAR
  5
A94
102
{ACAD_REACTORS
330
A8E
102
}
330
A8E
100
DictionaryVariables
280
     0
  1
Standard
  0
DICTIONARYVAR
  5
A93
102
{ACAD_REACTORS
330
A8E
102
}
330
A8E
100
DictionaryVariables
280
     0
  1
Standard
  0
XRECORD
  5
A12
102
{ACAD_REACTORS
330
A10
102
}
330
A10
100
AcDbXrecord
280
     1
1000
#ffffff
  0
XRECORD
  5
A13
102
{ACAD_REACTORS
330
A10
102
}
330
A10
100
AcDbXrecord
280
     1
1000
FullColor
  0
XRECORD
  5
A14
102
{ACAD_REACTORS
330
A10
102
}
330
A10
100
AcDbXrecord
280
     1
290
     1
  0
XRECORD
  5
A15
102
{ACAD_REACTORS
330
A10
102
}
330
A10
100
AcDbXrecord
280
     1
290
     1
  0
XRECORD
  5
A16
102
{ACAD_REACTORS
330
A10
102
}
330
A10
100
AcDbXrecord
280
     1
290
     1
  0
XRECORD
  5
A17
102
{ACAD_REACTORS
330
A10
102
}
330
A10
100
AcDbXrecord
280
     1
290
     1
  0
XRECORD
  5
A18
102
{ACAD_REACTORS
330
A10
102
}
330
A10
100
AcDbXrecord
280
     1
1000
auto
  0
XRECORD
  5
A19
102
{ACAD_REACTORS
330
A10
102
}
330
A10
100
AcDbXrecord
280
     1
1000
auto
  0
XRECORD
  5
A1A
102
{ACAD_REACTORS
330
A10
102
}
330
A10
100
AcDbXrecord
280
     1
1000
auto
  0
XRECORD
  5
A1B
102
{ACAD_REACTORS
330
A10
102
}
330
A10
100
AcDbXrecord
280
     1
1000
auto
  0
XRECORD
  5
A1C
102
{ACAD_REACTORS
330
A10
102
}
330
A10
100
AcDbXrecord
280
     1
1000
auto
  0
XRECORD
  5
A1D
102
{ACAD_REACTORS
330
A10
102
}
330
A10
100
AcDbXrecord
280
     1
1000
auto
  0
XRECORD
  5
A1E
102
{ACAD_REACTORS
330
A10
102
}
330
A10
100
AcDbXrecord
280
     1
1000
auto
  0
XRECORD
  5
A1F
102
{ACAD_REACTORS
330
A10
102
}
330
A10
100
AcDbXrecord
280
     1
1000
auto
  0
XRECORD
  5
A20
102
{ACAD_REACTORS
330
A10
102
}
330
A10
100
AcDbXrecord
280
     1
290
     0
  0
XRECORD
  5
A21
102
{ACAD_REACTORS
330
A10
102
}
330
A10
100
AcDbXrecord
280
     1
290
     0
  0
XRECORD
  5
A22
102
{ACAD_REACTORS
330
A10
102
}
330
A10
100
AcDbXrecord
280
     1
290
     0
  0
XRECORD
  5
A23
102
{ACAD_REACTORS
330
A10
102
}
330
A10
100
AcDbXrecord
280
     1
290
     0
  0
XRECORD
  5
A24
102
{ACAD_REACTORS
330
A10
102
}
330
A10
100
AcDbXrecord
280
     1
 90
    65537
  0
XRECORD
  5
A25
102
{ACAD_REACTORS
330
A10
102
}
330
A10
100
AcDbXrecord
280
     1
 90
    65537
  0
XRECORD
  5
A26
102
{ACAD_REACTORS
330
A10
102
}
330
A10
100
AcDbXrecord
280
     1
 90
    65537
  0
XRECORD
  5
A27
102
{ACAD_REACTORS
330
A10
102
}
330
A10
100
AcDbXrecord
280
     1
 90
    65537
  0
XRECORD
  5
A28
102
{ACAD_REACTORS
330
A10
102
}
330
A10
100
AcDbXrecord
280
     1
1000
auto
  0
XRECORD
  5
A29
102
{ACAD_REACTORS
330
A10
102
}
330
A10
100
AcDbXrecord
280
     1
1000
auto
  0
XRECORD
  5
A2A
102
{ACAD_REACTORS
330
A10
102
}
330
A10
100
AcDbXrecord
280
     1
1000
auto
  0
XRECORD
  5
A2B
102
{ACAD_REACTORS
330
A10
102
}
330
A10
100
AcDbXrecord
280
     1
1000
auto
  0
XRECORD
  5
A2C
102
{ACAD_REACTORS
330
A10
102
}
330
A10
100
AcDbXrecord
280
     1
1000
auto
  0
XRECORD
  5
A2D
102
{ACAD_REACTORS
330
A10
102
}
330
A10
100
AcDbXrecord
280
     1
1000
auto
  0
XRECORD
  5
A2E
102
{ACAD_REACTORS
330
A10
102
}
330
A10
100
AcDbXrecord
280
     1
1000
auto
  0
XRECORD
  5
A2F
102
{ACAD_REACTORS
330
A10
102
}
330
A10
100
AcDbXrecord
280
     1
1000
auto
  0
XRECORD
  5
A30
102
{ACAD_REACTORS
330
A10
102
}
330
A10
100
AcDbXrecord
280
     1
 90
        1
  0
XRECORD
  5
A31
102
{ACAD_REACTORS
330
A10
102
}
330
A10
100
AcDbXrecord
280
     1
 40
10.0
  0
XRECORD
  5
A32
102
{ACAD_REACTORS
330
A10
102
}
330
A10
100
AcDbXrecord
280
     1
 40
10.0
  0
XRECORD
  5
A33
102
{ACAD_REACTORS
330
A10
102
}
330
A10
100
AcDbXrecord
280
     1
 40
10.0
  0
XRECORD
  5
A34
102
{ACAD_REACTORS
330
A10
102
}
330
A10
100
AcDbXrecord
280
     1
 40
10.0
  0
XRECORD
  5
A35
102
{ACAD_REACTORS
330
A10
102
}
330
A10
100
AcDbXrecord
280
     1
290
     0
  0
XRECORD
  5
A36
102
{ACAD_REACTORS
330
A10
102
}
330
A10
100
AcDbXrecord
280
     1
 90
        1
  0
XRECORD
  5
A37
102
{ACAD_REACTORS
330
A10
102
}
330
A10
100
AcDbXrecord
280
     1
 40
0.0
  0
XRECORD
  5
A38
102
{ACAD_REACTORS
330
A10
102
}
330
A10
100
AcDbXrecord
280
     1
 40
0.0
  0
XRECORD
  5
A39
102
{ACAD_REACTORS
330
A10
102
}
330
A10
100
AcDbXrecord
280
     1
1000
Portrait
  0
XRECORD
  5
A3A
102
{ACAD_REACTORS
330
A10
102
}
330
A10
100
AcDbXrecord
280
     1
 40
297.0
  0
XRECORD
  5
A3B
102
{ACAD_REACTORS
330
A10
102
}
330
A10
100
AcDbXrecord
280
     1
 40
210.0
  0
XRECORD
  5
A3C
102
{ACAD_REACTORS
330
A10
102
}
330
A10
100
AcDbXrecord
280
     1
1000
1:1
  0
XRECORD
  5
A3D
102
{ACAD_REACTORS
330
A10
102
}
330
A10
100
AcDbXrecord
280
     1
290
     1
  0
XRECORD
  5
A3E
102
{ACAD_REACTORS
330
A10
102
}
330
A10
100
AcDbXrecord
280
     1
1000
3.17.3
  0
XRECORD
  5
A3F
102
{ACAD_REACTORS
330
A10
102
}
330
A10
100
AcDbXrecord
280
     1
 90
        4
  0
XRECORD
  5
A40
102
{ACAD_REACTORS
330
A10
102
}
330
A10
100
AcDbXrecord
280
     1
  0
XRECORD
  5
A41
102
{ACAD_REACTORS
330
A10
102
}
330
A10
100
AcDbXrecord
280
     1
 40
237.4787518279369
  0
XRECORD
  5
A42
102
{ACAD_REACTORS
330
A10
102
}
330
A10
100
AcDbXrecord
280
     1
 40
300.446602691405
  0
DICTIONARY
  5
A90
330
A0B
100
AcDbDictionary
280
     1
281
     1
  3
ACAD_ROUNDTRIP_2008_TABLESTYLE_CELLSTYLEMAP
360
A91
  0
CELLSTYLEMAP
  5
A91
102
{ACAD_REACTORS
330
A90
102
}
330
A90
100
AcDbCellStyleMap
 90
        3
300
CELLSTYLE
  1
TABLEFORMAT_BEGIN
 90
        5
170
     1
 91
        0
 92
    32768
 62
   257
 93
        1
300
CONTENTFORMAT
  1
CONTENTFORMAT_BEGIN
 90
        0
 91
        0
 92
        4
 93
        0
300

 40
0.0
140
1.0
 94
        5
 62
     0
340
9B3
144
0.25
309
CONTENTFORMAT_END
171
     1
301
MARGIN
  1
CELLMARGIN_BEGIN
 40
0.06
 40
0.06
 40
0.06
 40
0.06
 40
0.06
 40
0.06
309
CELLMARGIN_END
 94
        6
 95
        1
302
GRIDFORMAT
  1
GRIDFORMAT_BEGIN
 90
        0
 91
        1
 62
     0
 92
       -2
340
9B5
 93
        0
 40
0.045
309
GRIDFORMAT_END
 95
        2
302
GRIDFORMAT
  1
GRIDFORMAT_BEGIN
 90
        0
 91
        1
 62
     0
 92
       -2
340
9B5
 93
        0
 40
0.045
309
GRIDFORMAT_END
 95
        4
302
GRIDFORMAT
  1
GRIDFORMAT_BEGIN
 90
        0
 91
        1
 62
     0
 92
       -2
340
9B5
 93
        0
 40
0.045
309
GRIDFORMAT_END
 95
        8
302
GRIDFORMAT
  1
GRIDFORMAT_BEGIN
 90
        0
 91
        1
 62
     0
 92
       -2
340
9B5
 93
        0
 40
0.045
309
GRIDFORMAT_END
 95
       16
302
GRIDFORMAT
  1
GRIDFORMAT_BEGIN
 90
        0
 91
        1
 62
     0
 92
       -2
340
9B5
 93
        0
 40
0.045
309
GRIDFORMAT_END
 95
       32
302
GRIDFORMAT
  1
GRIDFORMAT_BEGIN
 90
        0
 91
        1
 62
     0
 92
       -2
340
9B5
 93
        0
 40
0.045
309
GRIDFORMAT_END
309
TABLEFORMAT_END
  1
CELLSTYLE_BEGIN
 90
        1
 91
        1
300
_TITLE
309
CELLSTYLE_END
300
CELLSTYLE
  1
TABLEFORMAT_BEGIN
 90
        5
170
     1
 91
        0
 92
        0
 62
   257
 93
        1
300
CONTENTFORMAT
  1
CONTENTFORMAT_BEGIN
 90
        0
 91
        0
 92
        4
 93
        0
300

 40
0.0
140
1.0
 94
        5
 62
     0
340
9B3
144
0.18
309
CONTENTFORMAT_END
171
     1
301
MARGIN
  1
CELLMARGIN_BEGIN
 40
0.06
 40
0.06
 40
0.06
 40
0.06
 40
0.06
 40
0.06
309
CELLMARGIN_END
 94
        6
 95
        1
302
GRIDFORMAT
  1
GRIDFORMAT_BEGIN
 90
        0
 91
        1
 62
     0
 92
       -2
340
9B5
 93
        0
 40
0.045
309
GRIDFORMAT_END
 95
        2
302
GRIDFORMAT
  1
GRIDFORMAT_BEGIN
 90
        0
 91
        1
 62
     0
 92
       -2
340
9B5
 93
        0
 40
0.045
309
GRIDFORMAT_END
 95
        4
302
GRIDFORMAT
  1
GRIDFORMAT_BEGIN
 90
        0
 91
        1
 62
     0
 92
       -2
340
9B5
 93
        0
 40
0.045
309
GRIDFORMAT_END
 95
        8
302
GRIDFORMAT
  1
GRIDFORMAT_BEGIN
 90
        0
 91
        1
 62
     0
 92
       -2
340
9B5
 93
        0
 40
0.045
309
GRIDFORMAT_END
 95
       16
302
GRIDFORMAT
  1
GRIDFORMAT_BEGIN
 90
        0
 91
        1
 62
     0
 92
       -2
340
9B5
 93
        0
 40
0.045
309
GRIDFORMAT_END
 95
       32
302
GRIDFORMAT
  1
GRIDFORMAT_BEGIN
 90
        0
 91
        1
 62
     0
 92
       -2
340
9B5
 93
        0
 40
0.045
309
GRIDFORMAT_END
309
TABLEFORMAT_END
  1
CELLSTYLE_BEGIN
 90
        2
 91
        1
300
_HEADER
309
CELLSTYLE_END
300
CELLSTYLE
  1
TABLEFORMAT_BEGIN
 90
        5
170
     1
 91
        0
 92
        0
 62
   257
 93
        1
300
CONTENTFORMAT
  1
CONTENTFORMAT_BEGIN
 90
        0
 91
        0
 92
        4
 93
        0
300

 40
0.0
140
1.0
 94
        2
 62
     0
340
9B3
144
0.18
309
CONTENTFORMAT_END
171
     1
301
MARGIN
  1
CELLMARGIN_BEGIN
 40
0.06
 40
0.06
 40
0.06
 40
0.06
 40
0.06
 40
0.06
309
CELLMARGIN_END
 94
        6
 95
        1
302
GRIDFORMAT
  1
GRIDFORMAT_BEGIN
 90
        0
 91
        1
 62
     0
 92
       -2
340
9B5
 93
        0
 40
0.045
309
GRIDFORMAT_END
 95
        2
302
GRIDFORMAT
  1
GRIDFORMAT_BEGIN
 90
        0
 91
        1
 62
     0
 92
       -2
340
9B5
 93
        0
 40
0.045
309
GRIDFORMAT_END
 95
        4
302
GRIDFORMAT
  1
GRIDFORMAT_BEGIN
 90
        0
 91
        1
 62
     0
 92
       -2
340
9B5
 93
        0
 40
0.045
309
GRIDFORMAT_END
 95
        8
302
GRIDFORMAT
  1
GRIDFORMAT_BEGIN
 90
        0
 91
        1
 62
     0
 92
       -2
340
9B5
 93
        0
 40
0.045
309
GRIDFORMAT_END
 95
       16
302
GRIDFORMAT
  1
GRIDFORMAT_BEGIN
 90
        0
 91
        1
 62
     0
 92
       -2
340
9B5
 93
        0
 40
0.045
309
GRIDFORMAT_END
 95
       32
302
GRIDFORMAT
  1
GRIDFORMAT_BEGIN
 90
        0
 91
        1
 62
     0
 92
       -2
340
9B5
 93
        0
 40
0.045
309
GRIDFORMAT_END
309
TABLEFORMAT_END
  1
CELLSTYLE_BEGIN
 90
        3
 91
        2
300
_DATA
309
CELLSTYLE_END
  0
ENDSEC
  0
EOF
