  0
SECTION
  2
HEADER
  9
$ACADVER
  1
AC1014
  9
$ACADMAINTVER
 70
     9
  9
$DWGCODEPAGE
  3
MAC-ROMAN
  9
$INSBASE
 10
0.0
 20
0.0
 30
0.0
  9
$EXTMIN
 10
1.000000000000000E+20
 20
1.000000000000000E+20
 30
1.000000000000000E+20
  9
$EXTMAX
 10
-1.000000000000000E+20
 20
-1.000000000000000E+20
 30
-1.000000000000000E+20
  9
$LIMMIN
 10
0.0
 20
0.0
  9
$LIMMAX
 10
12.0
 20
9.0
  9
$ORTHOMODE
 70
     0
  9
$REGENMODE
 70
     1
  9
$FILLMODE
 70
     1
  9
$QTEXTMODE
 70
     0
  9
$MIRRTEXT
 70
     1
  9
$DRAGMODE
 70
     2
  9
$LTSCALE
 40
1.0
  9
$OSMODE
 70
    37
  9
$ATTMODE
 70
     1
  9
$TEXTSIZE
 40
0.2
  9
$TRACEWID
 40
0.05
  9
$TEXTSTYLE
  7
STANDARD
  9
$CLAYER
  8
0
  9
$CELTYPE
  6
BYLAYER
  9
$CECOLOR
 62
   256
  9
$CELTSCALE
 40
1.0
  9
$DELOBJ
 70
     1
  9
$DISPSILH
 70
     0
  9
$DIMSCALE
 40
1.0
  9
$DIMASZ
 40
0.18
  9
$DIMEXO
 40
0.0625
  9
$DIMDLI
 40
0.38
  9
$DIMRND
 40
0.0
  9
$DIMDLE
 40
0.0
  9
$DIMEXE
 40
0.18
  9
$DIMTP
 40
0.0
  9
$DIMTM
 40
0.0
  9
$DIMTXT
 40
0.18
  9
$DIMCEN
 40
0.09
  9
$DIMTSZ
 40
0.0
  9
$DIMTOL
 70
     0
  9
$DIMLIM
 70
     0
  9
$DIMTIH
 70
     1
  9
$DIMTOH
 70
     1
  9
$DIMSE1
 70
     0
  9
$DIMSE2
 70
     0
  9
$DIMTAD
 70
     0
  9
$DIMZIN
 70
     0
  9
$DIMBLK
  1

  9
$DIMASO
 70
     1
  9
$DIMSHO
 70
     1
  9
$DIMPOST
  1

  9
$DIMAPOST
  1

  9
$DIMALT
 70
     0
  9
$DIMALTD
 70
     2
  9
$DIMALTF
 40
25.4
  9
$DIMLFAC
 40
1.0
  9
$DIMTOFL
 70
     0
  9
$DIMTVP
 40
0.0
  9
$DIMTIX
 70
     0
  9
$DIMSOXD
 70
     0
  9
$DIMSAH
 70
     0
  9
$DIMBLK1
  1

  9
$DIMBLK2
  1

  9
$DIMSTYLE
  2
STANDARD
  9
$DIMCLRD
 70
     0
  9
$DIMCLRE
 70
     0
  9
$DIMCLRT
 70
     0
  9
$DIMTFAC
 40
1.0
  9
$DIMGAP
 40
0.09
  9
$DIMJUST
 70
     0
  9
$DIMSD1
 70
     0
  9
$DIMSD2
 70
     0
  9
$DIMTOLJ
 70
     1
  9
$DIMTZIN
 70
     0
  9
$DIMALTZ
 70
     0
  9
$DIMALTTZ
 70
     0
  9
$DIMFIT
 70
     3
  9
$DIMUPT
 70
     0
  9
$DIMUNIT
 70
     2
  9
$DIMDEC
 70
     4
  9
$DIMTDEC
 70
     4
  9
$DIMALTU
 70
     2
  9
$DIMALTTD
 70
     2
  9
$DIMTXSTY
  7
STANDARD
  9
$DIMAUNIT
 70
     0
  9
$LUNITS
 70
     2
  9
$LUPREC
 70
     4
  9
$SKETCHINC
 40
0.1
  9
$FILLETRAD
 40
0.5
  9
$AUNITS
 70
     0
  9
$AUPREC
 70
     0
  9
$MENU
  1
.
  9
$ELEVATION
 40
0.0
  9
$PELEVATION
 40
0.0
  9
$THICKNESS
 40
0.0
  9
$LIMCHECK
 70
     0
  9
$CHAMFERA
 40
0.0
  9
$CHAMFERB
 40
0.0
  9
$CHAMFERC
 40
0.0
  9
$CHAMFERD
 40
0.0
  9
$SKPOLY
 70
     0
  9
$TDCREATE
 40
2458339.930949074
  9
$TDUPDATE
 40
2458339.930949074
  9
$TDINDWG
 40
0.0000000116
  9
$TDUSRTIMER
 40
0.0000000116
  9
$USRTIMER
 70
     1
  9
$ANGBASE
 50
0.0
  9
$ANGDIR
 70
     0
  9
$PDMODE
 70
     0
  9
$PDSIZE
 40
0.0
  9
$PLINEWID
 40
0.0
  9
$COORDS
 70
     1
  9
$SPLFRAME
 70
     0
  9
$SPLINETYPE
 70
     6
  9
$SPLINESEGS
 70
     8
  9
$ATTDIA
 70
     0
  9
$ATTREQ
 70
     1
  9
$HANDLING
 70
     1
  9
$HANDSEED
  5
24D
  9
$SURFTAB1
 70
     6
  9
$SURFTAB2
 70
     6
  9
$SURFTYPE
 70
     6
  9
$SURFU
 70
     6
  9
$SURFV
 70
     6
  9
$UCSNAME
  2

  9
$UCSORG
 10
0.0
 20
0.0
 30
0.0
  9
$UCSXDIR
 10
1.0
 20
0.0
 30
0.0
  9
$UCSYDIR
 10
0.0
 20
1.0
 30
0.0
  9
$PUCSNAME
  2

  9
$PUCSORG
 10
0.0
 20
0.0
 30
0.0
  9
$PUCSXDIR
 10
1.0
 20
0.0
 30
0.0
  9
$PUCSYDIR
 10
0.0
 20
1.0
 30
0.0
  9
$USERI1
 70
     0
  9
$USERI2
 70
     0
  9
$USERI3
 70
     0
  9
$USERI4
 70
     0
  9
$USERI5
 70
     0
  9
$USERR1
 40
0.0
  9
$USERR2
 40
0.0
  9
$USERR3
 40
0.0
  9
$USERR4
 40
0.0
  9
$USERR5
 40
0.0
  9
$WORLDVIEW
 70
     1
  9
$SHADEDGE
 70
     3
  9
$SHADEDIF
 70
    70
  9
$TILEMODE
 70
     1
  9
$MAXACTVP
 70
    64
  9
$PINSBASE
 10
0.0
 20
0.0
 30
0.0
  9
$PLIMCHECK
 70
     0
  9
$PEXTMIN
 10
1.000000000000000E+20
 20
1.000000000000000E+20
 30
1.000000000000000E+20
  9
$PEXTMAX
 10
-1.000000000000000E+20
 20
-1.000000000000000E+20
 30
-1.000000000000000E+20
  9
$PLIMMIN
 10
0.0
 20
0.0
  9
$PLIMMAX
 10
12.0
 20
9.0
  9
$UNITMODE
 70
     0
  9
$VISRETAIN
 70
     1
  9
$PLINEGEN
 70
     0
  9
$PSLTSCALE
 70
     1
  9
$TREEDEPTH
 70
  3020
  9
$PICKSTYLE
 70
     1
  9
$CMLSTYLE
  2
STANDARD
  9
$CMLJUST
 70
     0
  9
$CMLSCALE
 40
1.0
  9
$PROXYGRAPHICS
 70
     1
  9
$MEASUREMENT
 70
     1
  0
ENDSEC
  0
SECTION
  2
CLASSES
  0
CLASS
  1
ACDBDICTIONARYWDFLT
  2
AcDbDictionaryWithDefault
  3
ObjectDBX Classes
 90
        0
280
     0
281
     0
  0
CLASS
  1
VISUALSTYLE
  2
AcDbVisualStyle
  3
ObjectDBX Classes
 90
     4095
280
     0
281
     0
  0
CLASS
  1
MATERIAL
  2
AcDbMaterial
  3
ObjectDBX Classes
 90
     1153
280
     0
281
     0
  0
CLASS
  1
SCALE
  2
AcDbScale
  3
ObjectDBX Classes
 90
     1153
280
     0
281
     0
  0
CLASS
  1
SUN
  2
AcDbSun
  3
SCENEOE
 90
     1153
280
     0
281
     0
  0
CLASS
  1
DICTIONARYVAR
  2
AcDbDictionaryVar
  3
ObjectDBX Classes
 90
        0
280
     0
281
     0
  0
CLASS
  1
XRECORD
  2
AcDbXrecord
  3
ObjectDBX Classes
 90
        0
280
     0
281
     0
  0
CLASS
  1
LWPOLYLINE
  2
AcDbPolyline
  3
ObjectDBX Classes
 90
        0
280
     0
281
     1
  0
CLASS
  1
HATCH
  2
AcDbHatch
  3
ObjectDBX Classes
 90
        0
280
     0
281
     1
  0
CLASS
  1
ACDBPLACEHOLDER
  2
AcDbPlaceHolder
  3
ObjectDBX Classes
 90
        0
280
     0
281
     0
  0
CLASS
  1
LAYOUT
  2
AcDbLayout
  3
ObjectDBX Classes
 90
        0
280
     0
281
     0
  0
ENDSEC
  0
SECTION
  2
TABLES
  0
TABLE
  2
VPORT
  5
8
102
{ACAD_XDICTIONARY
360
243
102
}
330
0
100
AcDbSymbolTable
 70
     1
  0
VPORT
  5
29
330
8
100
AcDbSymbolTableRecord
100
AcDbViewportTableRecord
  2
*ACTIVE
 70
     0
 10
0.0
 20
0.0
 11
1.0
 21
1.0
 12
0.0
 22
0.0
 13
0.0
 23
0.0
 14
0.5
 24
0.5
 15
0.5
 25
0.5
 16
0.0
 26
0.0
 36
1.0
 17
0.0
 27
0.0
 37
-1000.0
 40
157.2009653252019
 41
1.846153846153846
 42
50.0
 43
1022.870656520279
 44
2124.654264456365
 50
0.0
 51
0.0
 71
     0
 72
   100
 73
     1
 74
     3
 75
     0
 76
     0
 77
     0
 78
     0
  0
ENDTAB
  0
TABLE
  2
LTYPE
  5
5
330
0
100
AcDbSymbolTable
 70
     1
  0
LTYPE
  5
14
330
5
100
AcDbSymbolTableRecord
100
AcDbLinetypeTableRecord
  2
BYBLOCK
 70
     0
  3

 72
    65
 73
     0
 40
0.0
  0
LTYPE
  5
15
330
5
100
AcDbSymbolTableRecord
100
AcDbLinetypeTableRecord
  2
BYLAYER
 70
     0
  3

 72
    65
 73
     0
 40
0.0
  0
LTYPE
  5
16
330
5
100
AcDbSymbolTableRecord
100
AcDbLinetypeTableRecord
  2
CONTINUOUS
 70
     0
  3
Solid line
 72
    65
 73
     0
 40
0.0
  0
ENDTAB
  0
TABLE
  2
LAYER
  5
2
330
0
100
AcDbSymbolTable
 70
     3
  0
LAYER
  5
10
330
2
100
AcDbSymbolTableRecord
100
AcDbLayerTableRecord
  2
0
 70
     0
 62
     7
  6
CONTINUOUS
  0
LAYER
  5
6A
330
2
100
AcDbSymbolTableRecord
100
AcDbLayerTableRecord
  2
PROFILEEDGES
 70
     0
 62
     7
  6
CONTINUOUS
  0
LAYER
  5
6B
330
2
100
AcDbSymbolTableRecord
100
AcDbLayerTableRecord
  2
SECTIONCUTEDGES
 70
     0
 62
     7
  6
CONTINUOUS
  0
ENDTAB
  0
TABLE
  2
STYLE
  5
3
330
0
100
AcDbSymbolTable
 70
     1
  0
STYLE
  5
11
330
3
100
AcDbSymbolTableRecord
100
AcDbTextStyleTableRecord
  2
STANDARD
 70
     0
 40
0.0
 41
1.0
 50
0.0
 71
     0
 42
0.2
  3
txt
  4

  0
ENDTAB
  0
TABLE
  2
VIEW
  5
6
330
0
100
AcDbSymbolTable
 70
     0
  0
ENDTAB
  0
TABLE
  2
UCS
  5
7
330
0
100
AcDbSymbolTable
 70
     0
  0
ENDTAB
  0
TABLE
  2
APPID
  5
9
330
0
100
AcDbSymbolTable
 70
     1
  0
APPID
  5
12
330
9
100
AcDbSymbolTableRecord
100
AcDbRegAppTableRecord
  2
ACAD
 70
     0
  0
ENDTAB
  0
TABLE
  2
DIMSTYLE
  5
A
330
0
100
AcDbSymbolTable
 70
     1
  0
DIMSTYLE
105
27
330
A
100
AcDbSymbolTableRecord
100
AcDbDimStyleTableRecord
  2
STANDARD
 70
     0
  3

  4

  5

  6

  7

 40
1.0
 41
0.18
 42
0.0625
 43
0.38
 44
0.18
 45
0.0
 46
0.0
 47
0.0
 48
0.0
140
0.18
141
0.09
142
0.0
143
25.4
144
1.0
145
0.0
146
1.0
147
0.09
 71
     0
 72
     0
 73
     1
 74
     1
 75
     0
 76
     0
 77
     0
 78
     0
170
     0
171
     2
172
     0
173
     0
174
     0
175
     0
176
     0
177
     0
178
     0
270
     2
271
     4
272
     4
273
     2
274
     2
340
11
275
     0
280
     0
281
     0
282
     0
283
     1
284
     0
285
     0
286
     0
287
     3
288
     0
  0
ENDTAB
  0
TABLE
  2
BLOCK_RECORD
  5
1
330
0
100
AcDbSymbolTable
 70
     1
  0
BLOCK_RECORD
  5
1F
330
1
100
AcDbSymbolTableRecord
100
AcDbBlockTableRecord
  2
*MODEL_SPACE
  0
BLOCK_RECORD
  5
1B
330
1
100
AcDbSymbolTableRecord
100
AcDbBlockTableRecord
  2
*PAPER_SPACE
  0
ENDTAB
  0
ENDSEC
  0
SECTION
  2
BLOCKS
  0
BLOCK
  5
20
330
1F
100
AcDbEntity
  8
0
100
AcDbBlockBegin
  2
*MODEL_SPACE
 70
     0
 10
0.0
 20
0.0
 30
0.0
  3
*MODEL_SPACE
  1

  0
ENDBLK
  5
21
330
1F
100
AcDbEntity
  8
0
100
AcDbBlockEnd
  0
BLOCK
  5
1C
330
1B
100
AcDbEntity
 67
     1
  8
0
100
AcDbBlockBegin
  2
*PAPER_SPACE
 70
     0
 10
0.0
 20
0.0
 30
0.0
  3
*PAPER_SPACE
  1

  0
ENDBLK
  5
1D
330
1B
100
AcDbEntity
 67
     1
  8
0
100
AcDbBlockEnd
  0
ENDSEC
  0
SECTION
  2
ENTITIES
  0
LINE
  5
6C
330
1F
100
AcDbEntity
  8
0
100
AcDbLine
 10
-43.0899674301123
 20
-53.58860751004331
 30
0.0
 11
-42.9690041583719
 21
-53.37507747320718
 31
0.0
  0
LINE
  5
6D
330
1F
100
AcDbEntity
  8
0
100
AcDbLine
 10
20.45278156062822
 20
52.71985189901905
 30
0.0
 11
20.51175899454241
 21
52.69295103319917
 31
0.0
  0
LINE
  5
6E
330
1F
100
AcDbEntity
  8
0
100
AcDbLine
 10
-38.92569948000759
 20
-50.95161391314743
 30
0.0
 11
-38.68036110837058
 21
-50.94559119417329
 31
0.0
  0
LINE
  5
6F
330
1F
100
AcDbEntity
  8
0
100
AcDbLine
 10
20.79763859915402
 20
52.54052635685728
 30
0.0
 11
20.85284258691132
 21
52.50654821640391
 31
0.0
  0
LINE
  5
70
330
1F
100
AcDbEntity
  8
0
100
AcDbLine
 10
-40.13178449464285
 20
-51.16088951551225
 30
0.0
 11
-39.89526200788686
 21
-51.09543492820057
 31
0.0
  0
LINE
  5
71
330
1F
100
AcDbEntity
  8
0
100
AcDbLine
 10
-40.36481037533171
 20
-51.23787086825818
 30
0.0
 11
-40.13178449464285
 21
-51.16088951551225
 31
0.0
  0
LINE
  5
72
330
1F
100
AcDbEntity
  8
0
100
AcDbLine
 10
-39.41401348064736
 20
-50.99970864434938
 30
0.0
 11
-39.17044681001829
 21
-50.9696675608123
 31
0.0
  0
LINE
  5
73
330
1F
100
AcDbEntity
  8
0
100
AcDbLine
 10
-39.17044681001829
 20
-50.9696675608123
 30
0.0
 11
-38.92569948000759
 21
-50.95161391314743
 31
0.0
  0
LINE
  5
74
330
1F
100
AcDbEntity
  8
0
100
AcDbLine
 10
-39.89526200788686
 20
-51.09543492820057
 30
0.0
 11
-39.65581271845117
 21
-51.04166479215712
 31
0.0
  0
LINE
  5
75
330
1F
100
AcDbEntity
  8
0
100
AcDbLine
 10
-40.593778270196
 20
-51.32619353161685
 30
0.0
 11
-40.36481037533171
 21
-51.23787086825818
 31
0.0
  0
LINE
  5
76
330
1F
100
AcDbEntity
  8
0
100
AcDbLine
 10
-41.03734479250056
 20
-51.53598487243151
 30
0.0
 11
-40.81813657552195
 21
-51.42564472855607
 31
0.0
  0
LINE
  5
77
330
1F
100
AcDbEntity
  8
0
100
AcDbLine
 10
-40.81813657552195
 20
-51.42564472855607
 30
0.0
 11
-40.593778270196
 21
-51.32619353161685
 31
0.0
  0
LINE
  5
78
330
1F
100
AcDbEntity
  8
0
100
AcDbLine
 10
-42.21589501430328
 20
-52.41005728824056
 30
0.0
 11
-42.03815588260569
 21
-52.24083556739849
 31
0.0
  0
LINE
  5
79
330
1F
100
AcDbEntity
  8
0
100
AcDbLine
 10
-42.38511673514539
 20
-52.58779641993819
 30
0.0
 11
-42.21589501430328
 21
-52.41005728824056
 31
0.0
  0
LINE
  5
7A
330
1F
100
AcDbEntity
  8
0
100
AcDbLine
 10
-41.25087482933663
 20
-51.65694814417193
 30
0.0
 11
-41.03734479250056
 21
-51.53598487243151
 31
0.0
  0
LINE
  5
7B
330
1F
100
AcDbEntity
  8
0
100
AcDbLine
 10
-41.65885763083274
 20
-51.92955353677007
 30
0.0
 11
-41.45821227346857
 21
-51.78824313266056
 31
0.0
  0
LINE
  5
7C
330
1F
100
AcDbEntity
  8
0
100
AcDbLine
 10
21.58298290073057
 20
51.87026741575252
 30
0.0
 11
21.62419021968718
 21
51.82022791977801
 31
0.0
  0
LINE
  5
7D
330
1F
100
AcDbEntity
  8
0
100
AcDbLine
 10
22.28850419035021
 20
50.29318794334345
 30
0.0
 11
22.2970213663966
 21
50.2289271309834
 31
0.0
  0
LINE
  5
7E
330
1F
100
AcDbEntity
  8
0
100
AcDbLine
 10
21.06629986396583
 20
52.35946958377063
 30
0.0
 11
21.11771090585663
 21
52.3199866879211
 31
0.0
  0
LINE
  5
7F
330
1F
100
AcDbEntity
  8
0
100
AcDbLine
 10
21.40809861707594
 20
52.0616090490564
 30
0.0
 11
21.45329112625459
 21
52.01513721449914
 31
0.0
  0
LINE
  5
80
330
1F
100
AcDbEntity
  8
0
100
AcDbLine
 10
22.2261492849185
 20
50.61110663744526
 30
0.0
 11
22.2412393654507
 21
50.54806471676934
 31
0.0
  0
LINE
  5
81
330
1F
100
AcDbEntity
  8
0
100
AcDbLine
 10
22.00521509437168
 20
51.21931181369845
 30
0.0
 11
22.03290133187489
 21
51.16069896062083
 31
0.0
  0
LINE
  5
82
330
1F
100
AcDbEntity
  8
0
100
AcDbLine
 10
22.1920834984711
 20
50.73618945118005
 30
0.0
 11
22.20976167015248
 21
50.67382378322899
 31
0.0
  0
LINE
  5
83
330
1F
100
AcDbEntity
  8
0
100
AcDbLine
 10
20.68518646001592
 20
52.60502988002738
 30
0.0
 11
20.74174529099867
 21
52.57335823765087
 31
0.0
  0
LINE
  5
84
330
1F
100
AcDbEntity
  8
0
100
AcDbLine
 10
22.25502548687877
 20
50.48472486242038
 30
0.0
 11
22.26750177951638
 21
50.4211140424681
 31
0.0
  0
LINE
  5
85
330
1F
100
AcDbEntity
  8
0
100
AcDbLine
 10
-42.69639876577383
 20
-52.96709467171114
 30
0.0
 11
-42.54541337518428
 21
-52.77362477335507
 31
0.0
  0
LINE
  5
86
330
1F
100
AcDbEntity
  8
0
100
AcDbLine
 10
-42.03815588260569
 20
-52.24083556739849
 30
0.0
 11
-41.85232752918875
 21
-52.0805389273596
 31
0.0
  0
LINE
  5
87
330
1F
100
AcDbEntity
  8
0
100
AcDbLine
 10
-39.65581271845117
 20
-51.04166479215712
 30
0.0
 11
-39.41401348064736
 21
-50.99970864434938
 31
0.0
  0
LINE
  5
88
330
1F
100
AcDbEntity
  8
0
100
AcDbLine
 10
-42.54541337518428
 20
-52.77362477335507
 30
0.0
 11
-42.38511673514539
 21
-52.58779641993819
 31
0.0
  0
LINE
  5
89
330
1F
100
AcDbEntity
  8
0
100
AcDbLine
 10
20.74174529099867
 20
52.57335823765087
 30
0.0
 11
20.79763859915402
 21
52.54052635685728
 31
0.0
  0
LINE
  5
8A
330
1F
100
AcDbEntity
  8
0
100
AcDbLine
 10
21.36195687328751
 20
52.10713853151703
 30
0.0
 11
21.40809861707594
 21
52.0616090490564
 31
0.0
  0
LINE
  5
8B
330
1F
100
AcDbEntity
  8
0
100
AcDbLine
 10
-42.83770916988333
 20
-53.16774002907529
 30
0.0
 11
-42.69639876577383
 21
-52.96709467171114
 31
0.0
  0
LINE
  5
8C
330
1F
100
AcDbEntity
  8
0
100
AcDbLine
 10
-41.45821227346857
 20
-51.78824313266056
 30
0.0
 11
-41.25087482933663
 21
-51.65694814417193
 31
0.0
  0
LINE
  5
8D
330
1F
100
AcDbEntity
  8
0
100
AcDbLine
 10
-41.85232752918875
 20
-52.0805389273596
 30
0.0
 11
-41.65885763083274
 21
-51.92955353677007
 31
0.0
  0
LINE
  5
8E
330
1F
100
AcDbEntity
  8
0
100
AcDbLine
 10
21.77843834687485
 20
51.61189249656847
 30
0.0
 11
21.81427299566079
 21
51.55787516380062
 31
0.0
  0
LINE
  5
8F
330
1F
100
AcDbEntity
  8
0
100
AcDbLine
 10
21.11771090585663
 20
52.3199866879211
 30
0.0
 11
21.16829635087151
 21
52.27945143109896
 31
0.0
  0
LINE
  5
90
330
1F
100
AcDbEntity
  8
0
100
AcDbLine
 10
20.85284258691132
 20
52.50654821640391
 30
0.0
 11
20.90733375019087
 21
52.47143828308845
 31
0.0
  0
LINE
  5
91
330
1F
100
AcDbEntity
  8
0
100
AcDbLine
 10
20.57016882638591
 20
52.66483901020207
 30
0.0
 11
20.62798618713365
 21
52.63552779922165
 31
0.0
  0
LINE
  5
92
330
1F
100
AcDbEntity
  8
0
100
AcDbLine
 10
20.27269589746365
 20
52.79317562559009
 30
0.0
 11
20.33322456032894
 21
52.76997486558682
 31
0.0
  0
LINE
  5
93
330
1F
100
AcDbEntity
  8
0
100
AcDbLine
 10
20.15026709110424
 20
52.8358063125597
 30
0.0
 11
20.21170141789406
 21
52.81512255601305
 31
0.0
  0
LINE
  5
94
330
1F
100
AcDbEntity
  8
0
100
AcDbLine
 10
19.90065702159735
 20
52.90574161484265
 30
0.0
 11
19.96358746445944
 21
52.89019318552901
 31
0.0
  0
LINE
  5
95
330
1F
100
AcDbEntity
  8
0
100
AcDbLine
 10
21.31488554055732
 20
52.15170627689396
 30
0.0
 11
21.36195687328751
 21
52.10713853151703
 31
0.0
  0
LINE
  5
96
330
1F
100
AcDbEntity
  8
0
100
AcDbLine
 10
19.90065702159735
 20
52.90574161484265
 30
0.0
 11
19.83958535724692
 21
52.76796614769125
 31
0.0
  0
LINE
  5
97
330
1F
100
AcDbEntity
  8
0
100
AcDbLine
 10
21.70346403781665
 20
51.71765185113973
 30
0.0
 11
21.74149678475095
 21
51.66515895206182
 31
0.0
  0
LINE
  5
98
330
1F
100
AcDbEntity
  8
0
100
AcDbLine
 10
21.66435629919032
 20
51.76934884401657
 30
0.0
 11
21.70346403781665
 21
51.71765185113973
 31
0.0
  0
LINE
  5
99
330
1F
100
AcDbEntity
  8
0
100
AcDbLine
 10
20.51175899454241
 20
52.69295103319917
 30
0.0
 11
20.57016882638591
 21
52.66483901020207
 31
0.0
  0
LINE
  5
9A
330
1F
100
AcDbEntity
  8
0
100
AcDbLine
 10
20.90733375019087
 20
52.47143828308845
 30
0.0
 11
20.96108888841065
 21
52.43521150558959
 31
0.0
  0
LINE
  5
9B
330
1F
100
AcDbEntity
  8
0
100
AcDbLine
 10
21.84898547387009
 20
51.50312995259859
 30
0.0
 11
21.8825610020472
 21
51.4476801717099
 31
0.0
  0
LINE
  5
9C
330
1F
100
AcDbEntity
  8
0
100
AcDbLine
 10
21.01408511436427
 20
52.39788330810227
 30
0.0
 11
21.06629986396583
 21
52.35946958377063
 31
0.0
  0
LINE
  5
9D
330
1F
100
AcDbEntity
  8
0
100
AcDbLine
 10
21.74149678475095
 20
51.66515895206182
 30
0.0
 11
21.77843834687485
 21
51.61189249656847
 31
0.0
  0
LINE
  5
9E
330
1F
100
AcDbEntity
  8
0
100
AcDbLine
 10
21.16829635087151
 20
52.27945143109896
 30
0.0
 11
21.21803466135686
 21
52.23788107191088
 31
0.0
  0
LINE
  5
9F
330
1F
100
AcDbEntity
  8
0
100
AcDbLine
 10
20.96108888841065
 20
52.43521150558959
 30
0.0
 11
21.01408511436427
 21
52.39788330810227
 31
0.0
  0
LINE
  5
A0
330
1F
100
AcDbEntity
  8
0
100
AcDbLine
 10
20.39326163533474
 20
52.74553015413958
 30
0.0
 11
20.45278156062822
 21
52.71985189901905
 31
0.0
  0
LINE
  5
A1
330
1F
100
AcDbEntity
  8
0
100
AcDbLine
 10
22.31006952959622
 20
50.09994676993877
 30
0.0
 11
22.3145949612617
 21
50.03528213693726
 31
0.0
  0
LINE
  5
A2
330
1F
100
AcDbEntity
  8
0
100
AcDbLine
 10
22.31778520137334
 20
49.9705378965679
 30
0.0
 11
22.31963889162972
 21
49.9057416148427
 31
0.0
  0
LINE
  5
A3
330
1F
100
AcDbEntity
  8
0
100
AcDbLine
 10
22.03290133187489
 20
51.16069896062083
 30
0.0
 11
22.05937231389759
 21
51.1015273339428
 31
0.0
  0
LINE
  5
A4
330
1F
100
AcDbEntity
  8
0
100
AcDbLine
 10
22.08461676994895
 20
51.04182212703706
 30
0.0
 11
22.10862395175192
 21
50.98160876045752
 31
0.0
  0
LINE
  5
A5
330
1F
100
AcDbEntity
  8
0
100
AcDbLine
 10
21.81427299566079
 20
51.55787516380062
 30
0.0
 11
21.84898547387009
 21
51.50312995259859
 31
0.0
  0
LINE
  5
A6
330
1F
100
AcDbEntity
  8
0
100
AcDbLine
 10
19.96358746445944
 20
52.89019318552901
 30
0.0
 11
20.0261836990314
 21
52.8733496196831
 31
0.0
  0
LINE
  5
A7
330
1F
100
AcDbEntity
  8
0
100
AcDbLine
 10
22.17312229667026
 20
50.79817708800588
 30
0.0
 11
22.1920834984711
 21
50.73618945118005
 31
0.0
  0
LINE
  5
A8
330
1F
100
AcDbEntity
  8
0
100
AcDbLine
 10
20.08841907385223
 20
52.85521808875271
 30
0.0
 11
20.15026709110424
 21
52.8358063125597
 31
0.0
  0
LINE
  5
A9
330
1F
100
AcDbEntity
  8
0
100
AcDbLine
 10
22.15288613781951
 20
50.85976030136742
 30
0.0
 11
22.17312229667026
 21
50.79817708800588
 31
0.0
  0
LINE
  5
AA
330
1F
100
AcDbEntity
  8
0
100
AcDbLine
 10
22.20976167015248
 20
50.67382378322899
 30
0.0
 11
22.2261492849185
 21
50.61110663744526
 31
0.0
  0
LINE
  5
AB
330
1F
100
AcDbEntity
  8
0
100
AcDbLine
 10
20.0261836990314
 20
52.8733496196831
 30
0.0
 11
20.08841907385223
 21
52.85521808875271
 31
0.0
  0
LINE
  5
AC
330
1F
100
AcDbEntity
  8
0
100
AcDbLine
 10
21.45329112625459
 20
52.01513721449914
 30
0.0
 11
21.49751515930853
 21
51.96774281405547
 31
0.0
  0
LINE
  5
AD
330
1F
100
AcDbEntity
  8
0
100
AcDbLine
 10
-43.20030757398781
 20
-53.80781572702189
 30
0.0
 11
-43.0899674301123
 21
-53.58860751004331
 31
0.0
  0
LINE
  5
AE
330
1F
100
AcDbEntity
  8
0
100
AcDbLine
 10
22.2970213663966
 20
50.2289271309834
 30
0.0
 11
22.30421083315974
 21
50.16450426345457
 31
0.0
  0
LINE
  5
AF
330
1F
100
AcDbEntity
  8
0
100
AcDbLine
 10
21.21803466135686
 20
52.23788107191088
 30
0.0
 11
21.26690466034256
 21
52.19529330967675
 31
0.0
  0
LINE
  5
B0
330
1F
100
AcDbEntity
  8
0
100
AcDbLine
 10
21.26690466034256
 20
52.19529330967675
 30
0.0
 11
21.31488554055732
 21
52.15170627689396
 31
0.0
  0
LINE
  5
B1
330
1F
100
AcDbEntity
  8
0
100
AcDbLine
 10
-42.9690041583719
 20
-53.37507747320718
 30
0.0
 11
-42.83770916988333
 21
-53.16774002907529
 31
0.0
  0
LINE
  5
B2
330
1F
100
AcDbEntity
  8
0
100
AcDbLine
 10
21.49751515930853
 20
51.96774281405547
 30
0.0
 11
21.54075188706924
 21
51.91944602673446
 31
0.0
  0
LINE
  5
B3
330
1F
100
AcDbEntity
  8
0
100
AcDbLine
 10
22.30421083315974
 20
50.16450426345457
 30
0.0
 11
22.31006952959622
 21
50.09994676993877
 31
0.0
  0
LINE
  5
B4
330
1F
100
AcDbEntity
  8
0
100
AcDbLine
 10
20.62798618713365
 20
52.63552779922165
 30
0.0
 11
20.68518646001592
 21
52.60502988002738
 31
0.0
  0
LINE
  5
B5
330
1F
100
AcDbEntity
  8
0
100
AcDbLine
 10
20.33322456032894
 20
52.76997486558682
 30
0.0
 11
20.39326163533474
 21
52.74553015413958
 31
0.0
  0
LINE
  5
B6
330
1F
100
AcDbEntity
  8
0
100
AcDbLine
 10
22.13138363782261
 20
50.92091287111609
 30
0.0
 11
22.15288613781951
 21
50.85976030136742
 31
0.0
  0
LINE
  5
B7
330
1F
100
AcDbEntity
  8
0
100
AcDbLine
 10
22.10862395175192
 20
50.98160876045752
 30
0.0
 11
22.13138363782261
 21
50.92091287111609
 31
0.0
  0
LINE
  5
B8
330
1F
100
AcDbEntity
  8
0
100
AcDbLine
 10
21.94624451695521
 20
51.33476162572622
 30
0.0
 11
21.97632538929653
 21
51.27734093771087
 31
0.0
  0
LINE
  5
B9
330
1F
100
AcDbEntity
  8
0
100
AcDbLine
 10
22.2412393654507
 20
50.54806471676934
 30
0.0
 11
22.25502548687877
 21
50.48472486242038
 31
0.0
  0
LINE
  5
BA
330
1F
100
AcDbEntity
  8
0
100
AcDbLine
 10
21.8825610020472
 20
51.4476801717099
 30
0.0
 11
21.91498528481396
 21
51.39154942986518
 31
0.0
  0
LINE
  5
BB
330
1F
100
AcDbEntity
  8
0
100
AcDbLine
 10
21.91498528481396
 20
51.39154942986518
 30
0.0
 11
21.94624451695521
 21
51.33476162572622
 31
0.0
  0
LINE
  5
BC
330
1F
100
AcDbEntity
  8
0
100
AcDbLine
 10
20.21170141789406
 20
52.81512255601305
 30
0.0
 11
20.27269589746365
 21
52.79317562559009
 31
0.0
  0
LINE
  5
BD
330
1F
100
AcDbEntity
  8
0
100
AcDbLine
 10
22.27866293135974
 20
50.35725934035068
 30
0.0
 11
22.28850419035021
 21
50.29318794334345
 31
0.0
  0
LINE
  5
BE
330
1F
100
AcDbEntity
  8
0
100
AcDbLine
 10
22.3145949612617
 20
50.03528213693726
 30
0.0
 11
22.31778520137334
 21
49.9705378965679
 31
0.0
  0
LINE
  5
BF
330
1F
100
AcDbEntity
  8
0
100
AcDbLine
 10
22.26750177951638
 20
50.4211140424681
 30
0.0
 11
22.27866293135974
 21
50.35725934035068
 31
0.0
  0
LINE
  5
C0
330
1F
100
AcDbEntity
  8
0
100
AcDbLine
 10
21.97632538929653
 20
51.27734093771087
 30
0.0
 11
22.00521509437168
 21
51.21931181369845
 31
0.0
  0
LINE
  5
C1
330
1F
100
AcDbEntity
  8
0
100
AcDbLine
 10
22.05937231389759
 20
51.1015273339428
 30
0.0
 11
22.08461676994895
 21
51.04182212703706
 31
0.0
  0
LINE
  5
C2
330
1F
100
AcDbEntity
  8
0
100
AcDbLine
 10
21.62419021968718
 20
51.82022791977801
 30
0.0
 11
21.66435629919032
 21
51.76934884401657
 31
0.0
  0
LINE
  5
C3
330
1F
100
AcDbEntity
  8
0
100
AcDbLine
 10
21.54075188706924
 20
51.91944602673446
 30
0.0
 11
21.58298290073057
 21
51.87026741575252
 31
0.0
  0
LINE
  5
C4
330
1F
100
AcDbEntity
  8
0
100
AcDbLine
 10
-44.21307405330003
 20
52.50593365516534
 30
0.0
 11
-44.2675365349981
 21
52.47080571175733
 31
0.0
  0
LINE
  5
C5
330
1F
100
AcDbEntity
  8
0
100
AcDbLine
 10
-44.47780716555006
 20
52.31930403767273
 30
0.0
 11
-44.52836841727181
 21
52.27876153965985
 31
0.0
  0
LINE
  5
C6
330
1F
100
AcDbEntity
  8
0
100
AcDbLine
 10
-45.68036110837025
 20
49.90574161484288
 30
0.0
 11
-45.68036110837052
 21
-50.94559119417327
 31
0.0
  0
LINE
  5
C7
330
1F
100
AcDbEntity
  8
0
100
AcDbLine
 10
-45.24244769165922
 20
51.44712908760783
 30
0.0
 11
-45.27487764886422
 21
51.39101819564849
 31
0.0
  0
LINE
  5
C8
330
1F
100
AcDbEntity
  8
0
100
AcDbLine
 10
-45.49140122308625
 20
50.92056356336442
 30
0.0
 11
-45.51292976545701
 21
50.85943536868979
 31
0.0
  0
LINE
  5
C9
330
1F
100
AcDbEntity
  8
0
100
AcDbLine
 10
-45.53319434383974
 20
50.79787660665093
 30
0.0
 11
-45.55218635574629
 21
50.73591340947285
 31
0.0
  0
LINE
  5
CA
330
1F
100
AcDbEntity
  8
0
100
AcDbLine
 10
-45.58632097467796
 20
50.61087908586396
 30
0.0
 11
-45.60144909126316
 21
50.54786103758114
 31
0.0
  0
LINE
  5
CB
330
1F
100
AcDbEntity
  8
0
100
AcDbLine
 10
-45.27487764886422
 20
51.39101819564849
 30
0.0
 11
-45.30614469725629
 21
51.3342510748334
 31
0.0
  0
LINE
  5
CC
330
1F
100
AcDbEntity
  8
0
100
AcDbLine
 10
-45.44458933527176
 20
51.04142464663442
 30
0.0
 11
-45.46861785577915
 21
50.98123524122936
 31
0.0
  0
LINE
  5
CD
330
1F
100
AcDbEntity
  8
0
100
AcDbLine
 10
-45.41932586187791
 20
51.10110622865827
 30
0.0
 11
-45.44458933527176
 21
51.04142464663442
 31
0.0
  0
LINE
  5
CE
330
1F
100
AcDbEntity
  8
0
100
AcDbLine
 10
-45.3651374743753
 20
51.21884480750909
 30
0.0
 11
-45.39283816015988
 21
51.16025465195499
 31
0.0
  0
LINE
  5
CF
330
1F
100
AcDbEntity
  8
0
100
AcDbLine
 10
-43.3242807702879
 20
52.89013611584052
 30
0.0
 11
-43.38684743861139
 21
52.87323799950518
 31
0.0
  0
LINE
  5
D0
330
1F
100
AcDbEntity
  8
0
100
AcDbLine
 10
-34.09934297840292
 20
52.9057416148427
 30
0.0
 11
-34.16041464275316
 21
52.76796614769141
 31
0.0
  0
LINE
  5
D1
330
1F
100
AcDbEntity
  8
0
100
AcDbLine
 10
-44.85745332195392
 20
51.96705580821068
 30
0.0
 11
-44.90067679320497
 21
51.91876641130203
 31
0.0
  0
LINE
  5
D2
330
1F
100
AcDbEntity
  8
0
100
AcDbLine
 10
-43.2613792383377
 20
52.90574161484281
 30
0.0
 11
-43.3242807702879
 21
52.89013611584052
 31
0.0
  0
LINE
  5
D3
330
1F
100
AcDbEntity
  8
0
100
AcDbLine
 10
-45.60144909126316
 20
50.54786103758114
 30
0.0
 11
-45.61527566664358
 21
50.48454468792293
 31
0.0
  0
LINE
  5
D4
330
1F
100
AcDbEntity
  8
0
100
AcDbLine
 10
-45.46861785577915
 20
50.98123524122936
 30
0.0
 11
-45.49140122308625
 21
50.92056356336442
 31
0.0
  0
LINE
  5
D5
330
1F
100
AcDbEntity
  8
0
100
AcDbLine
 10
-45.06335305653301
 20
51.71701674296838
 30
0.0
 11
-45.101381391436
 21
51.66453836584699
 31
0.0
  0
LINE
  5
D6
330
1F
100
AcDbEntity
  8
0
100
AcDbLine
 10
-45.39283816015988
 20
51.16025465195499
 30
0.0
 11
-45.41932586187791
 21
51.10110622865827
 31
0.0
  0
LINE
  5
D7
330
1F
100
AcDbEntity
  8
0
100
AcDbLine
 10
-45.101381391436
 20
51.66453836584699
 30
0.0
 11
-45.13832046818276
 21
51.61128764820026
 31
0.0
  0
LINE
  5
D8
330
1F
100
AcDbEntity
  8
0
100
AcDbLine
 10
-45.33623556370411
 20
51.27685182329461
 30
0.0
 11
-45.3651374743753
 21
51.21884480750909
 31
0.0
  0
LINE
  5
D9
330
1F
100
AcDbEntity
  8
0
100
AcDbLine
 10
-43.69373382755664
 20
52.76962825514133
 30
0.0
 11
-43.75373931303783
 21
52.74514405548189
 31
0.0
  0
LINE
  5
DA
330
1F
100
AcDbEntity
  8
0
100
AcDbLine
 10
-43.51087009744636
 20
52.8355931541015
 30
0.0
 11
-43.57227343927016
 21
52.81486240559449
 31
0.0
  0
LINE
  5
DB
330
1F
100
AcDbEntity
  8
0
100
AcDbLine
 10
-45.1741546058168
 20
51.55728719541679
 30
0.0
 11
-45.20886859243772
 21
51.50255993115422
 31
0.0
  0
LINE
  5
DC
330
1F
100
AcDbEntity
  8
0
100
AcDbLine
 10
-45.56989773890406
 20
50.67357208106679
 30
0.0
 11
-45.58632097467796
 21
50.61087908586396
 31
0.0
  0
LINE
  5
DD
330
1F
100
AcDbEntity
  8
0
100
AcDbLine
 10
10.7386207616622
 20
52.9057416148427
 30
0.0
 11
-34.09934297840292
 21
52.9057416148427
 31
0.0
  0
LINE
  5
DE
330
1F
100
AcDbEntity
  8
0
100
AcDbLine
 10
-44.32126373286797
 20
52.43456316038682
 30
0.0
 11
-44.37423283925104
 21
52.39722138632924
 31
0.0
  0
LINE
  5
DF
330
1F
100
AcDbEntity
  8
0
100
AcDbLine
 10
-45.66469946392976
 20
50.16443295257291
 30
0.0
 11
-45.67061303181016
 21
50.09989487051498
 31
0.0
  0
LINE
  5
E0
330
1F
100
AcDbEntity
  8
0
100
AcDbLine
 10
-45.51292976545701
 20
50.85943536868979
 30
0.0
 11
-45.53319434383974
 21
50.79787660665093
 31
0.0
  0
LINE
  5
E1
330
1F
100
AcDbEntity
  8
0
100
AcDbLine
 10
-45.62779483131889
 20
50.42095691522549
 30
0.0
 11
-45.63900127079577
 21
50.35712471304632
 31
0.0
  0
LINE
  5
E2
330
1F
100
AcDbEntity
  8
0
100
AcDbLine
 10
-45.55218635574629
 20
50.73591340947285
 30
0.0
 11
-45.56989773890406
 21
50.67357208106679
 31
0.0
  0
LINE
  5
E3
330
1F
100
AcDbEntity
  8
0
100
AcDbLine
 10
-43.38684743861139
 20
52.87323799950518
 30
0.0
 11
-43.44905268321843
 21
52.85505443923282
 31
0.0
  0
LINE
  5
E4
330
1F
100
AcDbEntity
  8
0
100
AcDbLine
 10
-45.67061303181016
 20
50.09989487051498
 30
0.0
 11
-45.67519569779702
 21
50.03524865258042
 31
0.0
  0
LINE
  5
E5
330
1F
100
AcDbEntity
  8
0
100
AcDbLine
 10
-43.57227343927016
 20
52.81486240559449
 30
0.0
 11
-43.63323664244197
 21
52.79287099409319
 31
0.0
  0
LINE
  5
E6
330
1F
100
AcDbEntity
  8
0
100
AcDbLine
 10
-45.64889022784409
 20
50.29307517870541
 30
0.0
 11
-45.65745750451639
 21
50.22883550178212
 31
0.0
  0
LINE
  5
E7
330
1F
100
AcDbEntity
  8
0
100
AcDbLine
 10
-45.61527566664358
 20
50.48454468792293
 30
0.0
 11
-45.62779483131889
 21
50.42095691522549
 31
0.0
  0
LINE
  5
E8
330
1F
100
AcDbEntity
  8
0
100
AcDbLine
 10
-45.65745750451639
 20
50.22883550178212
 30
0.0
 11
-45.66469946392976
 21
50.16443295257291
 31
0.0
  0
LINE
  5
E9
330
1F
100
AcDbEntity
  8
0
100
AcDbLine
 10
-44.7219441358562
 20
52.10643935160022
 30
0.0
 11
-44.76806802086421
 21
52.06091219978332
 31
0.0
  0
LINE
  5
EA
330
1F
100
AcDbEntity
  8
0
100
AcDbLine
 10
-43.44905268321843
 20
52.85505443923282
 30
0.0
 11
-43.51087009744636
 21
52.8355931541015
 31
0.0
  0
LINE
  5
EB
330
1F
100
AcDbEntity
  8
0
100
AcDbLine
 10
-38.68036110837058
 20
-50.94559119417329
 30
0.0
 11
-36.68036110837049
 21
-50.94559119417329
 31
0.0
  0
LINE
  5
EC
330
1F
100
AcDbEntity
  8
0
100
AcDbLine
 10
-44.62693178853557
 20
52.19459494215788
 30
0.0
 11
-44.67489206707703
 21
52.15100657211481
 31
0.0
  0
LINE
  5
ED
330
1F
100
AcDbEntity
  8
0
100
AcDbLine
 10
-44.98409364122831
 20
51.8195677028639
 30
0.0
 11
-45.02425160682971
 21
51.76870050204108
 31
0.0
  0
LINE
  5
EE
330
1F
100
AcDbEntity
  8
0
100
AcDbLine
 10
-43.63323664244197
 20
52.79287099409319
 30
0.0
 11
-43.69373382755664
 21
52.76962825514133
 31
0.0
  0
LINE
  5
EF
330
1F
100
AcDbEntity
  8
0
100
AcDbLine
 10
-44.94289620713143
 20
51.86959675187171
 30
0.0
 11
-44.98409364122831
 21
51.8195677028639
 31
0.0
  0
LINE
  5
F0
330
1F
100
AcDbEntity
  8
0
100
AcDbLine
 10
-45.30614469725629
 20
51.3342510748334
 30
0.0
 11
-45.33623556370411
 21
51.27685182329461
 31
0.0
  0
LINE
  5
F1
330
1F
100
AcDbEntity
  8
0
100
AcDbLine
 10
-45.20886859243772
 20
51.50255993115422
 30
0.0
 11
-45.24244769165922
 21
51.44712908760783
 31
0.0
  0
LINE
  5
F2
330
1F
100
AcDbEntity
  8
0
100
AcDbLine
 10
-45.63900127079577
 20
50.35712471304632
 30
0.0
 11
-45.64889022784409
 21
50.29307517870541
 31
0.0
  0
LINE
  5
F3
330
1F
100
AcDbEntity
  8
0
100
AcDbLine
 10
-43.98833815909791
 20
52.63500833579749
 30
0.0
 11
-44.0455076048211
 21
52.60448312004895
 31
0.0
  0
LINE
  5
F4
330
1F
100
AcDbEntity
  8
0
100
AcDbLine
 10
-44.15789940756669
 20
52.53993207849613
 30
0.0
 11
-44.21307405330003
 21
52.50593365516534
 31
0.0
  0
LINE
  5
F5
330
1F
100
AcDbEntity
  8
0
100
AcDbLine
 10
-44.2675365349981
 20
52.47080571175733
 30
0.0
 11
-44.32126373286797
 21
52.43456316038682
 31
0.0
  0
LINE
  5
F6
330
1F
100
AcDbEntity
  8
0
100
AcDbLine
 10
-44.42642136830522
 20
52.3587962414895
 30
0.0
 11
-44.47780716555006
 21
52.31930403767273
 31
0.0
  0
LINE
  5
F7
330
1F
100
AcDbEntity
  8
0
100
AcDbLine
 10
-44.37423283925104
 20
52.39722138632924
 30
0.0
 11
-44.42642136830522
 21
52.3587962414895
 31
0.0
  0
LINE
  5
F8
330
1F
100
AcDbEntity
  8
0
100
AcDbLine
 10
-43.87217351326056
 20
52.69249337165392
 30
0.0
 11
-43.93055195166341
 21
52.66434923815447
 31
0.0
  0
LINE
  5
F9
330
1F
100
AcDbEntity
  8
0
100
AcDbLine
 10
-45.67844551650912
 20
49.97052174164587
 30
0.0
 11
-45.68036110837025
 21
49.90574161484288
 31
0.0
  0
LINE
  5
FA
330
1F
100
AcDbEntity
  8
0
100
AcDbLine
 10
-45.13832046818276
 20
51.61128764820026
 30
0.0
 11
-45.1741546058168
 21
51.55728719541679
 31
0.0
  0
LINE
  5
FB
330
1F
100
AcDbEntity
  8
0
100
AcDbLine
 10
-45.67519569779702
 20
50.03524865258042
 30
0.0
 11
-45.67844551650912
 21
49.97052174164587
 31
0.0
  0
LINE
  5
FC
330
1F
100
AcDbEntity
  8
0
100
AcDbLine
 10
-44.57808365978322
 20
52.23718595809067
 30
0.0
 11
-44.62693178853557
 21
52.19459494215788
 31
0.0
  0
LINE
  5
FD
330
1F
100
AcDbEntity
  8
0
100
AcDbLine
 10
-44.81324414211437
 20
52.01444444333244
 30
0.0
 11
-44.85745332195392
 21
51.96705580821068
 31
0.0
  0
LINE
  5
FE
330
1F
100
AcDbEntity
  8
0
100
AcDbLine
 10
-44.67489206707703
 20
52.15100657211481
 30
0.0
 11
-44.7219441358562
 21
52.10643935160022
 31
0.0
  0
LINE
  5
FF
330
1F
100
AcDbEntity
  8
0
100
AcDbLine
 10
-44.90067679320497
 20
51.91876641130203
 30
0.0
 11
-44.94289620713143
 21
51.86959675187171
 31
0.0
  0
LINE
  5
100
330
1F
100
AcDbEntity
  8
0
100
AcDbLine
 10
-44.52836841727181
 20
52.27876153965985
 30
0.0
 11
-44.57808365978322
 21
52.23718595809067
 31
0.0
  0
LINE
  5
101
330
1F
100
AcDbEntity
  8
0
100
AcDbLine
 10
-44.76806802086421
 20
52.06091219978332
 30
0.0
 11
-44.81324414211437
 21
52.01444444333244
 31
0.0
  0
LINE
  5
102
330
1F
100
AcDbEntity
  8
0
100
AcDbLine
 10
-43.75373931303783
 20
52.74514405548189
 30
0.0
 11
-43.81322762603961
 21
52.71942878886866
 31
0.0
  0
LINE
  5
103
330
1F
100
AcDbEntity
  8
0
100
AcDbLine
 10
-43.81322762603961
 20
52.71942878886866
 30
0.0
 11
-43.87217351326056
 21
52.69249337165392
 31
0.0
  0
LINE
  5
104
330
1F
100
AcDbEntity
  8
0
100
AcDbLine
 10
-44.0455076048211
 20
52.60448312004895
 30
0.0
 11
-44.1020360199105
 21
52.57278654912598
 31
0.0
  0
LINE
  5
105
330
1F
100
AcDbEntity
  8
0
100
AcDbLine
 10
-45.02425160682971
 20
51.76870050204108
 30
0.0
 11
-45.06335305653301
 21
51.71701674296838
 31
0.0
  0
LINE
  5
106
330
1F
100
AcDbEntity
  8
0
100
AcDbLine
 10
-43.93055195166341
 20
52.66434923815447
 30
0.0
 11
-43.98833815909791
 21
52.63500833579749
 31
0.0
  0
LINE
  5
107
330
1F
100
AcDbEntity
  8
0
100
AcDbLine
 10
-44.1020360199105
 20
52.57278654912598
 30
0.0
 11
-44.15789940756669
 21
52.53993207849613
 31
0.0
  0
LINE
  5
108
330
1F
100
AcDbEntity
  8
0
100
AcDbLine
 10
13.40622172980436
 20
50.28634395228625
 30
0.0
 11
13.18186342447831
 21
50.38579514922547
 31
0.0
  0
LINE
  5
109
330
1F
100
AcDbEntity
  8
0
100
AcDbLine
 10
13.63518962466819
 20
-51.23787086825833
 30
0.0
 11
13.86821550535714
 21
-51.1608895155124
 31
0.0
  0
LINE
  5
10A
330
1F
100
AcDbEntity
  8
0
100
AcDbLine
 10
11.96184411739422
 20
-52.24083556739864
 30
0.0
 11
12.14767247081115
 21
-52.08053892735975
 31
0.0
  0
LINE
  5
10B
330
1F
100
AcDbEntity
  8
0
100
AcDbLine
 10
13.86821550535714
 20
-51.1608895155124
 30
0.0
 11
14.10473799211313
 21
-51.09543492820071
 31
0.0
  0
LINE
  5
10C
330
1F
100
AcDbEntity
  8
0
100
AcDbLine
 10
15.31963889162932
 20
-50.94559119417345
 30
0.0
 11
15.56497726326652
 21
-50.95161391314758
 31
0.0
  0
LINE
  5
10D
330
1F
100
AcDbEntity
  8
0
100
AcDbLine
 10
20.40642297069348
 20
-53.80678415246555
 30
0.0
 11
20.46766749680117
 21
-53.78315661669652
 31
0.0
  0
LINE
  5
10E
330
1F
100
AcDbEntity
  8
0
100
AcDbLine
 10
11.03099584162818
 20
52.33522789387657
 30
0.0
 11
10.91003256988796
 21
52.5487579307127
 31
0.0
  0
LINE
  5
10F
330
1F
100
AcDbEntity
  8
0
100
AcDbLine
 10
15.56497726326652
 20
-50.95161391314758
 30
0.0
 11
15.8097245932774
 21
-50.96966756081245
 31
0.0
  0
LINE
  5
110
330
1F
100
AcDbEntity
  8
0
100
AcDbLine
 10
20.87953271854211
 20
-53.58043540256022
 30
0.0
 11
20.93561283381866
 21
-53.54631542168045
 31
0.0
  0
LINE
  5
111
330
1F
100
AcDbEntity
  8
0
100
AcDbLine
 10
10.79969242601245
 20
52.76796614769128
 30
0.0
 11
10.7386207616622
 21
52.9057416148427
 31
0.0
  0
LINE
  5
112
330
1F
100
AcDbEntity
  8
0
100
AcDbLine
 10
10.91003256988796
 20
52.5487579307127
 30
0.0
 11
10.79969242601245
 21
52.76796614769128
 31
0.0
  0
LINE
  5
113
330
1F
100
AcDbEntity
  8
0
100
AcDbLine
 10
11.16229083011711
 20
52.12789044974468
 30
0.0
 11
11.03099584162818
 21
52.33522789387657
 31
0.0
  0
LINE
  5
114
330
1F
100
AcDbEntity
  8
0
100
AcDbLine
 10
11.30360123422661
 20
51.92724509238052
 30
0.0
 11
11.16229083011711
 21
52.12789044974468
 31
0.0
  0
LINE
  5
115
330
1F
100
AcDbEntity
  8
0
100
AcDbLine
 10
11.45458662481598
 20
51.73377519402445
 30
0.0
 11
11.30360123422661
 21
51.92724509238052
 31
0.0
  0
LINE
  5
116
330
1F
100
AcDbEntity
  8
0
100
AcDbLine
 10
11.61488326485505
 20
51.54794684060759
 30
0.0
 11
11.45458662481598
 21
51.73377519402445
 31
0.0
  0
LINE
  5
117
330
1F
100
AcDbEntity
  8
0
100
AcDbLine
 10
11.78410498569689
 20
51.37020770890994
 30
0.0
 11
11.61488326485505
 21
51.54794684060759
 31
0.0
  0
LINE
  5
118
330
1F
100
AcDbEntity
  8
0
100
AcDbLine
 10
11.96184411739458
 20
51.20098598806788
 30
0.0
 11
11.78410498569689
 21
51.37020770890994
 31
0.0
  0
LINE
  5
119
330
1F
100
AcDbEntity
  8
0
100
AcDbLine
 10
12.14767247081151
 20
51.04068934802899
 30
0.0
 11
11.96184411739458
 21
51.20098598806788
 31
0.0
  0
LINE
  5
11A
330
1F
100
AcDbEntity
  8
0
100
AcDbLine
 10
12.34114236916752
 20
50.88970395743947
 30
0.0
 11
12.14767247081151
 21
51.04068934802899
 31
0.0
  0
LINE
  5
11B
330
1F
100
AcDbEntity
  8
0
100
AcDbLine
 10
12.5417877265317
 20
50.74839355332996
 30
0.0
 11
12.34114236916752
 21
50.88970395743947
 31
0.0
  0
LINE
  5
11C
330
1F
100
AcDbEntity
  8
0
100
AcDbLine
 10
12.74912517066345
 20
50.61709856484133
 30
0.0
 11
12.5417877265317
 21
50.74839355332996
 31
0.0
  0
LINE
  5
11D
330
1F
100
AcDbEntity
  8
0
100
AcDbLine
 10
12.96265520749962
 20
50.4961352931009
 30
0.0
 11
12.74912517066345
 21
50.61709856484133
 31
0.0
  0
LINE
  5
11E
330
1F
100
AcDbEntity
  8
0
100
AcDbLine
 10
13.18186342447831
 20
50.38579514922547
 30
0.0
 11
12.96265520749962
 21
50.4961352931009
 31
0.0
  0
LINE
  5
11F
330
1F
100
AcDbEntity
  8
0
100
AcDbLine
 10
13.63518962466855
 20
50.19802128892758
 30
0.0
 11
13.40622172980436
 21
50.28634395228625
 31
0.0
  0
LINE
  5
120
330
1F
100
AcDbEntity
  8
0
100
AcDbLine
 10
13.8682155053575
 20
50.12103993618163
 30
0.0
 11
13.63518962466855
 21
50.19802128892758
 31
0.0
  0
LINE
  5
121
330
1F
100
AcDbEntity
  8
0
100
AcDbLine
 10
14.10473799211349
 20
50.05558534886997
 30
0.0
 11
13.8682155053575
 21
50.12103993618163
 31
0.0
  0
LINE
  5
122
330
1F
100
AcDbEntity
  8
0
100
AcDbLine
 10
14.34418728154892
 20
50.00181521282654
 30
0.0
 11
14.10473799211349
 21
50.05558534886997
 31
0.0
  0
LINE
  5
123
330
1F
100
AcDbEntity
  8
0
100
AcDbLine
 10
14.5859865193529
 20
49.95985906501878
 30
0.0
 11
14.34418728154892
 21
50.00181521282654
 31
0.0
  0
LINE
  5
124
330
1F
100
AcDbEntity
  8
0
100
AcDbLine
 10
14.82955318998197
 20
49.9298179814817
 30
0.0
 11
14.5859865193529
 21
49.95985906501878
 31
0.0
  0
LINE
  5
125
330
1F
100
AcDbEntity
  8
0
100
AcDbLine
 10
15.07430051999266
 20
49.91176433381681
 30
0.0
 11
14.82955318998197
 21
49.9298179814817
 31
0.0
  0
LINE
  5
126
330
1F
100
AcDbEntity
  8
0
100
AcDbLine
 10
15.31963889162968
 20
49.90574161484268
 30
0.0
 11
15.07430051999266
 21
49.91176433381681
 31
0.0
  0
LINE
  5
127
330
1F
100
AcDbEntity
  8
0
100
AcDbLine
 10
15.5649772632667
 20
49.91176433381681
 30
0.0
 11
15.31963889162968
 21
49.90574161484268
 31
0.0
  0
LINE
  5
128
330
1F
100
AcDbEntity
  8
0
100
AcDbLine
 10
15.8097245932774
 20
49.9298179814817
 30
0.0
 11
15.5649772632667
 21
49.91176433381681
 31
0.0
  0
LINE
  5
129
330
1F
100
AcDbEntity
  8
0
100
AcDbLine
 10
16.05329126390646
 20
49.95985906501878
 30
0.0
 11
15.8097245932774
 21
49.9298179814817
 31
0.0
  0
LINE
  5
12A
330
1F
100
AcDbEntity
  8
0
100
AcDbLine
 10
16.29509050171045
 20
50.00181521282651
 30
0.0
 11
16.05329126390646
 21
49.95985906501878
 31
0.0
  0
LINE
  5
12B
330
1F
100
AcDbEntity
  8
0
100
AcDbLine
 10
16.53453979114587
 20
50.05558534886997
 30
0.0
 11
16.29509050171045
 21
50.00181521282651
 31
0.0
  0
LINE
  5
12C
330
1F
100
AcDbEntity
  8
0
100
AcDbLine
 10
16.77106227790187
 20
50.12103993618163
 30
0.0
 11
16.53453979114587
 21
50.05558534886997
 31
0.0
  0
LINE
  5
12D
330
1F
100
AcDbEntity
  8
0
100
AcDbLine
 10
17.00408815859081
 20
50.19802128892756
 30
0.0
 11
16.77106227790187
 21
50.12103993618163
 31
0.0
  0
LINE
  5
12E
330
1F
100
AcDbEntity
  8
0
100
AcDbLine
 10
17.23305605345501
 20
50.28634395228623
 30
0.0
 11
17.00408815859081
 21
50.19802128892756
 31
0.0
  0
LINE
  5
12F
330
1F
100
AcDbEntity
  8
0
100
AcDbLine
 10
17.45741435878105
 20
50.38579514922545
 30
0.0
 11
17.23305605345501
 21
50.28634395228623
 31
0.0
  0
LINE
  5
130
330
1F
100
AcDbEntity
  8
0
100
AcDbLine
 10
17.67662257575974
 20
50.4961352931009
 30
0.0
 11
17.45741435878105
 21
50.38579514922545
 31
0.0
  0
LINE
  5
131
330
1F
100
AcDbEntity
  8
0
100
AcDbLine
 10
17.89015261259592
 20
50.61709856484131
 30
0.0
 11
17.67662257575974
 21
50.4961352931009
 31
0.0
  0
LINE
  5
132
330
1F
100
AcDbEntity
  8
0
100
AcDbLine
 10
18.09749005672785
 20
50.74839355332994
 30
0.0
 11
17.89015261259592
 21
50.61709856484131
 31
0.0
  0
LINE
  5
133
330
1F
100
AcDbEntity
  8
0
100
AcDbLine
 10
18.29813541409185
 20
50.88970395743944
 30
0.0
 11
18.09749005672785
 21
50.74839355332994
 31
0.0
  0
LINE
  5
134
330
1F
100
AcDbEntity
  8
0
100
AcDbLine
 10
18.49160531244785
 20
51.04068934802899
 30
0.0
 11
18.29813541409185
 21
50.88970395743944
 31
0.0
  0
LINE
  5
135
330
1F
100
AcDbEntity
  8
0
100
AcDbLine
 10
18.67743366586479
 20
51.20098598806788
 30
0.0
 11
18.49160531244785
 21
51.04068934802899
 31
0.0
  0
LINE
  5
136
330
1F
100
AcDbEntity
  8
0
100
AcDbLine
 10
18.85517279756247
 20
51.37020770890992
 30
0.0
 11
18.67743366586479
 21
51.20098598806788
 31
0.0
  0
LINE
  5
137
330
1F
100
AcDbEntity
  8
0
100
AcDbLine
 10
19.02439451840449
 20
51.54794684060759
 30
0.0
 11
18.85517279756247
 21
51.37020770890992
 31
0.0
  0
LINE
  5
138
330
1F
100
AcDbEntity
  8
0
100
AcDbLine
 10
19.18469115844338
 20
51.73377519402443
 30
0.0
 11
19.02439451840449
 21
51.54794684060759
 31
0.0
  0
LINE
  5
139
330
1F
100
AcDbEntity
  8
0
100
AcDbLine
 10
19.33567654903293
 20
51.9272450923805
 30
0.0
 11
19.18469115844338
 21
51.73377519402443
 31
0.0
  0
LINE
  5
13A
330
1F
100
AcDbEntity
  8
0
100
AcDbLine
 10
19.47698695314226
 20
52.12789044974466
 30
0.0
 11
19.33567654903293
 21
51.9272450923805
 31
0.0
  0
LINE
  5
13B
330
1F
100
AcDbEntity
  8
0
100
AcDbLine
 10
19.60828194163118
 20
52.33522789387655
 30
0.0
 11
19.47698695314226
 21
52.12789044974466
 31
0.0
  0
LINE
  5
13C
330
1F
100
AcDbEntity
  8
0
100
AcDbLine
 10
19.72924521337141
 20
52.54875793071268
 30
0.0
 11
19.60828194163118
 21
52.33522789387655
 31
0.0
  0
LINE
  5
13D
330
1F
100
AcDbEntity
  8
0
100
AcDbLine
 10
19.83958535724692
 20
52.76796614769125
 30
0.0
 11
19.72924521337141
 21
52.54875793071268
 31
0.0
  0
LINE
  5
13E
330
1F
100
AcDbEntity
  8
0
100
AcDbLine
 10
22.31963889162953
 20
-50.94559119417347
 30
0.0
 11
22.31963889162972
 21
49.9057416148427
 31
0.0
  0
LINE
  5
13F
330
1F
100
AcDbEntity
  8
0
100
AcDbLine
 10
22.32120188683112
 20
-51.01121671870985
 30
0.0
 11
22.31963889162953
 21
-50.94559119417347
 31
0.0
  0
LINE
  5
140
330
1F
100
AcDbEntity
  8
0
100
AcDbLine
 10
22.32130127068048
 20
-51.07686077820899
 30
0.0
 11
22.32120188683112
 21
-51.01121671870985
 31
0.0
  0
LINE
  5
141
330
1F
100
AcDbEntity
  8
0
100
AcDbLine
 10
22.31993699376457
 20
-51.14249073457931
 30
0.0
 11
22.32130127068048
 21
-51.07686077820899
 31
0.0
  0
LINE
  5
142
330
1F
100
AcDbEntity
  8
0
100
AcDbLine
 10
22.31710973439859
 20
-51.20807395674134
 30
0.0
 11
22.31993699376457
 21
-51.14249073457931
 31
0.0
  0
LINE
  5
143
330
1F
100
AcDbEntity
  8
0
100
AcDbLine
 10
22.31282089829025
 20
-51.27357783685169
 30
0.0
 11
22.31710973439859
 21
-51.20807395674134
 31
0.0
  0
LINE
  5
144
330
1F
100
AcDbEntity
  8
0
100
AcDbLine
 10
22.30707261783992
 20
-51.33896980651572
 30
0.0
 11
22.31282089829025
 21
-51.27357783685169
 31
0.0
  0
LINE
  5
145
330
1F
100
AcDbEntity
  8
0
100
AcDbLine
 10
22.29986775108118
 20
-51.40421735298041
 30
0.0
 11
22.30707261783992
 21
-51.33896980651572
 31
0.0
  0
LINE
  5
146
330
1F
100
AcDbEntity
  8
0
100
AcDbLine
 10
22.29120988025871
 20
-51.46928803529968
 30
0.0
 11
22.29986775108118
 21
-51.40421735298041
 31
0.0
  0
LINE
  5
147
330
1F
100
AcDbEntity
  8
0
100
AcDbLine
 10
22.28110331004799
 20
-51.53414950046395
 30
0.0
 11
22.29120988025871
 21
-51.46928803529968
 31
0.0
  0
LINE
  5
148
330
1F
100
AcDbEntity
  8
0
100
AcDbLine
 10
22.26955306541526
 20
-51.59876949948592
 30
0.0
 11
22.28110331004799
 21
-51.53414950046395
 31
0.0
  0
LINE
  5
149
330
1F
100
AcDbEntity
  8
0
100
AcDbLine
 10
22.25656488911838
 20
-51.66311590343482
 30
0.0
 11
22.26955306541526
 21
-51.59876949948592
 31
0.0
  0
LINE
  5
14A
330
1F
100
AcDbEntity
  8
0
100
AcDbLine
 10
22.24214523885191
 20
-51.72715671941077
 30
0.0
 11
22.25656488911838
 21
-51.66311590343482
 31
0.0
  0
LINE
  5
14B
330
1F
100
AcDbEntity
  8
0
100
AcDbLine
 10
22.22630128403601
 20
-51.7908601064516
 30
0.0
 11
22.24214523885191
 21
-51.72715671941077
 31
0.0
  0
LINE
  5
14C
330
1F
100
AcDbEntity
  8
0
100
AcDbLine
 10
22.20904090225309
 20
-51.85419439136412
 30
0.0
 11
22.22630128403601
 21
-51.7908601064516
 31
0.0
  0
LINE
  5
14D
330
1F
100
AcDbEntity
  8
0
100
AcDbLine
 10
22.19037267532911
 20
-51.91712808447192
 30
0.0
 11
22.20904090225309
 21
-51.85419439136412
 31
0.0
  0
LINE
  5
14E
330
1F
100
AcDbEntity
  8
0
100
AcDbLine
 10
22.17030588506796
 20
-51.97962989527209
 30
0.0
 11
22.19037267532911
 21
-51.91712808447192
 31
0.0
  0
LINE
  5
14F
330
1F
100
AcDbEntity
  8
0
100
AcDbLine
 10
22.14885050863705
 20
-52.04166874799264
 30
0.0
 11
22.17030588506796
 21
-51.97962989527209
 31
0.0
  0
LINE
  5
150
330
1F
100
AcDbEntity
  8
0
100
AcDbLine
 10
22.12601721360536
 20
-52.10321379704344
 30
0.0
 11
22.14885050863705
 21
-52.04166874799264
 31
0.0
  0
LINE
  5
151
330
1F
100
AcDbEntity
  8
0
100
AcDbLine
 10
22.10181735264016
 20
-52.16423444235249
 30
0.0
 11
22.12601721360536
 21
-52.10321379704344
 31
0.0
  0
LINE
  5
152
330
1F
100
AcDbEntity
  8
0
100
AcDbLine
 10
22.07626295786237
 20
-52.22470034458031
 30
0.0
 11
22.10181735264016
 21
-52.16423444235249
 31
0.0
  0
LINE
  5
153
330
1F
100
AcDbEntity
  8
0
100
AcDbLine
 10
22.04936673486496
 20
-52.28458144020447
 30
0.0
 11
22.07626295786237
 21
-52.22470034458031
 31
0.0
  0
LINE
  5
154
330
1F
100
AcDbEntity
  8
0
100
AcDbLine
 10
22.02114205639463
 20
-52.34384795646722
 30
0.0
 11
22.04936673486496
 21
-52.28458144020447
 31
0.0
  0
LINE
  5
155
330
1F
100
AcDbEntity
  8
0
100
AcDbLine
 10
21.9916029557037
 20
-52.40247042617841
 30
0.0
 11
22.02114205639463
 21
-52.34384795646722
 31
0.0
  0
LINE
  5
156
330
1F
100
AcDbEntity
  8
0
100
AcDbLine
 10
21.96076411957195
 20
-52.4604197023665
 30
0.0
 11
21.9916029557037
 21
-52.40247042617841
 31
0.0
  0
LINE
  5
157
330
1F
100
AcDbEntity
  8
0
100
AcDbLine
 10
21.92864088100595
 20
-52.51766697277039
 30
0.0
 11
21.96076411957195
 21
-52.4604197023665
 31
0.0
  0
LINE
  5
158
330
1F
100
AcDbEntity
  8
0
100
AcDbLine
 10
21.89524921161327
 20
-52.57418377416482
 30
0.0
 11
21.92864088100595
 21
-52.51766697277039
 31
0.0
  0
LINE
  5
159
330
1F
100
AcDbEntity
  8
0
100
AcDbLine
 10
21.86060571366405
 20
-52.6299420065122
 30
0.0
 11
21.89524921161327
 21
-52.57418377416482
 31
0.0
  0
LINE
  5
15A
330
1F
100
AcDbEntity
  8
0
100
AcDbLine
 10
21.82472761183356
 20
-52.68491394693397
 30
0.0
 11
21.86060571366405
 21
-52.6299420065122
 31
0.0
  0
LINE
  5
15B
330
1F
100
AcDbEntity
  8
0
100
AcDbLine
 10
21.78763274464121
 20
-52.73907226349422
 30
0.0
 11
21.82472761183356
 21
-52.68491394693397
 31
0.0
  0
LINE
  5
15C
330
1F
100
AcDbEntity
  8
0
100
AcDbLine
 10
21.74933955557778
 20
-52.7923900287892
 30
0.0
 11
21.78763274464121
 21
-52.73907226349422
 31
0.0
  0
LINE
  5
15D
330
1F
100
AcDbEntity
  8
0
100
AcDbLine
 10
21.70986708393908
 20
-52.84484073333552
 30
0.0
 11
21.74933955557778
 21
-52.7923900287892
 31
0.0
  0
LINE
  5
15E
330
1F
100
AcDbEntity
  8
0
100
AcDbLine
 10
21.66923495535665
 20
-52.89639829875061
 30
0.0
 11
21.70986708393908
 21
-52.84484073333552
 31
0.0
  0
LINE
  5
15F
330
1F
100
AcDbEntity
  8
0
100
AcDbLine
 10
21.62746337204149
 20
-52.94703709071885
 30
0.0
 11
21.66923495535665
 21
-52.89639829875061
 31
0.0
  0
LINE
  5
160
330
1F
100
AcDbEntity
  8
0
100
AcDbLine
 10
21.58457310273849
 20
-52.99673193173685
 30
0.0
 11
21.62746337204149
 21
-52.94703709071885
 31
0.0
  0
LINE
  5
161
330
1F
100
AcDbEntity
  8
0
100
AcDbLine
 10
21.54058547240201
 20
-53.04545811363175
 30
0.0
 11
21.58457310273849
 21
-52.99673193173685
 31
0.0
  0
LINE
  5
162
330
1F
100
AcDbEntity
  8
0
100
AcDbLine
 10
21.49552235159117
 20
-53.09319140984599
 30
0.0
 11
21.54058547240201
 21
-53.04545811363175
 31
0.0
  0
LINE
  5
163
330
1F
100
AcDbEntity
  8
0
100
AcDbLine
 10
21.44940614559752
 20
-53.13990808748272
 30
0.0
 11
21.49552235159117
 21
-53.09319140984599
 31
0.0
  0
LINE
  5
164
330
1F
100
AcDbEntity
  8
0
100
AcDbLine
 10
21.40225978330358
 20
-53.18558491910577
 30
0.0
 11
21.44940614559752
 21
-53.13990808748272
 31
0.0
  0
LINE
  5
165
330
1F
100
AcDbEntity
  8
0
100
AcDbLine
 10
21.35410670578388
 20
-53.23019919428828
 30
0.0
 11
21.40225978330358
 21
-53.18558491910577
 31
0.0
  0
LINE
  5
166
330
1F
100
AcDbEntity
  8
0
100
AcDbLine
 10
21.30497085464988
 20
-53.27372873090427
 30
0.0
 11
21.35410670578388
 21
-53.23019919428828
 31
0.0
  0
LINE
  5
167
330
1F
100
AcDbEntity
  8
0
100
AcDbLine
 10
21.25487666014545
 20
-53.31615188615752
 30
0.0
 11
21.30497085464988
 21
-53.27372873090427
 31
0.0
  0
LINE
  5
168
330
1F
100
AcDbEntity
  8
0
100
AcDbLine
 10
21.20384902900163
 20
-53.3574475673424
 30
0.0
 11
21.25487666014545
 21
-53.31615188615752
 31
0.0
  0
LINE
  5
169
330
1F
100
AcDbEntity
  8
0
100
AcDbLine
 10
21.1519133320515
 20
-53.39759524233101
 30
0.0
 11
21.20384902900163
 21
-53.3574475673424
 31
0.0
  0
LINE
  5
16A
330
1F
100
AcDbEntity
  8
0
100
AcDbLine
 10
21.09909539161733
 20
-53.43657494978181
 30
0.0
 11
21.1519133320515
 21
-53.39759524233101
 31
0.0
  0
LINE
  5
16B
330
1F
100
AcDbEntity
  8
0
100
AcDbLine
 10
21.04542146867011
 20
-53.47436730906436
 30
0.0
 11
21.09909539161733
 21
-53.43657494978181
 31
0.0
  0
LINE
  5
16C
330
1F
100
AcDbEntity
  8
0
100
AcDbLine
 10
20.99091824977432
 20
-53.51095352989518
 30
0.0
 11
21.04542146867011
 21
-53.47436730906436
 31
0.0
  0
LINE
  5
16D
330
1F
100
AcDbEntity
  8
0
100
AcDbLine
 10
20.93561283381866
 20
-53.54631542168045
 30
0.0
 11
20.99091824977432
 21
-53.51095352989518
 31
0.0
  0
LINE
  5
16E
330
1F
100
AcDbEntity
  8
0
100
AcDbLine
 10
20.82270578686273
 20
-53.61329650815006
 30
0.0
 11
20.87953271854211
 21
-53.58043540256022
 31
0.0
  0
LINE
  5
16F
330
1F
100
AcDbEntity
  8
0
100
AcDbLine
 10
20.76516029301446
 20
-53.64488239997575
 30
0.0
 11
20.82270578686273
 21
-53.61329650815006
 31
0.0
  0
LINE
  5
170
330
1F
100
AcDbEntity
  8
0
100
AcDbLine
 10
20.70692484849815
 20
-53.67517737359677
 30
0.0
 11
20.76516029301446
 21
-53.64488239997575
 31
0.0
  0
LINE
  5
171
330
1F
100
AcDbEntity
  8
0
100
AcDbLine
 10
20.64802840785794
 20
-53.70416636641445
 30
0.0
 11
20.70692484849815
 21
-53.67517737359677
 31
0.0
  0
LINE
  5
172
330
1F
100
AcDbEntity
  8
0
100
AcDbLine
 10
20.58850025428271
 20
-53.73183496516111
 30
0.0
 11
20.64802840785794
 21
-53.70416636641445
 31
0.0
  0
LINE
  5
173
330
1F
100
AcDbEntity
  8
0
100
AcDbLine
 10
20.52836998504841
 20
-53.75816941306627
 30
0.0
 11
20.58850025428271
 21
-53.73183496516111
 31
0.0
  0
LINE
  5
174
330
1F
100
AcDbEntity
  8
0
100
AcDbLine
 10
20.46766749680117
 20
-53.78315661669652
 30
0.0
 11
20.52836998504841
 21
-53.75816941306627
 31
0.0
  0
LINE
  5
175
330
1F
100
AcDbEntity
  8
0
100
AcDbLine
 10
20.34466685737782
 20
-53.82904027281108
 30
0.0
 11
20.40642297069348
 21
-53.80678415246555
 31
0.0
  0
LINE
  5
176
330
1F
100
AcDbEntity
  8
0
100
AcDbLine
 10
20.28242986186713
 20
-53.84991391203582
 30
0.0
 11
20.34466685737782
 21
-53.82904027281108
 31
0.0
  0
LINE
  5
177
330
1F
100
AcDbEntity
  8
0
100
AcDbLine
 10
20.21974292826777
 20
-53.86939469180918
 30
0.0
 11
20.28242986186713
 21
-53.84991391203582
 31
0.0
  0
LINE
  5
178
330
1F
100
AcDbEntity
  8
0
100
AcDbLine
 10
20.15663722439421
 20
-53.8874729263275
 30
0.0
 11
20.21974292826777
 21
-53.86939469180918
 31
0.0
  0
LINE
  5
179
330
1F
100
AcDbEntity
  8
0
100
AcDbLine
 10
20.09314412627279
 20
-53.9041396271297
 30
0.0
 11
20.15663722439421
 21
-53.8874729263275
 31
0.0
  0
LINE
  5
17A
330
1F
100
AcDbEntity
  8
0
100
AcDbLine
 10
20.02929520254178
 20
-53.91938650756637
 30
0.0
 11
20.09314412627279
 21
-53.9041396271297
 31
0.0
  0
LINE
  5
17B
330
1F
100
AcDbEntity
  8
0
100
AcDbLine
 10
19.96512219875466
 20
-53.93320598691989
 30
0.0
 11
20.02929520254178
 21
-53.91938650756637
 31
0.0
  0
LINE
  5
17C
330
1F
100
AcDbEntity
  8
0
100
AcDbLine
 10
19.90065702159699
 20
-53.94559119417347
 30
0.0
 11
19.96512219875466
 21
-53.93320598691989
 31
0.0
  0
LINE
  5
17D
330
1F
100
AcDbEntity
  8
0
100
AcDbLine
 10
19.83958535724656
 20
-53.80781572702204
 30
0.0
 11
19.90065702159699
 21
-53.94559119417347
 31
0.0
  0
LINE
  5
17E
330
1F
100
AcDbEntity
  8
0
100
AcDbLine
 10
19.72924521337123
 20
-53.58860751004347
 30
0.0
 11
19.83958535724656
 21
-53.80781572702204
 31
0.0
  0
LINE
  5
17F
330
1F
100
AcDbEntity
  8
0
100
AcDbLine
 10
19.60828194163082
 20
-53.37507747320734
 30
0.0
 11
19.72924521337123
 21
-53.58860751004347
 31
0.0
  0
LINE
  5
180
330
1F
100
AcDbEntity
  8
0
100
AcDbLine
 10
19.47698695314226
 20
-53.16774002907544
 30
0.0
 11
19.60828194163082
 21
-53.37507747320734
 31
0.0
  0
LINE
  5
181
330
1F
100
AcDbEntity
  8
0
100
AcDbLine
 10
19.33567654903275
 20
-52.96709467171128
 30
0.0
 11
19.47698695314226
 21
-53.16774002907544
 31
0.0
  0
LINE
  5
182
330
1F
100
AcDbEntity
  8
0
100
AcDbLine
 10
19.18469115844302
 20
-52.77362477335522
 30
0.0
 11
19.33567654903275
 21
-52.96709467171128
 31
0.0
  0
LINE
  5
183
330
1F
100
AcDbEntity
  8
0
100
AcDbLine
 10
19.02439451840431
 20
-52.58779641993836
 30
0.0
 11
19.18469115844302
 21
-52.77362477335522
 31
0.0
  0
LINE
  5
184
330
1F
100
AcDbEntity
  8
0
100
AcDbLine
 10
18.85517279756211
 20
-52.41005728824071
 30
0.0
 11
19.02439451840431
 21
-52.58779641993836
 31
0.0
  0
LINE
  5
185
330
1F
100
AcDbEntity
  8
0
100
AcDbLine
 10
18.67743366586443
 20
-52.24083556739865
 30
0.0
 11
18.85517279756211
 21
-52.41005728824071
 31
0.0
  0
LINE
  5
186
330
1F
100
AcDbEntity
  8
0
100
AcDbLine
 10
18.49160531244767
 20
-52.08053892735976
 30
0.0
 11
18.67743366586443
 21
-52.24083556739865
 31
0.0
  0
LINE
  5
187
330
1F
100
AcDbEntity
  8
0
100
AcDbLine
 10
18.29813541409149
 20
-51.92955353677022
 30
0.0
 11
18.49160531244767
 21
-52.08053892735976
 31
0.0
  0
LINE
  5
188
330
1F
100
AcDbEntity
  8
0
100
AcDbLine
 10
18.09749005672749
 20
-51.78824313266072
 30
0.0
 11
18.29813541409149
 21
-51.92955353677022
 31
0.0
  0
LINE
  5
189
330
1F
100
AcDbEntity
  8
0
100
AcDbLine
 10
17.89015261259555
 20
-51.65694814417208
 30
0.0
 11
18.09749005672749
 21
-51.78824313266072
 31
0.0
  0
LINE
  5
18A
330
1F
100
AcDbEntity
  8
0
100
AcDbLine
 10
17.67662257575939
 20
-51.53598487243167
 30
0.0
 11
17.89015261259555
 21
-51.65694814417208
 31
0.0
  0
LINE
  5
18B
330
1F
100
AcDbEntity
  8
0
100
AcDbLine
 10
17.45741435878087
 20
-51.42564472855622
 30
0.0
 11
17.67662257575939
 21
-51.53598487243167
 31
0.0
  0
LINE
  5
18C
330
1F
100
AcDbEntity
  8
0
100
AcDbLine
 10
17.23305605345501
 20
-51.32619353161701
 30
0.0
 11
17.45741435878087
 21
-51.42564472855622
 31
0.0
  0
LINE
  5
18D
330
1F
100
AcDbEntity
  8
0
100
AcDbLine
 10
17.00408815859045
 20
-51.23787086825833
 30
0.0
 11
17.23305605345501
 21
-51.32619353161701
 31
0.0
  0
LINE
  5
18E
330
1F
100
AcDbEntity
  8
0
100
AcDbLine
 10
16.77106227790187
 20
-51.1608895155124
 30
0.0
 11
17.00408815859045
 21
-51.23787086825833
 31
0.0
  0
LINE
  5
18F
330
1F
100
AcDbEntity
  8
0
100
AcDbLine
 10
16.53453979114587
 20
-51.09543492820072
 30
0.0
 11
16.77106227790187
 21
-51.1608895155124
 31
0.0
  0
LINE
  5
190
330
1F
100
AcDbEntity
  8
0
100
AcDbLine
 10
16.29509050171009
 20
-51.04166479215729
 30
0.0
 11
16.53453979114587
 21
-51.09543492820072
 31
0.0
  0
LINE
  5
191
330
1F
100
AcDbEntity
  8
0
100
AcDbLine
 10
16.0532912639061
 20
-50.99970864434955
 30
0.0
 11
16.29509050171009
 21
-51.04166479215729
 31
0.0
  0
LINE
  5
192
330
1F
100
AcDbEntity
  8
0
100
AcDbLine
 10
15.8097245932774
 20
-50.96966756081245
 30
0.0
 11
16.0532912639061
 21
-50.99970864434955
 31
0.0
  0
LINE
  5
193
330
1F
100
AcDbEntity
  8
0
100
AcDbLine
 10
15.0743005199923
 20
-50.95161391314758
 30
0.0
 11
15.31963889162932
 21
-50.94559119417345
 31
0.0
  0
LINE
  5
194
330
1F
100
AcDbEntity
  8
0
100
AcDbLine
 10
14.82955318998161
 20
-50.96966756081245
 30
0.0
 11
15.0743005199923
 21
-50.95161391314758
 31
0.0
  0
LINE
  5
195
330
1F
100
AcDbEntity
  8
0
100
AcDbLine
 10
14.58598651935254
 20
-50.99970864434953
 30
0.0
 11
14.82955318998161
 21
-50.96966756081245
 31
0.0
  0
LINE
  5
196
330
1F
100
AcDbEntity
  8
0
100
AcDbLine
 10
14.34418728154892
 20
-51.04166479215728
 30
0.0
 11
14.58598651935254
 21
-50.99970864434953
 31
0.0
  0
LINE
  5
197
330
1F
100
AcDbEntity
  8
0
100
AcDbLine
 10
14.10473799211313
 20
-51.09543492820071
 30
0.0
 11
14.34418728154892
 21
-51.04166479215728
 31
0.0
  0
LINE
  5
198
330
1F
100
AcDbEntity
  8
0
100
AcDbLine
 10
13.406221729804
 20
-51.326193531617
 30
0.0
 11
13.63518962466819
 21
-51.23787086825833
 31
0.0
  0
LINE
  5
199
330
1F
100
AcDbEntity
  8
0
100
AcDbLine
 10
13.18186342447795
 20
-51.42564472855622
 30
0.0
 11
13.406221729804
 21
-51.326193531617
 31
0.0
  0
LINE
  5
19A
330
1F
100
AcDbEntity
  8
0
100
AcDbLine
 10
12.96265520749944
 20
-51.53598487243167
 30
0.0
 11
13.18186342447795
 21
-51.42564472855622
 31
0.0
  0
LINE
  5
19B
330
1F
100
AcDbEntity
  8
0
100
AcDbLine
 10
12.74912517066345
 20
-51.65694814417208
 30
0.0
 11
12.96265520749944
 21
-51.53598487243167
 31
0.0
  0
LINE
  5
19C
330
1F
100
AcDbEntity
  8
0
100
AcDbLine
 10
12.54178772653152
 20
-51.7882431326607
 30
0.0
 11
12.74912517066345
 21
-51.65694814417208
 31
0.0
  0
LINE
  5
19D
330
1F
100
AcDbEntity
  8
0
100
AcDbLine
 10
12.34114236916716
 20
-51.92955353677021
 30
0.0
 11
12.54178772653152
 21
-51.7882431326607
 31
0.0
  0
LINE
  5
19E
330
1F
100
AcDbEntity
  8
0
100
AcDbLine
 10
12.14767247081115
 20
-52.08053892735975
 30
0.0
 11
12.34114236916716
 21
-51.92955353677021
 31
0.0
  0
LINE
  5
19F
330
1F
100
AcDbEntity
  8
0
100
AcDbLine
 10
11.78410498569671
 20
-52.41005728824069
 30
0.0
 11
11.96184411739422
 21
-52.24083556739864
 31
0.0
  0
LINE
  5
1A0
330
1F
100
AcDbEntity
  8
0
100
AcDbLine
 10
11.61488326485469
 20
-52.58779641993834
 30
0.0
 11
11.78410498569671
 21
-52.41005728824069
 31
0.0
  0
LINE
  5
1A1
330
1F
100
AcDbEntity
  8
0
100
AcDbLine
 10
11.45458662481562
 20
-52.7736247733552
 30
0.0
 11
11.61488326485469
 21
-52.58779641993834
 31
0.0
  0
LINE
  5
1A2
330
1F
100
AcDbEntity
  8
0
100
AcDbLine
 10
11.30360123422625
 20
-52.96709467171127
 30
0.0
 11
11.45458662481562
 21
-52.7736247733552
 31
0.0
  0
LINE
  5
1A3
330
1F
100
AcDbEntity
  8
0
100
AcDbLine
 10
11.16229083011675
 20
-53.16774002907543
 30
0.0
 11
11.30360123422625
 21
-52.96709467171127
 31
0.0
  0
LINE
  5
1A4
330
1F
100
AcDbEntity
  8
0
100
AcDbLine
 10
11.03099584162818
 20
-53.37507747320732
 30
0.0
 11
11.16229083011675
 21
-53.16774002907543
 31
0.0
  0
LINE
  5
1A5
330
1F
100
AcDbEntity
  8
0
100
AcDbLine
 10
10.9100325698876
 20
-53.58860751004345
 30
0.0
 11
11.03099584162818
 21
-53.37507747320732
 31
0.0
  0
LINE
  5
1A6
330
1F
100
AcDbEntity
  8
0
100
AcDbLine
 10
10.79969242601208
 20
-53.80781572702202
 30
0.0
 11
10.9100325698876
 21
-53.58860751004345
 31
0.0
  0
LINE
  5
1A7
330
1F
100
AcDbEntity
  8
0
100
AcDbLine
 10
10.73862076166202
 20
-53.94559119417344
 30
0.0
 11
10.79969242601208
 21
-53.80781572702202
 31
0.0
  0
LINE
  5
1A8
330
1F
100
AcDbEntity
  8
0
100
AcDbLine
 10
10.73862076166202
 20
-53.94559119417344
 30
0.0
 11
-23.68036110837056
 21
-53.94559119417344
 31
0.0
  0
LINE
  5
1A9
330
1F
100
AcDbEntity
  8
0
100
AcDbLine
 10
-36.68036110837049
 20
-39.9455911941733
 30
0.0
 11
-23.68036110837056
 21
-39.94559119417333
 31
0.0
  0
LINE
  5
1AA
330
1F
100
AcDbEntity
  8
0
100
AcDbLine
 10
-36.68036110837049
 20
-50.94559119417329
 30
0.0
 11
-36.68036110837049
 21
-39.9455911941733
 31
0.0
  0
LINE
  5
1AB
330
1F
100
AcDbEntity
  8
0
100
AcDbLine
 10
-43.26137923833807
 20
-53.94559119417328
 30
0.0
 11
-43.20030757398781
 21
-53.80781572702189
 31
0.0
  0
LINE
  5
1AC
330
1F
100
AcDbEntity
  8
0
100
AcDbLine
 10
-43.32509522098242
 20
-53.93162797081706
 30
0.0
 11
-43.26137923833807
 21
-53.94559119417328
 31
0.0
  0
LINE
  5
1AD
330
1F
100
AcDbEntity
  8
0
100
AcDbLine
 10
-43.38849667037237
 20
-53.9162997528489
 30
0.0
 11
-43.32509522098242
 21
-53.93162797081706
 31
0.0
  0
LINE
  5
1AE
330
1F
100
AcDbEntity
  8
0
100
AcDbLine
 10
-43.45155434762633
 20
-53.89961360919159
 30
0.0
 11
-43.38849667037237
 21
-53.9162997528489
 31
0.0
  0
LINE
  5
1AF
330
1F
100
AcDbEntity
  8
0
100
AcDbLine
 10
-43.51423917240052
 20
-53.88157723500326
 30
0.0
 11
-43.45155434762633
 21
-53.89961360919159
 31
0.0
  0
LINE
  5
1B0
330
1F
100
AcDbEntity
  8
0
100
AcDbLine
 10
-43.57652223629934
 20
-53.86219894812859
 30
0.0
 11
-43.51423917240052
 21
-53.88157723500326
 31
0.0
  0
LINE
  5
1B1
330
1F
100
AcDbEntity
  8
0
100
AcDbLine
 10
-43.63837481620777
 20
-53.84148768526285
 30
0.0
 11
-43.57652223629934
 21
-53.86219894812859
 31
0.0
  0
LINE
  5
1B2
330
1F
100
AcDbEntity
  8
0
100
AcDbLine
 10
-43.6997683875373
 20
-53.81945299783065
 30
0.0
 11
-43.63837481620777
 21
-53.84148768526285
 31
0.0
  0
LINE
  5
1B3
330
1F
100
AcDbEntity
  8
0
100
AcDbLine
 10
-43.76067463738058
 20
-53.79610504758101
 30
0.0
 11
-43.6997683875373
 21
-53.81945299783065
 31
0.0
  0
LINE
  5
1B4
330
1F
100
AcDbEntity
  8
0
100
AcDbLine
 10
-43.82106547756847
 20
-53.77145460190107
 30
0.0
 11
-43.76067463738058
 21
-53.79610504758101
 31
0.0
  0
LINE
  5
1B5
330
1F
100
AcDbEntity
  8
0
100
AcDbLine
 10
-43.88091305762389
 20
-53.74551302885054
 30
0.0
 11
-43.82106547756847
 21
-53.77145460190107
 31
0.0
  0
LINE
  5
1B6
330
1F
100
AcDbEntity
  8
0
100
AcDbLine
 10
-43.94018977760515
 20
-53.71829229191905
 30
0.0
 11
-43.88091305762389
 21
-53.74551302885054
 31
0.0
  0
LINE
  5
1B7
330
1F
100
AcDbEntity
  8
0
100
AcDbLine
 10
-43.9988683008343
 20
-53.68980494450892
 30
0.0
 11
-43.94018977760515
 21
-53.71829229191905
 31
0.0
  0
LINE
  5
1B8
330
1F
100
AcDbEntity
  8
0
100
AcDbLine
 10
-44.05692156650441
 20
-53.66006412414598
 30
0.0
 11
-43.9988683008343
 21
-53.68980494450892
 31
0.0
  0
LINE
  5
1B9
330
1F
100
AcDbEntity
  8
0
100
AcDbLine
 10
-44.11432280215875
 20
-53.62908354642079
 30
0.0
 11
-44.05692156650441
 21
-53.66006412414598
 31
0.0
  0
LINE
  5
1BA
330
1F
100
AcDbEntity
  8
0
100
AcDbLine
 10
-44.17104553603752
 20
-53.5968774986636
 30
0.0
 11
-44.11432280215875
 21
-53.62908354642079
 31
0.0
  0
LINE
  5
1BB
330
1F
100
AcDbEntity
  8
0
100
AcDbLine
 10
-44.22706360928627
 20
-53.56346083335531
 30
0.0
 11
-44.17104553603752
 21
-53.5968774986636
 31
0.0
  0
LINE
  5
1BC
330
1F
100
AcDbEntity
  8
0
100
AcDbLine
 10
-44.28235118801896
 20
-53.52884896127796
 30
0.0
 11
-44.22706360928627
 21
-53.56346083335531
 31
0.0
  0
LINE
  5
1BD
330
1F
100
AcDbEntity
  8
0
100
AcDbLine
 10
-44.33688277523235
 20
-53.49305784440779
 30
0.0
 11
-44.28235118801896
 21
-53.52884896127796
 31
0.0
  0
LINE
  5
1BE
330
1F
100
AcDbEntity
  8
0
100
AcDbLine
 10
-44.39063322256413
 20
-53.45610398855401
 30
0.0
 11
-44.33688277523235
 21
-53.49305784440779
 31
0.0
  0
LINE
  5
1BF
330
1F
100
AcDbEntity
  8
0
100
AcDbLine
 10
-44.44357774189062
 20
-53.41800443574682
 30
0.0
 11
-44.39063322256413
 21
-53.45610398855401
 31
0.0
  0
LINE
  5
1C0
330
1F
100
AcDbEntity
  8
0
100
AcDbLine
 10
-44.49569191675862
 20
-53.37877675637808
 30
0.0
 11
-44.44357774189062
 21
-53.41800443574682
 31
0.0
  0
LINE
  5
1C1
330
1F
100
AcDbEntity
  8
0
100
AcDbLine
 10
-44.54695171364508
 20
-53.33843904109845
 30
0.0
 11
-44.49569191675862
 21
-53.37877675637808
 31
0.0
  0
LINE
  5
1C2
330
1F
100
AcDbEntity
  8
0
100
AcDbLine
 10
-44.59733349304125
 20
-53.29700989247446
 30
0.0
 11
-44.54695171364508
 21
-53.33843904109845
 31
0.0
  0
LINE
  5
1C3
330
1F
100
AcDbEntity
  8
0
100
AcDbLine
 10
-44.64681402035377
 20
-53.25450841640952
 30
0.0
 11
-44.59733349304125
 21
-53.29700989247446
 31
0.0
  0
LINE
  5
1C4
330
1F
100
AcDbEntity
  8
0
100
AcDbLine
 10
-44.69537047662055
 20
-53.21095421333292
 30
0.0
 11
-44.64681402035377
 21
-53.25450841640952
 31
0.0
  0
LINE
  5
1C5
330
1F
100
AcDbEntity
  8
0
100
AcDbLine
 10
-44.74298046903375
 20
-53.16636736916065
 30
0.0
 11
-44.69537047662055
 21
-53.21095421333292
 31
0.0
  0
LINE
  5
1C6
330
1F
100
AcDbEntity
  8
0
100
AcDbLine
 10
-44.78962204126668
 20
-53.12076844603232
 30
0.0
 11
-44.74298046903375
 21
-53.16636736916065
 31
0.0
  0
LINE
  5
1C7
330
1F
100
AcDbEntity
  8
0
100
AcDbLine
 10
-44.83527368359969
 20
-53.07417847282861
 30
0.0
 11
-44.78962204126668
 21
-53.12076844603232
 31
0.0
  0
LINE
  5
1C8
330
1F
100
AcDbEntity
  8
0
100
AcDbLine
 10
-44.87991434283963
 20
-53.02661893547331
 30
0.0
 11
-44.83527368359969
 21
-53.07417847282861
 31
0.0
  0
LINE
  5
1C9
330
1F
100
AcDbEntity
  8
0
100
AcDbLine
 10
-44.92352343202884
 20
-52.97811176702459
 30
0.0
 11
-44.87991434283963
 21
-53.02661893547331
 31
0.0
  0
LINE
  5
1CA
330
1F
100
AcDbEntity
  8
0
100
AcDbLine
 10
-44.96608083993954
 20
-52.92867933756021
 30
0.0
 11
-44.92352343202884
 21
-52.97811176702459
 31
0.0
  0
LINE
  5
1CB
330
1F
100
AcDbEntity
  8
0
100
AcDbLine
 10
-45.0075669403483
 20
-52.8783444438611
 30
0.0
 11
-44.96608083993954
 21
-52.92867933756021
 31
0.0
  0
LINE
  5
1CC
330
1F
100
AcDbEntity
  8
0
100
AcDbLine
 10
-45.04796260108721
 20
-52.82713029889807
 30
0.0
 11
-45.0075669403483
 21
-52.8783444438611
 31
0.0
  0
LINE
  5
1CD
330
1F
100
AcDbEntity
  8
0
100
AcDbLine
 10
-45.08724919286698
 20
-52.77506052112675
 30
0.0
 11
-45.04796260108721
 21
-52.82713029889807
 31
0.0
  0
LINE
  5
1CE
330
1F
100
AcDbEntity
  8
0
100
AcDbLine
 10
-45.12540859786833
 20
-52.72215912359543
 30
0.0
 11
-45.08724919286698
 21
-52.77506052112675
 31
0.0
  0
LINE
  5
1CF
330
1F
100
AcDbEntity
  8
0
100
AcDbLine
 10
-45.16242321809737
 20
-52.66845050287093
 30
0.0
 11
-45.12540859786833
 21
-52.72215912359543
 31
0.0
  0
LINE
  5
1D0
330
1F
100
AcDbEntity
  8
0
100
AcDbLine
 10
-45.19827598350098
 20
-52.61395942778761
 30
0.0
 11
-45.16242321809737
 21
-52.66845050287093
 31
0.0
  0
LINE
  5
1D1
330
1F
100
AcDbEntity
  8
0
100
AcDbLine
 10
-45.23295035983963
 20
-52.55871102802482
 30
0.0
 11
-45.19827598350098
 21
-52.61395942778761
 31
0.0
  0
LINE
  5
1D2
330
1F
100
AcDbEntity
  8
0
100
AcDbLine
 10
-45.26643035631199
 20
-52.50273078251767
 30
0.0
 11
-45.23295035983963
 21
-52.55871102802482
 31
0.0
  0
LINE
  5
1D3
330
1F
100
AcDbEntity
  8
0
100
AcDbLine
 10
-45.29870053292938
 20
-52.44604450770705
 30
0.0
 11
-45.26643035631199
 21
-52.50273078251767
 31
0.0
  0
LINE
  5
1D4
330
1F
100
AcDbEntity
  8
0
100
AcDbLine
 10
-45.32974600763669
 20
-52.38867834563369
 30
0.0
 11
-45.29870053292938
 21
-52.44604450770705
 31
0.0
  0
LINE
  5
1D5
330
1F
100
AcDbEntity
  8
0
100
AcDbLine
 10
-45.35955246317506
 20
-52.33065875188241
 30
0.0
 11
-45.32974600763669
 21
-52.38867834563369
 31
0.0
  0
LINE
  5
1D6
330
1F
100
AcDbEntity
  8
0
100
AcDbLine
 10
-45.38810615368481
 20
-52.27201248338137
 30
0.0
 11
-45.35955246317506
 21
-52.33065875188241
 31
0.0
  0
LINE
  5
1D7
330
1F
100
AcDbEntity
  8
0
100
AcDbLine
 10
-45.41539391104488
 20
-52.21276658606277
 30
0.0
 11
-45.38810615368481
 21
-52.27201248338137
 31
0.0
  0
LINE
  5
1D8
330
1F
100
AcDbEntity
  8
0
100
AcDbLine
 10
-45.44140315094484
 20
-52.15294838238989
 30
0.0
 11
-45.41539391104488
 21
-52.21276658606277
 31
0.0
  0
LINE
  5
1D9
330
1F
100
AcDbEntity
  8
0
100
AcDbLine
 10
-45.4661218786893
 20
-52.09258545875689
 30
0.0
 11
-45.44140315094484
 21
-52.15294838238989
 31
0.0
  0
LINE
  5
1DA
330
1F
100
AcDbEntity
  8
0
100
AcDbLine
 10
-45.48953869472871
 20
-52.03170565276672
 30
0.0
 11
-45.4661218786893
 21
-52.09258545875689
 31
0.0
  0
LINE
  5
1DB
330
1F
100
AcDbEntity
  8
0
100
AcDbLine
 10
-45.51164279991713
 20
-51.97033704039325
 30
0.0
 11
-45.48953869472871
 21
-52.03170565276672
 31
0.0
  0
LINE
  5
1DC
330
1F
100
AcDbEntity
  8
0
100
AcDbLine
 10
-45.53242400049211
 20
-51.90850792303348
 30
0.0
 11
-45.51164279991713
 21
-51.97033704039325
 31
0.0
  0
LINE
  5
1DD
330
1F
100
AcDbEntity
  8
0
100
AcDbLine
 10
-45.55187271277588
 20
-51.84624681445574
 30
0.0
 11
-45.53242400049211
 21
-51.90850792303348
 31
0.0
  0
LINE
  5
1DE
330
1F
100
AcDbEntity
  8
0
100
AcDbLine
 10
-45.56997996759497
 20
-51.78358242764997
 30
0.0
 11
-45.55187271277588
 21
-51.84624681445574
 31
0.0
  0
LINE
  5
1DF
330
1F
100
AcDbEntity
  8
0
100
AcDbLine
 10
-45.58673741441662
 20
-51.7205436615862
 30
0.0
 11
-45.56997996759497
 21
-51.78358242764997
 31
0.0
  0
LINE
  5
1E0
330
1F
100
AcDbEntity
  8
0
100
AcDbLine
 10
-45.60213732519985
 20
-51.65715958788709
 30
0.0
 11
-45.58673741441662
 21
-51.7205436615862
 31
0.0
  0
LINE
  5
1E1
330
1F
100
AcDbEntity
  8
0
100
AcDbLine
 10
-45.61617259795931
 20
-51.59345943742106
 30
0.0
 11
-45.60213732519985
 21
-51.65715958788709
 31
0.0
  0
LINE
  5
1E2
330
1F
100
AcDbEntity
  8
0
100
AcDbLine
 10
-45.6288367600403
 20
-51.52947258682182
 30
0.0
 11
-45.61617259795931
 21
-51.59345943742106
 31
0.0
  0
LINE
  5
1E3
330
1F
100
AcDbEntity
  8
0
100
AcDbLine
 10
-45.64012397110443
 20
-51.46522854494071
 30
0.0
 11
-45.6288367600403
 21
-51.52947258682182
 31
0.0
  0
LINE
  5
1E4
330
1F
100
AcDbEntity
  8
0
100
AcDbLine
 10
-45.65002902582206
 20
-51.40075693923815
 30
0.0
 11
-45.64012397110443
 21
-51.46522854494071
 31
0.0
  0
LINE
  5
1E5
330
1F
100
AcDbEntity
  8
0
100
AcDbLine
 10
-45.65854735627376
 20
-51.33608750212029
 30
0.0
 11
-45.65002902582206
 21
-51.40075693923815
 31
0.0
  0
LINE
  5
1E6
330
1F
100
AcDbEntity
  8
0
100
AcDbLine
 10
-45.66567503405636
 20
-51.27125005722728
 30
0.0
 11
-45.65854735627376
 21
-51.33608750212029
 31
0.0
  0
LINE
  5
1E7
330
1F
100
AcDbEntity
  8
0
100
AcDbLine
 10
-45.67140877209467
 20
-51.20627450567954
 30
0.0
 11
-45.66567503405636
 21
-51.27125005722728
 31
0.0
  0
LINE
  5
1E8
330
1F
100
AcDbEntity
  8
0
100
AcDbLine
 10
-45.67574592615753
 20
-51.14119081228819
 30
0.0
 11
-45.67140877209467
 21
-51.20627450567954
 31
0.0
  0
LINE
  5
1E9
330
1F
100
AcDbEntity
  8
0
100
AcDbLine
 10
-45.6786844960773
 20
-51.07602899173618
 30
0.0
 11
-45.67574592615753
 21
-51.14119081228819
 31
0.0
  0
LINE
  5
1EA
330
1F
100
AcDbEntity
  8
0
100
AcDbLine
 10
-45.68022312667202
 20
-51.01081909473641
 30
0.0
 11
-45.6786844960773
 21
-51.07602899173618
 31
0.0
  0
LINE
  5
1EB
330
1F
100
AcDbEntity
  8
0
100
AcDbLine
 10
-45.68036110837052
 20
-50.94559119417327
 30
0.0
 11
-45.68022312667202
 21
-51.01081909473641
 31
0.0
  0
LINE
  5
1EC
330
1F
100
AcDbEntity
  8
0
100
AcDbLine
 10
-43.20030757398746
 20
52.76796614769141
 30
0.0
 11
-43.2613792383377
 21
52.90574161484281
 31
0.0
  0
LINE
  5
1ED
330
1F
100
AcDbEntity
  8
0
100
AcDbLine
 10
-43.08996743011194
 20
52.54875793071283
 30
0.0
 11
-43.20030757398746
 21
52.76796614769141
 31
0.0
  0
LINE
  5
1EE
330
1F
100
AcDbEntity
  8
0
100
AcDbLine
 10
-42.96900415837154
 20
52.33522789387673
 30
0.0
 11
-43.08996743011194
 21
52.54875793071283
 31
0.0
  0
LINE
  5
1EF
330
1F
100
AcDbEntity
  8
0
100
AcDbLine
 10
-42.83770916988297
 20
52.12789044974482
 30
0.0
 11
-42.96900415837154
 21
52.33522789387673
 31
0.0
  0
LINE
  5
1F0
330
1F
100
AcDbEntity
  8
0
100
AcDbLine
 10
-42.69639876577347
 20
51.92724509238066
 30
0.0
 11
-42.83770916988297
 21
52.12789044974482
 31
0.0
  0
LINE
  5
1F1
330
1F
100
AcDbEntity
  8
0
100
AcDbLine
 10
-42.54541337518392
 20
51.73377519402462
 30
0.0
 11
-42.69639876577347
 21
51.92724509238066
 31
0.0
  0
LINE
  5
1F2
330
1F
100
AcDbEntity
  8
0
100
AcDbLine
 10
-42.38511673514503
 20
51.54794684060774
 30
0.0
 11
-42.54541337518392
 21
51.73377519402462
 31
0.0
  0
LINE
  5
1F3
330
1F
100
AcDbEntity
  8
0
100
AcDbLine
 10
-42.21589501430301
 20
51.3702077089101
 30
0.0
 11
-42.38511673514503
 21
51.54794684060774
 31
0.0
  0
LINE
  5
1F4
330
1F
100
AcDbEntity
  8
0
100
AcDbLine
 10
-42.03815588260532
 20
51.20098598806804
 30
0.0
 11
-42.21589501430301
 21
51.3702077089101
 31
0.0
  0
LINE
  5
1F5
330
1F
100
AcDbEntity
  8
0
100
AcDbLine
 10
-41.85232752918848
 20
51.04068934802917
 30
0.0
 11
-42.03815588260532
 21
51.20098598806804
 31
0.0
  0
LINE
  5
1F6
330
1F
100
AcDbEntity
  8
0
100
AcDbLine
 10
-41.65885763083239
 20
50.88970395743962
 30
0.0
 11
-41.85232752918848
 21
51.04068934802917
 31
0.0
  0
LINE
  5
1F7
330
1F
100
AcDbEntity
  8
0
100
AcDbLine
 10
-41.45821227346821
 20
50.74839355333012
 30
0.0
 11
-41.65885763083239
 21
50.88970395743962
 31
0.0
  0
LINE
  5
1F8
330
1F
100
AcDbEntity
  8
0
100
AcDbLine
 10
-41.25087482933636
 20
50.61709856484148
 30
0.0
 11
-41.45821227346821
 21
50.74839355333012
 31
0.0
  0
LINE
  5
1F9
330
1F
100
AcDbEntity
  8
0
100
AcDbLine
 10
-41.03734479250028
 20
50.49613529310108
 30
0.0
 11
-41.25087482933636
 21
50.61709856484148
 31
0.0
  0
LINE
  5
1FA
330
1F
100
AcDbEntity
  8
0
100
AcDbLine
 10
-40.81813657552168
 20
50.38579514922564
 30
0.0
 11
-41.03734479250028
 21
50.49613529310108
 31
0.0
  0
LINE
  5
1FB
330
1F
100
AcDbEntity
  8
0
100
AcDbLine
 10
-40.59377827019572
 20
50.28634395228641
 30
0.0
 11
-40.81813657552168
 21
50.38579514922564
 31
0.0
  0
LINE
  5
1FC
330
1F
100
AcDbEntity
  8
0
100
AcDbLine
 10
-40.36481037533134
 20
50.19802128892774
 30
0.0
 11
-40.59377827019572
 21
50.28634395228641
 31
0.0
  0
LINE
  5
1FD
330
1F
100
AcDbEntity
  8
0
100
AcDbLine
 10
-40.13178449464258
 20
50.12103993618181
 30
0.0
 11
-40.36481037533134
 21
50.19802128892774
 31
0.0
  0
LINE
  5
1FE
330
1F
100
AcDbEntity
  8
0
100
AcDbLine
 10
-39.89526200788659
 20
50.05558534887015
 30
0.0
 11
-40.13178449464258
 21
50.12103993618181
 31
0.0
  0
LINE
  5
1FF
330
1F
100
AcDbEntity
  8
0
100
AcDbLine
 10
-39.6558127184509
 20
50.00181521282669
 30
0.0
 11
-39.89526200788659
 21
50.05558534887015
 31
0.0
  0
LINE
  5
200
330
1F
100
AcDbEntity
  8
0
100
AcDbLine
 10
-39.41401348064709
 20
49.95985906501895
 30
0.0
 11
-39.6558127184509
 21
50.00181521282669
 31
0.0
  0
LINE
  5
201
330
1F
100
AcDbEntity
  8
0
100
AcDbLine
 10
-39.17044681001811
 20
49.92981798148188
 30
0.0
 11
-39.41401348064709
 21
49.95985906501895
 31
0.0
  0
LINE
  5
202
330
1F
100
AcDbEntity
  8
0
100
AcDbLine
 10
-38.92569948000742
 20
49.911764333817
 30
0.0
 11
-39.17044681001811
 21
49.92981798148188
 31
0.0
  0
LINE
  5
203
330
1F
100
AcDbEntity
  8
0
100
AcDbLine
 10
-38.68036110837022
 20
49.90574161484286
 30
0.0
 11
-38.92569948000742
 21
49.911764333817
 31
0.0
  0
LINE
  5
204
330
1F
100
AcDbEntity
  8
0
100
AcDbLine
 10
-38.4350227367332
 20
49.911764333817
 30
0.0
 11
-38.68036110837022
 21
49.90574161484286
 31
0.0
  0
LINE
  5
205
330
1F
100
AcDbEntity
  8
0
100
AcDbLine
 10
-38.19027540672251
 20
49.92981798148188
 30
0.0
 11
-38.4350227367332
 21
49.911764333817
 31
0.0
  0
LINE
  5
206
330
1F
100
AcDbEntity
  8
0
100
AcDbLine
 10
-37.94670873609344
 20
49.95985906501895
 30
0.0
 11
-38.19027540672251
 21
49.92981798148188
 31
0.0
  0
LINE
  5
207
330
1F
100
AcDbEntity
  8
0
100
AcDbLine
 10
-37.70490949828964
 20
50.00181521282671
 30
0.0
 11
-37.94670873609344
 21
49.95985906501895
 31
0.0
  0
LINE
  5
208
330
1F
100
AcDbEntity
  8
0
100
AcDbLine
 10
-37.46546020885403
 20
50.05558534887015
 30
0.0
 11
-37.70490949828964
 21
50.00181521282671
 31
0.0
  0
LINE
  5
209
330
1F
100
AcDbEntity
  8
0
100
AcDbLine
 10
-37.22893772209804
 20
50.12103993618181
 30
0.0
 11
-37.46546020885403
 21
50.05558534887015
 31
0.0
  0
LINE
  5
20A
330
1F
100
AcDbEntity
  8
0
100
AcDbLine
 10
-36.99591184140918
 20
50.19802128892774
 30
0.0
 11
-37.22893772209804
 21
50.12103993618181
 31
0.0
  0
LINE
  5
20B
330
1F
100
AcDbEntity
  8
0
100
AcDbLine
 10
-36.76694394654489
 20
50.28634395228641
 30
0.0
 11
-36.99591184140918
 21
50.19802128892774
 31
0.0
  0
LINE
  5
20C
330
1F
100
AcDbEntity
  8
0
100
AcDbLine
 10
-36.54258564121885
 20
50.38579514922564
 30
0.0
 11
-36.76694394654489
 21
50.28634395228641
 31
0.0
  0
LINE
  5
20D
330
1F
100
AcDbEntity
  8
0
100
AcDbLine
 10
-36.32337742424033
 20
50.49613529310108
 30
0.0
 11
-36.54258564121885
 21
50.38579514922564
 31
0.0
  0
LINE
  5
20E
330
1F
100
AcDbEntity
  8
0
100
AcDbLine
 10
-36.10984738740417
 20
50.61709856484148
 30
0.0
 11
-36.32337742424033
 21
50.49613529310108
 31
0.0
  0
LINE
  5
20F
330
1F
100
AcDbEntity
  8
0
100
AcDbLine
 10
-35.90250994327224
 20
50.74839355333012
 30
0.0
 11
-36.10984738740417
 21
50.61709856484148
 31
0.0
  0
LINE
  5
210
330
1F
100
AcDbEntity
  8
0
100
AcDbLine
 10
-35.70186458590814
 20
50.88970395743962
 30
0.0
 11
-35.90250994327224
 21
50.74839355333012
 31
0.0
  0
LINE
  5
211
330
1F
100
AcDbEntity
  8
0
100
AcDbLine
 10
-35.50839468755205
 20
51.04068934802917
 30
0.0
 11
-35.70186458590814
 21
50.88970395743962
 31
0.0
  0
LINE
  5
212
330
1F
100
AcDbEntity
  8
0
100
AcDbLine
 10
-35.3225663341352
 20
51.20098598806806
 30
0.0
 11
-35.50839468755205
 21
51.04068934802917
 31
0.0
  0
LINE
  5
213
330
1F
100
AcDbEntity
  8
0
100
AcDbLine
 10
-35.14482720243761
 20
51.3702077089101
 30
0.0
 11
-35.3225663341352
 21
51.20098598806806
 31
0.0
  0
LINE
  5
214
330
1F
100
AcDbEntity
  8
0
100
AcDbLine
 10
-34.9756054815955
 20
51.54794684060774
 30
0.0
 11
-35.14482720243761
 21
51.3702077089101
 31
0.0
  0
LINE
  5
215
330
1F
100
AcDbEntity
  8
0
100
AcDbLine
 10
-34.81530884155661
 20
51.73377519402462
 30
0.0
 11
-34.9756054815955
 21
51.54794684060774
 31
0.0
  0
LINE
  5
216
330
1F
100
AcDbEntity
  8
0
100
AcDbLine
 10
-34.66432345096715
 20
51.92724509238066
 30
0.0
 11
-34.81530884155661
 21
51.73377519402462
 31
0.0
  0
LINE
  5
217
330
1F
100
AcDbEntity
  8
0
100
AcDbLine
 10
-34.52301304685765
 20
52.12789044974482
 30
0.0
 11
-34.66432345096715
 21
51.92724509238066
 31
0.0
  0
LINE
  5
218
330
1F
100
AcDbEntity
  8
0
100
AcDbLine
 10
-34.3917180583689
 20
52.33522789387673
 30
0.0
 11
-34.52301304685765
 21
52.12789044974482
 31
0.0
  0
LINE
  5
219
330
1F
100
AcDbEntity
  8
0
100
AcDbLine
 10
-34.27075478662849
 20
52.54875793071283
 30
0.0
 11
-34.3917180583689
 21
52.33522789387673
 31
0.0
  0
LINE
  5
21A
330
1F
100
AcDbEntity
  8
0
100
AcDbLine
 10
-34.16041464275316
 20
52.76796614769141
 30
0.0
 11
-34.27075478662849
 21
52.54875793071283
 31
0.0
  0
LINE
  5
21B
330
1F
100
AcDbEntity
  8
0
100
AcDbLine
 10
-23.68036110837056
 20
-53.94559119417344
 30
0.0
 11
-23.68036110837056
 21
-39.94559119417333
 31
0.0
  0
ENDSEC
  0
SECTION
  2
OBJECTS
  0
DICTIONARY
  5
C
330
0
100
AcDbDictionary
  3
ACAD_GROUP
350
D
  3
ACAD_LAYOUT
350
1A
  3
ACAD_MATERIAL
350
43
  3
ACAD_MLEADERSTYLE
350
23E
  3
ACAD_MLINESTYLE
350
17
  3
ACAD_PLOTSETTINGS
350
19
  3
ACAD_SCALELIST
350
47
  3
ACAD_VISUALSTYLE
350
2A
  3
ACDBHEADERROUNDTRIPXREC
350
21C
  3
ACDBVARIABLEDICTIONARY
350
23C
  0
DICTIONARY
  5
243
330
8
100
AcDbDictionary
280
     1
  3
ACAD_XREC_ROUNDTRIP
360
244
  0
DICTIONARY
  5
D
102
{ACAD_REACTORS
330
C
102
}
330
C
100
AcDbDictionary
  0
DICTIONARY
  5
1A
102
{ACAD_REACTORS
330
C
102
}
330
C
100
AcDbDictionary
  0
DICTIONARY
  5
43
102
{ACAD_REACTORS
330
C
102
}
330
C
100
AcDbDictionary
  3
BYBLOCK
350
45
  3
BYLAYER
350
44
  3
GLOBAL
350
46
  0
DICTIONARY
  5
23E
102
{ACAD_REACTORS
330
C
102
}
330
C
100
AcDbDictionary
  0
DICTIONARY
  5
17
102
{ACAD_REACTORS
330
C
102
}
330
C
100
AcDbDictionary
  3
STANDARD
350
18
  0
DICTIONARY
  5
19
102
{ACAD_REACTORS
330
C
102
}
330
C
100
AcDbDictionary
  0
DICTIONARY
  5
47
102
{ACAD_REACTORS
330
C
102
}
330
C
100
AcDbDictionary
  3
A0
350
48
  3
A1
350
49
  3
A2
350
4A
  3
A3
350
4B
  3
A4
350
4C
  3
A5
350
4D
  3
A6
350
4E
  3
A7
350
4F
  3
A8
350
50
  3
A9
350
51
  3
B0
350
52
  3
B1
350
53
  3
B2
350
54
  3
B3
350
55
  3
B4
350
56
  3
B5
350
57
  3
B6
350
58
  3
B7
350
59
  3
B8
350
5A
  3
B9
350
5B
  3
C0
350
5C
  3
C1
350
5D
  3
C2
350
5E
  3
C3
350
5F
  3
C4
350
60
  3
C5
350
61
  3
C6
350
62
  3
C7
350
63
  3
C8
350
64
  3
C9
350
65
  3
D0
350
66
  3
D1
350
67
  3
D2
350
68
  0
DICTIONARY
  5
2A
102
{ACAD_REACTORS
330
C
102
}
330
C
100
AcDbDictionary
  3
2DWIREFRAME
350
2F
  3
BASIC
350
32
  3
BRIGHTEN
350
36
  3
COLORCHANGE
350
3A
  3
CONCEPTUAL
350
34
  3
DIM
350
35
  3
EDGECOLOROFF
350
3D
  3
FACEPATTERN
350
39
  3
FLAT
350
2B
  3
FLATWITHEDGES
350
2C
  3
GOURAUD
350
2D
  3
GOURAUDWITHEDGES
350
2E
  3
HIDDEN
350
31
  3
JITTEROFF
350
3B
  3
LINEPATTERN
350
38
  3
OVERHANGOFF
350
3C
  3
REALISTIC
350
33
  3
SHADED
350
42
  3
SHADED_WITH_EDGES
350
41
  3
SHADES_OF_GRAY
350
3E
  3
SKETCHY
350
3F
  3
THICKEN
350
37
  3
WIREFRAME
350
30
  3
X-RAY
350
40
  0
DICTIONARY
  5
21C
102
{ACAD_REACTORS
330
C
102
}
330
C
100
AcDbDictionary
  3
CEPSNTYPE
350
225
  3
DIMSTYLEDATA
350
23B
  3
FINGERPRINTGUID
350
226
  3
HYPERLINKBASE
350
21F
  3
INSUNITS
350
224
  3
LAYOUTDICT
350
221
  3
LWETCUNION
350
223
  3
PLOTSETDICT
350
222
  3
PSVPSCALE
350
228
  3
PUCSBASE
350
22B
  3
PUCSORGBACK
350
231
  3
PUCSORGBOTTOM
350
22D
  3
PUCSORGFRONT
350
230
  3
PUCSORGLEFT
350
22E
  3
PUCSORGRIGHT
350
22F
  3
PUCSORGTOP
350
22C
  3
PUCSORTHOREF
350
229
  3
PUCSORTHOVIEW
350
22A
  3
STYLESHEET
350
220
  3
TSTACKALIGN
350
21D
  3
TSTACKSIZE
350
21E
  3
UCSBASE
350
234
  3
UCSORGBACK
350
23A
  3
UCSORGBOTTOM
350
236
  3
UCSORGFRONT
350
239
  3
UCSORGLEFT
350
237
  3
UCSORGRIGHT
350
238
  3
UCSORGTOP
350
235
  3
UCSORTHOREF
350
232
  3
UCSORTHOVIEW
350
233
  3
VERSIONGUID
350
227
  0
DICTIONARY
  5
23C
102
{ACAD_REACTORS
330
C
102
}
330
C
100
AcDbDictionary
  3
CANNOSCALE
350
245
  3
DIMASSOC
350
241
  3
HIDETEXT
350
242
  3
MSLTSCALE
350
246
  0
XRECORD
  5
244
102
{ACAD_REACTORS
330
243
102
}
330
243
100
AcDbXrecord
102
VTR_0.000_0.000_1.000_1.000_GRIDDISPLAY
 70
     3
102
VTR_0.000_0.000_1.000_1.000_GRIDMAJOR
 70
     5
102
VTR_0.000_0.000_1.000_1.000_DEFAULTLIGHTING
280
     1
102
VTR_0.000_0.000_1.000_1.000_DEFAULTLIGHTINGTYPE
 70
     1
102
VTR_0.000_0.000_1.000_1.000_BRIGHTNESS
141
0.0
102
VTR_0.000_0.000_1.000_1.000_CONTRAST
142
0.0
  0
MATERIAL
  5
45
102
{ACAD_REACTORS
330
43
102
}
102
{ACAD_XDICTIONARY
360
249
102
}
330
43
100
AcDbMaterial
  1
BYBLOCK
  0
MATERIAL
  5
44
102
{ACAD_REACTORS
330
43
102
}
102
{ACAD_XDICTIONARY
360
247
102
}
330
43
100
AcDbMaterial
  1
BYLAYER
  0
MATERIAL
  5
46
102
{ACAD_REACTORS
330
43
102
}
102
{ACAD_XDICTIONARY
360
24B
102
}
330
43
100
AcDbMaterial
  1
GLOBAL
  0
MLINESTYLE
  5
18
102
{ACAD_REACTORS
330
17
102
}
330
17
100
AcDbMlineStyle
  2
Standard
 70
     0
  3

 62
   256
 51
90.0
 52
90.0
 71
     2
 49
0.5
 62
   256
  6
BYLAYER
 49
-0.5
 62
   256
  6
BYLAYER
  0
ACAD_PROXY_OBJECT
  5
48
102
{ACAD_REACTORS
330
47
102
}
330
47
100
AcDbProxyObject
 90
      499
 91
      503
 93
       41
310
903313A31580
  0
ACAD_PROXY_OBJECT
  5
49
102
{ACAD_REACTORS
330
47
102
}
330
47
100
AcDbProxyObject
 90
      499
 91
      503
 93
      105
310
903313A324000000000000004000
  0
ACAD_PROXY_OBJECT
  5
4A
102
{ACAD_REACTORS
330
47
102
}
330
47
100
AcDbProxyObject
 90
      499
 91
      503
 93
      105
310
903313A344000000000000104000
  0
ACAD_PROXY_OBJECT
  5
4B
102
{ACAD_REACTORS
330
47
102
}
330
47
100
AcDbProxyObject
 90
      499
 91
      503
 93
      105
310
903313A354000000000000144000
  0
ACAD_PROXY_OBJECT
  5
4C
102
{ACAD_REACTORS
330
47
102
}
330
47
100
AcDbProxyObject
 90
      499
 91
      503
 93
      105
310
903313A384000000000000204000
  0
ACAD_PROXY_OBJECT
  5
4D
102
{ACAD_REACTORS
330
47
102
}
330
47
100
AcDbProxyObject
 90
      499
 91
      503
 93
      113
310
904313A31304000000000000244000
  0
ACAD_PROXY_OBJECT
  5
4E
102
{ACAD_REACTORS
330
47
102
}
330
47
100
AcDbProxyObject
 90
      499
 91
      503
 93
      113
310
904313A31364000000000000304000
  0
ACAD_PROXY_OBJECT
  5
4F
102
{ACAD_REACTORS
330
47
102
}
330
47
100
AcDbProxyObject
 90
      499
 91
      503
 93
      113
310
904313A32304000000000000344000
  0
ACAD_PROXY_OBJECT
  5
50
102
{ACAD_REACTORS
330
47
102
}
330
47
100
AcDbProxyObject
 90
      499
 91
      503
 93
      113
310
904313A333040000000000003E4000
  0
ACAD_PROXY_OBJECT
  5
51
102
{ACAD_REACTORS
330
47
102
}
330
47
100
AcDbProxyObject
 90
      499
 91
      503
 93
      113
310
904313A34304000000000000444000
  0
ACAD_PROXY_OBJECT
  5
52
102
{ACAD_REACTORS
330
47
102
}
330
47
100
AcDbProxyObject
 90
      499
 91
      503
 93
      113
310
904313A35304000000000000494000
  0
ACAD_PROXY_OBJECT
  5
53
102
{ACAD_REACTORS
330
47
102
}
330
47
100
AcDbProxyObject
 90
      499
 91
      503
 93
      121
310
905313A3130304000000000000594000
  0
ACAD_PROXY_OBJECT
  5
54
102
{ACAD_REACTORS
330
47
102
}
330
47
100
AcDbProxyObject
 90
      499
 91
      503
 93
      105
310
903323A310000000000000010100
  0
ACAD_PROXY_OBJECT
  5
55
102
{ACAD_REACTORS
330
47
102
}
330
47
100
AcDbProxyObject
 90
      499
 91
      503
 93
      105
310
903343A310000000000000410100
  0
ACAD_PROXY_OBJECT
  5
56
102
{ACAD_REACTORS
330
47
102
}
330
47
100
AcDbProxyObject
 90
      499
 91
      503
 93
      105
310
903383A310000000000000810100
  0
ACAD_PROXY_OBJECT
  5
57
102
{ACAD_REACTORS
330
47
102
}
330
47
100
AcDbProxyObject
 90
      499
 91
      503
 93
      113
310
90431303A310000000000000910100
  0
ACAD_PROXY_OBJECT
  5
58
102
{ACAD_REACTORS
330
47
102
}
330
47
100
AcDbProxyObject
 90
      499
 91
      503
 93
      121
310
9053130303A310000000000001650100
  0
ACAD_PROXY_OBJECT
  5
59
102
{ACAD_REACTORS
330
47
102
}
330
47
100
AcDbProxyObject
 90
      499
 91
      503
 93
      257
310
90E312F31323822203D2031272D3022000000000000200FC000000000000284000
  0
ACAD_PROXY_OBJECT
  5
5A
102
{ACAD_REACTORS
330
47
102
}
330
47
100
AcDbProxyObject
 90
      499
 91
      503
 93
      249
310
90D312F363422203D2031272D3022000000000000240FC000000000000284000
  0
ACAD_PROXY_OBJECT
  5
5B
102
{ACAD_REACTORS
330
47
102
}
330
47
100
AcDbProxyObject
 90
      499
 91
      503
 93
      249
310
90D312F333222203D2031272D3022000000000000280FC000000000000284000
  0
ACAD_PROXY_OBJECT
  5
5C
102
{ACAD_REACTORS
330
47
102
}
330
47
100
AcDbProxyObject
 90
      499
 91
      503
 93
      249
310
90D312F313622203D2031272D30220000000000002C0FC000000000000284000
  0
ACAD_PROXY_OBJECT
  5
5D
102
{ACAD_REACTORS
330
47
102
}
330
47
100
AcDbProxyObject
 90
      499
 91
      503
 93
      249
310
90D332F333222203D2031272D30220000000000002E0FC000000000000284000
  0
ACAD_PROXY_OBJECT
  5
5E
102
{ACAD_REACTORS
330
47
102
}
330
47
100
AcDbProxyObject
 90
      499
 91
      503
 93
      241
310
90C312F3822203D2031272D3022000000000000300FC000000000000284000
  0
ACAD_PROXY_OBJECT
  5
5F
102
{ACAD_REACTORS
330
47
102
}
330
47
100
AcDbProxyObject
 90
      499
 91
      503
 93
      249
310
90D332F313622203D2031272D3022000000000000320FC000000000000284000
  0
ACAD_PROXY_OBJECT
  5
60
102
{ACAD_REACTORS
330
47
102
}
330
47
100
AcDbProxyObject
 90
      499
 91
      503
 93
      241
310
90C312F3422203D2031272D3022000000000000340FC000000000000284000
  0
ACAD_PROXY_OBJECT
  5
61
102
{ACAD_REACTORS
330
47
102
}
330
47
100
AcDbProxyObject
 90
      499
 91
      503
 93
      241
310
90C332F3822203D2031272D3022000000000000360FC000000000000284000
  0
ACAD_PROXY_OBJECT
  5
62
102
{ACAD_REACTORS
330
47
102
}
330
47
100
AcDbProxyObject
 90
      499
 91
      503
 93
      241
310
90C312F3222203D2031272D3022000000000000380FC000000000000284000
  0
ACAD_PROXY_OBJECT
  5
63
102
{ACAD_REACTORS
330
47
102
}
330
47
100
AcDbProxyObject
 90
      499
 91
      503
 93
      241
310
90C332F3422203D2031272D30220000000000003A0FC000000000000284000
  0
ACAD_PROXY_OBJECT
  5
64
102
{ACAD_REACTORS
330
47
102
}
330
47
100
AcDbProxyObject
 90
      499
 91
      503
 93
      161
310
90A3122203D2031272D30224000000000000284000
  0
ACAD_PROXY_OBJECT
  5
65
102
{ACAD_REACTORS
330
47
102
}
330
47
100
AcDbProxyObject
 90
      499
 91
      503
 93
      257
310
90E312D312F3222203D2031272D30220000000000003E0FC000000000000284000
  0
ACAD_PROXY_OBJECT
  5
66
102
{ACAD_REACTORS
330
47
102
}
330
47
100
AcDbProxyObject
 90
      499
 91
      503
 93
      225
310
90A3322203D2031272D302200000000000002100000000000000284000
  0
ACAD_PROXY_OBJECT
  5
67
102
{ACAD_REACTORS
330
47
102
}
330
47
100
AcDbProxyObject
 90
      499
 91
      503
 93
      225
310
90A3622203D2031272D302200000000000006100000000000000284000
  0
ACAD_PROXY_OBJECT
  5
68
102
{ACAD_REACTORS
330
47
102
}
330
47
100
AcDbProxyObject
 90
      499
 91
      503
 93
      249
310
90D31272D3022203D2031272D30220000000000000A100000000000000284000
  0
ACAD_PROXY_OBJECT
  5
2F
102
{ACAD_REACTORS
330
2A
102
}
330
2A
100
AcDbProxyObject
 90
      499
 91
      501
 93
      436
310
42CC9915DA5C99599C985B595049028333333333333E33F0000000000000F90107901411070040501600405405064090741402480A0340
1001
ACAD
1000
AcDbSavedByObjectVersion
1070
     0
  0
ACAD_PROXY_OBJECT
  5
32
102
{ACAD_REACTORS
330
2A
102
}
330
2A
100
AcDbProxyObject
 90
      499
 91
      501
 93
      388
310
4150985CDA58D07406404333333333333E33F0000000000000F90107A41107004050150841D405064090741402480A0350
1001
ACAD
1000
AcDbSavedByObjectVersion
1070
     0
  0
ACAD_PROXY_OBJECT
  5
36
102
{ACAD_REACTORS
330
2A
102
}
330
2A
100
AcDbProxyObject
 90
      499
 91
      501
 93
      428
310
42109C9A59DA1D195B90C409028333333333333E33F0000000000000F9010790141107004050150841D405064090741402480A029950
1001
ACAD
1000
AcDbSavedByObjectVersion
1070
     0
  0
ACAD_PROXY_OBJECT
  5
3A
102
{ACAD_REACTORS
330
2A
102
}
330
2A
100
AcDbProxyObject
 90
      499
 91
      501
 93
      452
310
42D0DBDB1BDC90DA185B99D95104090240C333333333333E33F0000000000000F90108901411070040501508421405064090741402480A0350
1001
ACAD
1000
AcDbSavedByObjectVersion
1070
     0
  0
ACAD_PROXY_OBJECT
  5
34
102
{ACAD_REACTORS
330
2A
102
}
330
2A
100
AcDbProxyObject
 90
      499
 91
      501
 93
      500
310
4290DBDB98D95C1D1D585B10940D028333333333333E33F0000000000000F90107902409070040501000000000018199010841D405064090740C02480A0340
1001
ACAD
1000
AcDbSavedByObjectVersion
1070
     0
  0
ACAD_PROXY_OBJECT
  5
35
102
{ACAD_REACTORS
330
2A
102
}
330
2A
100
AcDbProxyObject
 90
      499
 91
      501
 93
      412
310
40D11A5B50B409028333333333333E33F0000000000000F9010790141107004050150841D405064090741402480A02677FFFFFD0
1001
ACAD
1000
AcDbSavedByObjectVersion
1070
     0
  0
ACAD_PROXY_OBJECT
  5
3D
102
{ACAD_REACTORS
330
2A
102
}
330
2A
100
AcDbProxyObject
 90
      499
 91
      501
 93
      452
310
43115919D950DBDB1BDC93D999916409028333333333333E33F0000000000000F9010790141107004050150841D405064090741402480A0350
1001
ACAD
1000
AcDbSavedByObjectVersion
1070
     0
  0
ACAD_PROXY_OBJECT
  5
39
102
{ACAD_REACTORS
330
2A
102
}
330
2A
100
AcDbProxyObject
 90
      499
 91
      501
 93
      444
310
42D19858D95C185D1D195C9B90F409028333333333333E33F0000000000000F9010790141107004050150841D405064090741402480A0350
1001
ACAD
1000
AcDbSavedByObjectVersion
1070
     0
  0
ACAD_PROXY_OBJECT
  5
2B
102
{ACAD_REACTORS
330
2A
102
}
330
2A
100
AcDbProxyObject
 90
      499
 91
      501
 93
      380
310
41119B185D240901404333333333333E33F0000000000000F9010740A907004050150841D405064090741402480A1B50
1001
ACAD
1000
AcDbSavedByObjectVersion
1070
     0
  0
ACAD_PROXY_OBJECT
  5
2C
102
{ACAD_REACTORS
330
2A
102
}
330
2A
100
AcDbProxyObject
 90
      499
 91
      501
 93
      468
310
43519B185D15DA5D1A115919D95CD0140901404333333333333E33F0000000000000F90107409019070040501600405405064090741402480A1B50
1001
ACAD
1000
AcDbSavedByObjectVersion
1070
     0
  0
ACAD_PROXY_OBJECT
  5
2D
102
{ACAD_REACTORS
330
2A
102
}
330
2A
100
AcDbProxyObject
 90
      499
 91
      501
 93
      404
310
41D1DBDD5C985D5910240902404333333333333E33F0000000000000F9010740A9070040501641D405064090741402480A1B50
1001
ACAD
1000
AcDbSavedByObjectVersion
1070
     0
  0
ACAD_PROXY_OBJECT
  5
2E
102
{ACAD_REACTORS
330
2A
102
}
330
2A
100
AcDbProxyObject
 90
      499
 91
      501
 93
      492
310
4411DBDD5C985D5915DA5D1A115919D95CD0340902404333333333333E33F0000000000000F90107409019070040501600405405064090741402480A1B50
1001
ACAD
1000
AcDbSavedByObjectVersion
1070
     0
  0
ACAD_PROXY_OBJECT
  5
31
102
{ACAD_REACTORS
330
2A
102
}
330
2A
100
AcDbProxyObject
 90
      499
 91
      501
 93
      476
310
41921A5919195B90640502408333333333333E33F0000000000000F901079024090700405020000000000001110200405405064090740C02480A0340
1001
ACAD
1000
AcDbSavedByObjectVersion
1070
     0
  0
ACAD_PROXY_OBJECT
  5
3B
102
{ACAD_REACTORS
330
2A
102
}
330
2A
100
AcDbProxyObject
 90
      499
 91
      501
 93
      428
310
42529A5D1D195C93D999914409028333333333333E33F0000000000000F9010790141107004050150A41D405064090741402480A0350
1001
ACAD
1000
AcDbSavedByObjectVersion
1070
     0
  0
ACAD_PROXY_OBJECT
  5
38
102
{ACAD_REACTORS
330
2A
102
}
330
2A
100
AcDbProxyObject
 90
      499
 91
      501
 93
      444
310
42D31A5B995C185D1D195C9B90E409028333333333333E33F0000000000000F9010790141107004050750841D405064090741402483A0350
1001
ACAD
1000
AcDbSavedByObjectVersion
1070
     0
  0
ACAD_PROXY_OBJECT
  5
3C
102
{ACAD_REACTORS
330
2A
102
}
330
2A
100
AcDbProxyObject
 90
      499
 91
      501
 93
      444
310
42D3DD995C9A185B99D3D999915409028333333333333E33F0000000000000F9010790141107004050150941D405064090741402480A0350
1001
ACAD
1000
AcDbSavedByObjectVersion
1070
     0
  0
ACAD_PROXY_OBJECT
  5
33
102
{ACAD_REACTORS
330
2A
102
}
330
2A
100
AcDbProxyObject
 90
      499
 91
      501
 93
      428
310
425499585B1A5CDD1A58D08409038333333333333E33F0000000000000F9010740A907004050150800405405064090740C02480A1B40
1001
ACAD
1000
AcDbSavedByObjectVersion
1070
     0
  0
ACAD_PROXY_OBJECT
  5
42
102
{ACAD_REACTORS
330
2A
102
}
330
2A
100
AcDbProxyObject
 90
      499
 91
      501
 93
      420
310
4194DA1859195911B40902404333333333333E33F0000000000000F9010740A41107004050150800405405064090840C02480A0B40
1001
ACAD
1000
AcDbSavedByObjectVersion
1070
     0
  0
ACAD_PROXY_OBJECT
  5
41
102
{ACAD_REACTORS
330
2A
102
}
330
2A
100
AcDbProxyObject
 90
      499
 91
      501
 93
      516
310
4454DA18591959081DDA5D1A08195919D95CD1A40902404333333333333E33F0000000000000F901074090142907004050250800405405064090740C02480A0B40
1001
ACAD
1000
AcDbSavedByObjectVersion
1070
     0
  0
ACAD_PROXY_OBJECT
  5
3E
102
{ACAD_REACTORS
330
2A
102
}
330
2A
100
AcDbProxyObject
 90
      499
 91
      501
 93
      532
310
4394DA1859195CC81BD98811DC985E5174090240C333333333333E33F0000000000000F901079024090741D01000000000000111010841D405064090740C02480A0340
1001
ACAD
1000
AcDbSavedByObjectVersion
1070
     0
  0
ACAD_PROXY_OBJECT
  5
3F
102
{ACAD_REACTORS
330
2A
102
}
330
2A
100
AcDbProxyObject
 90
      499
 91
      501
 93
      476
310
41D4DAD95D18DA1E51840502408333333333333E33F0000000000000F901079024090741D01000000000000111010B41D405064090741802480A0340
1001
ACAD
1000
AcDbSavedByObjectVersion
1070
     0
  0
ACAD_PROXY_OBJECT
  5
37
102
{ACAD_REACTORS
330
2A
102
}
330
2A
100
AcDbProxyObject
 90
      499
 91
      501
 93
      412
310
41D51A1A58DAD95B90D409028333333333333E33F0000000000000F9010790141107004050150C41D405064090741402480A0350
1001
ACAD
1000
AcDbSavedByObjectVersion
1070
     0
  0
ACAD_PROXY_OBJECT
  5
30
102
{ACAD_REACTORS
330
2A
102
}
330
2A
100
AcDbProxyObject
 90
      499
 91
      501
 93
      420
310
4255DA5C99599C985B595059028333333333333E33F0000000000000F90107901411070040501600405405064090740C02480A0340
1001
ACAD
1000
AcDbSavedByObjectVersion
1070
     0
  0
ACAD_PROXY_OBJECT
  5
40
102
{ACAD_REACTORS
330
2A
102
}
330
2A
100
AcDbProxyObject
 90
      499
 91
      501
 93
      404
310
41560B54985E51940902404000000000000E03F0000000000000F9010740501907004050150841D405064090740C02480A1B40
1001
ACAD
1000
AcDbSavedByObjectVersion
1070
     0
  0
XRECORD
  5
225
102
{ACAD_REACTORS
330
21C
102
}
330
21C
100
AcDbXrecord
 90
        0
  0
XRECORD
  5
23B
102
{ACAD_REACTORS
330
21C
102
}
330
21C
100
AcDbXrecord
1000
DSTYLE
1002
{
1070
   171
 70
     2
1070
   143
 40
25.4
1070
   274
 70
     2
1070
    41
 40
0.18
1070
   141
 40
0.09
1070
   271
 70
     4
1070
    43
 40
0.38
1070
   278
 70
    46
1070
    44
 40
0.18
1070
    42
 40
0.0625
1070
   147
 40
0.09
1070
    77
 70
     0
1070
   272
 70
     4
1070
    73
 70
     1
1070
   172
 70
     0
1070
    74
 70
     1
1070
   283
 70
     1
1070
   340
340
11
1070
   140
 40
0.18
1070
   284
 70
     0
1070
    78
 70
     0
1002
}
  0
XRECORD
  5
226
102
{ACAD_REACTORS
330
21C
102
}
330
21C
100
AcDbXrecord
  1
{088888C7-1541-20BB-0EE2-027B821B69ED}
  0
XRECORD
  5
21F
102
{ACAD_REACTORS
330
21C
102
}
330
21C
100
AcDbXrecord
  1

  0
XRECORD
  5
224
102
{ACAD_REACTORS
330
21C
102
}
330
21C
100
AcDbXrecord
 90
        4
  0
XRECORD
  5
221
102
{ACAD_REACTORS
330
21C
102
}
330
21C
100
AcDbXrecord
340
1A
  0
XRECORD
  5
223
102
{ACAD_REACTORS
330
21C
102
}
330
21C
100
AcDbXrecord
 90
    10781
  0
XRECORD
  5
222
102
{ACAD_REACTORS
330
21C
102
}
330
21C
100
AcDbXrecord
340
19
  0
XRECORD
  5
228
102
{ACAD_REACTORS
330
21C
102
}
330
21C
100
AcDbXrecord
 40
0.0
  0
XRECORD
  5
22B
102
{ACAD_REACTORS
330
21C
102
}
330
21C
100
AcDbXrecord
340
0
  0
XRECORD
  5
231
102
{ACAD_REACTORS
330
21C
102
}
330
21C
100
AcDbXrecord
 10
0.0
 20
0.0
 30
0.0
  0
XRECORD
  5
22D
102
{ACAD_REACTORS
330
21C
102
}
330
21C
100
AcDbXrecord
 10
0.0
 20
0.0
 30
0.0
  0
XRECORD
  5
230
102
{ACAD_REACTORS
330
21C
102
}
330
21C
100
AcDbXrecord
 10
0.0
 20
0.0
 30
0.0
  0
XRECORD
  5
22E
102
{ACAD_REACTORS
330
21C
102
}
330
21C
100
AcDbXrecord
 10
0.0
 20
0.0
 30
0.0
  0
XRECORD
  5
22F
102
{ACAD_REACTORS
330
21C
102
}
330
21C
100
AcDbXrecord
 10
0.0
 20
0.0
 30
0.0
  0
XRECORD
  5
22C
102
{ACAD_REACTORS
330
21C
102
}
330
21C
100
AcDbXrecord
 10
0.0
 20
0.0
 30
0.0
  0
XRECORD
  5
229
102
{ACAD_REACTORS
330
21C
102
}
330
21C
100
AcDbXrecord
340
0
  0
XRECORD
  5
22A
102
{ACAD_REACTORS
330
21C
102
}
330
21C
100
AcDbXrecord
 70
     0
  0
XRECORD
  5
220
102
{ACAD_REACTORS
330
21C
102
}
330
21C
100
AcDbXrecord
  1

  0
XRECORD
  5
21D
102
{ACAD_REACTORS
330
21C
102
}
330
21C
100
AcDbXrecord
 90
        1
  0
XRECORD
  5
21E
102
{ACAD_REACTORS
330
21C
102
}
330
21C
100
AcDbXrecord
 90
       70
  0
XRECORD
  5
234
102
{ACAD_REACTORS
330
21C
102
}
330
21C
100
AcDbXrecord
340
0
  0
XRECORD
  5
23A
102
{ACAD_REACTORS
330
21C
102
}
330
21C
100
AcDbXrecord
 10
0.0
 20
0.0
 30
0.0
  0
XRECORD
  5
236
102
{ACAD_REACTORS
330
21C
102
}
330
21C
100
AcDbXrecord
 10
0.0
 20
0.0
 30
0.0
  0
XRECORD
  5
239
102
{ACAD_REACTORS
330
21C
102
}
330
21C
100
AcDbXrecord
 10
0.0
 20
0.0
 30
0.0
  0
XRECORD
  5
237
102
{ACAD_REACTORS
330
21C
102
}
330
21C
100
AcDbXrecord
 10
0.0
 20
0.0
 30
0.0
  0
XRECORD
  5
238
102
{ACAD_REACTORS
330
21C
102
}
330
21C
100
AcDbXrecord
 10
0.0
 20
0.0
 30
0.0
  0
XRECORD
  5
235
102
{ACAD_REACTORS
330
21C
102
}
330
21C
100
AcDbXrecord
 10
0.0
 20
0.0
 30
0.0
  0
XRECORD
  5
232
102
{ACAD_REACTORS
330
21C
102
}
330
21C
100
AcDbXrecord
340
0
  0
XRECORD
  5
233
102
{ACAD_REACTORS
330
21C
102
}
330
21C
100
AcDbXrecord
 70
     0
  0
XRECORD
  5
227
102
{ACAD_REACTORS
330
21C
102
}
330
21C
100
AcDbXrecord
  1
{FAEB1C32-E019-11D5-929B-00C0DF256EC4}
  0
DICTIONARYVAR
  5
245
102
{ACAD_REACTORS
330
23C
102
}
330
23C
100
DictionaryVariables
280
     0
  1
1:1
  0
DICTIONARYVAR
  5
241
102
{ACAD_REACTORS
330
23C
102
}
330
23C
100
DictionaryVariables
280
     0
  1
2
  0
DICTIONARYVAR
  5
242
102
{ACAD_REACTORS
330
23C
102
}
330
23C
100
DictionaryVariables
280
     0
  1
1
  0
DICTIONARYVAR
  5
246
102
{ACAD_REACTORS
330
23C
102
}
330
23C
100
DictionaryVariables
280
     0
  1
1
  0
DICTIONARY
  5
249
330
45
100
AcDbDictionary
280
     1
  3
ACAD_XREC_ROUNDTRIP
360
24A
  0
DICTIONARY
  5
247
330
44
100
AcDbDictionary
280
     1
  3
ACAD_XREC_ROUNDTRIP
360
248
  0
DICTIONARY
  5
24B
330
46
100
AcDbDictionary
280
     1
  3
ACAD_XREC_ROUNDTRIP
360
24C
  0
XRECORD
  5
24A
102
{ACAD_REACTORS
330
249
102
}
330
249
100
AcDbXrecord
102
MATERIAL
148
0.0
149
0.0
149
0.0
 93
        0
 94
      127
282
     0
 72
     1
 77
     1
171
     1
175
     1
179
     1
273
     0
  0
XRECORD
  5
248
102
{ACAD_REACTORS
330
247
102
}
330
247
100
AcDbXrecord
102
MATERIAL
148
0.0
149
0.0
149
0.0
 93
        0
 94
      127
282
     0
 72
     1
 77
     1
171
     1
175
     1
179
     1
273
     0
  0
XRECORD
  5
24C
102
{ACAD_REACTORS
330
24B
102
}
330
24B
100
AcDbXrecord
102
MATERIAL
148
0.0
149
0.0
149
0.0
 93
        0
 94
      127
282
     0
 72
     1
 77
     1
171
     1
175
     1
179
     1
273
     0
  0
ENDSEC
  0
EOF
