  0
SECTION
  2
HEADER
  9
$ACADVER
  1
AC1009
  9
$EXTMIN
 10
0.0
 20
0.0
 30
0.0
  9
$EXTMAX
 10
1000.0
 20
1000.0
 30
0.0
  9
$FILLMODE
 70
 0
  9
$SPLFRAME
 70
 1
  0
ENDSEC
  0
SECTION
  2
TABLES
  0
TABLE
  2
LAYER
 70
1
  0
LAYER
  2
0
 70
     0
 62
     7
  6
CONTINUOUS
  0
ENDTAB
  0
ENDSEC
  0
SECTION
  2
ENTITIES
  0
POLYLINE
  8
0
 62
     0
 66
     1
 10
0
 20
0
 30
0.0
 70
     1
 40
0.566928
 41
0.566928
  0
VERTEX
  8
0
 10
0.991319
 20
1.82813
 30
0.0
 40
0.007874
 41
0.007874
  0
VERTEX
  8
0
 10
0.991319
 20
1.82167
 30
0.0
 40
0.007874
 41
0.007874
  0
VERTEX
  8
0
 10
0.986057
 20
1.80219
 30
0.0
 40
0.007874
 41
0.007874
  0
VERTEX
  8
0
 10
0.971789
 20
1.78097
 30
0.0
 40
0.007874
 41
0.007874
  0
VERTEX
  8
0
 10
0.950575
 20
1.76665
 30
0.0
 40
0.007874
 41
0.007874
  0
VERTEX
  8
0
 10
0.931099
 20
1.76139
 30
0.0
 40
0.007874
 41
0.007874
  0
VERTEX
  8
0
 10
0.924642
 20
1.76139
 30
0.0
 40
0.007874
 41
0.007874
  0
VERTEX
  8
0
 10
0.918132
 20
1.76139
 30
0.0
 40
0.007874
 41
0.007874
  0
VERTEX
  8
0
 10
0.898654
 20
1.76665
 30
0.0
 40
0.007874
 41
0.007874
  0
VERTEX
  8
0
 10
0.877442
 20
1.78097
 30
0.0
 40
0.007874
 41
0.007874
  0
VERTEX
  8
0
 10
0.863118
 20
1.80219
 30
0.0
 40
0.007874
 41
0.007874
  0
VERTEX
  8
0
 10
0.85791
 20
1.82167
 30
0.0
 40
0.007874
 41
0.007874
  0
VERTEX
  8
0
 10
0.85791
 20
1.82813
 30
0.0
 40
0.007874
 41
0.007874
  0
VERTEX
  8
0
 10
0.85791
 20
1.83464
 30
0.0
 40
0.007874
 41
0.007874
  0
VERTEX
  8
0
 10
0.863118
 20
1.85411
 30
0.0
 40
0.007874
 41
0.007874
  0
VERTEX
  8
0
 10
0.877442
 20
1.87532
 30
0.0
 40
0.007874
 41
0.007874
  0
VERTEX
  8
0
 10
0.898654
 20
1.88965
 30
0.0
 40
0.007874
 41
0.007874
  0
VERTEX
  8
0
 10
0.918132
 20
1.89486
 30
0.0
 40
0.007874
 41
0.007874
  0
VERTEX
  8
0
 10
0.924642
 20
1.89486
 30
0.0
 40
0.007874
 41
0.007874
  0
VERTEX
  8
0
 10
0.931099
 20
1.89486
 30
0.0
 40
0.007874
 41
0.007874
  0
VERTEX
  8
0
 10
0.950575
 20
1.88965
 30
0.0
 40
0.007874
 41
0.007874
  0
VERTEX
  8
0
 10
0.971789
 20
1.87532
 30
0.0
 40
0.007874
 41
0.007874
  0
VERTEX
  8
0
 10
0.986057
 20
1.85411
 30
0.0
 40
0.007874
 41
0.007874
  0
VERTEX
  8
0
 10
0.991319
 20
1.83464
 30
0.0
 40
0.007874
 41
0.007874
  0
VERTEX
  8
0
 10
0.991319
 20
1.82813
 30
0.0
 40
0.007874
 41
0.007874
  0
SEQEND
 8
0
  0
POLYLINE
  8
0
 62
     0
 66
     1
 10
0
 20
0
 30
0.0
 70
     1
 40
0.566928
 41
0.566928
  0
VERTEX
  8
0
 10
5.34131
 20
1.22314
 30
0.0
 40
0.007874
 41
0.007874
  0
VERTEX
  8
0
 10
5.34131
 20
1.21669
 30
0.0
 40
0.007874
 41
0.007874
  0
VERTEX
  8
0
 10
5.33604
 20
1.19721
 30
0.0
 40
0.007874
 41
0.007874
  0
VERTEX
  8
0
 10
5.32178
 20
1.176
 30
0.0
 40
0.007874
 41
0.007874
  0
VERTEX
  8
0
 10
5.30057
 20
1.16168
 30
0.0
 40
0.007874
 41
0.007874
  0
VERTEX
  8
0
 10
5.28108
 20
1.15641
 30
0.0
 40
0.007874
 41
0.007874
  0
VERTEX
  8
0
 10
5.27463
 20
1.15641
 30
0.0
 40
0.007874
 41
0.007874
  0
VERTEX
  8
0
 10
5.26812
 20
1.15641
 30
0.0
 40
0.007874
 41
0.007874
  0
VERTEX
  8
0
 10
5.24858
 20
1.16168
 30
0.0
 40
0.007874
 41
0.007874
  0
VERTEX
  8
0
 10
5.22743
 20
1.176
 30
0.0
 40
0.007874
 41
0.007874
  0
VERTEX
  8
0
 10
5.21311
 20
1.19721
 30
0.0
 40
0.007874
 41
0.007874
  0
VERTEX
  8
0
 10
5.2079
 20
1.21669
 30
0.0
 40
0.007874
 41
0.007874
  0
VERTEX
  8
0
 10
5.2079
 20
1.22314
 30
0.0
 40
0.007874
 41
0.007874
  0
VERTEX
  8
0
 10
5.2079
 20
1.22966
 30
0.0
 40
0.007874
 41
0.007874
  0
VERTEX
  8
0
 10
5.21311
 20
1.24913
 30
0.0
 40
0.007874
 41
0.007874
  0
VERTEX
  8
0
 10
5.22743
 20
1.27034
 30
0.0
 40
0.007874
 41
0.007874
  0
VERTEX
  8
0
 10
5.24858
 20
1.28461
 30
0.0
 40
0.007874
 41
0.007874
  0
VERTEX
  8
0
 10
5.26812
 20
1.28982
 30
0.0
 40
0.007874
 41
0.007874
  0
VERTEX
  8
0
 10
5.27463
 20
1.28982
 30
0.0
 40
0.007874
 41
0.007874
  0
VERTEX
  8
0
 10
5.28108
 20
1.28982
 30
0.0
 40
0.007874
 41
0.007874
  0
VERTEX
  8
0
 10
5.30057
 20
1.28461
 30
0.0
 40
0.007874
 41
0.007874
  0
VERTEX
  8
0
 10
5.32178
 20
1.27034
 30
0.0
 40
0.007874
 41
0.007874
  0
VERTEX
  8
0
 10
5.33604
 20
1.24913
 30
0.0
 40
0.007874
 41
0.007874
  0
VERTEX
  8
0
 10
5.34131
 20
1.22966
 30
0.0
 40
0.007874
 41
0.007874
  0
VERTEX
  8
0
 10
5.34131
 20
1.22314
 30
0.0
 40
0.007874
 41
0.007874
  0
SEQEND
 8
0
  0
POLYLINE
  8
0
 62
     0
 66
     1
 10
0
 20
0
 30
0.0
 70
     1
 40
0.566928
 41
0.566928
  0
VERTEX
  8
0
 10
4.66635
 20
4.85314
 30
0.0
 40
0.007874
 41
0.007874
  0
VERTEX
  8
0
 10
4.66635
 20
4.84668
 30
0.0
 40
0.007874
 41
0.007874
  0
VERTEX
  8
0
 10
4.66108
 20
4.82721
 30
0.0
 40
0.007874
 41
0.007874
  0
VERTEX
  8
0
 10
4.64675
 20
4.80599
 30
0.0
 40
0.007874
 41
0.007874
  0
VERTEX
  8
0
 10
4.62554
 20
4.79167
 30
0.0
 40
0.007874
 41
0.007874
  0
VERTEX
  8
0
 10
4.60607
 20
4.7864
 30
0.0
 40
0.007874
 41
0.007874
  0
VERTEX
  8
0
 10
4.59961
 20
4.7864
 30
0.0
 40
0.007874
 41
0.007874
  0
VERTEX
  8
0
 10
4.5931
 20
4.7864
 30
0.0
 40
0.007874
 41
0.007874
  0
VERTEX
  8
0
 10
4.57362
 20
4.79167
 30
0.0
 40
0.007874
 41
0.007874
  0
VERTEX
  8
0
 10
4.5524
 20
4.80599
 30
0.0
 40
0.007874
 41
0.007874
  0
VERTEX
  8
0
 10
4.53808
 20
4.82721
 30
0.0
 40
0.007874
 41
0.007874
  0
VERTEX
  8
0
 10
4.53288
 20
4.84668
 30
0.0
 40
0.007874
 41
0.007874
  0
VERTEX
  8
0
 10
4.53288
 20
4.85314
 30
0.0
 40
0.007874
 41
0.007874
  0
VERTEX
  8
0
 10
4.53288
 20
4.85965
 30
0.0
 40
0.007874
 41
0.007874
  0
VERTEX
  8
0
 10
4.53808
 20
4.87912
 30
0.0
 40
0.007874
 41
0.007874
  0
VERTEX
  8
0
 10
4.5524
 20
4.90033
 30
0.0
 40
0.007874
 41
0.007874
  0
VERTEX
  8
0
 10
4.57362
 20
4.91461
 30
0.0
 40
0.007874
 41
0.007874
  0
VERTEX
  8
0
 10
4.5931
 20
4.91982
 30
0.0
 40
0.007874
 41
0.007874
  0
VERTEX
  8
0
 10
4.59961
 20
4.91982
 30
0.0
 40
0.007874
 41
0.007874
  0
VERTEX
  8
0
 10
4.60607
 20
4.91982
 30
0.0
 40
0.007874
 41
0.007874
  0
VERTEX
  8
0
 10
4.62554
 20
4.91461
 30
0.0
 40
0.007874
 41
0.007874
  0
VERTEX
  8
0
 10
4.64675
 20
4.90033
 30
0.0
 40
0.007874
 41
0.007874
  0
VERTEX
  8
0
 10
4.66108
 20
4.87912
 30
0.0
 40
0.007874
 41
0.007874
  0
VERTEX
  8
0
 10
4.66635
 20
4.85965
 30
0.0
 40
0.007874
 41
0.007874
  0
VERTEX
  8
0
 10
4.66635
 20
4.85314
 30
0.0
 40
0.007874
 41
0.007874
  0
SEQEND
 8
0
  0
POLYLINE
  8
0
 62
     0
 66
     1
 10
0
 20
0
 30
0.0
 70
     1
 40
0.566928
 41
0.566928
  0
VERTEX
  8
0
 10
1.604
 20
4.79563
 30
0.0
 40
0.007874
 41
0.007874
  0
VERTEX
  8
0
 10
1.604
 20
4.78771
 30
0.0
 40
0.007874
 41
0.007874
  0
VERTEX
  8
0
 10
1.59754
 20
4.76378
 30
0.0
 40
0.007874
 41
0.007874
  0
VERTEX
  8
0
 10
1.57997
 20
4.73774
 30
0.0
 40
0.007874
 41
0.007874
  0
VERTEX
  8
0
 10
1.55399
 20
4.72021
 30
0.0
 40
0.007874
 41
0.007874
  0
VERTEX
  8
0
 10
1.53006
 20
4.71376
 30
0.0
 40
0.007874
 41
0.007874
  0
VERTEX
  8
0
 10
1.52214
 20
4.71376
 30
0.0
 40
0.007874
 41
0.007874
  0
VERTEX
  8
0
 10
1.51417
 20
4.71376
 30
0.0
 40
0.007874
 41
0.007874
  0
VERTEX
  8
0
 10
1.49024
 20
4.72021
 30
0.0
 40
0.007874
 41
0.007874
  0
VERTEX
  8
0
 10
1.46419
 20
4.73774
 30
0.0
 40
0.007874
 41
0.007874
  0
VERTEX
  8
0
 10
1.44661
 20
4.76378
 30
0.0
 40
0.007874
 41
0.007874
  0
VERTEX
  8
0
 10
1.44021
 20
4.78771
 30
0.0
 40
0.007874
 41
0.007874
  0
VERTEX
  8
0
 10
1.44021
 20
4.79563
 30
0.0
 40
0.007874
 41
0.007874
  0
VERTEX
  8
0
 10
1.44021
 20
4.8036
 30
0.0
 40
0.007874
 41
0.007874
  0
VERTEX
  8
0
 10
1.44661
 20
4.82753
 30
0.0
 40
0.007874
 41
0.007874
  0
VERTEX
  8
0
 10
1.46419
 20
4.85357
 30
0.0
 40
0.007874
 41
0.007874
  0
VERTEX
  8
0
 10
1.49024
 20
4.8711
 30
0.0
 40
0.007874
 41
0.007874
  0
VERTEX
  8
0
 10
1.51417
 20
4.8775
 30
0.0
 40
0.007874
 41
0.007874
  0
VERTEX
  8
0
 10
1.52214
 20
4.8775
 30
0.0
 40
0.007874
 41
0.007874
  0
VERTEX
  8
0
 10
1.53006
 20
4.8775
 30
0.0
 40
0.007874
 41
0.007874
  0
VERTEX
  8
0
 10
1.55399
 20
4.8711
 30
0.0
 40
0.007874
 41
0.007874
  0
VERTEX
  8
0
 10
1.57997
 20
4.85357
 30
0.0
 40
0.007874
 41
0.007874
  0
VERTEX
  8
0
 10
1.59754
 20
4.82753
 30
0.0
 40
0.007874
 41
0.007874
  0
VERTEX
  8
0
 10
1.604
 20
4.8036
 30
0.0
 40
0.007874
 41
0.007874
  0
VERTEX
  8
0
 10
1.604
 20
4.79563
 30
0.0
 40
0.007874
 41
0.007874
  0
SEQEND
 8
0
  0
POLYLINE
  8
0
 62
     0
 66
     1
 10
0
 20
0
 30
0.0
 70
     1
 40
0.566928
 41
0.566928
  0
VERTEX
  8
0
 10
0.316351
 20
4.7781
 30
0.0
 40
0.007874
 41
0.007874
  0
VERTEX
  8
0
 10
0.316351
 20
4.77165
 30
0.0
 40
0.007874
 41
0.007874
  0
VERTEX
  8
0
 10
0.311089
 20
4.75217
 30
0.0
 40
0.007874
 41
0.007874
  0
VERTEX
  8
0
 10
0.296767
 20
4.73096
 30
0.0
 40
0.007874
 41
0.007874
  0
VERTEX
  8
0
 10
0.275553
 20
4.71669
 30
0.0
 40
0.007874
 41
0.007874
  0
VERTEX
  8
0
 10
0.256076
 20
4.71143
 30
0.0
 40
0.007874
 41
0.007874
  0
VERTEX
  8
0
 10
0.249621
 20
4.71143
 30
0.0
 40
0.007874
 41
0.007874
  0
VERTEX
  8
0
 10
0.24311
 20
4.71143
 30
0.0
 40
0.007874
 41
0.007874
  0
VERTEX
  8
0
 10
0.223633
 20
4.71669
 30
0.0
 40
0.007874
 41
0.007874
  0
VERTEX
  8
0
 10
0.202419
 20
4.73096
 30
0.0
 40
0.007874
 41
0.007874
  0
VERTEX
  8
0
 10
0.188097
 20
4.75217
 30
0.0
 40
0.007874
 41
0.007874
  0
VERTEX
  8
0
 10
0.182889
 20
4.77165
 30
0.0
 40
0.007874
 41
0.007874
  0
VERTEX
  8
0
 10
0.182889
 20
4.7781
 30
0.0
 40
0.007874
 41
0.007874
  0
VERTEX
  8
0
 10
0.182889
 20
4.78461
 30
0.0
 40
0.007874
 41
0.007874
  0
VERTEX
  8
0
 10
0.188097
 20
4.8041
 30
0.0
 40
0.007874
 41
0.007874
  0
VERTEX
  8
0
 10
0.202419
 20
4.82531
 30
0.0
 40
0.007874
 41
0.007874
  0
VERTEX
  8
0
 10
0.223633
 20
4.83963
 30
0.0
 40
0.007874
 41
0.007874
  0
VERTEX
  8
0
 10
0.24311
 20
4.84483
 30
0.0
 40
0.007874
 41
0.007874
  0
VERTEX
  8
0
 10
0.249621
 20
4.84483
 30
0.0
 40
0.007874
 41
0.007874
  0
VERTEX
  8
0
 10
0.256076
 20
4.84483
 30
0.0
 40
0.007874
 41
0.007874
  0
VERTEX
  8
0
 10
0.275553
 20
4.83963
 30
0.0
 40
0.007874
 41
0.007874
  0
VERTEX
  8
0
 10
0.296767
 20
4.82531
 30
0.0
 40
0.007874
 41
0.007874
  0
VERTEX
  8
0
 10
0.311089
 20
4.8041
 30
0.0
 40
0.007874
 41
0.007874
  0
VERTEX
  8
0
 10
0.316351
 20
4.78461
 30
0.0
 40
0.007874
 41
0.007874
  0
VERTEX
  8
0
 10
0.316351
 20
4.7781
 30
0.0
 40
0.007874
 41
0.007874
  0
SEQEND
 8
0
  0
POLYLINE
  8
0
 62
     0
 66
     1
 10
0
 20
0
 30
0.0
 40
0.431999
 41
0.431999
  0
VERTEX
  8
0
 10
1.04959
 20
4.55311
 30
0.0
 40
0.00599999
 41
0.00599999
  0
VERTEX
  8
0
 10
1.59961
 20
4.55311
 30
0.0
 40
0.00599999
 41
0.00599999
  0
SEQEND
 8
0
  0
POLYLINE
  8
0
 62
     0
 66
     1
 10
0
 20
0
 30
0.0
 40
0.431999
 41
0.431999
  0
VERTEX
  8
0
 10
1.59961
 20
4.55311
 30
0.0
 40
0.00599999
 41
0.00599999
  0
VERTEX
  8
0
 10
1.59961
 20
4.00315
 30
0.0
 40
0.00599999
 41
0.00599999
  0
SEQEND
 8
0
  0
POLYLINE
  8
0
 62
     0
 66
     1
 10
0
 20
0
 30
0.0
 40
0.431999
 41
0.431999
  0
VERTEX
  8
0
 10
1.59961
 20
4.00315
 30
0.0
 40
0.00599999
 41
0.00599999
  0
VERTEX
  8
0
 10
1.04959
 20
4.00315
 30
0.0
 40
0.00599999
 41
0.00599999
  0
SEQEND
 8
0
  0
POLYLINE
  8
0
 62
     0
 66
     1
 10
0
 20
0
 30
0.0
 40
0.431999
 41
0.431999
  0
VERTEX
  8
0
 10
1.04959
 20
4.00315
 30
0.0
 40
0.00599999
 41
0.00599999
  0
VERTEX
  8
0
 10
1.04959
 20
4.55311
 30
0.0
 40
0.00599999
 41
0.00599999
  0
SEQEND
 8
0
  0
POLYLINE
  8
0
 62
     0
 66
     1
 10
0
 20
0
 30
0.0
 40
0.431999
 41
0.431999
  0
VERTEX
  8
0
 10
1.79958
 20
4.72814
 30
0.0
 40
0.00599999
 41
0.00599999
  0
VERTEX
  8
0
 10
2.34961
 20
4.72814
 30
0.0
 40
0.00599999
 41
0.00599999
  0
SEQEND
 8
0
  0
POLYLINE
  8
0
 62
     0
 66
     1
 10
0
 20
0
 30
0.0
 40
0.431999
 41
0.431999
  0
VERTEX
  8
0
 10
2.34961
 20
4.72814
 30
0.0
 40
0.00599999
 41
0.00599999
  0
VERTEX
  8
0
 10
2.34961
 20
4.17811
 30
0.0
 40
0.00599999
 41
0.00599999
  0
SEQEND
 8
0
  0
POLYLINE
  8
0
 62
     0
 66
     1
 10
0
 20
0
 30
0.0
 40
0.431999
 41
0.431999
  0
VERTEX
  8
0
 10
2.34961
 20
4.17811
 30
0.0
 40
0.00599999
 41
0.00599999
  0
VERTEX
  8
0
 10
1.79958
 20
4.17811
 30
0.0
 40
0.00599999
 41
0.00599999
  0
SEQEND
 8
0
  0
POLYLINE
  8
0
 62
     0
 66
     1
 10
0
 20
0
 30
0.0
 40
0.431999
 41
0.431999
  0
VERTEX
  8
0
 10
1.79958
 20
4.17811
 30
0.0
 40
0.00599999
 41
0.00599999
  0
VERTEX
  8
0
 10
1.79958
 20
4.72814
 30
0.0
 40
0.00599999
 41
0.00599999
  0
SEQEND
 8
0
  0
POLYLINE
  8
0
 62
     0
 66
     1
 10
0
 20
0
 30
0.0
 40
0.431999
 41
0.431999
  0
VERTEX
  8
0
 10
2.54958
 20
4.82813
 30
0.0
 40
0.00599999
 41
0.00599999
  0
VERTEX
  8
0
 10
3.09961
 20
4.82813
 30
0.0
 40
0.00599999
 41
0.00599999
  0
SEQEND
 8
0
  0
POLYLINE
  8
0
 62
     0
 66
     1
 10
0
 20
0
 30
0.0
 40
0.431999
 41
0.431999
  0
VERTEX
  8
0
 10
3.09961
 20
4.82813
 30
0.0
 40
0.00599999
 41
0.00599999
  0
VERTEX
  8
0
 10
3.09961
 20
4.27815
 30
0.0
 40
0.00599999
 41
0.00599999
  0
SEQEND
 8
0
  0
POLYLINE
  8
0
 62
     0
 66
     1
 10
0
 20
0
 30
0.0
 40
0.431999
 41
0.431999
  0
VERTEX
  8
0
 10
3.09961
 20
4.27815
 30
0.0
 40
0.00599999
 41
0.00599999
  0
VERTEX
  8
0
 10
2.54958
 20
4.27815
 30
0.0
 40
0.00599999
 41
0.00599999
  0
SEQEND
 8
0
  0
POLYLINE
  8
0
 62
     0
 66
     1
 10
0
 20
0
 30
0.0
 40
0.431999
 41
0.431999
  0
VERTEX
  8
0
 10
2.54958
 20
4.27815
 30
0.0
 40
0.00599999
 41
0.00599999
  0
VERTEX
  8
0
 10
2.54958
 20
4.82813
 30
0.0
 40
0.00599999
 41
0.00599999
  0
SEQEND
 8
0
  0
POLYLINE
  8
0
 62
     0
 66
     1
 10
0
 20
0
 30
0.0
 40
0.431999
 41
0.431999
  0
VERTEX
  8
0
 10
3.29958
 20
4.72814
 30
0.0
 40
0.00599999
 41
0.00599999
  0
VERTEX
  8
0
 10
3.84961
 20
4.72814
 30
0.0
 40
0.00599999
 41
0.00599999
  0
SEQEND
 8
0
  0
POLYLINE
  8
0
 62
     0
 66
     1
 10
0
 20
0
 30
0.0
 40
0.431999
 41
0.431999
  0
VERTEX
  8
0
 10
3.84961
 20
4.72814
 30
0.0
 40
0.00599999
 41
0.00599999
  0
VERTEX
  8
0
 10
3.84961
 20
4.17811
 30
0.0
 40
0.00599999
 41
0.00599999
  0
SEQEND
 8
0
  0
POLYLINE
  8
0
 62
     0
 66
     1
 10
0
 20
0
 30
0.0
 40
0.431999
 41
0.431999
  0
VERTEX
  8
0
 10
3.84961
 20
4.17811
 30
0.0
 40
0.00599999
 41
0.00599999
  0
VERTEX
  8
0
 10
3.29958
 20
4.17811
 30
0.0
 40
0.00599999
 41
0.00599999
  0
SEQEND
 8
0
  0
POLYLINE
  8
0
 62
     0
 66
     1
 10
0
 20
0
 30
0.0
 40
0.431999
 41
0.431999
  0
VERTEX
  8
0
 10
3.29958
 20
4.17811
 30
0.0
 40
0.00599999
 41
0.00599999
  0
VERTEX
  8
0
 10
3.29958
 20
4.72814
 30
0.0
 40
0.00599999
 41
0.00599999
  0
SEQEND
 8
0
  0
POLYLINE
  8
0
 62
     0
 66
     1
 10
0
 20
0
 30
0.0
 40
0.431999
 41
0.431999
  0
VERTEX
  8
0
 10
4.04958
 20
4.65315
 30
0.0
 40
0.00599999
 41
0.00599999
  0
VERTEX
  8
0
 10
4.59961
 20
4.65315
 30
0.0
 40
0.00599999
 41
0.00599999
  0
SEQEND
 8
0
  0
POLYLINE
  8
0
 62
     0
 66
     1
 10
0
 20
0
 30
0.0
 40
0.431999
 41
0.431999
  0
VERTEX
  8
0
 10
4.59961
 20
4.65315
 30
0.0
 40
0.00599999
 41
0.00599999
  0
VERTEX
  8
0
 10
4.59961
 20
4.10314
 30
0.0
 40
0.00599999
 41
0.00599999
  0
SEQEND
 8
0
  0
POLYLINE
  8
0
 62
     0
 66
     1
 10
0
 20
0
 30
0.0
 40
0.431999
 41
0.431999
  0
VERTEX
  8
0
 10
4.59961
 20
4.10314
 30
0.0
 40
0.00599999
 41
0.00599999
  0
VERTEX
  8
0
 10
4.04958
 20
4.10314
 30
0.0
 40
0.00599999
 41
0.00599999
  0
SEQEND
 8
0
  0
POLYLINE
  8
0
 62
     0
 66
     1
 10
0
 20
0
 30
0.0
 40
0.431999
 41
0.431999
  0
VERTEX
  8
0
 10
4.04958
 20
4.10314
 30
0.0
 40
0.00599999
 41
0.00599999
  0
VERTEX
  8
0
 10
4.04958
 20
4.65315
 30
0.0
 40
0.00599999
 41
0.00599999
  0
SEQEND
 8
0
  0
POLYLINE
  8
0
 62
     0
 66
     1
 10
0
 20
0
 30
0.0
 40
0.431999
 41
0.431999
  0
VERTEX
  8
0
 10
4.79958
 20
4.27815
 30
0.0
 40
0.00599999
 41
0.00599999
  0
VERTEX
  8
0
 10
5.34961
 20
4.27815
 30
0.0
 40
0.00599999
 41
0.00599999
  0
SEQEND
 8
0
  0
POLYLINE
  8
0
 62
     0
 66
     1
 10
0
 20
0
 30
0.0
 40
0.431999
 41
0.431999
  0
VERTEX
  8
0
 10
5.34961
 20
4.27815
 30
0.0
 40
0.00599999
 41
0.00599999
  0
VERTEX
  8
0
 10
5.34961
 20
3.72814
 30
0.0
 40
0.00599999
 41
0.00599999
  0
SEQEND
 8
0
  0
POLYLINE
  8
0
 62
     0
 66
     1
 10
0
 20
0
 30
0.0
 40
0.431999
 41
0.431999
  0
VERTEX
  8
0
 10
5.34961
 20
3.72814
 30
0.0
 40
0.00599999
 41
0.00599999
  0
VERTEX
  8
0
 10
4.79958
 20
3.72814
 30
0.0
 40
0.00599999
 41
0.00599999
  0
SEQEND
 8
0
  0
POLYLINE
  8
0
 62
     0
 66
     1
 10
0
 20
0
 30
0.0
 40
0.431999
 41
0.431999
  0
VERTEX
  8
0
 10
4.79958
 20
3.72814
 30
0.0
 40
0.00599999
 41
0.00599999
  0
VERTEX
  8
0
 10
4.79958
 20
4.27815
 30
0.0
 40
0.00599999
 41
0.00599999
  0
SEQEND
 8
0
  0
POLYLINE
  8
0
 62
     0
 66
     1
 10
0
 20
0
 30
0.0
 40
0.431999
 41
0.431999
  0
VERTEX
  8
0
 10
1.04959
 20
3.80311
 30
0.0
 40
0.00599999
 41
0.00599999
  0
VERTEX
  8
0
 10
1.59961
 20
3.80311
 30
0.0
 40
0.00599999
 41
0.00599999
  0
SEQEND
 8
0
  0
POLYLINE
  8
0
 62
     0
 66
     1
 10
0
 20
0
 30
0.0
 40
0.431999
 41
0.431999
  0
VERTEX
  8
0
 10
1.59961
 20
3.80311
 30
0.0
 40
0.00599999
 41
0.00599999
  0
VERTEX
  8
0
 10
1.59961
 20
3.25315
 30
0.0
 40
0.00599999
 41
0.00599999
  0
SEQEND
 8
0
  0
POLYLINE
  8
0
 62
     0
 66
     1
 10
0
 20
0
 30
0.0
 40
0.431999
 41
0.431999
  0
VERTEX
  8
0
 10
1.59961
 20
3.25315
 30
0.0
 40
0.00599999
 41
0.00599999
  0
VERTEX
  8
0
 10
1.04959
 20
3.25315
 30
0.0
 40
0.00599999
 41
0.00599999
  0
SEQEND
 8
0
  0
POLYLINE
  8
0
 62
     0
 66
     1
 10
0
 20
0
 30
0.0
 40
0.431999
 41
0.431999
  0
VERTEX
  8
0
 10
1.04959
 20
3.25315
 30
0.0
 40
0.00599999
 41
0.00599999
  0
VERTEX
  8
0
 10
1.04959
 20
3.80311
 30
0.0
 40
0.00599999
 41
0.00599999
  0
SEQEND
 8
0
  0
POLYLINE
  8
0
 62
     0
 66
     1
 10
0
 20
0
 30
0.0
 40
0.431999
 41
0.431999
  0
VERTEX
  8
0
 10
1.79958
 20
3.97814
 30
0.0
 40
0.00599999
 41
0.00599999
  0
VERTEX
  8
0
 10
2.34961
 20
3.97814
 30
0.0
 40
0.00599999
 41
0.00599999
  0
SEQEND
 8
0
  0
POLYLINE
  8
0
 62
     0
 66
     1
 10
0
 20
0
 30
0.0
 40
0.431999
 41
0.431999
  0
VERTEX
  8
0
 10
2.34961
 20
3.97814
 30
0.0
 40
0.00599999
 41
0.00599999
  0
VERTEX
  8
0
 10
2.34961
 20
3.42811
 30
0.0
 40
0.00599999
 41
0.00599999
  0
SEQEND
 8
0
  0
POLYLINE
  8
0
 62
     0
 66
     1
 10
0
 20
0
 30
0.0
 40
0.431999
 41
0.431999
  0
VERTEX
  8
0
 10
2.34961
 20
3.42811
 30
0.0
 40
0.00599999
 41
0.00599999
  0
VERTEX
  8
0
 10
1.79958
 20
3.42811
 30
0.0
 40
0.00599999
 41
0.00599999
  0
SEQEND
 8
0
  0
POLYLINE
  8
0
 62
     0
 66
     1
 10
0
 20
0
 30
0.0
 40
0.431999
 41
0.431999
  0
VERTEX
  8
0
 10
1.79958
 20
3.42811
 30
0.0
 40
0.00599999
 41
0.00599999
  0
VERTEX
  8
0
 10
1.79958
 20
3.97814
 30
0.0
 40
0.00599999
 41
0.00599999
  0
SEQEND
 8
0
  0
POLYLINE
  8
0
 62
     0
 66
     1
 10
0
 20
0
 30
0.0
 40
0.431999
 41
0.431999
  0
VERTEX
  8
0
 10
2.54958
 20
4.07813
 30
0.0
 40
0.00599999
 41
0.00599999
  0
VERTEX
  8
0
 10
3.09961
 20
4.07813
 30
0.0
 40
0.00599999
 41
0.00599999
  0
SEQEND
 8
0
  0
POLYLINE
  8
0
 62
     0
 66
     1
 10
0
 20
0
 30
0.0
 40
0.431999
 41
0.431999
  0
VERTEX
  8
0
 10
3.09961
 20
4.07813
 30
0.0
 40
0.00599999
 41
0.00599999
  0
VERTEX
  8
0
 10
3.09961
 20
3.52815
 30
0.0
 40
0.00599999
 41
0.00599999
  0
SEQEND
 8
0
  0
POLYLINE
  8
0
 62
     0
 66
     1
 10
0
 20
0
 30
0.0
 40
0.431999
 41
0.431999
  0
VERTEX
  8
0
 10
3.09961
 20
3.52815
 30
0.0
 40
0.00599999
 41
0.00599999
  0
VERTEX
  8
0
 10
2.54958
 20
3.52815
 30
0.0
 40
0.00599999
 41
0.00599999
  0
SEQEND
 8
0
  0
POLYLINE
  8
0
 62
     0
 66
     1
 10
0
 20
0
 30
0.0
 40
0.431999
 41
0.431999
  0
VERTEX
  8
0
 10
2.54958
 20
3.52815
 30
0.0
 40
0.00599999
 41
0.00599999
  0
VERTEX
  8
0
 10
2.54958
 20
4.07813
 30
0.0
 40
0.00599999
 41
0.00599999
  0
SEQEND
 8
0
  0
POLYLINE
  8
0
 62
     0
 66
     1
 10
0
 20
0
 30
0.0
 40
0.431999
 41
0.431999
  0
VERTEX
  8
0
 10
3.29958
 20
3.97814
 30
0.0
 40
0.00599999
 41
0.00599999
  0
VERTEX
  8
0
 10
3.84961
 20
3.97814
 30
0.0
 40
0.00599999
 41
0.00599999
  0
SEQEND
 8
0
  0
POLYLINE
  8
0
 62
     0
 66
     1
 10
0
 20
0
 30
0.0
 40
0.431999
 41
0.431999
  0
VERTEX
  8
0
 10
3.84961
 20
3.97814
 30
0.0
 40
0.00599999
 41
0.00599999
  0
VERTEX
  8
0
 10
3.84961
 20
3.42811
 30
0.0
 40
0.00599999
 41
0.00599999
  0
SEQEND
 8
0
  0
POLYLINE
  8
0
 62
     0
 66
     1
 10
0
 20
0
 30
0.0
 40
0.431999
 41
0.431999
  0
VERTEX
  8
0
 10
3.84961
 20
3.42811
 30
0.0
 40
0.00599999
 41
0.00599999
  0
VERTEX
  8
0
 10
3.29958
 20
3.42811
 30
0.0
 40
0.00599999
 41
0.00599999
  0
SEQEND
 8
0
  0
POLYLINE
  8
0
 62
     0
 66
     1
 10
0
 20
0
 30
0.0
 40
0.431999
 41
0.431999
  0
VERTEX
  8
0
 10
3.29958
 20
3.42811
 30
0.0
 40
0.00599999
 41
0.00599999
  0
VERTEX
  8
0
 10
3.29958
 20
3.97814
 30
0.0
 40
0.00599999
 41
0.00599999
  0
SEQEND
 8
0
  0
POLYLINE
  8
0
 62
     0
 66
     1
 10
0
 20
0
 30
0.0
 40
0.431999
 41
0.431999
  0
VERTEX
  8
0
 10
4.04958
 20
3.90315
 30
0.0
 40
0.00599999
 41
0.00599999
  0
VERTEX
  8
0
 10
4.59961
 20
3.90315
 30
0.0
 40
0.00599999
 41
0.00599999
  0
SEQEND
 8
0
  0
POLYLINE
  8
0
 62
     0
 66
     1
 10
0
 20
0
 30
0.0
 40
0.431999
 41
0.431999
  0
VERTEX
  8
0
 10
4.59961
 20
3.90315
 30
0.0
 40
0.00599999
 41
0.00599999
  0
VERTEX
  8
0
 10
4.59961
 20
3.35314
 30
0.0
 40
0.00599999
 41
0.00599999
  0
SEQEND
 8
0
  0
POLYLINE
  8
0
 62
     0
 66
     1
 10
0
 20
0
 30
0.0
 40
0.431999
 41
0.431999
  0
VERTEX
  8
0
 10
4.59961
 20
3.35314
 30
0.0
 40
0.00599999
 41
0.00599999
  0
VERTEX
  8
0
 10
4.04958
 20
3.35314
 30
0.0
 40
0.00599999
 41
0.00599999
  0
SEQEND
 8
0
  0
POLYLINE
  8
0
 62
     0
 66
     1
 10
0
 20
0
 30
0.0
 40
0.431999
 41
0.431999
  0
VERTEX
  8
0
 10
4.04958
 20
3.35314
 30
0.0
 40
0.00599999
 41
0.00599999
  0
VERTEX
  8
0
 10
4.04958
 20
3.90315
 30
0.0
 40
0.00599999
 41
0.00599999
  0
SEQEND
 8
0
  0
POLYLINE
  8
0
 62
     0
 66
     1
 10
0
 20
0
 30
0.0
 40
0.431999
 41
0.431999
  0
VERTEX
  8
0
 10
1.04959
 20
3.05311
 30
0.0
 40
0.00599999
 41
0.00599999
  0
VERTEX
  8
0
 10
1.59961
 20
3.05311
 30
0.0
 40
0.00599999
 41
0.00599999
  0
SEQEND
 8
0
  0
POLYLINE
  8
0
 62
     0
 66
     1
 10
0
 20
0
 30
0.0
 40
0.431999
 41
0.431999
  0
VERTEX
  8
0
 10
1.59961
 20
3.05311
 30
0.0
 40
0.00599999
 41
0.00599999
  0
VERTEX
  8
0
 10
1.59961
 20
2.50315
 30
0.0
 40
0.00599999
 41
0.00599999
  0
SEQEND
 8
0
  0
POLYLINE
  8
0
 62
     0
 66
     1
 10
0
 20
0
 30
0.0
 40
0.431999
 41
0.431999
  0
VERTEX
  8
0
 10
1.59961
 20
2.50315
 30
0.0
 40
0.00599999
 41
0.00599999
  0
VERTEX
  8
0
 10
1.04959
 20
2.50315
 30
0.0
 40
0.00599999
 41
0.00599999
  0
SEQEND
 8
0
  0
POLYLINE
  8
0
 62
     0
 66
     1
 10
0
 20
0
 30
0.0
 40
0.431999
 41
0.431999
  0
VERTEX
  8
0
 10
1.04959
 20
2.50315
 30
0.0
 40
0.00599999
 41
0.00599999
  0
VERTEX
  8
0
 10
1.04959
 20
3.05311
 30
0.0
 40
0.00599999
 41
0.00599999
  0
SEQEND
 8
0
  0
POLYLINE
  8
0
 62
     0
 66
     1
 10
0
 20
0
 30
0.0
 40
0.431999
 41
0.431999
  0
VERTEX
  8
0
 10
1.79958
 20
3.22814
 30
0.0
 40
0.00599999
 41
0.00599999
  0
VERTEX
  8
0
 10
2.34961
 20
3.22814
 30
0.0
 40
0.00599999
 41
0.00599999
  0
SEQEND
 8
0
  0
POLYLINE
  8
0
 62
     0
 66
     1
 10
0
 20
0
 30
0.0
 40
0.431999
 41
0.431999
  0
VERTEX
  8
0
 10
2.34961
 20
3.22814
 30
0.0
 40
0.00599999
 41
0.00599999
  0
VERTEX
  8
0
 10
2.34961
 20
2.67811
 30
0.0
 40
0.00599999
 41
0.00599999
  0
SEQEND
 8
0
  0
POLYLINE
  8
0
 62
     0
 66
     1
 10
0
 20
0
 30
0.0
 40
0.431999
 41
0.431999
  0
VERTEX
  8
0
 10
2.34961
 20
2.67811
 30
0.0
 40
0.00599999
 41
0.00599999
  0
VERTEX
  8
0
 10
1.79958
 20
2.67811
 30
0.0
 40
0.00599999
 41
0.00599999
  0
SEQEND
 8
0
  0
POLYLINE
  8
0
 62
     0
 66
     1
 10
0
 20
0
 30
0.0
 40
0.431999
 41
0.431999
  0
VERTEX
  8
0
 10
1.79958
 20
2.67811
 30
0.0
 40
0.00599999
 41
0.00599999
  0
VERTEX
  8
0
 10
1.79958
 20
3.22814
 30
0.0
 40
0.00599999
 41
0.00599999
  0
SEQEND
 8
0
  0
POLYLINE
  8
0
 62
     0
 66
     1
 10
0
 20
0
 30
0.0
 40
0.431999
 41
0.431999
  0
VERTEX
  8
0
 10
2.54958
 20
3.32813
 30
0.0
 40
0.00599999
 41
0.00599999
  0
VERTEX
  8
0
 10
3.09961
 20
3.32813
 30
0.0
 40
0.00599999
 41
0.00599999
  0
SEQEND
 8
0
  0
POLYLINE
  8
0
 62
     0
 66
     1
 10
0
 20
0
 30
0.0
 40
0.431999
 41
0.431999
  0
VERTEX
  8
0
 10
3.09961
 20
3.32813
 30
0.0
 40
0.00599999
 41
0.00599999
  0
VERTEX
  8
0
 10
3.09961
 20
2.77815
 30
0.0
 40
0.00599999
 41
0.00599999
  0
SEQEND
 8
0
  0
POLYLINE
  8
0
 62
     0
 66
     1
 10
0
 20
0
 30
0.0
 40
0.431999
 41
0.431999
  0
VERTEX
  8
0
 10
3.09961
 20
2.77815
 30
0.0
 40
0.00599999
 41
0.00599999
  0
VERTEX
  8
0
 10
2.54958
 20
2.77815
 30
0.0
 40
0.00599999
 41
0.00599999
  0
SEQEND
 8
0
  0
POLYLINE
  8
0
 62
     0
 66
     1
 10
0
 20
0
 30
0.0
 40
0.431999
 41
0.431999
  0
VERTEX
  8
0
 10
2.54958
 20
2.77815
 30
0.0
 40
0.00599999
 41
0.00599999
  0
VERTEX
  8
0
 10
2.54958
 20
3.32813
 30
0.0
 40
0.00599999
 41
0.00599999
  0
SEQEND
 8
0
  0
POLYLINE
  8
0
 62
     0
 66
     1
 10
0
 20
0
 30
0.0
 40
0.431999
 41
0.431999
  0
VERTEX
  8
0
 10
3.29958
 20
3.22814
 30
0.0
 40
0.00599999
 41
0.00599999
  0
VERTEX
  8
0
 10
3.84961
 20
3.22814
 30
0.0
 40
0.00599999
 41
0.00599999
  0
SEQEND
 8
0
  0
POLYLINE
  8
0
 62
     0
 66
     1
 10
0
 20
0
 30
0.0
 40
0.431999
 41
0.431999
  0
VERTEX
  8
0
 10
3.84961
 20
3.22814
 30
0.0
 40
0.00599999
 41
0.00599999
  0
VERTEX
  8
0
 10
3.84961
 20
2.67811
 30
0.0
 40
0.00599999
 41
0.00599999
  0
SEQEND
 8
0
  0
POLYLINE
  8
0
 62
     0
 66
     1
 10
0
 20
0
 30
0.0
 40
0.431999
 41
0.431999
  0
VERTEX
  8
0
 10
3.84961
 20
2.67811
 30
0.0
 40
0.00599999
 41
0.00599999
  0
VERTEX
  8
0
 10
3.29958
 20
2.67811
 30
0.0
 40
0.00599999
 41
0.00599999
  0
SEQEND
 8
0
  0
POLYLINE
  8
0
 62
     0
 66
     1
 10
0
 20
0
 30
0.0
 40
0.431999
 41
0.431999
  0
VERTEX
  8
0
 10
3.29958
 20
2.67811
 30
0.0
 40
0.00599999
 41
0.00599999
  0
VERTEX
  8
0
 10
3.29958
 20
3.22814
 30
0.0
 40
0.00599999
 41
0.00599999
  0
SEQEND
 8
0
  0
POLYLINE
  8
0
 62
     0
 66
     1
 10
0
 20
0
 30
0.0
 40
0.431999
 41
0.431999
  0
VERTEX
  8
0
 10
4.04958
 20
3.15315
 30
0.0
 40
0.00599999
 41
0.00599999
  0
VERTEX
  8
0
 10
4.59961
 20
3.15315
 30
0.0
 40
0.00599999
 41
0.00599999
  0
SEQEND
 8
0
  0
POLYLINE
  8
0
 62
     0
 66
     1
 10
0
 20
0
 30
0.0
 40
0.431999
 41
0.431999
  0
VERTEX
  8
0
 10
4.59961
 20
3.15315
 30
0.0
 40
0.00599999
 41
0.00599999
  0
VERTEX
  8
0
 10
4.59961
 20
2.60314
 30
0.0
 40
0.00599999
 41
0.00599999
  0
SEQEND
 8
0
  0
POLYLINE
  8
0
 62
     0
 66
     1
 10
0
 20
0
 30
0.0
 40
0.431999
 41
0.431999
  0
VERTEX
  8
0
 10
4.59961
 20
2.60314
 30
0.0
 40
0.00599999
 41
0.00599999
  0
VERTEX
  8
0
 10
4.04958
 20
2.60314
 30
0.0
 40
0.00599999
 41
0.00599999
  0
SEQEND
 8
0
  0
POLYLINE
  8
0
 62
     0
 66
     1
 10
0
 20
0
 30
0.0
 40
0.431999
 41
0.431999
  0
VERTEX
  8
0
 10
4.04958
 20
2.60314
 30
0.0
 40
0.00599999
 41
0.00599999
  0
VERTEX
  8
0
 10
4.04958
 20
3.15315
 30
0.0
 40
0.00599999
 41
0.00599999
  0
SEQEND
 8
0
  0
POLYLINE
  8
0
 62
     0
 66
     1
 10
0
 20
0
 30
0.0
 40
0.431999
 41
0.431999
  0
VERTEX
  8
0
 10
5.12392
 20
2.25385
 30
0.0
 40
0.00599999
 41
0.00599999
  0
VERTEX
  8
0
 10
5.60021
 20
1.97885
 30
0.0
 40
0.00599999
 41
0.00599999
  0
SEQEND
 8
0
  0
POLYLINE
  8
0
 62
     0
 66
     1
 10
0
 20
0
 30
0.0
 40
0.431999
 41
0.431999
  0
VERTEX
  8
0
 10
5.60021
 20
1.97885
 30
0.0
 40
0.00599999
 41
0.00599999
  0
VERTEX
  8
0
 10
5.32519
 20
1.50256
 30
0.0
 40
0.00599999
 41
0.00599999
  0
SEQEND
 8
0
  0
POLYLINE
  8
0
 62
     0
 66
     1
 10
0
 20
0
 30
0.0
 40
0.431999
 41
0.431999
  0
VERTEX
  8
0
 10
5.32519
 20
1.50256
 30
0.0
 40
0.00599999
 41
0.00599999
  0
VERTEX
  8
0
 10
4.8489
 20
1.77756
 30
0.0
 40
0.00599999
 41
0.00599999
  0
SEQEND
 8
0
  0
POLYLINE
  8
0
 62
     0
 66
     1
 10
0
 20
0
 30
0.0
 40
0.431999
 41
0.431999
  0
VERTEX
  8
0
 10
4.8489
 20
1.77756
 30
0.0
 40
0.00599999
 41
0.00599999
  0
VERTEX
  8
0
 10
5.12392
 20
2.25385
 30
0.0
 40
0.00599999
 41
0.00599999
  0
SEQEND
 8
0
  0
POLYLINE
  8
0
 62
     0
 66
     1
 10
0
 20
0
 30
0.0
 40
0.431999
 41
0.431999
  0
VERTEX
  8
0
 10
1.04959
 20
2.30311
 30
0.0
 40
0.00599999
 41
0.00599999
  0
VERTEX
  8
0
 10
1.59961
 20
2.30311
 30
0.0
 40
0.00599999
 41
0.00599999
  0
SEQEND
 8
0
  0
POLYLINE
  8
0
 62
     0
 66
     1
 10
0
 20
0
 30
0.0
 40
0.431999
 41
0.431999
  0
VERTEX
  8
0
 10
1.59961
 20
2.30311
 30
0.0
 40
0.00599999
 41
0.00599999
  0
VERTEX
  8
0
 10
1.59961
 20
1.75315
 30
0.0
 40
0.00599999
 41
0.00599999
  0
SEQEND
 8
0
  0
POLYLINE
  8
0
 62
     0
 66
     1
 10
0
 20
0
 30
0.0
 40
0.431999
 41
0.431999
  0
VERTEX
  8
0
 10
1.59961
 20
1.75315
 30
0.0
 40
0.00599999
 41
0.00599999
  0
VERTEX
  8
0
 10
1.04959
 20
1.75315
 30
0.0
 40
0.00599999
 41
0.00599999
  0
SEQEND
 8
0
  0
POLYLINE
  8
0
 62
     0
 66
     1
 10
0
 20
0
 30
0.0
 40
0.431999
 41
0.431999
  0
VERTEX
  8
0
 10
1.04959
 20
1.75315
 30
0.0
 40
0.00599999
 41
0.00599999
  0
VERTEX
  8
0
 10
1.04959
 20
2.30311
 30
0.0
 40
0.00599999
 41
0.00599999
  0
SEQEND
 8
0
  0
POLYLINE
  8
0
 62
     0
 66
     1
 10
0
 20
0
 30
0.0
 40
0.431999
 41
0.431999
  0
VERTEX
  8
0
 10
1.79958
 20
2.47814
 30
0.0
 40
0.00599999
 41
0.00599999
  0
VERTEX
  8
0
 10
2.34961
 20
2.47814
 30
0.0
 40
0.00599999
 41
0.00599999
  0
SEQEND
 8
0
  0
POLYLINE
  8
0
 62
     0
 66
     1
 10
0
 20
0
 30
0.0
 40
0.431999
 41
0.431999
  0
VERTEX
  8
0
 10
2.34961
 20
2.47814
 30
0.0
 40
0.00599999
 41
0.00599999
  0
VERTEX
  8
0
 10
2.34961
 20
1.92811
 30
0.0
 40
0.00599999
 41
0.00599999
  0
SEQEND
 8
0
  0
POLYLINE
  8
0
 62
     0
 66
     1
 10
0
 20
0
 30
0.0
 40
0.431999
 41
0.431999
  0
VERTEX
  8
0
 10
2.34961
 20
1.92811
 30
0.0
 40
0.00599999
 41
0.00599999
  0
VERTEX
  8
0
 10
1.79958
 20
1.92811
 30
0.0
 40
0.00599999
 41
0.00599999
  0
SEQEND
 8
0
  0
POLYLINE
  8
0
 62
     0
 66
     1
 10
0
 20
0
 30
0.0
 40
0.431999
 41
0.431999
  0
VERTEX
  8
0
 10
1.79958
 20
1.92811
 30
0.0
 40
0.00599999
 41
0.00599999
  0
VERTEX
  8
0
 10
1.79958
 20
2.47814
 30
0.0
 40
0.00599999
 41
0.00599999
  0
SEQEND
 8
0
  0
POLYLINE
  8
0
 62
     0
 66
     1
 10
0
 20
0
 30
0.0
 40
0.431999
 41
0.431999
  0
VERTEX
  8
0
 10
2.54958
 20
2.57813
 30
0.0
 40
0.00599999
 41
0.00599999
  0
VERTEX
  8
0
 10
3.09961
 20
2.57813
 30
0.0
 40
0.00599999
 41
0.00599999
  0
SEQEND
 8
0
  0
POLYLINE
  8
0
 62
     0
 66
     1
 10
0
 20
0
 30
0.0
 40
0.431999
 41
0.431999
  0
VERTEX
  8
0
 10
3.09961
 20
2.57813
 30
0.0
 40
0.00599999
 41
0.00599999
  0
VERTEX
  8
0
 10
3.09961
 20
2.02815
 30
0.0
 40
0.00599999
 41
0.00599999
  0
SEQEND
 8
0
  0
POLYLINE
  8
0
 62
     0
 66
     1
 10
0
 20
0
 30
0.0
 40
0.431999
 41
0.431999
  0
VERTEX
  8
0
 10
3.09961
 20
2.02815
 30
0.0
 40
0.00599999
 41
0.00599999
  0
VERTEX
  8
0
 10
2.54958
 20
2.02815
 30
0.0
 40
0.00599999
 41
0.00599999
  0
SEQEND
 8
0
  0
POLYLINE
  8
0
 62
     0
 66
     1
 10
0
 20
0
 30
0.0
 40
0.431999
 41
0.431999
  0
VERTEX
  8
0
 10
2.54958
 20
2.02815
 30
0.0
 40
0.00599999
 41
0.00599999
  0
VERTEX
  8
0
 10
2.54958
 20
2.57813
 30
0.0
 40
0.00599999
 41
0.00599999
  0
SEQEND
 8
0
  0
POLYLINE
  8
0
 62
     0
 66
     1
 10
0
 20
0
 30
0.0
 40
0.431999
 41
0.431999
  0
VERTEX
  8
0
 10
3.29958
 20
2.47814
 30
0.0
 40
0.00599999
 41
0.00599999
  0
VERTEX
  8
0
 10
3.84961
 20
2.47814
 30
0.0
 40
0.00599999
 41
0.00599999
  0
SEQEND
 8
0
  0
POLYLINE
  8
0
 62
     0
 66
     1
 10
0
 20
0
 30
0.0
 40
0.431999
 41
0.431999
  0
VERTEX
  8
0
 10
3.84961
 20
2.47814
 30
0.0
 40
0.00599999
 41
0.00599999
  0
VERTEX
  8
0
 10
3.84961
 20
1.92811
 30
0.0
 40
0.00599999
 41
0.00599999
  0
SEQEND
 8
0
  0
POLYLINE
  8
0
 62
     0
 66
     1
 10
0
 20
0
 30
0.0
 40
0.431999
 41
0.431999
  0
VERTEX
  8
0
 10
3.84961
 20
1.92811
 30
0.0
 40
0.00599999
 41
0.00599999
  0
VERTEX
  8
0
 10
3.29958
 20
1.92811
 30
0.0
 40
0.00599999
 41
0.00599999
  0
SEQEND
 8
0
  0
POLYLINE
  8
0
 62
     0
 66
     1
 10
0
 20
0
 30
0.0
 40
0.431999
 41
0.431999
  0
VERTEX
  8
0
 10
3.29958
 20
1.92811
 30
0.0
 40
0.00599999
 41
0.00599999
  0
VERTEX
  8
0
 10
3.29958
 20
2.47814
 30
0.0
 40
0.00599999
 41
0.00599999
  0
SEQEND
 8
0
  0
POLYLINE
  8
0
 62
     0
 66
     1
 10
0
 20
0
 30
0.0
 40
0.431999
 41
0.431999
  0
VERTEX
  8
0
 10
4.04958
 20
2.40315
 30
0.0
 40
0.00599999
 41
0.00599999
  0
VERTEX
  8
0
 10
4.59961
 20
2.40315
 30
0.0
 40
0.00599999
 41
0.00599999
  0
SEQEND
 8
0
  0
POLYLINE
  8
0
 62
     0
 66
     1
 10
0
 20
0
 30
0.0
 40
0.431999
 41
0.431999
  0
VERTEX
  8
0
 10
4.59961
 20
2.40315
 30
0.0
 40
0.00599999
 41
0.00599999
  0
VERTEX
  8
0
 10
4.59961
 20
1.85314
 30
0.0
 40
0.00599999
 41
0.00599999
  0
SEQEND
 8
0
  0
POLYLINE
  8
0
 62
     0
 66
     1
 10
0
 20
0
 30
0.0
 40
0.431999
 41
0.431999
  0
VERTEX
  8
0
 10
4.59961
 20
1.85314
 30
0.0
 40
0.00599999
 41
0.00599999
  0
VERTEX
  8
0
 10
4.04958
 20
1.85314
 30
0.0
 40
0.00599999
 41
0.00599999
  0
SEQEND
 8
0
  0
POLYLINE
  8
0
 62
     0
 66
     1
 10
0
 20
0
 30
0.0
 40
0.431999
 41
0.431999
  0
VERTEX
  8
0
 10
4.04958
 20
1.85314
 30
0.0
 40
0.00599999
 41
0.00599999
  0
VERTEX
  8
0
 10
4.04958
 20
2.40315
 30
0.0
 40
0.00599999
 41
0.00599999
  0
SEQEND
 8
0
  0
POLYLINE
  8
0
 62
     0
 66
     1
 10
0
 20
0
 30
0.0
 40
0.431999
 41
0.431999
  0
VERTEX
  8
0
 10
0.299587
 20
1.55311
 30
0.0
 40
0.00599999
 41
0.00599999
  0
VERTEX
  8
0
 10
0.84961
 20
1.55311
 30
0.0
 40
0.00599999
 41
0.00599999
  0
SEQEND
 8
0
  0
POLYLINE
  8
0
 62
     0
 66
     1
 10
0
 20
0
 30
0.0
 40
0.431999
 41
0.431999
  0
VERTEX
  8
0
 10
0.84961
 20
1.55311
 30
0.0
 40
0.00599999
 41
0.00599999
  0
VERTEX
  8
0
 10
0.84961
 20
1.00315
 30
0.0
 40
0.00599999
 41
0.00599999
  0
SEQEND
 8
0
  0
POLYLINE
  8
0
 62
     0
 66
     1
 10
0
 20
0
 30
0.0
 40
0.431999
 41
0.431999
  0
VERTEX
  8
0
 10
0.84961
 20
1.00315
 30
0.0
 40
0.00599999
 41
0.00599999
  0
VERTEX
  8
0
 10
0.299587
 20
1.00315
 30
0.0
 40
0.00599999
 41
0.00599999
  0
SEQEND
 8
0
  0
POLYLINE
  8
0
 62
     0
 66
     1
 10
0
 20
0
 30
0.0
 40
0.431999
 41
0.431999
  0
VERTEX
  8
0
 10
0.299587
 20
1.00315
 30
0.0
 40
0.00599999
 41
0.00599999
  0
VERTEX
  8
0
 10
0.299587
 20
1.55311
 30
0.0
 40
0.00599999
 41
0.00599999
  0
SEQEND
 8
0
  0
POLYLINE
  8
0
 62
     0
 66
     1
 10
0
 20
0
 30
0.0
 40
0.431999
 41
0.431999
  0
VERTEX
  8
0
 10
1.04959
 20
1.55311
 30
0.0
 40
0.00599999
 41
0.00599999
  0
VERTEX
  8
0
 10
1.59961
 20
1.55311
 30
0.0
 40
0.00599999
 41
0.00599999
  0
SEQEND
 8
0
  0
POLYLINE
  8
0
 62
     0
 66
     1
 10
0
 20
0
 30
0.0
 40
0.431999
 41
0.431999
  0
VERTEX
  8
0
 10
1.59961
 20
1.55311
 30
0.0
 40
0.00599999
 41
0.00599999
  0
VERTEX
  8
0
 10
1.59961
 20
1.00315
 30
0.0
 40
0.00599999
 41
0.00599999
  0
SEQEND
 8
0
  0
POLYLINE
  8
0
 62
     0
 66
     1
 10
0
 20
0
 30
0.0
 40
0.431999
 41
0.431999
  0
VERTEX
  8
0
 10
1.59961
 20
1.00315
 30
0.0
 40
0.00599999
 41
0.00599999
  0
VERTEX
  8
0
 10
1.04959
 20
1.00315
 30
0.0
 40
0.00599999
 41
0.00599999
  0
SEQEND
 8
0
  0
POLYLINE
  8
0
 62
     0
 66
     1
 10
0
 20
0
 30
0.0
 40
0.431999
 41
0.431999
  0
VERTEX
  8
0
 10
1.04959
 20
1.00315
 30
0.0
 40
0.00599999
 41
0.00599999
  0
VERTEX
  8
0
 10
1.04959
 20
1.55311
 30
0.0
 40
0.00599999
 41
0.00599999
  0
SEQEND
 8
0
  0
POLYLINE
  8
0
 62
     0
 66
     1
 10
0
 20
0
 30
0.0
 40
0.431999
 41
0.431999
  0
VERTEX
  8
0
 10
1.79958
 20
1.72814
 30
0.0
 40
0.00599999
 41
0.00599999
  0
VERTEX
  8
0
 10
2.34961
 20
1.72814
 30
0.0
 40
0.00599999
 41
0.00599999
  0
SEQEND
 8
0
  0
POLYLINE
  8
0
 62
     0
 66
     1
 10
0
 20
0
 30
0.0
 40
0.431999
 41
0.431999
  0
VERTEX
  8
0
 10
2.34961
 20
1.72814
 30
0.0
 40
0.00599999
 41
0.00599999
  0
VERTEX
  8
0
 10
2.34961
 20
1.17811
 30
0.0
 40
0.00599999
 41
0.00599999
  0
SEQEND
 8
0
  0
POLYLINE
  8
0
 62
     0
 66
     1
 10
0
 20
0
 30
0.0
 40
0.431999
 41
0.431999
  0
VERTEX
  8
0
 10
2.34961
 20
1.17811
 30
0.0
 40
0.00599999
 41
0.00599999
  0
VERTEX
  8
0
 10
1.79958
 20
1.17811
 30
0.0
 40
0.00599999
 41
0.00599999
  0
SEQEND
 8
0
  0
POLYLINE
  8
0
 62
     0
 66
     1
 10
0
 20
0
 30
0.0
 40
0.431999
 41
0.431999
  0
VERTEX
  8
0
 10
1.79958
 20
1.17811
 30
0.0
 40
0.00599999
 41
0.00599999
  0
VERTEX
  8
0
 10
1.79958
 20
1.72814
 30
0.0
 40
0.00599999
 41
0.00599999
  0
SEQEND
 8
0
  0
POLYLINE
  8
0
 62
     0
 66
     1
 10
0
 20
0
 30
0.0
 40
0.431999
 41
0.431999
  0
VERTEX
  8
0
 10
2.54958
 20
1.82813
 30
0.0
 40
0.00599999
 41
0.00599999
  0
VERTEX
  8
0
 10
3.09961
 20
1.82813
 30
0.0
 40
0.00599999
 41
0.00599999
  0
SEQEND
 8
0
  0
POLYLINE
  8
0
 62
     0
 66
     1
 10
0
 20
0
 30
0.0
 40
0.431999
 41
0.431999
  0
VERTEX
  8
0
 10
3.09961
 20
1.82813
 30
0.0
 40
0.00599999
 41
0.00599999
  0
VERTEX
  8
0
 10
3.09961
 20
1.27816
 30
0.0
 40
0.00599999
 41
0.00599999
  0
SEQEND
 8
0
  0
POLYLINE
  8
0
 62
     0
 66
     1
 10
0
 20
0
 30
0.0
 40
0.431999
 41
0.431999
  0
VERTEX
  8
0
 10
3.09961
 20
1.27816
 30
0.0
 40
0.00599999
 41
0.00599999
  0
VERTEX
  8
0
 10
2.54958
 20
1.27816
 30
0.0
 40
0.00599999
 41
0.00599999
  0
SEQEND
 8
0
  0
POLYLINE
  8
0
 62
     0
 66
     1
 10
0
 20
0
 30
0.0
 40
0.431999
 41
0.431999
  0
VERTEX
  8
0
 10
2.54958
 20
1.27816
 30
0.0
 40
0.00599999
 41
0.00599999
  0
VERTEX
  8
0
 10
2.54958
 20
1.82813
 30
0.0
 40
0.00599999
 41
0.00599999
  0
SEQEND
 8
0
  0
POLYLINE
  8
0
 62
     0
 66
     1
 10
0
 20
0
 30
0.0
 40
0.431999
 41
0.431999
  0
VERTEX
  8
0
 10
0.199599
 20
4.55311
 30
0.0
 40
0.00599999
 41
0.00599999
  0
VERTEX
  8
0
 10
0.749621
 20
4.55311
 30
0.0
 40
0.00599999
 41
0.00599999
  0
SEQEND
 8
0
  0
POLYLINE
  8
0
 62
     0
 66
     1
 10
0
 20
0
 30
0.0
 40
0.431999
 41
0.431999
  0
VERTEX
  8
0
 10
0.749621
 20
4.55311
 30
0.0
 40
0.00599999
 41
0.00599999
  0
VERTEX
  8
0
 10
0.749621
 20
4.00315
 30
0.0
 40
0.00599999
 41
0.00599999
  0
SEQEND
 8
0
  0
POLYLINE
  8
0
 62
     0
 66
     1
 10
0
 20
0
 30
0.0
 40
0.431999
 41
0.431999
  0
VERTEX
  8
0
 10
0.749621
 20
4.00315
 30
0.0
 40
0.00599999
 41
0.00599999
  0
VERTEX
  8
0
 10
0.199599
 20
4.00315
 30
0.0
 40
0.00599999
 41
0.00599999
  0
SEQEND
 8
0
  0
POLYLINE
  8
0
 62
     0
 66
     1
 10
0
 20
0
 30
0.0
 40
0.431999
 41
0.431999
  0
VERTEX
  8
0
 10
0.199599
 20
4.00315
 30
0.0
 40
0.00599999
 41
0.00599999
  0
VERTEX
  8
0
 10
0.199599
 20
4.55311
 30
0.0
 40
0.00599999
 41
0.00599999
  0
SEQEND
 8
0
  0
POLYLINE
  8
0
 62
     0
 66
     1
 10
0
 20
0
 30
0.0
 40
0.431999
 41
0.431999
  0
VERTEX
  8
0
 10
0.199599
 20
3.80311
 30
0.0
 40
0.00599999
 41
0.00599999
  0
VERTEX
  8
0
 10
0.749621
 20
3.80311
 30
0.0
 40
0.00599999
 41
0.00599999
  0
SEQEND
 8
0
  0
POLYLINE
  8
0
 62
     0
 66
     1
 10
0
 20
0
 30
0.0
 40
0.431999
 41
0.431999
  0
VERTEX
  8
0
 10
0.749621
 20
3.80311
 30
0.0
 40
0.00599999
 41
0.00599999
  0
VERTEX
  8
0
 10
0.749621
 20
3.25315
 30
0.0
 40
0.00599999
 41
0.00599999
  0
SEQEND
 8
0
  0
POLYLINE
  8
0
 62
     0
 66
     1
 10
0
 20
0
 30
0.0
 40
0.431999
 41
0.431999
  0
VERTEX
  8
0
 10
0.749621
 20
3.25315
 30
0.0
 40
0.00599999
 41
0.00599999
  0
VERTEX
  8
0
 10
0.199599
 20
3.25315
 30
0.0
 40
0.00599999
 41
0.00599999
  0
SEQEND
 8
0
  0
POLYLINE
  8
0
 62
     0
 66
     1
 10
0
 20
0
 30
0.0
 40
0.431999
 41
0.431999
  0
VERTEX
  8
0
 10
0.199599
 20
3.25315
 30
0.0
 40
0.00599999
 41
0.00599999
  0
VERTEX
  8
0
 10
0.199599
 20
3.80311
 30
0.0
 40
0.00599999
 41
0.00599999
  0
SEQEND
 8
0
  0
POLYLINE
  8
0
 62
     0
 66
     1
 10
0
 20
0
 30
0.0
 40
0.431999
 41
0.431999
  0
VERTEX
  8
0
 10
0.199599
 20
3.05311
 30
0.0
 40
0.00599999
 41
0.00599999
  0
VERTEX
  8
0
 10
0.749621
 20
3.05311
 30
0.0
 40
0.00599999
 41
0.00599999
  0
SEQEND
 8
0
  0
POLYLINE
  8
0
 62
     0
 66
     1
 10
0
 20
0
 30
0.0
 40
0.431999
 41
0.431999
  0
VERTEX
  8
0
 10
0.749621
 20
3.05311
 30
0.0
 40
0.00599999
 41
0.00599999
  0
VERTEX
  8
0
 10
0.749621
 20
2.50315
 30
0.0
 40
0.00599999
 41
0.00599999
  0
SEQEND
 8
0
  0
POLYLINE
  8
0
 62
     0
 66
     1
 10
0
 20
0
 30
0.0
 40
0.431999
 41
0.431999
  0
VERTEX
  8
0
 10
0.749621
 20
2.50315
 30
0.0
 40
0.00599999
 41
0.00599999
  0
VERTEX
  8
0
 10
0.199599
 20
2.50315
 30
0.0
 40
0.00599999
 41
0.00599999
  0
SEQEND
 8
0
  0
POLYLINE
  8
0
 62
     0
 66
     1
 10
0
 20
0
 30
0.0
 40
0.431999
 41
0.431999
  0
VERTEX
  8
0
 10
0.199599
 20
2.50315
 30
0.0
 40
0.00599999
 41
0.00599999
  0
VERTEX
  8
0
 10
0.199599
 20
3.05311
 30
0.0
 40
0.00599999
 41
0.00599999
  0
SEQEND
 8
0
  0
POLYLINE
  8
0
 62
     0
 66
     1
 10
0
 20
0
 30
0.0
 40
0.431999
 41
0.431999
  0
VERTEX
  8
0
 10
0.199599
 20
2.30311
 30
0.0
 40
0.00599999
 41
0.00599999
  0
VERTEX
  8
0
 10
0.749621
 20
2.30311
 30
0.0
 40
0.00599999
 41
0.00599999
  0
SEQEND
 8
0
  0
POLYLINE
  8
0
 62
     0
 66
     1
 10
0
 20
0
 30
0.0
 40
0.431999
 41
0.431999
  0
VERTEX
  8
0
 10
0.749621
 20
2.30311
 30
0.0
 40
0.00599999
 41
0.00599999
  0
VERTEX
  8
0
 10
0.749621
 20
1.75315
 30
0.0
 40
0.00599999
 41
0.00599999
  0
SEQEND
 8
0
  0
POLYLINE
  8
0
 62
     0
 66
     1
 10
0
 20
0
 30
0.0
 40
0.431999
 41
0.431999
  0
VERTEX
  8
0
 10
0.749621
 20
1.75315
 30
0.0
 40
0.00599999
 41
0.00599999
  0
VERTEX
  8
0
 10
0.199599
 20
1.75315
 30
0.0
 40
0.00599999
 41
0.00599999
  0
SEQEND
 8
0
  0
POLYLINE
  8
0
 62
     0
 66
     1
 10
0
 20
0
 30
0.0
 40
0.431999
 41
0.431999
  0
VERTEX
  8
0
 10
0.199599
 20
1.75315
 30
0.0
 40
0.00599999
 41
0.00599999
  0
VERTEX
  8
0
 10
0.199599
 20
2.30311
 30
0.0
 40
0.00599999
 41
0.00599999
  0
SEQEND
 8
0
  0
POLYLINE
  8
0
 62
     0
 66
     1
 10
0
 20
0
 30
0.0
 40
0.431999
 41
0.431999
  0
VERTEX
  8
0
 10
3.6301
 20
1.66493
 30
0.0
 40
0.00599999
 41
0.00599999
  0
VERTEX
  8
0
 10
4.1614
 20
1.52262
 30
0.0
 40
0.00599999
 41
0.00599999
  0
SEQEND
 8
0
  0
POLYLINE
  8
0
 62
     0
 66
     1
 10
0
 20
0
 30
0.0
 40
0.431999
 41
0.431999
  0
VERTEX
  8
0
 10
4.1614
 20
1.52262
 30
0.0
 40
0.00599999
 41
0.00599999
  0
VERTEX
  8
0
 10
4.01899
 20
0.991319
 30
0.0
 40
0.00599999
 41
0.00599999
  0
SEQEND
 8
0
  0
POLYLINE
  8
0
 62
     0
 66
     1
 10
0
 20
0
 30
0.0
 40
0.431999
 41
0.431999
  0
VERTEX
  8
0
 10
4.01899
 20
0.991319
 30
0.0
 40
0.00599999
 41
0.00599999
  0
VERTEX
  8
0
 10
3.48779
 20
1.13373
 30
0.0
 40
0.00599999
 41
0.00599999
  0
SEQEND
 8
0
  0
POLYLINE
  8
0
 62
     0
 66
     1
 10
0
 20
0
 30
0.0
 40
0.431999
 41
0.431999
  0
VERTEX
  8
0
 10
3.48779
 20
1.13373
 30
0.0
 40
0.00599999
 41
0.00599999
  0
VERTEX
  8
0
 10
3.6301
 20
1.66493
 30
0.0
 40
0.00599999
 41
0.00599999
  0
SEQEND
 8
0
  0
POLYLINE
  8
0
 62
     0
 66
     1
 10
0
 20
0
 30
0.0
 40
0.431999
 41
0.431999
  0
VERTEX
  8
0
 10
5.77387
 20
1.87885
 30
0.0
 40
0.00599999
 41
0.00599999
  0
VERTEX
  8
0
 10
6.25017
 20
1.60385
 30
0.0
 40
0.00599999
 41
0.00599999
  0
SEQEND
 8
0
  0
POLYLINE
  8
0
 62
     0
 66
     1
 10
0
 20
0
 30
0.0
 40
0.431999
 41
0.431999
  0
VERTEX
  8
0
 10
6.25017
 20
1.60385
 30
0.0
 40
0.00599999
 41
0.00599999
  0
VERTEX
  8
0
 10
5.97521
 20
1.12755
 30
0.0
 40
0.00599999
 41
0.00599999
  0
SEQEND
 8
0
  0
POLYLINE
  8
0
 62
     0
 66
     1
 10
0
 20
0
 30
0.0
 40
0.431999
 41
0.431999
  0
VERTEX
  8
0
 10
5.97521
 20
1.12755
 30
0.0
 40
0.00599999
 41
0.00599999
  0
VERTEX
  8
0
 10
5.49886
 20
1.40256
 30
0.0
 40
0.00599999
 41
0.00599999
  0
SEQEND
 8
0
  0
POLYLINE
  8
0
 62
     0
 66
     1
 10
0
 20
0
 30
0.0
 40
0.431999
 41
0.431999
  0
VERTEX
  8
0
 10
5.49886
 20
1.40256
 30
0.0
 40
0.00599999
 41
0.00599999
  0
VERTEX
  8
0
 10
5.77387
 20
1.87885
 30
0.0
 40
0.00599999
 41
0.00599999
  0
SEQEND
 8
0
  0
POLYLINE
  8
0
 62
     0
 66
     1
 10
0
 20
0
 30
0.0
 40
0.431999
 41
0.431999
  0
VERTEX
  8
0
 10
5.12517
 20
1.15386
 30
0.0
 40
0.00599999
 41
0.00599999
  0
VERTEX
  8
0
 10
4.85021
 20
0.677518
 30
0.0
 40
0.00599999
 41
0.00599999
  0
SEQEND
 8
0
  0
POLYLINE
  8
0
 62
     0
 66
     1
 10
0
 20
0
 30
0.0
 40
0.431999
 41
0.431999
  0
VERTEX
  8
0
 10
4.85021
 20
0.677518
 30
0.0
 40
0.00599999
 41
0.00599999
  0
VERTEX
  8
0
 10
4.37392
 20
0.952528
 30
0.0
 40
0.00599999
 41
0.00599999
  0
SEQEND
 8
0
  0
POLYLINE
  8
0
 62
     0
 66
     1
 10
0
 20
0
 30
0.0
 40
0.431999
 41
0.431999
  0
VERTEX
  8
0
 10
4.37392
 20
0.952528
 30
0.0
 40
0.00599999
 41
0.00599999
  0
VERTEX
  8
0
 10
4.64887
 20
1.42882
 30
0.0
 40
0.00599999
 41
0.00599999
  0
SEQEND
 8
0
  0
POLYLINE
  8
0
 62
     0
 66
     1
 10
0
 20
0
 30
0.0
 40
0.431999
 41
0.431999
  0
VERTEX
  8
0
 10
4.64887
 20
1.42882
 30
0.0
 40
0.00599999
 41
0.00599999
  0
VERTEX
  8
0
 10
5.12517
 20
1.15386
 30
0.0
 40
0.00599999
 41
0.00599999
  0
SEQEND
 8
0
  0
POLYLINE
  8
0
 62
     0
 66
     1
 10
0
 20
0
 30
0.0
 40
0.431999
 41
0.431999
  0
VERTEX
  8
0
 10
5.77518
 20
0.778862
 30
0.0
 40
0.00599999
 41
0.00599999
  0
VERTEX
  8
0
 10
5.50017
 20
0.302518
 30
0.0
 40
0.00599999
 41
0.00599999
  0
SEQEND
 8
0
  0
POLYLINE
  8
0
 62
     0
 66
     1
 10
0
 20
0
 30
0.0
 40
0.431999
 41
0.431999
  0
VERTEX
  8
0
 10
5.50017
 20
0.302518
 30
0.0
 40
0.00599999
 41
0.00599999
  0
VERTEX
  8
0
 10
5.02387
 20
0.577528
 30
0.0
 40
0.00599999
 41
0.00599999
  0
SEQEND
 8
0
  0
POLYLINE
  8
0
 62
     0
 66
     1
 10
0
 20
0
 30
0.0
 40
0.431999
 41
0.431999
  0
VERTEX
  8
0
 10
5.02387
 20
0.577528
 30
0.0
 40
0.00599999
 41
0.00599999
  0
VERTEX
  8
0
 10
5.29889
 20
1.05382
 30
0.0
 40
0.00599999
 41
0.00599999
  0
SEQEND
 8
0
  0
POLYLINE
  8
0
 62
     0
 66
     1
 10
0
 20
0
 30
0.0
 40
0.431999
 41
0.431999
  0
VERTEX
  8
0
 10
5.29889
 20
1.05382
 30
0.0
 40
0.00599999
 41
0.00599999
  0
VERTEX
  8
0
 10
5.77518
 20
0.778862
 30
0.0
 40
0.00599999
 41
0.00599999
  0
SEQEND
 8
0
  0
POLYLINE
  8
0
 62
     0
 66
     1
 10
0
 20
0
 30
0.0
 40
0.431999
 41
0.431999
  0
VERTEX
  8
0
 10
5.34961
 20
3.32813
 30
0.0
 40
0.00599999
 41
0.00599999
  0
VERTEX
  8
0
 10
5.34961
 20
2.77815
 30
0.0
 40
0.00599999
 41
0.00599999
  0
SEQEND
 8
0
  0
POLYLINE
  8
0
 62
     0
 66
     1
 10
0
 20
0
 30
0.0
 40
0.431999
 41
0.431999
  0
VERTEX
  8
0
 10
5.34961
 20
2.77815
 30
0.0
 40
0.00599999
 41
0.00599999
  0
VERTEX
  8
0
 10
4.79958
 20
2.77815
 30
0.0
 40
0.00599999
 41
0.00599999
  0
SEQEND
 8
0
  0
POLYLINE
  8
0
 62
     0
 66
     1
 10
0
 20
0
 30
0.0
 40
0.431999
 41
0.431999
  0
VERTEX
  8
0
 10
4.79958
 20
2.77815
 30
0.0
 40
0.00599999
 41
0.00599999
  0
VERTEX
  8
0
 10
4.79958
 20
3.32813
 30
0.0
 40
0.00599999
 41
0.00599999
  0
SEQEND
 8
0
  0
POLYLINE
  8
0
 62
     0
 66
     1
 10
0
 20
0
 30
0.0
 40
0.431999
 41
0.431999
  0
VERTEX
  8
0
 10
4.79958
 20
3.32813
 30
0.0
 40
0.00599999
 41
0.00599999
  0
VERTEX
  8
0
 10
5.34961
 20
3.32813
 30
0.0
 40
0.00599999
 41
0.00599999
  0
SEQEND
 8
0
  0
POLYLINE
  8
0
 62
     0
 66
     1
 10
0
 20
0
 30
0.0
 40
0.283464
 41
0.283464
  0
VERTEX
  8
0
 10
5.24957
 20
4.98313
 30
0.0
 40
0.003937
 41
0.003937
  0
VERTEX
  8
0
 10
0.20459
 20
4.98313
 30
0.0
 40
0.003937
 41
0.003937
  0
SEQEND
 8
0
  0
POLYLINE
  8
0
 62
     0
 66
     1
 10
0
 20
0
 30
0.0
 40
0.283464
 41
0.283464
  0
VERTEX
  8
0
 10
5.4496
 20
4.78315
 30
0.0
 40
0.003937
 41
0.003937
  0
VERTEX
  8
0
 10
5.4496
 20
4.38314
 30
0.0
 40
0.003937
 41
0.003937
  0
SEQEND
 8
0
  0
POLYLINE
  8
0
 62
     0
 66
     1
 10
0
 20
0
 30
0.0
 40
0.283464
 41
0.283464
  0
VERTEX
  8
0
 10
0.00461154
 20
4.78315
 30
0.0
 40
0.003937
 41
0.003937
  0
VERTEX
  8
0
 10
0.00461154
 20
4.65315
 30
0.0
 40
0.003937
 41
0.003937
  0
SEQEND
 8
0
  0
POLYLINE
  8
0
 62
     0
 66
     1
 10
0
 20
0
 30
0.0
 40
0.283464
 41
0.283464
  0
VERTEX
  8
0
 10
0.00461154
 20
4.78315
 30
0.0
 40
0.003937
 41
0.003937
  0
VERTEX
  8
0
 10
0.20459
 20
4.98313
 30
0.0
 40
0.003937
 41
0.003937
  0
SEQEND
 8
0
  0
POLYLINE
  8
0
 62
     0
 66
     1
 10
0
 20
0
 30
0.0
 40
0.283464
 41
0.283464
  0
VERTEX
  8
0
 10
5.4496
 20
4.78315
 30
0.0
 40
0.003937
 41
0.003937
  0
VERTEX
  8
0
 10
5.24957
 20
4.98313
 30
0.0
 40
0.003937
 41
0.003937
  0
SEQEND
 8
0
  0
POLYLINE
  8
0
 62
     0
 66
     1
 10
0
 20
0
 30
0.0
 40
0.283464
 41
0.283464
  0
VERTEX
  8
0
 10
2.94461
 20
1.17312
 30
0.0
 40
0.003937
 41
0.003937
  0
VERTEX
  8
0
 10
2.5446
 20
1.17312
 30
0.0
 40
0.003937
 41
0.003937
  0
SEQEND
 8
0
  0
POLYLINE
  8
0
 62
     0
 66
     1
 10
0
 20
0
 30
0.0
 40
0.283464
 41
0.283464
  0
VERTEX
  8
0
 10
5.4496
 20
2.18317
 30
0.0
 40
0.003937
 41
0.003937
  0
VERTEX
  8
0
 10
6.3896
 20
1.64313
 30
0.0
 40
0.003937
 41
0.003937
  0
SEQEND
 8
0
  0
POLYLINE
  8
0
 62
     0
 66
     1
 10
0
 20
0
 30
0.0
 40
0.283464
 41
0.283464
  0
VERTEX
  8
0
 10
5.4496
 20
4.38314
 30
0.0
 40
0.003937
 41
0.003937
  0
VERTEX
  8
0
 10
5.4496
 20
2.18317
 30
0.0
 40
0.003937
 41
0.003937
  0
SEQEND
 8
0
  0
POLYLINE
  8
0
 62
     0
 66
     1
 10
0
 20
0
 30
0.0
 40
0.283464
 41
0.283464
  0
VERTEX
  8
0
 10
5.44461
 20
0.00314671
 30
0.0
 40
0.003937
 41
0.003937
  0
VERTEX
  8
0
 10
6.3896
 20
1.64313
 30
0.0
 40
0.003937
 41
0.003937
  0
SEQEND
 8
0
  0
POLYLINE
  8
0
 62
     0
 66
     1
 10
0
 20
0
 30
0.0
 40
0.283464
 41
0.283464
  0
VERTEX
  8
0
 10
5.43956
 20
0.00314671
 30
0.0
 40
0.003937
 41
0.003937
  0
VERTEX
  8
0
 10
5.44461
 20
0.00314671
 30
0.0
 40
0.003937
 41
0.003937
  0
SEQEND
 8
0
  0
POLYLINE
  8
0
 62
     0
 66
     1
 10
0
 20
0
 30
0.0
 40
0.283464
 41
0.283464
  0
VERTEX
  8
0
 10
3.80957
 20
0.943143
 30
0.0
 40
0.003937
 41
0.003937
  0
VERTEX
  8
0
 10
2.94461
 20
1.17312
 30
0.0
 40
0.003937
 41
0.003937
  0
SEQEND
 8
0
  0
POLYLINE
  8
0
 62
     0
 66
     1
 10
0
 20
0
 30
0.0
 40
0.283464
 41
0.283464
  0
VERTEX
  8
0
 10
5.43956
 20
0.00314671
 30
0.0
 40
0.003937
 41
0.003937
  0
VERTEX
  8
0
 10
3.80957
 20
0.943143
 30
0.0
 40
0.003937
 41
0.003937
  0
SEQEND
 8
0
  0
POLYLINE
  8
0
 62
     0
 66
     1
 10
0
 20
0
 30
0.0
 40
0.283464
 41
0.283464
  0
VERTEX
  8
0
 10
2.44461
 20
1.07313
 30
0.0
 40
0.003937
 41
0.003937
  0
VERTEX
  8
0
 10
2.5446
 20
1.17312
 30
0.0
 40
0.003937
 41
0.003937
  0
SEQEND
 8
0
  0
POLYLINE
  8
0
 62
     0
 66
     1
 10
0
 20
0
 30
0.0
 40
0.283464
 41
0.283464
  0
VERTEX
  8
0
 10
1.86458
 20
1.07313
 30
0.0
 40
0.003937
 41
0.003937
  0
VERTEX
  8
0
 10
2.44461
 20
1.07313
 30
0.0
 40
0.003937
 41
0.003937
  0
SEQEND
 8
0
  0
POLYLINE
  8
0
 62
     0
 66
     1
 10
0
 20
0
 30
0.0
 40
0.283464
 41
0.283464
  0
VERTEX
  8
0
 10
1.69461
 20
0.903157
 30
0.0
 40
0.003937
 41
0.003937
  0
VERTEX
  8
0
 10
1.86458
 20
1.07313
 30
0.0
 40
0.003937
 41
0.003937
  0
SEQEND
 8
0
  0
POLYLINE
  8
0
 62
     0
 66
     1
 10
0
 20
0
 30
0.0
 40
0.283464
 41
0.283464
  0
VERTEX
  8
0
 10
0.194607
 20
0.903157
 30
0.0
 40
0.003937
 41
0.003937
  0
VERTEX
  8
0
 10
1.69461
 20
0.903157
 30
0.0
 40
0.003937
 41
0.003937
  0
SEQEND
 8
0
  0
POLYLINE
  8
0
 62
     0
 66
     1
 10
0
 20
0
 30
0.0
 40
0.283464
 41
0.283464
  0
VERTEX
  8
0
 10
0.194607
 20
1.46317
 30
0.0
 40
0.003937
 41
0.003937
  0
VERTEX
  8
0
 10
0.194607
 20
0.903157
 30
0.0
 40
0.003937
 41
0.003937
  0
SEQEND
 8
0
  0
POLYLINE
  8
0
 62
     0
 66
     1
 10
0
 20
0
 30
0.0
 40
0.283464
 41
0.283464
  0
VERTEX
  8
0
 10
0.00461154
 20
1.65315
 30
0.0
 40
0.003937
 41
0.003937
  0
VERTEX
  8
0
 10
0.194607
 20
1.46317
 30
0.0
 40
0.003937
 41
0.003937
  0
SEQEND
 8
0
  0
POLYLINE
  8
0
 62
     0
 66
     1
 10
0
 20
0
 30
0.0
 40
0.283464
 41
0.283464
  0
VERTEX
  8
0
 10
0.00461154
 20
4.65315
 30
0.0
 40
0.003937
 41
0.003937
  0
VERTEX
  8
0
 10
0.00461154
 20
1.65315
 30
0.0
 40
0.003937
 41
0.003937
  0
SEQEND
 8
0
  0
ENDSEC
  0
EOF
