  0
SECTION
  2
HEADER
  9
$ACADVER
  1
AC1014
  9
$HANDSEED
  5
FFFF
  9
$MEASUREMENT
 70
     1
  0
ENDSEC
  0
SECTION
  2
TABLES
  0
TABLE
  2
VPORT
  5
8
330
0
100
AcDbSymbolTable
 70
     4
  0
VPORT
  5
2E
330
8
100
AcDbSymbolTableRecord
100
AcDbViewportTableRecord
  2
*ACTIVE
 70
     0
 10
0.0
 20
0.0
 11
1.0
 21
1.0
 12
210.0
 22
148.5
 13
0.0
 23
0.0
 14
10.0
 24
10.0
 15
10.0
 25
10.0
 16
0.0
 26
0.0
 36
1.0
 17
0.0
 27
0.0
 37
0.0
 40
341.0
 41
1.24
 42
50.0
 43
0.0
 44
0.0
 50
0.0
 51
0.0
 71
     0
 72
   100
 73
     1
 74
     3
 75
     0
 76
     0
 77
     0
 78
     0
  0
ENDTAB
  0
TABLE
  2
LTYPE
  5
5
330
0
100
AcDbSymbolTable
 70
     1
  0
LTYPE
  5
14
330
5
100
AcDbSymbolTableRecord
100
AcDbLinetypeTableRecord
  2
BYBLOCK
 70
     0
  3

 72
    65
 73
     0
 40
0.0
  0
LTYPE
  5
15
330
5
100
AcDbSymbolTableRecord
100
AcDbLinetypeTableRecord
  2
BYLAYER
 70
     0
  3

 72
    65
 73
     0
 40
0.0
  0
LTYPE
  5
16
330
5
100
AcDbSymbolTableRecord
100
AcDbLinetypeTableRecord
  2
CONTINUOUS
 70
     0
  3
Solid line
 72
    65
 73
     0
 40
0.0
  0
ENDTAB
  0
TABLE
  2
LAYER
  5
2
100
AcDbSymbolTable
 70
1
  0
LAYER
  5
50
100
AcDbSymbolTableRecord
100
AcDbLayerTableRecord
  2
0
 70
0
  6
CONTINUOUS
  0
ENDTAB
  0
TABLE
  2
STYLE
  5
3
330
0
100
AcDbSymbolTable
 70
     1
  0
STYLE
  5
11
330
3
100
AcDbSymbolTableRecord
100
AcDbTextStyleTableRecord
  2
STANDARD
 70
     0
 40
0.0
 41
1.0
 50
0.0
 71
     0
 42
2.5
  3
txt
  4

  0
ENDTAB
  0
TABLE
  2
VIEW
  5
6
330
0
100
AcDbSymbolTable
 70
     0
  0
ENDTAB
  0
TABLE
  2
UCS
  5
7
330
0
100
AcDbSymbolTable
 70
     0
  0
ENDTAB
  0
TABLE
  2
APPID
  5
9
330
0
100
AcDbSymbolTable
 70
     2
  0
APPID
  5
12
330
9
100
AcDbSymbolTableRecord
100
AcDbRegAppTableRecord
  2
ACAD
 70
     0
  0
ENDTAB
  0
TABLE
  2
DIMSTYLE
  5
A
330
0
100
AcDbSymbolTable
 70
     1
  0
DIMSTYLE
105
27
330
A
100
AcDbSymbolTableRecord
100
AcDbDimStyleTableRecord
  2
ISO-25
 70
     0
  3

  4

  5

  6

  7

 40
1.0
 41
2.5
 42
0.625
 43
3.75
 44
1.25
 45
0.0
 46
0.0
 47
0.0
 48
0.0
140
2.5
141
2.5
142
0.0
143
0.03937007874016
144
1.0
145
0.0
146
1.0
147
0.625
 71
     0
 72
     0
 73
     0
 74
     0
 75
     0
 76
     0
 77
     1
 78
     8
170
     0
171
     3
172
     1
173
     0
174
     0
175
     0
176
     0
177
     0
178
     0
270
     2
271
     2
272
     2
273
     2
274
     3
340
11
275
     0
280
     0
281
     0
282
     0
283
     0
284
     8
285
     0
286
     0
287
     3
288
     0
  0
ENDTAB
  0
TABLE
  2
BLOCK_RECORD
  5
1
330
0
100
AcDbSymbolTable
 70
     1
  0
BLOCK_RECORD
  5
1F
330
1
100
AcDbSymbolTableRecord
100
AcDbBlockTableRecord
  2
*MODEL_SPACE
  0
BLOCK_RECORD
  5
1B
330
1
100
AcDbSymbolTableRecord
100
AcDbBlockTableRecord
  2
*PAPER_SPACE
  0
ENDTAB
  0
ENDSEC
  0
SECTION
  2
BLOCKS
  0
BLOCK
  5
20
330
1F
100
AcDbEntity
  8
0
100
AcDbBlockBegin
  2
*MODEL_SPACE
 70
     0
 10
0.0
 20
0.0
 30
0.0
  3
*MODEL_SPACE
  1

  0
ENDBLK
  5
21
330
1F
100
AcDbEntity
  8
0
100
AcDbBlockEnd
  0
BLOCK
  5
1C
330
1B
100
AcDbEntity
 67
     1
  8
0
100
AcDbBlockBegin
  2
*PAPER_SPACE
  1

  0
ENDBLK
  5
1D
330
1B
100
AcDbEntity
 67
     1
  8
0
100
AcDbBlockEnd
  0
ENDSEC
  0
SECTION
  2
ENTITIES
  0
SPLINE
  5
100
100
AcDbEntity
  8
0
 62
7
100
AcDbSpline
 70
8
 71
3
 72
8
 73
4
 74
0
 40
0
 40
0
 40
0
 40
0
 40
1
 40
1
 40
1
 40
1
 10
24.887240
 20
86.384518
 30
0.0
 10
24.887240
 20
86.312976
 30
0.0
 10
24.849072
 20
86.246868
 30
0.0
 10
24.787115
 20
86.211097
 30
0.0
  0
SPLINE
  5
101
100
AcDbEntity
  8
0
 62
7
100
AcDbSpline
 70
8
 71
3
 72
8
 73
4
 74
0
 40
0
 40
0
 40
0
 40
0
 40
1
 40
1
 40
1
 40
1
 10
24.787115
 20
86.211097
 30
0.0
 10
24.725158
 20
86.175326
 30
0.0
 10
24.648823
 20
86.175326
 30
0.0
 10
24.586866
 20
86.211097
 30
0.0
  0
SPLINE
  5
102
100
AcDbEntity
  8
0
 62
7
100
AcDbSpline
 70
8
 71
3
 72
8
 73
4
 74
0
 40
0
 40
0
 40
0
 40
0
 40
1
 40
1
 40
1
 40
1
 10
24.586866
 20
86.211097
 30
0.0
 10
24.524908
 20
86.246868
 30
0.0
 10
24.486741
 20
86.312976
 30
0.0
 10
24.486741
 20
86.384518
 30
0.0
  0
SPLINE
  5
103
100
AcDbEntity
  8
0
 62
7
100
AcDbSpline
 70
8
 71
3
 72
8
 73
4
 74
0
 40
0
 40
0
 40
0
 40
0
 40
1
 40
1
 40
1
 40
1
 10
24.486741
 20
86.384518
 30
0.0
 10
24.486741
 20
86.456060
 30
0.0
 10
24.524908
 20
86.522168
 30
0.0
 10
24.586866
 20
86.557939
 30
0.0
  0
SPLINE
  5
104
100
AcDbEntity
  8
0
 62
7
100
AcDbSpline
 70
8
 71
3
 72
8
 73
4
 74
0
 40
0
 40
0
 40
0
 40
0
 40
1
 40
1
 40
1
 40
1
 10
24.586866
 20
86.557939
 30
0.0
 10
24.648823
 20
86.593710
 30
0.0
 10
24.725158
 20
86.593710
 30
0.0
 10
24.787115
 20
86.557939
 30
0.0
  0
SPLINE
  5
105
100
AcDbEntity
  8
0
 62
7
100
AcDbSpline
 70
8
 71
3
 72
8
 73
4
 74
0
 40
0
 40
0
 40
0
 40
0
 40
1
 40
1
 40
1
 40
1
 10
24.787115
 20
86.557939
 30
0.0
 10
24.849072
 20
86.522168
 30
0.0
 10
24.887240
 20
86.456060
 30
0.0
 10
24.887240
 20
86.384518
 30
0.0
  0
SPLINE
  5
106
100
AcDbEntity
  8
0
 62
7
100
AcDbSpline
 70
8
 71
3
 72
8
 73
4
 74
0
 40
0
 40
0
 40
0
 40
0
 40
1
 40
1
 40
1
 40
1
 10
22.427259
 20
85.774514
 30
0.0
 10
22.427259
 20
85.702972
 30
0.0
 10
22.389092
 20
85.636864
 30
0.0
 10
22.327135
 20
85.601093
 30
0.0
  0
SPLINE
  5
107
100
AcDbEntity
  8
0
 62
7
100
AcDbSpline
 70
8
 71
3
 72
8
 73
4
 74
0
 40
0
 40
0
 40
0
 40
0
 40
1
 40
1
 40
1
 40
1
 10
22.327135
 20
85.601093
 30
0.0
 10
22.265177
 20
85.565322
 30
0.0
 10
22.188843
 20
85.565322
 30
0.0
 10
22.126885
 20
85.601093
 30
0.0
  0
SPLINE
  5
108
100
AcDbEntity
  8
0
 62
7
100
AcDbSpline
 70
8
 71
3
 72
8
 73
4
 74
0
 40
0
 40
0
 40
0
 40
0
 40
1
 40
1
 40
1
 40
1
 10
22.126885
 20
85.601093
 30
0.0
 10
22.064928
 20
85.636864
 30
0.0
 10
22.026761
 20
85.702972
 30
0.0
 10
22.026761
 20
85.774514
 30
0.0
  0
SPLINE
  5
109
100
AcDbEntity
  8
0
 62
7
100
AcDbSpline
 70
8
 71
3
 72
8
 73
4
 74
0
 40
0
 40
0
 40
0
 40
0
 40
1
 40
1
 40
1
 40
1
 10
22.026761
 20
85.774514
 30
0.0
 10
22.026761
 20
85.846056
 30
0.0
 10
22.064928
 20
85.912164
 30
0.0
 10
22.126885
 20
85.947935
 30
0.0
  0
SPLINE
  5
10a
100
AcDbEntity
  8
0
 62
7
100
AcDbSpline
 70
8
 71
3
 72
8
 73
4
 74
0
 40
0
 40
0
 40
0
 40
0
 40
1
 40
1
 40
1
 40
1
 10
22.126885
 20
85.947935
 30
0.0
 10
22.188843
 20
85.983706
 30
0.0
 10
22.265177
 20
85.983706
 30
0.0
 10
22.327135
 20
85.947935
 30
0.0
  0
SPLINE
  5
10b
100
AcDbEntity
  8
0
 62
7
100
AcDbSpline
 70
8
 71
3
 72
8
 73
4
 74
0
 40
0
 40
0
 40
0
 40
0
 40
1
 40
1
 40
1
 40
1
 10
22.327135
 20
85.947935
 30
0.0
 10
22.389092
 20
85.912164
 30
0.0
 10
22.427259
 20
85.846056
 30
0.0
 10
22.427259
 20
85.774514
 30
0.0
  0
LWPOLYLINE
  5
10c
100
AcDbEntity
  8
0
 62
7
100
AcDbPolyline
 90
1
 70
1
 10
24.887240
 20
86.384518
 30
0.0
  0
SPLINE
  5
10d
100
AcDbEntity
  8
0
 62
7
100
AcDbSpline
 70
8
 71
3
 72
8
 73
4
 74
0
 40
0
 40
0
 40
0
 40
0
 40
1
 40
1
 40
1
 40
1
 10
19.967029
 20
85.154528
 30
0.0
 10
19.967029
 20
85.083075
 30
0.0
 10
19.928909
 20
85.017050
 30
0.0
 10
19.867029
 20
84.981324
 30
0.0
  0
SPLINE
  5
10e
100
AcDbEntity
  8
0
 62
7
100
AcDbSpline
 70
8
 71
3
 72
8
 73
4
 74
0
 40
0
 40
0
 40
0
 40
0
 40
1
 40
1
 40
1
 40
1
 10
19.867029
 20
84.981324
 30
0.0
 10
19.805149
 20
84.945597
 30
0.0
 10
19.728910
 20
84.945597
 30
0.0
 10
19.667030
 20
84.981324
 30
0.0
  0
SPLINE
  5
10f
100
AcDbEntity
  8
0
 62
7
100
AcDbSpline
 70
8
 71
3
 72
8
 73
4
 74
0
 40
0
 40
0
 40
0
 40
0
 40
1
 40
1
 40
1
 40
1
 10
19.667030
 20
84.981324
 30
0.0
 10
19.605150
 20
85.017050
 30
0.0
 10
19.567030
 20
85.083075
 30
0.0
 10
19.567030
 20
85.154528
 30
0.0
  0
SPLINE
  5
110
100
AcDbEntity
  8
0
 62
7
100
AcDbSpline
 70
8
 71
3
 72
8
 73
4
 74
0
 40
0
 40
0
 40
0
 40
0
 40
1
 40
1
 40
1
 40
1
 10
19.567030
 20
85.154528
 30
0.0
 10
19.567030
 20
85.225981
 30
0.0
 10
19.605150
 20
85.292006
 30
0.0
 10
19.667030
 20
85.327733
 30
0.0
  0
SPLINE
  5
111
100
AcDbEntity
  8
0
 62
7
100
AcDbSpline
 70
8
 71
3
 72
8
 73
4
 74
0
 40
0
 40
0
 40
0
 40
0
 40
1
 40
1
 40
1
 40
1
 10
19.667030
 20
85.327733
 30
0.0
 10
19.728910
 20
85.363459
 30
0.0
 10
19.805149
 20
85.363459
 30
0.0
 10
19.867029
 20
85.327733
 30
0.0
  0
SPLINE
  5
112
100
AcDbEntity
  8
0
 62
7
100
AcDbSpline
 70
8
 71
3
 72
8
 73
4
 74
0
 40
0
 40
0
 40
0
 40
0
 40
1
 40
1
 40
1
 40
1
 10
19.867029
 20
85.327733
 30
0.0
 10
19.928909
 20
85.292006
 30
0.0
 10
19.967029
 20
85.225981
 30
0.0
 10
19.967029
 20
85.154528
 30
0.0
  0
LWPOLYLINE
  5
113
100
AcDbEntity
  8
0
 62
7
100
AcDbPolyline
 90
1
 70
1
 10
22.427259
 20
85.774514
 30
0.0
  0
SPLINE
  5
114
100
AcDbEntity
  8
0
 62
7
100
AcDbSpline
 70
8
 71
3
 72
8
 73
4
 74
0
 40
0
 40
0
 40
0
 40
0
 40
1
 40
1
 40
1
 40
1
 10
17.497041
 20
84.544524
 30
0.0
 10
17.497041
 20
84.473071
 30
0.0
 10
17.458922
 20
84.407046
 30
0.0
 10
17.397042
 20
84.371319
 30
0.0
  0
SPLINE
  5
115
100
AcDbEntity
  8
0
 62
7
100
AcDbSpline
 70
8
 71
3
 72
8
 73
4
 74
0
 40
0
 40
0
 40
0
 40
0
 40
1
 40
1
 40
1
 40
1
 10
17.397042
 20
84.371319
 30
0.0
 10
17.335162
 20
84.335593
 30
0.0
 10
17.258922
 20
84.335593
 30
0.0
 10
17.197042
 20
84.371319
 30
0.0
  0
SPLINE
  5
116
100
AcDbEntity
  8
0
 62
7
100
AcDbSpline
 70
8
 71
3
 72
8
 73
4
 74
0
 40
0
 40
0
 40
0
 40
0
 40
1
 40
1
 40
1
 40
1
 10
17.197042
 20
84.371319
 30
0.0
 10
17.135162
 20
84.407046
 30
0.0
 10
17.097043
 20
84.473071
 30
0.0
 10
17.097043
 20
84.544524
 30
0.0
  0
SPLINE
  5
117
100
AcDbEntity
  8
0
 62
7
100
AcDbSpline
 70
8
 71
3
 72
8
 73
4
 74
0
 40
0
 40
0
 40
0
 40
0
 40
1
 40
1
 40
1
 40
1
 10
17.097043
 20
84.544524
 30
0.0
 10
17.097043
 20
84.615976
 30
0.0
 10
17.135162
 20
84.682002
 30
0.0
 10
17.197042
 20
84.717728
 30
0.0
  0
SPLINE
  5
118
100
AcDbEntity
  8
0
 62
7
100
AcDbSpline
 70
8
 71
3
 72
8
 73
4
 74
0
 40
0
 40
0
 40
0
 40
0
 40
1
 40
1
 40
1
 40
1
 10
17.197042
 20
84.717728
 30
0.0
 10
17.258922
 20
84.753455
 30
0.0
 10
17.335162
 20
84.753455
 30
0.0
 10
17.397042
 20
84.717728
 30
0.0
  0
SPLINE
  5
119
100
AcDbEntity
  8
0
 62
7
100
AcDbSpline
 70
8
 71
3
 72
8
 73
4
 74
0
 40
0
 40
0
 40
0
 40
0
 40
1
 40
1
 40
1
 40
1
 10
17.397042
 20
84.717728
 30
0.0
 10
17.458922
 20
84.682002
 30
0.0
 10
17.497041
 20
84.615976
 30
0.0
 10
17.497041
 20
84.544524
 30
0.0
  0
LWPOLYLINE
  5
11a
100
AcDbEntity
  8
0
 62
7
100
AcDbPolyline
 90
1
 70
1
 10
19.967029
 20
85.154528
 30
0.0
  0
SPLINE
  5
11b
100
AcDbEntity
  8
0
 62
7
100
AcDbSpline
 70
8
 71
3
 72
8
 73
4
 74
0
 40
0
 40
0
 40
0
 40
0
 40
1
 40
1
 40
1
 40
1
 10
15.027278
 20
83.934520
 30
0.0
 10
15.027278
 20
83.862978
 30
0.0
 10
14.989110
 20
83.796871
 30
0.0
 10
14.927153
 20
83.761099
 30
0.0
  0
SPLINE
  5
11c
100
AcDbEntity
  8
0
 62
7
100
AcDbSpline
 70
8
 71
3
 72
8
 73
4
 74
0
 40
0
 40
0
 40
0
 40
0
 40
1
 40
1
 40
1
 40
1
 10
14.927153
 20
83.761099
 30
0.0
 10
14.865196
 20
83.725328
 30
0.0
 10
14.788861
 20
83.725328
 30
0.0
 10
14.726904
 20
83.761099
 30
0.0
  0
SPLINE
  5
11d
100
AcDbEntity
  8
0
 62
7
100
AcDbSpline
 70
8
 71
3
 72
8
 73
4
 74
0
 40
0
 40
0
 40
0
 40
0
 40
1
 40
1
 40
1
 40
1
 10
14.726904
 20
83.761099
 30
0.0
 10
14.664946
 20
83.796871
 30
0.0
 10
14.626779
 20
83.862978
 30
0.0
 10
14.626779
 20
83.934520
 30
0.0
  0
SPLINE
  5
11e
100
AcDbEntity
  8
0
 62
7
100
AcDbSpline
 70
8
 71
3
 72
8
 73
4
 74
0
 40
0
 40
0
 40
0
 40
0
 40
1
 40
1
 40
1
 40
1
 10
14.626779
 20
83.934520
 30
0.0
 10
14.626779
 20
84.006063
 30
0.0
 10
14.664946
 20
84.072170
 30
0.0
 10
14.726904
 20
84.107941
 30
0.0
  0
SPLINE
  5
11f
100
AcDbEntity
  8
0
 62
7
100
AcDbSpline
 70
8
 71
3
 72
8
 73
4
 74
0
 40
0
 40
0
 40
0
 40
0
 40
1
 40
1
 40
1
 40
1
 10
14.726904
 20
84.107941
 30
0.0
 10
14.788861
 20
84.143712
 30
0.0
 10
14.865196
 20
84.143712
 30
0.0
 10
14.927153
 20
84.107941
 30
0.0
  0
SPLINE
  5
120
100
AcDbEntity
  8
0
 62
7
100
AcDbSpline
 70
8
 71
3
 72
8
 73
4
 74
0
 40
0
 40
0
 40
0
 40
0
 40
1
 40
1
 40
1
 40
1
 10
14.927153
 20
84.107941
 30
0.0
 10
14.989110
 20
84.072170
 30
0.0
 10
15.027278
 20
84.006063
 30
0.0
 10
15.027278
 20
83.934520
 30
0.0
  0
LWPOLYLINE
  5
121
100
AcDbEntity
  8
0
 62
7
100
AcDbPolyline
 90
1
 70
1
 10
17.497041
 20
84.544524
 30
0.0
  0
SPLINE
  5
122
100
AcDbEntity
  8
0
 62
7
100
AcDbSpline
 70
8
 71
3
 72
8
 73
4
 74
0
 40
0
 40
0
 40
0
 40
0
 40
1
 40
1
 40
1
 40
1
 10
12.567047
 20
83.314533
 30
0.0
 10
12.567047
 20
83.243081
 30
0.0
 10
12.528928
 20
83.177055
 30
0.0
 10
12.467048
 20
83.141329
 30
0.0
  0
SPLINE
  5
123
100
AcDbEntity
  8
0
 62
7
100
AcDbSpline
 70
8
 71
3
 72
8
 73
4
 74
0
 40
0
 40
0
 40
0
 40
0
 40
1
 40
1
 40
1
 40
1
 10
12.467048
 20
83.141329
 30
0.0
 10
12.405168
 20
83.105603
 30
0.0
 10
12.328928
 20
83.105603
 30
0.0
 10
12.267048
 20
83.141329
 30
0.0
  0
SPLINE
  5
124
100
AcDbEntity
  8
0
 62
7
100
AcDbSpline
 70
8
 71
3
 72
8
 73
4
 74
0
 40
0
 40
0
 40
0
 40
0
 40
1
 40
1
 40
1
 40
1
 10
12.267048
 20
83.141329
 30
0.0
 10
12.205168
 20
83.177055
 30
0.0
 10
12.167049
 20
83.243081
 30
0.0
 10
12.167049
 20
83.314533
 30
0.0
  0
SPLINE
  5
125
100
AcDbEntity
  8
0
 62
7
100
AcDbSpline
 70
8
 71
3
 72
8
 73
4
 74
0
 40
0
 40
0
 40
0
 40
0
 40
1
 40
1
 40
1
 40
1
 10
12.167049
 20
83.314533
 30
0.0
 10
12.167049
 20
83.385986
 30
0.0
 10
12.205168
 20
83.452011
 30
0.0
 10
12.267048
 20
83.487738
 30
0.0
  0
SPLINE
  5
126
100
AcDbEntity
  8
0
 62
7
100
AcDbSpline
 70
8
 71
3
 72
8
 73
4
 74
0
 40
0
 40
0
 40
0
 40
0
 40
1
 40
1
 40
1
 40
1
 10
12.267048
 20
83.487738
 30
0.0
 10
12.328928
 20
83.523464
 30
0.0
 10
12.405168
 20
83.523464
 30
0.0
 10
12.467048
 20
83.487738
 30
0.0
  0
SPLINE
  5
127
100
AcDbEntity
  8
0
 62
7
100
AcDbSpline
 70
8
 71
3
 72
8
 73
4
 74
0
 40
0
 40
0
 40
0
 40
0
 40
1
 40
1
 40
1
 40
1
 10
12.467048
 20
83.487738
 30
0.0
 10
12.528928
 20
83.452011
 30
0.0
 10
12.567047
 20
83.385986
 30
0.0
 10
12.567047
 20
83.314533
 30
0.0
  0
LWPOLYLINE
  5
128
100
AcDbEntity
  8
0
 62
7
100
AcDbPolyline
 90
1
 70
1
 10
15.027278
 20
83.934520
 30
0.0
  0
SPLINE
  5
129
100
AcDbEntity
  8
0
 62
7
100
AcDbSpline
 70
8
 71
3
 72
8
 73
4
 74
0
 40
0
 40
0
 40
0
 40
0
 40
1
 40
1
 40
1
 40
1
 10
10.108065
 20
82.704530
 30
0.0
 10
10.108065
 20
82.632721
 30
0.0
 10
10.069756
 20
82.566366
 30
0.0
 10
10.007567
 20
82.530461
 30
0.0
  0
SPLINE
  5
12a
100
AcDbEntity
  8
0
 62
7
100
AcDbSpline
 70
8
 71
3
 72
8
 73
4
 74
0
 40
0
 40
0
 40
0
 40
0
 40
1
 40
1
 40
1
 40
1
 10
10.007567
 20
82.530461
 30
0.0
 10
9.945378
 20
82.494557
 30
0.0
 10
9.868758
 20
82.494557
 30
0.0
 10
9.806570
 20
82.530461
 30
0.0
  0
SPLINE
  5
12b
100
AcDbEntity
  8
0
 62
7
100
AcDbSpline
 70
8
 71
3
 72
8
 73
4
 74
0
 40
0
 40
0
 40
0
 40
0
 40
1
 40
1
 40
1
 40
1
 10
9.806570
 20
82.530461
 30
0.0
 10
9.744381
 20
82.566366
 30
0.0
 10
9.706071
 20
82.632721
 30
0.0
 10
9.706071
 20
82.704530
 30
0.0
  0
SPLINE
  5
12c
100
AcDbEntity
  8
0
 62
7
100
AcDbSpline
 70
8
 71
3
 72
8
 73
4
 74
0
 40
0
 40
0
 40
0
 40
0
 40
1
 40
1
 40
1
 40
1
 10
9.706071
 20
82.704530
 30
0.0
 10
9.706071
 20
82.776340
 30
0.0
 10
9.744381
 20
82.842694
 30
0.0
 10
9.806570
 20
82.878599
 30
0.0
  0
SPLINE
  5
12d
100
AcDbEntity
  8
0
 62
7
100
AcDbSpline
 70
8
 71
3
 72
8
 73
4
 74
0
 40
0
 40
0
 40
0
 40
0
 40
1
 40
1
 40
1
 40
1
 10
9.806570
 20
82.878599
 30
0.0
 10
9.868758
 20
82.914504
 30
0.0
 10
9.945378
 20
82.914504
 30
0.0
 10
10.007567
 20
82.878599
 30
0.0
  0
SPLINE
  5
12e
100
AcDbEntity
  8
0
 62
7
100
AcDbSpline
 70
8
 71
3
 72
8
 73
4
 74
0
 40
0
 40
0
 40
0
 40
0
 40
1
 40
1
 40
1
 40
1
 10
10.007567
 20
82.878599
 30
0.0
 10
10.069756
 20
82.842694
 30
0.0
 10
10.108065
 20
82.776340
 30
0.0
 10
10.108065
 20
82.704530
 30
0.0
  0
LWPOLYLINE
  5
12f
100
AcDbEntity
  8
0
 62
7
100
AcDbPolyline
 90
1
 70
1
 10
12.567047
 20
83.314533
 30
0.0
  0
SPLINE
  5
130
100
AcDbEntity
  8
0
 62
7
100
AcDbSpline
 70
8
 71
3
 72
8
 73
4
 74
0
 40
0
 40
0
 40
0
 40
0
 40
1
 40
1
 40
1
 40
1
 10
7.637079
 20
82.084543
 30
0.0
 10
7.637079
 20
82.013090
 30
0.0
 10
7.598959
 20
81.947065
 30
0.0
 10
7.537079
 20
81.911339
 30
0.0
  0
SPLINE
  5
131
100
AcDbEntity
  8
0
 62
7
100
AcDbSpline
 70
8
 71
3
 72
8
 73
4
 74
0
 40
0
 40
0
 40
0
 40
0
 40
1
 40
1
 40
1
 40
1
 10
7.537079
 20
81.911339
 30
0.0
 10
7.475199
 20
81.875612
 30
0.0
 10
7.398960
 20
81.875612
 30
0.0
 10
7.337080
 20
81.911339
 30
0.0
  0
SPLINE
  5
132
100
AcDbEntity
  8
0
 62
7
100
AcDbSpline
 70
8
 71
3
 72
8
 73
4
 74
0
 40
0
 40
0
 40
0
 40
0
 40
1
 40
1
 40
1
 40
1
 10
7.337080
 20
81.911339
 30
0.0
 10
7.275200
 20
81.947065
 30
0.0
 10
7.237080
 20
82.013090
 30
0.0
 10
7.237080
 20
82.084543
 30
0.0
  0
SPLINE
  5
133
100
AcDbEntity
  8
0
 62
7
100
AcDbSpline
 70
8
 71
3
 72
8
 73
4
 74
0
 40
0
 40
0
 40
0
 40
0
 40
1
 40
1
 40
1
 40
1
 10
7.237080
 20
82.084543
 30
0.0
 10
7.237080
 20
82.155996
 30
0.0
 10
7.275200
 20
82.222021
 30
0.0
 10
7.337080
 20
82.257748
 30
0.0
  0
SPLINE
  5
134
100
AcDbEntity
  8
0
 62
7
100
AcDbSpline
 70
8
 71
3
 72
8
 73
4
 74
0
 40
0
 40
0
 40
0
 40
0
 40
1
 40
1
 40
1
 40
1
 10
7.337080
 20
82.257748
 30
0.0
 10
7.398960
 20
82.293474
 30
0.0
 10
7.475199
 20
82.293474
 30
0.0
 10
7.537079
 20
82.257748
 30
0.0
  0
SPLINE
  5
135
100
AcDbEntity
  8
0
 62
7
100
AcDbSpline
 70
8
 71
3
 72
8
 73
4
 74
0
 40
0
 40
0
 40
0
 40
0
 40
1
 40
1
 40
1
 40
1
 10
7.537079
 20
82.257748
 30
0.0
 10
7.598959
 20
82.222021
 30
0.0
 10
7.637079
 20
82.155996
 30
0.0
 10
7.637079
 20
82.084543
 30
0.0
  0
LWPOLYLINE
  5
136
100
AcDbEntity
  8
0
 62
7
100
AcDbPolyline
 90
1
 70
1
 10
10.108065
 20
82.704530
 30
0.0
  0
SPLINE
  5
137
100
AcDbEntity
  8
0
 62
7
100
AcDbSpline
 70
8
 71
3
 72
8
 73
4
 74
0
 40
0
 40
0
 40
0
 40
0
 40
1
 40
1
 40
1
 40
1
 10
5.178072
 20
81.474540
 30
0.0
 10
5.178072
 20
81.402731
 30
0.0
 10
5.139762
 20
81.336376
 30
0.0
 10
5.077573
 20
81.300471
 30
0.0
  0
SPLINE
  5
138
100
AcDbEntity
  8
0
 62
7
100
AcDbSpline
 70
8
 71
3
 72
8
 73
4
 74
0
 40
0
 40
0
 40
0
 40
0
 40
1
 40
1
 40
1
 40
1
 10
5.077573
 20
81.300471
 30
0.0
 10
5.015384
 20
81.264567
 30
0.0
 10
4.938764
 20
81.264567
 30
0.0
 10
4.876576
 20
81.300471
 30
0.0
  0
SPLINE
  5
139
100
AcDbEntity
  8
0
 62
7
100
AcDbSpline
 70
8
 71
3
 72
8
 73
4
 74
0
 40
0
 40
0
 40
0
 40
0
 40
1
 40
1
 40
1
 40
1
 10
4.876576
 20
81.300471
 30
0.0
 10
4.814387
 20
81.336376
 30
0.0
 10
4.776077
 20
81.402731
 30
0.0
 10
4.776077
 20
81.474540
 30
0.0
  0
SPLINE
  5
13a
100
AcDbEntity
  8
0
 62
7
100
AcDbSpline
 70
8
 71
3
 72
8
 73
4
 74
0
 40
0
 40
0
 40
0
 40
0
 40
1
 40
1
 40
1
 40
1
 10
4.776077
 20
81.474540
 30
0.0
 10
4.776077
 20
81.546349
 30
0.0
 10
4.814387
 20
81.612704
 30
0.0
 10
4.876576
 20
81.648609
 30
0.0
  0
SPLINE
  5
13b
100
AcDbEntity
  8
0
 62
7
100
AcDbSpline
 70
8
 71
3
 72
8
 73
4
 74
0
 40
0
 40
0
 40
0
 40
0
 40
1
 40
1
 40
1
 40
1
 10
4.876576
 20
81.648609
 30
0.0
 10
4.938764
 20
81.684514
 30
0.0
 10
5.015384
 20
81.684514
 30
0.0
 10
5.077573
 20
81.648609
 30
0.0
  0
SPLINE
  5
13c
100
AcDbEntity
  8
0
 62
7
100
AcDbSpline
 70
8
 71
3
 72
8
 73
4
 74
0
 40
0
 40
0
 40
0
 40
0
 40
1
 40
1
 40
1
 40
1
 10
5.077573
 20
81.648609
 30
0.0
 10
5.139762
 20
81.612704
 30
0.0
 10
5.178072
 20
81.546349
 30
0.0
 10
5.178072
 20
81.474540
 30
0.0
  0
LWPOLYLINE
  5
13d
100
AcDbEntity
  8
0
 62
7
100
AcDbPolyline
 90
1
 70
1
 10
7.637079
 20
82.084543
 30
0.0
  0
LWPOLYLINE
  5
13e
100
AcDbEntity
  8
0
 62
7
100
AcDbPolyline
 90
1
 70
1
 10
5.178072
 20
81.474540
 30
0.0
  0
LWPOLYLINE
  5
13f
100
AcDbEntity
  8
0
 62
7
100
AcDbPolyline
 90
2
 70
0
 10
84.276426
 20
92.274857
 30
0.0
 10
86.275398
 20
92.274857
 30
0.0
  0
LWPOLYLINE
  5
140
100
AcDbEntity
  8
0
 62
7
100
AcDbPolyline
 90
2
 70
0
 10
84.276426
 20
53.275850
 30
0.0
 10
84.276426
 20
92.274857
 30
0.0
  0
LWPOLYLINE
  5
141
100
AcDbEntity
  8
0
 62
7
100
AcDbPolyline
 90
2
 70
0
 10
86.275398
 20
53.275850
 30
0.0
 10
84.276426
 20
53.275850
 30
0.0
  0
SPLINE
  5
142
100
AcDbEntity
  8
0
 62
7
100
AcDbSpline
 70
8
 71
3
 72
8
 73
4
 74
0
 40
0
 40
0
 40
0
 40
0
 40
1
 40
1
 40
1
 40
1
 10
105.081644
 20
91.374506
 30
0.0
 10
105.081644
 20
91.015460
 30
0.0
 10
104.890095
 20
90.683687
 30
0.0
 10
104.579151
 20
90.504164
 30
0.0
  0
SPLINE
  5
143
100
AcDbEntity
  8
0
 62
7
100
AcDbSpline
 70
8
 71
3
 72
8
 73
4
 74
0
 40
0
 40
0
 40
0
 40
0
 40
1
 40
1
 40
1
 40
1
 10
104.579151
 20
90.504164
 30
0.0
 10
104.268208
 20
90.324640
 30
0.0
 10
103.885110
 20
90.324640
 30
0.0
 10
103.574166
 20
90.504164
 30
0.0
  0
SPLINE
  5
144
100
AcDbEntity
  8
0
 62
7
100
AcDbSpline
 70
8
 71
3
 72
8
 73
4
 74
0
 40
0
 40
0
 40
0
 40
0
 40
1
 40
1
 40
1
 40
1
 10
103.574166
 20
90.504164
 30
0.0
 10
103.263223
 20
90.683687
 30
0.0
 10
103.071673
 20
91.015460
 30
0.0
 10
103.071673
 20
91.374506
 30
0.0
  0
SPLINE
  5
145
100
AcDbEntity
  8
0
 62
7
100
AcDbSpline
 70
8
 71
3
 72
8
 73
4
 74
0
 40
0
 40
0
 40
0
 40
0
 40
1
 40
1
 40
1
 40
1
 10
103.071673
 20
91.374506
 30
0.0
 10
103.071673
 20
91.733553
 30
0.0
 10
103.263223
 20
92.065326
 30
0.0
 10
103.574166
 20
92.244849
 30
0.0
  0
SPLINE
  5
146
100
AcDbEntity
  8
0
 62
7
100
AcDbSpline
 70
8
 71
3
 72
8
 73
4
 74
0
 40
0
 40
0
 40
0
 40
0
 40
1
 40
1
 40
1
 40
1
 10
103.574166
 20
92.244849
 30
0.0
 10
103.885110
 20
92.424372
 30
0.0
 10
104.268208
 20
92.424372
 30
0.0
 10
104.579151
 20
92.244849
 30
0.0
  0
SPLINE
  5
147
100
AcDbEntity
  8
0
 62
7
100
AcDbSpline
 70
8
 71
3
 72
8
 73
4
 74
0
 40
0
 40
0
 40
0
 40
0
 40
1
 40
1
 40
1
 40
1
 10
104.579151
 20
92.244849
 30
0.0
 10
104.890095
 20
92.065326
 30
0.0
 10
105.081644
 20
91.733553
 30
0.0
 10
105.081644
 20
91.374506
 30
0.0
  0
LWPOLYLINE
  5
148
100
AcDbEntity
  8
0
 62
7
100
AcDbPolyline
 90
2
 70
0
 10
86.275398
 20
92.274857
 30
0.0
 10
86.275398
 20
53.275850
 30
0.0
  0
SPLINE
  5
149
100
AcDbEntity
  8
0
 62
7
100
AcDbSpline
 70
8
 71
3
 72
8
 73
4
 74
0
 40
0
 40
0
 40
0
 40
0
 40
1
 40
1
 40
1
 40
1
 10
120.481822
 20
89.074520
 30
0.0
 10
120.481822
 20
87.679359
 30
0.0
 10
119.737512
 20
86.390178
 30
0.0
 10
118.529268
 20
85.692598
 30
0.0
  0
SPLINE
  5
14a
100
AcDbEntity
  8
0
 62
7
100
AcDbSpline
 70
8
 71
3
 72
8
 73
4
 74
0
 40
0
 40
0
 40
0
 40
0
 40
1
 40
1
 40
1
 40
1
 10
118.529268
 20
85.692598
 30
0.0
 10
117.321023
 20
84.995017
 30
0.0
 10
115.832405
 20
84.995017
 30
0.0
 10
114.624160
 20
85.692598
 30
0.0
  0
SPLINE
  5
14b
100
AcDbEntity
  8
0
 62
7
100
AcDbSpline
 70
8
 71
3
 72
8
 73
4
 74
0
 40
0
 40
0
 40
0
 40
0
 40
1
 40
1
 40
1
 40
1
 10
114.624160
 20
85.692598
 30
0.0
 10
113.415916
 20
86.390178
 30
0.0
 10
112.671606
 20
87.679359
 30
0.0
 10
112.671606
 20
89.074520
 30
0.0
  0
SPLINE
  5
14c
100
AcDbEntity
  8
0
 62
7
100
AcDbSpline
 70
8
 71
3
 72
8
 73
4
 74
0
 40
0
 40
0
 40
0
 40
0
 40
1
 40
1
 40
1
 40
1
 10
112.671606
 20
89.074520
 30
0.0
 10
112.671606
 20
90.469681
 30
0.0
 10
113.415916
 20
91.758862
 30
0.0
 10
114.624160
 20
92.456442
 30
0.0
  0
SPLINE
  5
14d
100
AcDbEntity
  8
0
 62
7
100
AcDbSpline
 70
8
 71
3
 72
8
 73
4
 74
0
 40
0
 40
0
 40
0
 40
0
 40
1
 40
1
 40
1
 40
1
 10
114.624160
 20
92.456442
 30
0.0
 10
115.832405
 20
93.154023
 30
0.0
 10
117.321023
 20
93.154023
 30
0.0
 10
118.529268
 20
92.456442
 30
0.0
  0
SPLINE
  5
14e
100
AcDbEntity
  8
0
 62
7
100
AcDbSpline
 70
8
 71
3
 72
8
 73
4
 74
0
 40
0
 40
0
 40
0
 40
0
 40
1
 40
1
 40
1
 40
1
 10
118.529268
 20
92.456442
 30
0.0
 10
119.737512
 20
91.758862
 30
0.0
 10
120.481822
 20
90.469681
 30
0.0
 10
120.481822
 20
89.074520
 30
0.0
  0
LWPOLYLINE
  5
14f
100
AcDbEntity
  8
0
 62
7
100
AcDbPolyline
 90
1
 70
1
 10
105.081644
 20
91.374506
 30
0.0
  0
LWPOLYLINE
  5
150
100
AcDbEntity
  8
0
 62
7
100
AcDbPolyline
 90
1
 70
1
 10
120.481822
 20
89.074520
 30
0.0
  0
LWPOLYLINE
  5
151
100
AcDbEntity
  8
0
 62
7
100
AcDbPolyline
 90
2
 70
0
 10
0.075757
 20
90.075225
 30
0.0
 10
0.576135
 20
91.576359
 30
0.0
  0
LWPOLYLINE
  5
152
100
AcDbEntity
  8
0
 62
7
100
AcDbPolyline
 90
2
 70
0
 10
24.576501
 20
97.575816
 30
0.0
 10
0.576135
 20
91.576359
 30
0.0
  0
LWPOLYLINE
  5
153
100
AcDbEntity
  8
0
 62
7
100
AcDbPolyline
 90
2
 70
0
 10
0.075757
 20
10.075700
 30
0.0
 10
0.075757
 20
90.075225
 30
0.0
  0
LWPOLYLINE
  5
154
100
AcDbEntity
  8
0
 62
7
100
AcDbPolyline
 90
2
 70
0
 10
10.075698
 20
0.075760
 30
0.0
 10
0.075757
 20
10.075700
 30
0.0
  0
LWPOLYLINE
  5
155
100
AcDbEntity
  8
0
 62
7
100
AcDbPolyline
 90
2
 70
0
 10
125.076285
 20
92.574575
 30
0.0
 10
125.076285
 20
85.576903
 30
0.0
  0
LWPOLYLINE
  5
156
100
AcDbEntity
  8
0
 62
7
100
AcDbPolyline
 90
2
 70
0
 10
120.075045
 20
97.575816
 30
0.0
 10
125.076285
 20
92.574575
 30
0.0
  0
LWPOLYLINE
  5
157
100
AcDbEntity
  8
0
 62
7
100
AcDbPolyline
 90
2
 70
0
 10
120.075045
 20
80.575663
 30
0.0
 10
125.076285
 20
85.576903
 30
0.0
  0
LWPOLYLINE
  5
158
100
AcDbEntity
  8
0
 62
7
100
AcDbPolyline
 90
2
 70
0
 10
116.074561
 20
80.575663
 30
0.0
 10
120.075045
 20
80.575663
 30
0.0
  0
LWPOLYLINE
  5
159
100
AcDbEntity
  8
0
 62
7
100
AcDbPolyline
 90
2
 70
0
 10
113.575210
 20
78.076313
 30
0.0
 10
116.074561
 20
80.575663
 30
0.0
  0
LWPOLYLINE
  5
15a
100
AcDbEntity
  8
0
 62
7
100
AcDbPolyline
 90
2
 70
0
 10
113.575210
 20
10.075700
 30
0.0
 10
113.575210
 20
78.076313
 30
0.0
  0
LWPOLYLINE
  5
15b
100
AcDbEntity
  8
0
 62
7
100
AcDbPolyline
 90
2
 70
0
 10
103.575270
 20
0.075760
 30
0.0
 10
113.575210
 20
10.075700
 30
0.0
  0
LWPOLYLINE
  5
15c
100
AcDbEntity
  8
0
 62
7
100
AcDbPolyline
 90
2
 70
0
 10
10.075698
 20
0.075760
 30
0.0
 10
103.575270
 20
0.075760
 30
0.0
  0
LWPOLYLINE
  5
15d
100
AcDbEntity
  8
0
 62
7
100
AcDbPolyline
 90
2
 70
0
 10
24.576501
 20
97.575816
 30
0.0
 10
120.075045
 20
97.575816
 30
0.0
  0
ENDSEC
  0
SECTION
  2
OBJECTS
  0
DICTIONARY
  5
C
330
0
100
AcDbDictionary
  3
ACAD_GROUP
350
D
  3
ACAD_MLINESTYLE
350
17
  0
DICTIONARY
  5
D
330
C
100
AcDbDictionary
  0
DICTIONARY
  5
1A
330
C
100
AcDbDictionary
  0
DICTIONARY
  5
17
330
C
100
AcDbDictionary
  3
STANDARD
350
18
  0
DICTIONARY
  5
19
330
C
100
AcDbDictionary
  0
ENDSEC
  0
EOF
