  0
SECTION
  2
BLOCKS
  0
ENDSEC
  0
SECTION
  2
ENTITIES
  0
LINE
  8
0
 10
-264.003
 20
181
 11
-264.003
 21
173.36
  0
LINE
  8
0
 10
-264.003
 20
173.36
 11
-255.753
 21
173.36
  0
LINE
  8
0
 10
-255.753
 20
173.36
 11
-255.753
 21
172.14
  0
LINE
  8
0
 10
-255.753
 20
172.14
 11
-264.003
 21
172.14
  0
LINE
  8
0
 10
-264.003
 20
172.14
 11
-264.003
 21
156.86
  0
LINE
  8
0
 10
-264.003
 20
156.86
 11
-255.753
 21
156.86
  0
LINE
  8
0
 10
-255.753
 20
156.86
 11
-255.753
 21
155.64
  0
LINE
  8
0
 10
-255.753
 20
155.64
 11
-264.003
 21
155.64
  0
LINE
  8
0
 10
-264.003
 20
155.64
 11
-264.003
 21
140.36
  0
LINE
  8
0
 10
-264.003
 20
140.36
 11
-255.753
 21
140.36
  0
LINE
  8
0
 10
-255.753
 20
140.36
 11
-255.753
 21
139.14
  0
LINE
  8
0
 10
-255.753
 20
139.14
 11
-264.003
 21
139.14
  0
LINE
  8
0
 10
-264.003
 20
139.14
 11
-264.003
 21
123.86
  0
LINE
  8
0
 10
-264.003
 20
123.86
 11
-255.753
 21
123.86
  0
LINE
  8
0
 10
-255.753
 20
123.86
 11
-255.753
 21
122.64
  0
LINE
  8
0
 10
-255.753
 20
122.64
 11
-264.003
 21
122.64
  0
LINE
  8
0
 10
-264.003
 20
122.64
 11
-264.003
 21
107.36
  0
LINE
  8
0
 10
-264.003
 20
107.36
 11
-255.753
 21
107.36
  0
LINE
  8
0
 10
-255.753
 20
107.36
 11
-255.753
 21
106.14
  0
LINE
  8
0
 10
-255.753
 20
106.14
 11
-264.003
 21
106.14
  0
LINE
  8
0
 10
-264.003
 20
106.14
 11
-264.003
 21
90.86
  0
LINE
  8
0
 10
-264.003
 20
90.86
 11
-255.753
 21
90.86
  0
LINE
  8
0
 10
-255.753
 20
90.86
 11
-255.753
 21
89.64
  0
LINE
  8
0
 10
-255.753
 20
89.64
 11
-264.003
 21
89.64
  0
LINE
  8
0
 10
-264.003
 20
89.64
 11
-264.003
 21
74.36
  0
LINE
  8
0
 10
-264.003
 20
74.36
 11
-255.753
 21
74.36
  0
LINE
  8
0
 10
-255.753
 20
74.36
 11
-255.753
 21
73.14
  0
LINE
  8
0
 10
-255.753
 20
73.14
 11
-264.003
 21
73.14
  0
LINE
  8
0
 10
-264.003
 20
73.14
 11
-264.003
 21
57.86
  0
LINE
  8
0
 10
-264.003
 20
57.86
 11
-255.753
 21
57.86
  0
LINE
  8
0
 10
-255.753
 20
57.86
 11
-255.753
 21
56.64
  0
LINE
  8
0
 10
-255.753
 20
56.64
 11
-264.003
 21
56.64
  0
LINE
  8
0
 10
-264.003
 20
56.64
 11
-264.003
 21
41.36
  0
LINE
  8
0
 10
-264.003
 20
41.36
 11
-255.753
 21
41.36
  0
LINE
  8
0
 10
-255.753
 20
41.36
 11
-255.753
 21
40.14
  0
LINE
  8
0
 10
-255.753
 20
40.14
 11
-264.003
 21
40.14
  0
LINE
  8
0
 10
-264.003
 20
40.14
 11
-264.003
 21
24.86
  0
LINE
  8
0
 10
-264.003
 20
24.86
 11
-255.753
 21
24.86
  0
LINE
  8
0
 10
-255.753
 20
24.86
 11
-255.753
 21
23.64
  0
LINE
  8
0
 10
-255.753
 20
23.64
 11
-264.003
 21
23.64
  0
LINE
  8
0
 10
-264.003
 20
23.64
 11
-264.003
 21
8.36
  0
LINE
  8
0
 10
-264.003
 20
8.36
 11
-255.753
 21
8.36
  0
LINE
  8
0
 10
-255.753
 20
8.36
 11
-255.753
 21
7.14001
  0
LINE
  8
0
 10
-255.753
 20
7.14001
 11
-264.003
 21
7.14001
  0
LINE
  8
0
 10
-264.003
 20
7.14001
 11
-264.003
 21
5.86205e-14
  0
LINE
  8
0
 10
-264.003
 20
5.86205e-14
 11
-247.503
 21
5.49567e-14
  0
LINE
  8
0
 10
-247.503
 20
5.49567e-14
 11
-247.503
 21
181
  0
LINE
  8
0
 10
-247.503
 20
181
 11
-264.003
 21
181
  0
LINE
  8
0
 10
-255.75
 20
-1.74998
 11
-255.75
 21
-18.25
  0
LINE
  8
0
 10
-255.75
 20
-18.25
 11
-248.11
 21
-18.25
  0
LINE
  8
0
 10
-248.11
 20
-18.25
 11
-248.11
 21
-9.99998
  0
LINE
  8
0
 10
-248.11
 20
-9.99998
 11
-246.89
 21
-9.99998
  0
LINE
  8
0
 10
-246.89
 20
-9.99998
 11
-246.89
 21
-18.25
  0
LINE
  8
0
 10
-246.89
 20
-18.25
 11
-231.61
 21
-18.25
  0
LINE
  8
0
 10
-231.61
 20
-18.25
 11
-231.61
 21
-9.99998
  0
LINE
  8
0
 10
-231.61
 20
-9.99998
 11
-230.39
 21
-9.99998
  0
LINE
  8
0
 10
-230.39
 20
-9.99998
 11
-230.39
 21
-18.25
  0
LINE
  8
0
 10
-230.39
 20
-18.25
 11
-215.11
 21
-18.25
  0
LINE
  8
0
 10
-215.11
 20
-18.25
 11
-215.11
 21
-9.99998
  0
LINE
  8
0
 10
-215.11
 20
-9.99998
 11
-213.89
 21
-9.99998
  0
LINE
  8
0
 10
-213.89
 20
-9.99998
 11
-213.89
 21
-18.25
  0
LINE
  8
0
 10
-213.89
 20
-18.25
 11
-198.61
 21
-18.25
  0
LINE
  8
0
 10
-198.61
 20
-18.25
 11
-198.61
 21
-9.99998
  0
LINE
  8
0
 10
-198.61
 20
-9.99998
 11
-197.39
 21
-9.99998
  0
LINE
  8
0
 10
-197.39
 20
-9.99998
 11
-197.39
 21
-18.25
  0
LINE
  8
0
 10
-197.39
 20
-18.25
 11
-182.11
 21
-18.25
  0
LINE
  8
0
 10
-182.11
 20
-18.25
 11
-182.11
 21
-9.99998
  0
LINE
  8
0
 10
-182.11
 20
-9.99998
 11
-180.89
 21
-9.99998
  0
LINE
  8
0
 10
-180.89
 20
-9.99998
 11
-180.89
 21
-18.25
  0
LINE
  8
0
 10
-180.89
 20
-18.25
 11
-165.61
 21
-18.25
  0
LINE
  8
0
 10
-165.61
 20
-18.25
 11
-165.61
 21
-9.99998
  0
LINE
  8
0
 10
-165.61
 20
-9.99998
 11
-164.39
 21
-9.99998
  0
LINE
  8
0
 10
-164.39
 20
-9.99998
 11
-164.39
 21
-18.25
  0
LINE
  8
0
 10
-164.39
 20
-18.25
 11
-149.11
 21
-18.25
  0
LINE
  8
0
 10
-149.11
 20
-18.25
 11
-149.11
 21
-9.99998
  0
LINE
  8
0
 10
-149.11
 20
-9.99998
 11
-147.89
 21
-9.99998
  0
LINE
  8
0
 10
-147.89
 20
-9.99998
 11
-147.89
 21
-18.25
  0
LINE
  8
0
 10
-147.89
 20
-18.25
 11
-132.61
 21
-18.25
  0
LINE
  8
0
 10
-132.61
 20
-18.25
 11
-132.61
 21
-9.99998
  0
LINE
  8
0
 10
-132.61
 20
-9.99998
 11
-131.39
 21
-9.99998
  0
LINE
  8
0
 10
-131.39
 20
-9.99998
 11
-131.39
 21
-18.25
  0
LINE
  8
0
 10
-131.39
 20
-18.25
 11
-116.11
 21
-18.25
  0
LINE
  8
0
 10
-116.11
 20
-18.25
 11
-116.11
 21
-9.99998
  0
LINE
  8
0
 10
-116.11
 20
-9.99998
 11
-114.89
 21
-9.99998
  0
LINE
  8
0
 10
-114.89
 20
-9.99998
 11
-114.89
 21
-18.25
  0
LINE
  8
0
 10
-114.89
 20
-18.25
 11
-99.61
 21
-18.25
  0
LINE
  8
0
 10
-99.61
 20
-18.25
 11
-99.61
 21
-9.99998
  0
LINE
  8
0
 10
-99.61
 20
-9.99998
 11
-98.39
 21
-9.99998
  0
LINE
  8
0
 10
-98.39
 20
-9.99998
 11
-98.39
 21
-18.25
  0
LINE
  8
0
 10
-98.39
 20
-18.25
 11
-83.11
 21
-18.25
  0
LINE
  8
0
 10
-83.11
 20
-18.25
 11
-83.11
 21
-9.99998
  0
LINE
  8
0
 10
-83.11
 20
-9.99998
 11
-81.89
 21
-9.99998
  0
LINE
  8
0
 10
-81.89
 20
-9.99998
 11
-81.89
 21
-18.25
  0
LINE
  8
0
 10
-81.89
 20
-18.25
 11
-66.61
 21
-18.25
  0
LINE
  8
0
 10
-66.61
 20
-18.25
 11
-66.61
 21
-9.99998
  0
LINE
  8
0
 10
-66.61
 20
-9.99998
 11
-65.39
 21
-9.99998
  0
LINE
  8
0
 10
-65.39
 20
-9.99998
 11
-65.39
 21
-18.25
  0
LINE
  8
0
 10
-65.39
 20
-18.25
 11
-50.11
 21
-18.25
  0
LINE
  8
0
 10
-50.11
 20
-18.25
 11
-50.11
 21
-9.99998
  0
LINE
  8
0
 10
-50.11
 20
-9.99998
 11
-48.89
 21
-9.99998
  0
LINE
  8
0
 10
-48.89
 20
-9.99998
 11
-48.89
 21
-18.25
  0
LINE
  8
0
 10
-48.89
 20
-18.25
 11
-33.61
 21
-18.25
  0
LINE
  8
0
 10
-33.61
 20
-18.25
 11
-33.61
 21
-9.99998
  0
LINE
  8
0
 10
-33.61
 20
-9.99998
 11
-32.39
 21
-9.99998
  0
LINE
  8
0
 10
-32.39
 20
-9.99998
 11
-32.39
 21
-18.25
  0
LINE
  8
0
 10
-32.39
 20
-18.25
 11
-17.11
 21
-18.25
  0
LINE
  8
0
 10
-17.11
 20
-18.25
 11
-17.11
 21
-9.99998
  0
LINE
  8
0
 10
-17.11
 20
-9.99998
 11
-15.89
 21
-9.99998
  0
LINE
  8
0
 10
-15.89
 20
-9.99998
 11
-15.89
 21
-18.25
  0
LINE
  8
0
 10
-15.89
 20
-18.25
 11
-0.610001
 21
-18.25
  0
LINE
  8
0
 10
-0.610001
 20
-18.25
 11
-0.610001
 21
-9.99998
  0
LINE
  8
0
 10
-0.610001
 20
-9.99998
 11
0.609985
 21
-9.99998
  0
LINE
  8
0
 10
0.609985
 20
-9.99998
 11
0.609985
 21
-18.25
  0
LINE
  8
0
 10
0.609985
 20
-18.25
 11
15.89
 21
-18.25
  0
LINE
  8
0
 10
15.89
 20
-18.25
 11
15.89
 21
-9.99998
  0
LINE
  8
0
 10
15.89
 20
-9.99998
 11
17.11
 21
-9.99998
  0
LINE
  8
0
 10
17.11
 20
-9.99998
 11
17.11
 21
-18.25
  0
LINE
  8
0
 10
17.11
 20
-18.25
 11
32.39
 21
-18.25
  0
LINE
  8
0
 10
32.39
 20
-18.25
 11
32.39
 21
-9.99998
  0
LINE
  8
0
 10
32.39
 20
-9.99998
 11
33.61
 21
-9.99998
  0
LINE
  8
0
 10
33.61
 20
-9.99998
 11
33.61
 21
-18.25
  0
LINE
  8
0
 10
33.61
 20
-18.25
 11
48.89
 21
-18.25
  0
LINE
  8
0
 10
48.89
 20
-18.25
 11
48.89
 21
-9.99998
  0
LINE
  8
0
 10
48.89
 20
-9.99998
 11
50.11
 21
-9.99998
  0
LINE
  8
0
 10
50.11
 20
-9.99998
 11
50.11
 21
-18.25
  0
LINE
  8
0
 10
50.11
 20
-18.25
 11
65.39
 21
-18.25
  0
LINE
  8
0
 10
65.39
 20
-18.25
 11
65.39
 21
-9.99998
  0
LINE
  8
0
 10
65.39
 20
-9.99998
 11
66.61
 21
-9.99998
  0
LINE
  8
0
 10
66.61
 20
-9.99998
 11
66.61
 21
-18.25
  0
LINE
  8
0
 10
66.61
 20
-18.25
 11
81.89
 21
-18.25
  0
LINE
  8
0
 10
81.89
 20
-18.25
 11
81.89
 21
-9.99998
  0
LINE
  8
0
 10
81.89
 20
-9.99998
 11
83.11
 21
-9.99998
  0
LINE
  8
0
 10
83.11
 20
-9.99998
 11
83.11
 21
-18.25
  0
LINE
  8
0
 10
83.11
 20
-18.25
 11
98.39
 21
-18.25
  0
LINE
  8
0
 10
98.39
 20
-18.25
 11
98.39
 21
-9.99998
  0
LINE
  8
0
 10
98.39
 20
-9.99998
 11
99.61
 21
-9.99998
  0
LINE
  8
0
 10
99.61
 20
-9.99998
 11
99.61
 21
-18.25
  0
LINE
  8
0
 10
99.61
 20
-18.25
 11
114.89
 21
-18.25
  0
LINE
  8
0
 10
114.89
 20
-18.25
 11
114.89
 21
-9.99998
  0
LINE
  8
0
 10
114.89
 20
-9.99998
 11
116.11
 21
-9.99998
  0
LINE
  8
0
 10
116.11
 20
-9.99998
 11
116.11
 21
-18.25
  0
LINE
  8
0
 10
116.11
 20
-18.25
 11
131.39
 21
-18.25
  0
LINE
  8
0
 10
131.39
 20
-18.25
 11
131.39
 21
-9.99998
  0
LINE
  8
0
 10
131.39
 20
-9.99998
 11
132.61
 21
-9.99998
  0
LINE
  8
0
 10
132.61
 20
-9.99998
 11
132.61
 21
-18.25
  0
LINE
  8
0
 10
132.61
 20
-18.25
 11
147.89
 21
-18.25
  0
LINE
  8
0
 10
147.89
 20
-18.25
 11
147.89
 21
-9.99998
  0
LINE
  8
0
 10
147.89
 20
-9.99998
 11
149.11
 21
-9.99998
  0
LINE
  8
0
 10
149.11
 20
-9.99998
 11
149.11
 21
-18.25
  0
LINE
  8
0
 10
149.11
 20
-18.25
 11
164.39
 21
-18.25
  0
LINE
  8
0
 10
164.39
 20
-18.25
 11
164.39
 21
-9.99998
  0
LINE
  8
0
 10
164.39
 20
-9.99998
 11
165.61
 21
-9.99998
  0
LINE
  8
0
 10
165.61
 20
-9.99998
 11
165.61
 21
-18.25
  0
LINE
  8
0
 10
165.61
 20
-18.25
 11
180.89
 21
-18.25
  0
LINE
  8
0
 10
180.89
 20
-18.25
 11
180.89
 21
-9.99998
  0
LINE
  8
0
 10
180.89
 20
-9.99998
 11
182.11
 21
-9.99998
  0
LINE
  8
0
 10
182.11
 20
-9.99998
 11
182.11
 21
-18.25
  0
LINE
  8
0
 10
182.11
 20
-18.25
 11
197.39
 21
-18.25
  0
LINE
  8
0
 10
197.39
 20
-18.25
 11
197.39
 21
-9.99998
  0
LINE
  8
0
 10
197.39
 20
-9.99998
 11
198.61
 21
-9.99998
  0
LINE
  8
0
 10
198.61
 20
-9.99998
 11
198.61
 21
-18.25
  0
LINE
  8
0
 10
198.61
 20
-18.25
 11
213.89
 21
-18.25
  0
LINE
  8
0
 10
213.89
 20
-18.25
 11
213.89
 21
-9.99998
  0
LINE
  8
0
 10
213.89
 20
-9.99998
 11
215.11
 21
-9.99998
  0
LINE
  8
0
 10
215.11
 20
-9.99998
 11
215.11
 21
-18.25
  0
LINE
  8
0
 10
215.11
 20
-18.25
 11
230.39
 21
-18.25
  0
LINE
  8
0
 10
230.39
 20
-18.25
 11
230.39
 21
-10
  0
LINE
  8
0
 10
230.39
 20
-10
 11
231.61
 21
-10
  0
LINE
  8
0
 10
231.61
 20
-10
 11
231.61
 21
-18.25
  0
LINE
  8
0
 10
231.61
 20
-18.25
 11
246.89
 21
-18.25
  0
LINE
  8
0
 10
246.89
 20
-18.25
 11
246.89
 21
-10
  0
LINE
  8
0
 10
246.89
 20
-10
 11
248.11
 21
-10
  0
LINE
  8
0
 10
248.11
 20
-10
 11
248.11
 21
-18.25
  0
LINE
  8
0
 10
248.11
 20
-18.25
 11
255.75
 21
-18.25
  0
LINE
  8
0
 10
255.75
 20
-18.25
 11
255.75
 21
-1.75
  0
LINE
  8
0
 10
255.75
 20
-1.75
 11
-255.75
 21
-1.74998
  0
LINE
  8
0
 10
-255.75
 20
-18.2501
 11
-255.75
 21
-34.7501
  0
LINE
  8
0
 10
-255.75
 20
-34.7501
 11
-248.11
 21
-34.7501
  0
LINE
  8
0
 10
-248.11
 20
-34.7501
 11
-248.11
 21
-26.5001
  0
LINE
  8
0
 10
-248.11
 20
-26.5001
 11
-246.89
 21
-26.5001
  0
LINE
  8
0
 10
-246.89
 20
-26.5001
 11
-246.89
 21
-34.7501
  0
LINE
  8
0
 10
-246.89
 20
-34.7501
 11
-231.61
 21
-34.7501
  0
LINE
  8
0
 10
-231.61
 20
-34.7501
 11
-231.61
 21
-26.5001
  0
LINE
  8
0
 10
-231.61
 20
-26.5001
 11
-230.39
 21
-26.5001
  0
LINE
  8
0
 10
-230.39
 20
-26.5001
 11
-230.39
 21
-34.7501
  0
LINE
  8
0
 10
-230.39
 20
-34.7501
 11
-215.11
 21
-34.7501
  0
LINE
  8
0
 10
-215.11
 20
-34.7501
 11
-215.11
 21
-26.5001
  0
LINE
  8
0
 10
-215.11
 20
-26.5001
 11
-213.89
 21
-26.5001
  0
LINE
  8
0
 10
-213.89
 20
-26.5001
 11
-213.89
 21
-34.7501
  0
LINE
  8
0
 10
-213.89
 20
-34.7501
 11
-198.61
 21
-34.7501
  0
LINE
  8
0
 10
-198.61
 20
-34.7501
 11
-198.61
 21
-26.5001
  0
LINE
  8
0
 10
-198.61
 20
-26.5001
 11
-197.39
 21
-26.5001
  0
LINE
  8
0
 10
-197.39
 20
-26.5001
 11
-197.39
 21
-34.7501
  0
LINE
  8
0
 10
-197.39
 20
-34.7501
 11
-182.11
 21
-34.7501
  0
LINE
  8
0
 10
-182.11
 20
-34.7501
 11
-182.11
 21
-26.5001
  0
LINE
  8
0
 10
-182.11
 20
-26.5001
 11
-180.89
 21
-26.5001
  0
LINE
  8
0
 10
-180.89
 20
-26.5001
 11
-180.89
 21
-34.7501
  0
LINE
  8
0
 10
-180.89
 20
-34.7501
 11
-165.61
 21
-34.7501
  0
LINE
  8
0
 10
-165.61
 20
-34.7501
 11
-165.61
 21
-26.5001
  0
LINE
  8
0
 10
-165.61
 20
-26.5001
 11
-164.39
 21
-26.5001
  0
LINE
  8
0
 10
-164.39
 20
-26.5001
 11
-164.39
 21
-34.7501
  0
LINE
  8
0
 10
-164.39
 20
-34.7501
 11
-149.11
 21
-34.7501
  0
LINE
  8
0
 10
-149.11
 20
-34.7501
 11
-149.11
 21
-26.5001
  0
LINE
  8
0
 10
-149.11
 20
-26.5001
 11
-147.89
 21
-26.5001
  0
LINE
  8
0
 10
-147.89
 20
-26.5001
 11
-147.89
 21
-34.7501
  0
LINE
  8
0
 10
-147.89
 20
-34.7501
 11
-132.61
 21
-34.7501
  0
LINE
  8
0
 10
-132.61
 20
-34.7501
 11
-132.61
 21
-26.5001
  0
LINE
  8
0
 10
-132.61
 20
-26.5001
 11
-131.39
 21
-26.5001
  0
LINE
  8
0
 10
-131.39
 20
-26.5001
 11
-131.39
 21
-34.7501
  0
LINE
  8
0
 10
-131.39
 20
-34.7501
 11
-116.11
 21
-34.7501
  0
LINE
  8
0
 10
-116.11
 20
-34.7501
 11
-116.11
 21
-26.5001
  0
LINE
  8
0
 10
-116.11
 20
-26.5001
 11
-114.89
 21
-26.5001
  0
LINE
  8
0
 10
-114.89
 20
-26.5001
 11
-114.89
 21
-34.7501
  0
LINE
  8
0
 10
-114.89
 20
-34.7501
 11
-99.61
 21
-34.7501
  0
LINE
  8
0
 10
-99.61
 20
-34.7501
 11
-99.61
 21
-26.5001
  0
LINE
  8
0
 10
-99.61
 20
-26.5001
 11
-98.39
 21
-26.5001
  0
LINE
  8
0
 10
-98.39
 20
-26.5001
 11
-98.39
 21
-34.7501
  0
LINE
  8
0
 10
-98.39
 20
-34.7501
 11
-83.11
 21
-34.7501
  0
LINE
  8
0
 10
-83.11
 20
-34.7501
 11
-83.11
 21
-26.5001
  0
LINE
  8
0
 10
-83.11
 20
-26.5001
 11
-81.89
 21
-26.5001
  0
LINE
  8
0
 10
-81.89
 20
-26.5001
 11
-81.89
 21
-34.7501
  0
LINE
  8
0
 10
-81.89
 20
-34.7501
 11
-66.61
 21
-34.7501
  0
LINE
  8
0
 10
-66.61
 20
-34.7501
 11
-66.61
 21
-26.5001
  0
LINE
  8
0
 10
-66.61
 20
-26.5001
 11
-65.39
 21
-26.5001
  0
LINE
  8
0
 10
-65.39
 20
-26.5001
 11
-65.39
 21
-34.7501
  0
LINE
  8
0
 10
-65.39
 20
-34.7501
 11
-50.11
 21
-34.7501
  0
LINE
  8
0
 10
-50.11
 20
-34.7501
 11
-50.11
 21
-26.5001
  0
LINE
  8
0
 10
-50.11
 20
-26.5001
 11
-48.89
 21
-26.5001
  0
LINE
  8
0
 10
-48.89
 20
-26.5001
 11
-48.89
 21
-34.7501
  0
LINE
  8
0
 10
-48.89
 20
-34.7501
 11
-33.61
 21
-34.7501
  0
LINE
  8
0
 10
-33.61
 20
-34.7501
 11
-33.61
 21
-26.5001
  0
LINE
  8
0
 10
-33.61
 20
-26.5001
 11
-32.39
 21
-26.5001
  0
LINE
  8
0
 10
-32.39
 20
-26.5001
 11
-32.39
 21
-34.7501
  0
LINE
  8
0
 10
-32.39
 20
-34.7501
 11
-17.11
 21
-34.7501
  0
LINE
  8
0
 10
-17.11
 20
-34.7501
 11
-17.11
 21
-26.5001
  0
LINE
  8
0
 10
-17.11
 20
-26.5001
 11
-15.89
 21
-26.5001
  0
LINE
  8
0
 10
-15.89
 20
-26.5001
 11
-15.89
 21
-34.7501
  0
LINE
  8
0
 10
-15.89
 20
-34.7501
 11
-0.610001
 21
-34.7501
  0
LINE
  8
0
 10
-0.610001
 20
-34.7501
 11
-0.610001
 21
-26.5001
  0
LINE
  8
0
 10
-0.610001
 20
-26.5001
 11
0.609985
 21
-26.5001
  0
LINE
  8
0
 10
0.609985
 20
-26.5001
 11
0.609985
 21
-34.7501
  0
LINE
  8
0
 10
0.609985
 20
-34.7501
 11
15.89
 21
-34.7501
  0
LINE
  8
0
 10
15.89
 20
-34.7501
 11
15.89
 21
-26.5001
  0
LINE
  8
0
 10
15.89
 20
-26.5001
 11
17.11
 21
-26.5001
  0
LINE
  8
0
 10
17.11
 20
-26.5001
 11
17.11
 21
-34.7501
  0
LINE
  8
0
 10
17.11
 20
-34.7501
 11
32.39
 21
-34.7501
  0
LINE
  8
0
 10
32.39
 20
-34.7501
 11
32.39
 21
-26.5001
  0
LINE
  8
0
 10
32.39
 20
-26.5001
 11
33.61
 21
-26.5001
  0
LINE
  8
0
 10
33.61
 20
-26.5001
 11
33.61
 21
-34.7501
  0
LINE
  8
0
 10
33.61
 20
-34.7501
 11
48.89
 21
-34.7501
  0
LINE
  8
0
 10
48.89
 20
-34.7501
 11
48.89
 21
-26.5001
  0
LINE
  8
0
 10
48.89
 20
-26.5001
 11
50.11
 21
-26.5001
  0
LINE
  8
0
 10
50.11
 20
-26.5001
 11
50.11
 21
-34.7501
  0
LINE
  8
0
 10
50.11
 20
-34.7501
 11
65.39
 21
-34.7501
  0
LINE
  8
0
 10
65.39
 20
-34.7501
 11
65.39
 21
-26.5001
  0
LINE
  8
0
 10
65.39
 20
-26.5001
 11
66.61
 21
-26.5001
  0
LINE
  8
0
 10
66.61
 20
-26.5001
 11
66.61
 21
-34.7501
  0
LINE
  8
0
 10
66.61
 20
-34.7501
 11
81.89
 21
-34.7501
  0
LINE
  8
0
 10
81.89
 20
-34.7501
 11
81.89
 21
-26.5001
  0
LINE
  8
0
 10
81.89
 20
-26.5001
 11
83.11
 21
-26.5001
  0
LINE
  8
0
 10
83.11
 20
-26.5001
 11
83.11
 21
-34.7501
  0
LINE
  8
0
 10
83.11
 20
-34.7501
 11
98.39
 21
-34.7501
  0
LINE
  8
0
 10
98.39
 20
-34.7501
 11
98.39
 21
-26.5001
  0
LINE
  8
0
 10
98.39
 20
-26.5001
 11
99.61
 21
-26.5001
  0
LINE
  8
0
 10
99.61
 20
-26.5001
 11
99.61
 21
-34.7501
  0
LINE
  8
0
 10
99.61
 20
-34.7501
 11
114.89
 21
-34.7501
  0
LINE
  8
0
 10
114.89
 20
-34.7501
 11
114.89
 21
-26.5001
  0
LINE
  8
0
 10
114.89
 20
-26.5001
 11
116.11
 21
-26.5001
  0
LINE
  8
0
 10
116.11
 20
-26.5001
 11
116.11
 21
-34.7501
  0
LINE
  8
0
 10
116.11
 20
-34.7501
 11
131.39
 21
-34.7501
  0
LINE
  8
0
 10
131.39
 20
-34.7501
 11
131.39
 21
-26.5001
  0
LINE
  8
0
 10
131.39
 20
-26.5001
 11
132.61
 21
-26.5001
  0
LINE
  8
0
 10
132.61
 20
-26.5001
 11
132.61
 21
-34.7501
  0
LINE
  8
0
 10
132.61
 20
-34.7501
 11
147.89
 21
-34.7501
  0
LINE
  8
0
 10
147.89
 20
-34.7501
 11
147.89
 21
-26.5001
  0
LINE
  8
0
 10
147.89
 20
-26.5001
 11
149.11
 21
-26.5001
  0
LINE
  8
0
 10
149.11
 20
-26.5001
 11
149.11
 21
-34.7501
  0
LINE
  8
0
 10
149.11
 20
-34.7501
 11
164.39
 21
-34.7501
  0
LINE
  8
0
 10
164.39
 20
-34.7501
 11
164.39
 21
-26.5001
  0
LINE
  8
0
 10
164.39
 20
-26.5001
 11
165.61
 21
-26.5001
  0
LINE
  8
0
 10
165.61
 20
-26.5001
 11
165.61
 21
-34.7501
  0
LINE
  8
0
 10
165.61
 20
-34.7501
 11
180.89
 21
-34.7501
  0
LINE
  8
0
 10
180.89
 20
-34.7501
 11
180.89
 21
-26.5001
  0
LINE
  8
0
 10
180.89
 20
-26.5001
 11
182.11
 21
-26.5001
  0
LINE
  8
0
 10
182.11
 20
-26.5001
 11
182.11
 21
-34.7501
  0
LINE
  8
0
 10
182.11
 20
-34.7501
 11
197.39
 21
-34.7501
  0
LINE
  8
0
 10
197.39
 20
-34.7501
 11
197.39
 21
-26.5001
  0
LINE
  8
0
 10
197.39
 20
-26.5001
 11
198.61
 21
-26.5001
  0
LINE
  8
0
 10
198.61
 20
-26.5001
 11
198.61
 21
-34.7501
  0
LINE
  8
0
 10
198.61
 20
-34.7501
 11
213.89
 21
-34.7501
  0
LINE
  8
0
 10
213.89
 20
-34.7501
 11
213.89
 21
-26.5001
  0
LINE
  8
0
 10
213.89
 20
-26.5001
 11
215.11
 21
-26.5001
  0
LINE
  8
0
 10
215.11
 20
-26.5001
 11
215.11
 21
-34.7501
  0
LINE
  8
0
 10
215.11
 20
-34.7501
 11
230.39
 21
-34.7501
  0
LINE
  8
0
 10
230.39
 20
-34.7501
 11
230.39
 21
-26.5001
  0
LINE
  8
0
 10
230.39
 20
-26.5001
 11
231.61
 21
-26.5001
  0
LINE
  8
0
 10
231.61
 20
-26.5001
 11
231.61
 21
-34.7501
  0
LINE
  8
0
 10
231.61
 20
-34.7501
 11
246.89
 21
-34.7501
  0
LINE
  8
0
 10
246.89
 20
-34.7501
 11
246.89
 21
-26.5001
  0
LINE
  8
0
 10
246.89
 20
-26.5001
 11
248.11
 21
-26.5001
  0
LINE
  8
0
 10
248.11
 20
-26.5001
 11
248.11
 21
-34.7501
  0
LINE
  8
0
 10
248.11
 20
-34.7501
 11
255.75
 21
-34.7501
  0
LINE
  8
0
 10
255.75
 20
-34.7501
 11
255.75
 21
-18.2501
  0
LINE
  8
0
 10
255.75
 20
-18.2501
 11
-255.75
 21
-18.2501
  0
LINE
  8
0
 10
-255.75
 20
-34.7502
 11
-255.75
 21
-51.2502
  0
LINE
  8
0
 10
-255.75
 20
-51.2502
 11
-248.11
 21
-51.2502
  0
LINE
  8
0
 10
-248.11
 20
-51.2502
 11
-248.11
 21
-43.0002
  0
LINE
  8
0
 10
-248.11
 20
-43.0002
 11
-246.89
 21
-43.0002
  0
LINE
  8
0
 10
-246.89
 20
-43.0002
 11
-246.89
 21
-51.2502
  0
LINE
  8
0
 10
-246.89
 20
-51.2502
 11
-231.61
 21
-51.2502
  0
LINE
  8
0
 10
-231.61
 20
-51.2502
 11
-231.61
 21
-43.0002
  0
LINE
  8
0
 10
-231.61
 20
-43.0002
 11
-230.39
 21
-43.0002
  0
LINE
  8
0
 10
-230.39
 20
-43.0002
 11
-230.39
 21
-51.2502
  0
LINE
  8
0
 10
-230.39
 20
-51.2502
 11
-215.11
 21
-51.2502
  0
LINE
  8
0
 10
-215.11
 20
-51.2502
 11
-215.11
 21
-43.0002
  0
LINE
  8
0
 10
-215.11
 20
-43.0002
 11
-213.89
 21
-43.0002
  0
LINE
  8
0
 10
-213.89
 20
-43.0002
 11
-213.89
 21
-51.2502
  0
LINE
  8
0
 10
-213.89
 20
-51.2502
 11
-198.61
 21
-51.2502
  0
LINE
  8
0
 10
-198.61
 20
-51.2502
 11
-198.61
 21
-43.0002
  0
LINE
  8
0
 10
-198.61
 20
-43.0002
 11
-197.39
 21
-43.0002
  0
LINE
  8
0
 10
-197.39
 20
-43.0002
 11
-197.39
 21
-51.2502
  0
LINE
  8
0
 10
-197.39
 20
-51.2502
 11
-182.11
 21
-51.2502
  0
LINE
  8
0
 10
-182.11
 20
-51.2502
 11
-182.11
 21
-43.0002
  0
LINE
  8
0
 10
-182.11
 20
-43.0002
 11
-180.89
 21
-43.0002
  0
LINE
  8
0
 10
-180.89
 20
-43.0002
 11
-180.89
 21
-51.2502
  0
LINE
  8
0
 10
-180.89
 20
-51.2502
 11
-165.61
 21
-51.2502
  0
LINE
  8
0
 10
-165.61
 20
-51.2502
 11
-165.61
 21
-43.0002
  0
LINE
  8
0
 10
-165.61
 20
-43.0002
 11
-164.39
 21
-43.0002
  0
LINE
  8
0
 10
-164.39
 20
-43.0002
 11
-164.39
 21
-51.2502
  0
LINE
  8
0
 10
-164.39
 20
-51.2502
 11
-149.11
 21
-51.2502
  0
LINE
  8
0
 10
-149.11
 20
-51.2502
 11
-149.11
 21
-43.0002
  0
LINE
  8
0
 10
-149.11
 20
-43.0002
 11
-147.89
 21
-43.0002
  0
LINE
  8
0
 10
-147.89
 20
-43.0002
 11
-147.89
 21
-51.2502
  0
LINE
  8
0
 10
-147.89
 20
-51.2502
 11
-132.61
 21
-51.2502
  0
LINE
  8
0
 10
-132.61
 20
-51.2502
 11
-132.61
 21
-43.0002
  0
LINE
  8
0
 10
-132.61
 20
-43.0002
 11
-131.39
 21
-43.0002
  0
LINE
  8
0
 10
-131.39
 20
-43.0002
 11
-131.39
 21
-51.2502
  0
LINE
  8
0
 10
-131.39
 20
-51.2502
 11
-116.11
 21
-51.2502
  0
LINE
  8
0
 10
-116.11
 20
-51.2502
 11
-116.11
 21
-43.0002
  0
LINE
  8
0
 10
-116.11
 20
-43.0002
 11
-114.89
 21
-43.0002
  0
LINE
  8
0
 10
-114.89
 20
-43.0002
 11
-114.89
 21
-51.2502
  0
LINE
  8
0
 10
-114.89
 20
-51.2502
 11
-99.61
 21
-51.2502
  0
LINE
  8
0
 10
-99.61
 20
-51.2502
 11
-99.61
 21
-43.0002
  0
LINE
  8
0
 10
-99.61
 20
-43.0002
 11
-98.39
 21
-43.0002
  0
LINE
  8
0
 10
-98.39
 20
-43.0002
 11
-98.39
 21
-51.2502
  0
LINE
  8
0
 10
-98.39
 20
-51.2502
 11
-83.11
 21
-51.2502
  0
LINE
  8
0
 10
-83.11
 20
-51.2502
 11
-83.11
 21
-43.0002
  0
LINE
  8
0
 10
-83.11
 20
-43.0002
 11
-81.89
 21
-43.0002
  0
LINE
  8
0
 10
-81.89
 20
-43.0002
 11
-81.89
 21
-51.2502
  0
LINE
  8
0
 10
-81.89
 20
-51.2502
 11
-66.61
 21
-51.2502
  0
LINE
  8
0
 10
-66.61
 20
-51.2502
 11
-66.61
 21
-43.0002
  0
LINE
  8
0
 10
-66.61
 20
-43.0002
 11
-65.39
 21
-43.0002
  0
LINE
  8
0
 10
-65.39
 20
-43.0002
 11
-65.39
 21
-51.2502
  0
LINE
  8
0
 10
-65.39
 20
-51.2502
 11
-50.11
 21
-51.2502
  0
LINE
  8
0
 10
-50.11
 20
-51.2502
 11
-50.11
 21
-43.0002
  0
LINE
  8
0
 10
-50.11
 20
-43.0002
 11
-48.89
 21
-43.0002
  0
LINE
  8
0
 10
-48.89
 20
-43.0002
 11
-48.89
 21
-51.2502
  0
LINE
  8
0
 10
-48.89
 20
-51.2502
 11
-33.61
 21
-51.2502
  0
LINE
  8
0
 10
-33.61
 20
-51.2502
 11
-33.61
 21
-43.0002
  0
LINE
  8
0
 10
-33.61
 20
-43.0002
 11
-32.39
 21
-43.0002
  0
LINE
  8
0
 10
-32.39
 20
-43.0002
 11
-32.39
 21
-51.2502
  0
LINE
  8
0
 10
-32.39
 20
-51.2502
 11
-17.11
 21
-51.2502
  0
LINE
  8
0
 10
-17.11
 20
-51.2502
 11
-17.11
 21
-43.0002
  0
LINE
  8
0
 10
-17.11
 20
-43.0002
 11
-15.89
 21
-43.0002
  0
LINE
  8
0
 10
-15.89
 20
-43.0002
 11
-15.89
 21
-51.2502
  0
LINE
  8
0
 10
-15.89
 20
-51.2502
 11
-0.610001
 21
-51.2502
  0
LINE
  8
0
 10
-0.610001
 20
-51.2502
 11
-0.610001
 21
-43.0002
  0
LINE
  8
0
 10
-0.610001
 20
-43.0002
 11
0.609985
 21
-43.0002
  0
LINE
  8
0
 10
0.609985
 20
-43.0002
 11
0.609985
 21
-51.2502
  0
LINE
  8
0
 10
0.609985
 20
-51.2502
 11
15.89
 21
-51.2502
  0
LINE
  8
0
 10
15.89
 20
-51.2502
 11
15.89
 21
-43.0002
  0
LINE
  8
0
 10
15.89
 20
-43.0002
 11
17.11
 21
-43.0002
  0
LINE
  8
0
 10
17.11
 20
-43.0002
 11
17.11
 21
-51.2502
  0
LINE
  8
0
 10
17.11
 20
-51.2502
 11
32.39
 21
-51.2502
  0
LINE
  8
0
 10
32.39
 20
-51.2502
 11
32.39
 21
-43.0002
  0
LINE
  8
0
 10
32.39
 20
-43.0002
 11
33.61
 21
-43.0002
  0
LINE
  8
0
 10
33.61
 20
-43.0002
 11
33.61
 21
-51.2502
  0
LINE
  8
0
 10
33.61
 20
-51.2502
 11
48.89
 21
-51.2502
  0
LINE
  8
0
 10
48.89
 20
-51.2502
 11
48.89
 21
-43.0002
  0
LINE
  8
0
 10
48.89
 20
-43.0002
 11
50.11
 21
-43.0002
  0
LINE
  8
0
 10
50.11
 20
-43.0002
 11
50.11
 21
-51.2502
  0
LINE
  8
0
 10
50.11
 20
-51.2502
 11
65.39
 21
-51.2502
  0
LINE
  8
0
 10
65.39
 20
-51.2502
 11
65.39
 21
-43.0002
  0
LINE
  8
0
 10
65.39
 20
-43.0002
 11
66.61
 21
-43.0002
  0
LINE
  8
0
 10
66.61
 20
-43.0002
 11
66.61
 21
-51.2502
  0
LINE
  8
0
 10
66.61
 20
-51.2502
 11
81.89
 21
-51.2502
  0
LINE
  8
0
 10
81.89
 20
-51.2502
 11
81.89
 21
-43.0002
  0
LINE
  8
0
 10
81.89
 20
-43.0002
 11
83.11
 21
-43.0002
  0
LINE
  8
0
 10
83.11
 20
-43.0002
 11
83.11
 21
-51.2502
  0
LINE
  8
0
 10
83.11
 20
-51.2502
 11
98.39
 21
-51.2502
  0
LINE
  8
0
 10
98.39
 20
-51.2502
 11
98.39
 21
-43.0002
  0
LINE
  8
0
 10
98.39
 20
-43.0002
 11
99.61
 21
-43.0002
  0
LINE
  8
0
 10
99.61
 20
-43.0002
 11
99.61
 21
-51.2502
  0
LINE
  8
0
 10
99.61
 20
-51.2502
 11
114.89
 21
-51.2502
  0
LINE
  8
0
 10
114.89
 20
-51.2502
 11
114.89
 21
-43.0002
  0
LINE
  8
0
 10
114.89
 20
-43.0002
 11
116.11
 21
-43.0002
  0
LINE
  8
0
 10
116.11
 20
-43.0002
 11
116.11
 21
-51.2502
  0
LINE
  8
0
 10
116.11
 20
-51.2502
 11
131.39
 21
-51.2502
  0
LINE
  8
0
 10
131.39
 20
-51.2502
 11
131.39
 21
-43.0002
  0
LINE
  8
0
 10
131.39
 20
-43.0002
 11
132.61
 21
-43.0002
  0
LINE
  8
0
 10
132.61
 20
-43.0002
 11
132.61
 21
-51.2502
  0
LINE
  8
0
 10
132.61
 20
-51.2502
 11
147.89
 21
-51.2502
  0
LINE
  8
0
 10
147.89
 20
-51.2502
 11
147.89
 21
-43.0002
  0
LINE
  8
0
 10
147.89
 20
-43.0002
 11
149.11
 21
-43.0002
  0
LINE
  8
0
 10
149.11
 20
-43.0002
 11
149.11
 21
-51.2502
  0
LINE
  8
0
 10
149.11
 20
-51.2502
 11
164.39
 21
-51.2502
  0
LINE
  8
0
 10
164.39
 20
-51.2502
 11
164.39
 21
-43.0002
  0
LINE
  8
0
 10
164.39
 20
-43.0002
 11
165.61
 21
-43.0002
  0
LINE
  8
0
 10
165.61
 20
-43.0002
 11
165.61
 21
-51.2502
  0
LINE
  8
0
 10
165.61
 20
-51.2502
 11
180.89
 21
-51.2502
  0
LINE
  8
0
 10
180.89
 20
-51.2502
 11
180.89
 21
-43.0002
  0
LINE
  8
0
 10
180.89
 20
-43.0002
 11
182.11
 21
-43.0002
  0
LINE
  8
0
 10
182.11
 20
-43.0002
 11
182.11
 21
-51.2502
  0
LINE
  8
0
 10
182.11
 20
-51.2502
 11
197.39
 21
-51.2502
  0
LINE
  8
0
 10
197.39
 20
-51.2502
 11
197.39
 21
-43.0002
  0
LINE
  8
0
 10
197.39
 20
-43.0002
 11
198.61
 21
-43.0002
  0
LINE
  8
0
 10
198.61
 20
-43.0002
 11
198.61
 21
-51.2502
  0
LINE
  8
0
 10
198.61
 20
-51.2502
 11
213.89
 21
-51.2502
  0
LINE
  8
0
 10
213.89
 20
-51.2502
 11
213.89
 21
-43.0002
  0
LINE
  8
0
 10
213.89
 20
-43.0002
 11
215.11
 21
-43.0002
  0
LINE
  8
0
 10
215.11
 20
-43.0002
 11
215.11
 21
-51.2502
  0
LINE
  8
0
 10
215.11
 20
-51.2502
 11
230.39
 21
-51.2502
  0
LINE
  8
0
 10
230.39
 20
-51.2502
 11
230.39
 21
-43.0002
  0
LINE
  8
0
 10
230.39
 20
-43.0002
 11
231.61
 21
-43.0002
  0
LINE
  8
0
 10
231.61
 20
-43.0002
 11
231.61
 21
-51.2502
  0
LINE
  8
0
 10
231.61
 20
-51.2502
 11
246.89
 21
-51.2502
  0
LINE
  8
0
 10
246.89
 20
-51.2502
 11
246.89
 21
-43.0002
  0
LINE
  8
0
 10
246.89
 20
-43.0002
 11
248.11
 21
-43.0002
  0
LINE
  8
0
 10
248.11
 20
-43.0002
 11
248.11
 21
-51.2502
  0
LINE
  8
0
 10
248.11
 20
-51.2502
 11
255.75
 21
-51.2502
  0
LINE
  8
0
 10
255.75
 20
-51.2502
 11
255.75
 21
-34.7502
  0
LINE
  8
0
 10
255.75
 20
-34.7502
 11
-255.75
 21
-34.7502
  0
LINE
  8
0
 10
-255.75
 20
-51.2503
 11
-255.75
 21
-67.7503
  0
LINE
  8
0
 10
-255.75
 20
-67.7503
 11
-248.11
 21
-67.7503
  0
LINE
  8
0
 10
-248.11
 20
-67.7503
 11
-248.11
 21
-59.5003
  0
LINE
  8
0
 10
-248.11
 20
-59.5003
 11
-246.89
 21
-59.5003
  0
LINE
  8
0
 10
-246.89
 20
-59.5003
 11
-246.89
 21
-67.7503
  0
LINE
  8
0
 10
-246.89
 20
-67.7503
 11
-231.61
 21
-67.7503
  0
LINE
  8
0
 10
-231.61
 20
-67.7503
 11
-231.61
 21
-59.5003
  0
LINE
  8
0
 10
-231.61
 20
-59.5003
 11
-230.39
 21
-59.5003
  0
LINE
  8
0
 10
-230.39
 20
-59.5003
 11
-230.39
 21
-67.7503
  0
LINE
  8
0
 10
-230.39
 20
-67.7503
 11
-215.11
 21
-67.7503
  0
LINE
  8
0
 10
-215.11
 20
-67.7503
 11
-215.11
 21
-59.5003
  0
LINE
  8
0
 10
-215.11
 20
-59.5003
 11
-213.89
 21
-59.5003
  0
LINE
  8
0
 10
-213.89
 20
-59.5003
 11
-213.89
 21
-67.7503
  0
LINE
  8
0
 10
-213.89
 20
-67.7503
 11
-198.61
 21
-67.7503
  0
LINE
  8
0
 10
-198.61
 20
-67.7503
 11
-198.61
 21
-59.5003
  0
LINE
  8
0
 10
-198.61
 20
-59.5003
 11
-197.39
 21
-59.5003
  0
LINE
  8
0
 10
-197.39
 20
-59.5003
 11
-197.39
 21
-67.7503
  0
LINE
  8
0
 10
-197.39
 20
-67.7503
 11
-182.11
 21
-67.7503
  0
LINE
  8
0
 10
-182.11
 20
-67.7503
 11
-182.11
 21
-59.5003
  0
LINE
  8
0
 10
-182.11
 20
-59.5003
 11
-180.89
 21
-59.5003
  0
LINE
  8
0
 10
-180.89
 20
-59.5003
 11
-180.89
 21
-67.7503
  0
LINE
  8
0
 10
-180.89
 20
-67.7503
 11
-165.61
 21
-67.7503
  0
LINE
  8
0
 10
-165.61
 20
-67.7503
 11
-165.61
 21
-59.5003
  0
LINE
  8
0
 10
-165.61
 20
-59.5003
 11
-164.39
 21
-59.5003
  0
LINE
  8
0
 10
-164.39
 20
-59.5003
 11
-164.39
 21
-67.7503
  0
LINE
  8
0
 10
-164.39
 20
-67.7503
 11
-149.11
 21
-67.7503
  0
LINE
  8
0
 10
-149.11
 20
-67.7503
 11
-149.11
 21
-59.5003
  0
LINE
  8
0
 10
-149.11
 20
-59.5003
 11
-147.89
 21
-59.5003
  0
LINE
  8
0
 10
-147.89
 20
-59.5003
 11
-147.89
 21
-67.7503
  0
LINE
  8
0
 10
-147.89
 20
-67.7503
 11
-132.61
 21
-67.7503
  0
LINE
  8
0
 10
-132.61
 20
-67.7503
 11
-132.61
 21
-59.5003
  0
LINE
  8
0
 10
-132.61
 20
-59.5003
 11
-131.39
 21
-59.5003
  0
LINE
  8
0
 10
-131.39
 20
-59.5003
 11
-131.39
 21
-67.7503
  0
LINE
  8
0
 10
-131.39
 20
-67.7503
 11
-116.11
 21
-67.7503
  0
LINE
  8
0
 10
-116.11
 20
-67.7503
 11
-116.11
 21
-59.5003
  0
LINE
  8
0
 10
-116.11
 20
-59.5003
 11
-114.89
 21
-59.5003
  0
LINE
  8
0
 10
-114.89
 20
-59.5003
 11
-114.89
 21
-67.7503
  0
LINE
  8
0
 10
-114.89
 20
-67.7503
 11
-99.61
 21
-67.7503
  0
LINE
  8
0
 10
-99.61
 20
-67.7503
 11
-99.61
 21
-59.5003
  0
LINE
  8
0
 10
-99.61
 20
-59.5003
 11
-98.39
 21
-59.5003
  0
LINE
  8
0
 10
-98.39
 20
-59.5003
 11
-98.39
 21
-67.7503
  0
LINE
  8
0
 10
-98.39
 20
-67.7503
 11
-83.11
 21
-67.7503
  0
LINE
  8
0
 10
-83.11
 20
-67.7503
 11
-83.11
 21
-59.5003
  0
LINE
  8
0
 10
-83.11
 20
-59.5003
 11
-81.89
 21
-59.5003
  0
LINE
  8
0
 10
-81.89
 20
-59.5003
 11
-81.89
 21
-67.7503
  0
LINE
  8
0
 10
-81.89
 20
-67.7503
 11
-66.61
 21
-67.7503
  0
LINE
  8
0
 10
-66.61
 20
-67.7503
 11
-66.61
 21
-59.5003
  0
LINE
  8
0
 10
-66.61
 20
-59.5003
 11
-65.39
 21
-59.5003
  0
LINE
  8
0
 10
-65.39
 20
-59.5003
 11
-65.39
 21
-67.7503
  0
LINE
  8
0
 10
-65.39
 20
-67.7503
 11
-50.11
 21
-67.7503
  0
LINE
  8
0
 10
-50.11
 20
-67.7503
 11
-50.11
 21
-59.5003
  0
LINE
  8
0
 10
-50.11
 20
-59.5003
 11
-48.89
 21
-59.5003
  0
LINE
  8
0
 10
-48.89
 20
-59.5003
 11
-48.89
 21
-67.7503
  0
LINE
  8
0
 10
-48.89
 20
-67.7503
 11
-33.61
 21
-67.7503
  0
LINE
  8
0
 10
-33.61
 20
-67.7503
 11
-33.61
 21
-59.5003
  0
LINE
  8
0
 10
-33.61
 20
-59.5003
 11
-32.39
 21
-59.5003
  0
LINE
  8
0
 10
-32.39
 20
-59.5003
 11
-32.39
 21
-67.7503
  0
LINE
  8
0
 10
-32.39
 20
-67.7503
 11
-17.11
 21
-67.7503
  0
LINE
  8
0
 10
-17.11
 20
-67.7503
 11
-17.11
 21
-59.5003
  0
LINE
  8
0
 10
-17.11
 20
-59.5003
 11
-15.89
 21
-59.5003
  0
LINE
  8
0
 10
-15.89
 20
-59.5003
 11
-15.89
 21
-67.7503
  0
LINE
  8
0
 10
-15.89
 20
-67.7503
 11
-0.610001
 21
-67.7503
  0
LINE
  8
0
 10
-0.610001
 20
-67.7503
 11
-0.610001
 21
-59.5003
  0
LINE
  8
0
 10
-0.610001
 20
-59.5003
 11
0.609985
 21
-59.5003
  0
LINE
  8
0
 10
0.609985
 20
-59.5003
 11
0.609985
 21
-67.7503
  0
LINE
  8
0
 10
0.609985
 20
-67.7503
 11
15.89
 21
-67.7503
  0
LINE
  8
0
 10
15.89
 20
-67.7503
 11
15.89
 21
-59.5003
  0
LINE
  8
0
 10
15.89
 20
-59.5003
 11
17.11
 21
-59.5003
  0
LINE
  8
0
 10
17.11
 20
-59.5003
 11
17.11
 21
-67.7503
  0
LINE
  8
0
 10
17.11
 20
-67.7503
 11
32.39
 21
-67.7503
  0
LINE
  8
0
 10
32.39
 20
-67.7503
 11
32.39
 21
-59.5003
  0
LINE
  8
0
 10
32.39
 20
-59.5003
 11
33.61
 21
-59.5003
  0
LINE
  8
0
 10
33.61
 20
-59.5003
 11
33.61
 21
-67.7503
  0
LINE
  8
0
 10
33.61
 20
-67.7503
 11
48.89
 21
-67.7503
  0
LINE
  8
0
 10
48.89
 20
-67.7503
 11
48.89
 21
-59.5003
  0
LINE
  8
0
 10
48.89
 20
-59.5003
 11
50.11
 21
-59.5003
  0
LINE
  8
0
 10
50.11
 20
-59.5003
 11
50.11
 21
-67.7503
  0
LINE
  8
0
 10
50.11
 20
-67.7503
 11
65.39
 21
-67.7503
  0
LINE
  8
0
 10
65.39
 20
-67.7503
 11
65.39
 21
-59.5003
  0
LINE
  8
0
 10
65.39
 20
-59.5003
 11
66.61
 21
-59.5003
  0
LINE
  8
0
 10
66.61
 20
-59.5003
 11
66.61
 21
-67.7503
  0
LINE
  8
0
 10
66.61
 20
-67.7503
 11
81.89
 21
-67.7503
  0
LINE
  8
0
 10
81.89
 20
-67.7503
 11
81.89
 21
-59.5003
  0
LINE
  8
0
 10
81.89
 20
-59.5003
 11
83.11
 21
-59.5003
  0
LINE
  8
0
 10
83.11
 20
-59.5003
 11
83.11
 21
-67.7503
  0
LINE
  8
0
 10
83.11
 20
-67.7503
 11
98.39
 21
-67.7503
  0
LINE
  8
0
 10
98.39
 20
-67.7503
 11
98.39
 21
-59.5003
  0
LINE
  8
0
 10
98.39
 20
-59.5003
 11
99.61
 21
-59.5003
  0
LINE
  8
0
 10
99.61
 20
-59.5003
 11
99.61
 21
-67.7503
  0
LINE
  8
0
 10
99.61
 20
-67.7503
 11
114.89
 21
-67.7503
  0
LINE
  8
0
 10
114.89
 20
-67.7503
 11
114.89
 21
-59.5003
  0
LINE
  8
0
 10
114.89
 20
-59.5003
 11
116.11
 21
-59.5003
  0
LINE
  8
0
 10
116.11
 20
-59.5003
 11
116.11
 21
-67.7503
  0
LINE
  8
0
 10
116.11
 20
-67.7503
 11
131.39
 21
-67.7503
  0
LINE
  8
0
 10
131.39
 20
-67.7503
 11
131.39
 21
-59.5003
  0
LINE
  8
0
 10
131.39
 20
-59.5003
 11
132.61
 21
-59.5003
  0
LINE
  8
0
 10
132.61
 20
-59.5003
 11
132.61
 21
-67.7503
  0
LINE
  8
0
 10
132.61
 20
-67.7503
 11
147.89
 21
-67.7503
  0
LINE
  8
0
 10
147.89
 20
-67.7503
 11
147.89
 21
-59.5003
  0
LINE
  8
0
 10
147.89
 20
-59.5003
 11
149.11
 21
-59.5003
  0
LINE
  8
0
 10
149.11
 20
-59.5003
 11
149.11
 21
-67.7503
  0
LINE
  8
0
 10
149.11
 20
-67.7503
 11
164.39
 21
-67.7503
  0
LINE
  8
0
 10
164.39
 20
-67.7503
 11
164.39
 21
-59.5003
  0
LINE
  8
0
 10
164.39
 20
-59.5003
 11
165.61
 21
-59.5003
  0
LINE
  8
0
 10
165.61
 20
-59.5003
 11
165.61
 21
-67.7503
  0
LINE
  8
0
 10
165.61
 20
-67.7503
 11
180.89
 21
-67.7503
  0
LINE
  8
0
 10
180.89
 20
-67.7503
 11
180.89
 21
-59.5003
  0
LINE
  8
0
 10
180.89
 20
-59.5003
 11
182.11
 21
-59.5003
  0
LINE
  8
0
 10
182.11
 20
-59.5003
 11
182.11
 21
-67.7503
  0
LINE
  8
0
 10
182.11
 20
-67.7503
 11
197.39
 21
-67.7503
  0
LINE
  8
0
 10
197.39
 20
-67.7503
 11
197.39
 21
-59.5003
  0
LINE
  8
0
 10
197.39
 20
-59.5003
 11
198.61
 21
-59.5003
  0
LINE
  8
0
 10
198.61
 20
-59.5003
 11
198.61
 21
-67.7503
  0
LINE
  8
0
 10
198.61
 20
-67.7503
 11
213.89
 21
-67.7503
  0
LINE
  8
0
 10
213.89
 20
-67.7503
 11
213.89
 21
-59.5003
  0
LINE
  8
0
 10
213.89
 20
-59.5003
 11
215.11
 21
-59.5003
  0
LINE
  8
0
 10
215.11
 20
-59.5003
 11
215.11
 21
-67.7503
  0
LINE
  8
0
 10
215.11
 20
-67.7503
 11
230.39
 21
-67.7503
  0
LINE
  8
0
 10
230.39
 20
-67.7503
 11
230.39
 21
-59.5003
  0
LINE
  8
0
 10
230.39
 20
-59.5003
 11
231.61
 21
-59.5003
  0
LINE
  8
0
 10
231.61
 20
-59.5003
 11
231.61
 21
-67.7503
  0
LINE
  8
0
 10
231.61
 20
-67.7503
 11
246.89
 21
-67.7503
  0
LINE
  8
0
 10
246.89
 20
-67.7503
 11
246.89
 21
-59.5003
  0
LINE
  8
0
 10
246.89
 20
-59.5003
 11
248.11
 21
-59.5003
  0
LINE
  8
0
 10
248.11
 20
-59.5003
 11
248.11
 21
-67.7503
  0
LINE
  8
0
 10
248.11
 20
-67.7503
 11
255.75
 21
-67.7503
  0
LINE
  8
0
 10
255.75
 20
-67.7503
 11
255.75
 21
-51.2503
  0
LINE
  8
0
 10
255.75
 20
-51.2503
 11
-255.75
 21
-51.2503
  0
LINE
  8
0
 10
-255.75
 20
-67.7504
 11
-255.75
 21
-84.2504
  0
LINE
  8
0
 10
-255.75
 20
-84.2504
 11
-248.11
 21
-84.2504
  0
LINE
  8
0
 10
-248.11
 20
-84.2504
 11
-248.11
 21
-76.0004
  0
LINE
  8
0
 10
-248.11
 20
-76.0004
 11
-246.89
 21
-76.0004
  0
LINE
  8
0
 10
-246.89
 20
-76.0004
 11
-246.89
 21
-84.2504
  0
LINE
  8
0
 10
-246.89
 20
-84.2504
 11
-231.61
 21
-84.2504
  0
LINE
  8
0
 10
-231.61
 20
-84.2504
 11
-231.61
 21
-76.0004
  0
LINE
  8
0
 10
-231.61
 20
-76.0004
 11
-230.39
 21
-76.0004
  0
LINE
  8
0
 10
-230.39
 20
-76.0004
 11
-230.39
 21
-84.2504
  0
LINE
  8
0
 10
-230.39
 20
-84.2504
 11
-215.11
 21
-84.2504
  0
LINE
  8
0
 10
-215.11
 20
-84.2504
 11
-215.11
 21
-76.0004
  0
LINE
  8
0
 10
-215.11
 20
-76.0004
 11
-213.89
 21
-76.0004
  0
LINE
  8
0
 10
-213.89
 20
-76.0004
 11
-213.89
 21
-84.2504
  0
LINE
  8
0
 10
-213.89
 20
-84.2504
 11
-198.61
 21
-84.2504
  0
LINE
  8
0
 10
-198.61
 20
-84.2504
 11
-198.61
 21
-76.0004
  0
LINE
  8
0
 10
-198.61
 20
-76.0004
 11
-197.39
 21
-76.0004
  0
LINE
  8
0
 10
-197.39
 20
-76.0004
 11
-197.39
 21
-84.2504
  0
LINE
  8
0
 10
-197.39
 20
-84.2504
 11
-182.11
 21
-84.2504
  0
LINE
  8
0
 10
-182.11
 20
-84.2504
 11
-182.11
 21
-76.0004
  0
LINE
  8
0
 10
-182.11
 20
-76.0004
 11
-180.89
 21
-76.0004
  0
LINE
  8
0
 10
-180.89
 20
-76.0004
 11
-180.89
 21
-84.2504
  0
LINE
  8
0
 10
-180.89
 20
-84.2504
 11
-165.61
 21
-84.2504
  0
LINE
  8
0
 10
-165.61
 20
-84.2504
 11
-165.61
 21
-76.0004
  0
LINE
  8
0
 10
-165.61
 20
-76.0004
 11
-164.39
 21
-76.0004
  0
LINE
  8
0
 10
-164.39
 20
-76.0004
 11
-164.39
 21
-84.2504
  0
LINE
  8
0
 10
-164.39
 20
-84.2504
 11
-149.11
 21
-84.2504
  0
LINE
  8
0
 10
-149.11
 20
-84.2504
 11
-149.11
 21
-76.0004
  0
LINE
  8
0
 10
-149.11
 20
-76.0004
 11
-147.89
 21
-76.0004
  0
LINE
  8
0
 10
-147.89
 20
-76.0004
 11
-147.89
 21
-84.2504
  0
LINE
  8
0
 10
-147.89
 20
-84.2504
 11
-132.61
 21
-84.2504
  0
LINE
  8
0
 10
-132.61
 20
-84.2504
 11
-132.61
 21
-76.0004
  0
LINE
  8
0
 10
-132.61
 20
-76.0004
 11
-131.39
 21
-76.0004
  0
LINE
  8
0
 10
-131.39
 20
-76.0004
 11
-131.39
 21
-84.2504
  0
LINE
  8
0
 10
-131.39
 20
-84.2504
 11
-116.11
 21
-84.2504
  0
LINE
  8
0
 10
-116.11
 20
-84.2504
 11
-116.11
 21
-76.0004
  0
LINE
  8
0
 10
-116.11
 20
-76.0004
 11
-114.89
 21
-76.0004
  0
LINE
  8
0
 10
-114.89
 20
-76.0004
 11
-114.89
 21
-84.2504
  0
LINE
  8
0
 10
-114.89
 20
-84.2504
 11
-99.61
 21
-84.2504
  0
LINE
  8
0
 10
-99.61
 20
-84.2504
 11
-99.61
 21
-76.0004
  0
LINE
  8
0
 10
-99.61
 20
-76.0004
 11
-98.39
 21
-76.0004
  0
LINE
  8
0
 10
-98.39
 20
-76.0004
 11
-98.39
 21
-84.2504
  0
LINE
  8
0
 10
-98.39
 20
-84.2504
 11
-83.11
 21
-84.2504
  0
LINE
  8
0
 10
-83.11
 20
-84.2504
 11
-83.11
 21
-76.0004
  0
LINE
  8
0
 10
-83.11
 20
-76.0004
 11
-81.89
 21
-76.0004
  0
LINE
  8
0
 10
-81.89
 20
-76.0004
 11
-81.89
 21
-84.2504
  0
LINE
  8
0
 10
-81.89
 20
-84.2504
 11
-66.61
 21
-84.2504
  0
LINE
  8
0
 10
-66.61
 20
-84.2504
 11
-66.61
 21
-76.0004
  0
LINE
  8
0
 10
-66.61
 20
-76.0004
 11
-65.39
 21
-76.0004
  0
LINE
  8
0
 10
-65.39
 20
-76.0004
 11
-65.39
 21
-84.2504
  0
LINE
  8
0
 10
-65.39
 20
-84.2504
 11
-50.11
 21
-84.2504
  0
LINE
  8
0
 10
-50.11
 20
-84.2504
 11
-50.11
 21
-76.0004
  0
LINE
  8
0
 10
-50.11
 20
-76.0004
 11
-48.89
 21
-76.0004
  0
LINE
  8
0
 10
-48.89
 20
-76.0004
 11
-48.89
 21
-84.2504
  0
LINE
  8
0
 10
-48.89
 20
-84.2504
 11
-33.61
 21
-84.2504
  0
LINE
  8
0
 10
-33.61
 20
-84.2504
 11
-33.61
 21
-76.0004
  0
LINE
  8
0
 10
-33.61
 20
-76.0004
 11
-32.39
 21
-76.0004
  0
LINE
  8
0
 10
-32.39
 20
-76.0004
 11
-32.39
 21
-84.2504
  0
LINE
  8
0
 10
-32.39
 20
-84.2504
 11
-17.11
 21
-84.2504
  0
LINE
  8
0
 10
-17.11
 20
-84.2504
 11
-17.11
 21
-76.0004
  0
LINE
  8
0
 10
-17.11
 20
-76.0004
 11
-15.89
 21
-76.0004
  0
LINE
  8
0
 10
-15.89
 20
-76.0004
 11
-15.89
 21
-84.2504
  0
LINE
  8
0
 10
-15.89
 20
-84.2504
 11
-0.610001
 21
-84.2504
  0
LINE
  8
0
 10
-0.610001
 20
-84.2504
 11
-0.610001
 21
-76.0004
  0
LINE
  8
0
 10
-0.610001
 20
-76.0004
 11
0.609985
 21
-76.0004
  0
LINE
  8
0
 10
0.609985
 20
-76.0004
 11
0.609985
 21
-84.2504
  0
LINE
  8
0
 10
0.609985
 20
-84.2504
 11
15.89
 21
-84.2504
  0
LINE
  8
0
 10
15.89
 20
-84.2504
 11
15.89
 21
-76.0004
  0
LINE
  8
0
 10
15.89
 20
-76.0004
 11
17.11
 21
-76.0004
  0
LINE
  8
0
 10
17.11
 20
-76.0004
 11
17.11
 21
-84.2504
  0
LINE
  8
0
 10
17.11
 20
-84.2504
 11
32.39
 21
-84.2504
  0
LINE
  8
0
 10
32.39
 20
-84.2504
 11
32.39
 21
-76.0004
  0
LINE
  8
0
 10
32.39
 20
-76.0004
 11
33.61
 21
-76.0004
  0
LINE
  8
0
 10
33.61
 20
-76.0004
 11
33.61
 21
-84.2504
  0
LINE
  8
0
 10
33.61
 20
-84.2504
 11
48.89
 21
-84.2504
  0
LINE
  8
0
 10
48.89
 20
-84.2504
 11
48.89
 21
-76.0004
  0
LINE
  8
0
 10
48.89
 20
-76.0004
 11
50.11
 21
-76.0004
  0
LINE
  8
0
 10
50.11
 20
-76.0004
 11
50.11
 21
-84.2504
  0
LINE
  8
0
 10
50.11
 20
-84.2504
 11
65.39
 21
-84.2504
  0
LINE
  8
0
 10
65.39
 20
-84.2504
 11
65.39
 21
-76.0004
  0
LINE
  8
0
 10
65.39
 20
-76.0004
 11
66.61
 21
-76.0004
  0
LINE
  8
0
 10
66.61
 20
-76.0004
 11
66.61
 21
-84.2504
  0
LINE
  8
0
 10
66.61
 20
-84.2504
 11
81.89
 21
-84.2504
  0
LINE
  8
0
 10
81.89
 20
-84.2504
 11
81.89
 21
-76.0004
  0
LINE
  8
0
 10
81.89
 20
-76.0004
 11
83.11
 21
-76.0004
  0
LINE
  8
0
 10
83.11
 20
-76.0004
 11
83.11
 21
-84.2504
  0
LINE
  8
0
 10
83.11
 20
-84.2504
 11
98.39
 21
-84.2504
  0
LINE
  8
0
 10
98.39
 20
-84.2504
 11
98.39
 21
-76.0004
  0
LINE
  8
0
 10
98.39
 20
-76.0004
 11
99.61
 21
-76.0004
  0
LINE
  8
0
 10
99.61
 20
-76.0004
 11
99.61
 21
-84.2504
  0
LINE
  8
0
 10
99.61
 20
-84.2504
 11
114.89
 21
-84.2504
  0
LINE
  8
0
 10
114.89
 20
-84.2504
 11
114.89
 21
-76.0004
  0
LINE
  8
0
 10
114.89
 20
-76.0004
 11
116.11
 21
-76.0004
  0
LINE
  8
0
 10
116.11
 20
-76.0004
 11
116.11
 21
-84.2504
  0
LINE
  8
0
 10
116.11
 20
-84.2504
 11
131.39
 21
-84.2504
  0
LINE
  8
0
 10
131.39
 20
-84.2504
 11
131.39
 21
-76.0004
  0
LINE
  8
0
 10
131.39
 20
-76.0004
 11
132.61
 21
-76.0004
  0
LINE
  8
0
 10
132.61
 20
-76.0004
 11
132.61
 21
-84.2504
  0
LINE
  8
0
 10
132.61
 20
-84.2504
 11
147.89
 21
-84.2504
  0
LINE
  8
0
 10
147.89
 20
-84.2504
 11
147.89
 21
-76.0004
  0
LINE
  8
0
 10
147.89
 20
-76.0004
 11
149.11
 21
-76.0004
  0
LINE
  8
0
 10
149.11
 20
-76.0004
 11
149.11
 21
-84.2504
  0
LINE
  8
0
 10
149.11
 20
-84.2504
 11
164.39
 21
-84.2504
  0
LINE
  8
0
 10
164.39
 20
-84.2504
 11
164.39
 21
-76.0004
  0
LINE
  8
0
 10
164.39
 20
-76.0004
 11
165.61
 21
-76.0004
  0
LINE
  8
0
 10
165.61
 20
-76.0004
 11
165.61
 21
-84.2504
  0
LINE
  8
0
 10
165.61
 20
-84.2504
 11
180.89
 21
-84.2504
  0
LINE
  8
0
 10
180.89
 20
-84.2504
 11
180.89
 21
-76.0004
  0
LINE
  8
0
 10
180.89
 20
-76.0004
 11
182.11
 21
-76.0004
  0
LINE
  8
0
 10
182.11
 20
-76.0004
 11
182.11
 21
-84.2504
  0
LINE
  8
0
 10
182.11
 20
-84.2504
 11
197.39
 21
-84.2504
  0
LINE
  8
0
 10
197.39
 20
-84.2504
 11
197.39
 21
-76.0004
  0
LINE
  8
0
 10
197.39
 20
-76.0004
 11
198.61
 21
-76.0004
  0
LINE
  8
0
 10
198.61
 20
-76.0004
 11
198.61
 21
-84.2504
  0
LINE
  8
0
 10
198.61
 20
-84.2504
 11
213.89
 21
-84.2504
  0
LINE
  8
0
 10
213.89
 20
-84.2504
 11
213.89
 21
-76.0004
  0
LINE
  8
0
 10
213.89
 20
-76.0004
 11
215.11
 21
-76.0004
  0
LINE
  8
0
 10
215.11
 20
-76.0004
 11
215.11
 21
-84.2504
  0
LINE
  8
0
 10
215.11
 20
-84.2504
 11
230.39
 21
-84.2504
  0
LINE
  8
0
 10
230.39
 20
-84.2504
 11
230.39
 21
-76.0004
  0
LINE
  8
0
 10
230.39
 20
-76.0004
 11
231.61
 21
-76.0004
  0
LINE
  8
0
 10
231.61
 20
-76.0004
 11
231.61
 21
-84.2504
  0
LINE
  8
0
 10
231.61
 20
-84.2504
 11
246.89
 21
-84.2504
  0
LINE
  8
0
 10
246.89
 20
-84.2504
 11
246.89
 21
-76.0004
  0
LINE
  8
0
 10
246.89
 20
-76.0004
 11
248.11
 21
-76.0004
  0
LINE
  8
0
 10
248.11
 20
-76.0004
 11
248.11
 21
-84.2504
  0
LINE
  8
0
 10
248.11
 20
-84.2504
 11
255.75
 21
-84.2504
  0
LINE
  8
0
 10
255.75
 20
-84.2504
 11
255.75
 21
-67.7504
  0
LINE
  8
0
 10
255.75
 20
-67.7504
 11
-255.75
 21
-67.7504
  0
LINE
  8
0
 10
-255.75
 20
-84.2505
 11
-255.75
 21
-100.75
  0
LINE
  8
0
 10
-255.75
 20
-100.75
 11
-248.11
 21
-100.75
  0
LINE
  8
0
 10
-248.11
 20
-100.75
 11
-248.11
 21
-92.5005
  0
LINE
  8
0
 10
-248.11
 20
-92.5005
 11
-246.89
 21
-92.5005
  0
LINE
  8
0
 10
-246.89
 20
-92.5005
 11
-246.89
 21
-100.75
  0
LINE
  8
0
 10
-246.89
 20
-100.75
 11
-231.61
 21
-100.75
  0
LINE
  8
0
 10
-231.61
 20
-100.75
 11
-231.61
 21
-92.5005
  0
LINE
  8
0
 10
-231.61
 20
-92.5005
 11
-230.39
 21
-92.5005
  0
LINE
  8
0
 10
-230.39
 20
-92.5005
 11
-230.39
 21
-100.75
  0
LINE
  8
0
 10
-230.39
 20
-100.75
 11
-215.11
 21
-100.75
  0
LINE
  8
0
 10
-215.11
 20
-100.75
 11
-215.11
 21
-92.5005
  0
LINE
  8
0
 10
-215.11
 20
-92.5005
 11
-213.89
 21
-92.5005
  0
LINE
  8
0
 10
-213.89
 20
-92.5005
 11
-213.89
 21
-100.75
  0
LINE
  8
0
 10
-213.89
 20
-100.75
 11
-198.61
 21
-100.75
  0
LINE
  8
0
 10
-198.61
 20
-100.75
 11
-198.61
 21
-92.5005
  0
LINE
  8
0
 10
-198.61
 20
-92.5005
 11
-197.39
 21
-92.5005
  0
LINE
  8
0
 10
-197.39
 20
-92.5005
 11
-197.39
 21
-100.75
  0
LINE
  8
0
 10
-197.39
 20
-100.75
 11
-182.11
 21
-100.75
  0
LINE
  8
0
 10
-182.11
 20
-100.75
 11
-182.11
 21
-92.5005
  0
LINE
  8
0
 10
-182.11
 20
-92.5005
 11
-180.89
 21
-92.5005
  0
LINE
  8
0
 10
-180.89
 20
-92.5005
 11
-180.89
 21
-100.75
  0
LINE
  8
0
 10
-180.89
 20
-100.75
 11
-165.61
 21
-100.75
  0
LINE
  8
0
 10
-165.61
 20
-100.75
 11
-165.61
 21
-92.5005
  0
LINE
  8
0
 10
-165.61
 20
-92.5005
 11
-164.39
 21
-92.5005
  0
LINE
  8
0
 10
-164.39
 20
-92.5005
 11
-164.39
 21
-100.75
  0
LINE
  8
0
 10
-164.39
 20
-100.75
 11
-149.11
 21
-100.75
  0
LINE
  8
0
 10
-149.11
 20
-100.75
 11
-149.11
 21
-92.5005
  0
LINE
  8
0
 10
-149.11
 20
-92.5005
 11
-147.89
 21
-92.5005
  0
LINE
  8
0
 10
-147.89
 20
-92.5005
 11
-147.89
 21
-100.75
  0
LINE
  8
0
 10
-147.89
 20
-100.75
 11
-132.61
 21
-100.75
  0
LINE
  8
0
 10
-132.61
 20
-100.75
 11
-132.61
 21
-92.5005
  0
LINE
  8
0
 10
-132.61
 20
-92.5005
 11
-131.39
 21
-92.5005
  0
LINE
  8
0
 10
-131.39
 20
-92.5005
 11
-131.39
 21
-100.75
  0
LINE
  8
0
 10
-131.39
 20
-100.75
 11
-116.11
 21
-100.75
  0
LINE
  8
0
 10
-116.11
 20
-100.75
 11
-116.11
 21
-92.5005
  0
LINE
  8
0
 10
-116.11
 20
-92.5005
 11
-114.89
 21
-92.5005
  0
LINE
  8
0
 10
-114.89
 20
-92.5005
 11
-114.89
 21
-100.75
  0
LINE
  8
0
 10
-114.89
 20
-100.75
 11
-99.61
 21
-100.75
  0
LINE
  8
0
 10
-99.61
 20
-100.75
 11
-99.61
 21
-92.5005
  0
LINE
  8
0
 10
-99.61
 20
-92.5005
 11
-98.39
 21
-92.5005
  0
LINE
  8
0
 10
-98.39
 20
-92.5005
 11
-98.39
 21
-100.75
  0
LINE
  8
0
 10
-98.39
 20
-100.75
 11
-83.11
 21
-100.75
  0
LINE
  8
0
 10
-83.11
 20
-100.75
 11
-83.11
 21
-92.5005
  0
LINE
  8
0
 10
-83.11
 20
-92.5005
 11
-81.89
 21
-92.5005
  0
LINE
  8
0
 10
-81.89
 20
-92.5005
 11
-81.89
 21
-100.75
  0
LINE
  8
0
 10
-81.89
 20
-100.75
 11
-66.61
 21
-100.75
  0
LINE
  8
0
 10
-66.61
 20
-100.75
 11
-66.61
 21
-92.5005
  0
LINE
  8
0
 10
-66.61
 20
-92.5005
 11
-65.39
 21
-92.5005
  0
LINE
  8
0
 10
-65.39
 20
-92.5005
 11
-65.39
 21
-100.75
  0
LINE
  8
0
 10
-65.39
 20
-100.75
 11
-50.11
 21
-100.75
  0
LINE
  8
0
 10
-50.11
 20
-100.75
 11
-50.11
 21
-92.5005
  0
LINE
  8
0
 10
-50.11
 20
-92.5005
 11
-48.89
 21
-92.5005
  0
LINE
  8
0
 10
-48.89
 20
-92.5005
 11
-48.89
 21
-100.75
  0
LINE
  8
0
 10
-48.89
 20
-100.75
 11
-33.61
 21
-100.75
  0
LINE
  8
0
 10
-33.61
 20
-100.75
 11
-33.61
 21
-92.5005
  0
LINE
  8
0
 10
-33.61
 20
-92.5005
 11
-32.39
 21
-92.5005
  0
LINE
  8
0
 10
-32.39
 20
-92.5005
 11
-32.39
 21
-100.75
  0
LINE
  8
0
 10
-32.39
 20
-100.75
 11
-17.11
 21
-100.75
  0
LINE
  8
0
 10
-17.11
 20
-100.75
 11
-17.11
 21
-92.5005
  0
LINE
  8
0
 10
-17.11
 20
-92.5005
 11
-15.89
 21
-92.5005
  0
LINE
  8
0
 10
-15.89
 20
-92.5005
 11
-15.89
 21
-100.75
  0
LINE
  8
0
 10
-15.89
 20
-100.75
 11
-0.610001
 21
-100.75
  0
LINE
  8
0
 10
-0.610001
 20
-100.75
 11
-0.610001
 21
-92.5005
  0
LINE
  8
0
 10
-0.610001
 20
-92.5005
 11
0.609985
 21
-92.5005
  0
LINE
  8
0
 10
0.609985
 20
-92.5005
 11
0.609985
 21
-100.75
  0
LINE
  8
0
 10
0.609985
 20
-100.75
 11
15.89
 21
-100.75
  0
LINE
  8
0
 10
15.89
 20
-100.75
 11
15.89
 21
-92.5005
  0
LINE
  8
0
 10
15.89
 20
-92.5005
 11
17.11
 21
-92.5005
  0
LINE
  8
0
 10
17.11
 20
-92.5005
 11
17.11
 21
-100.75
  0
LINE
  8
0
 10
17.11
 20
-100.75
 11
32.39
 21
-100.75
  0
LINE
  8
0
 10
32.39
 20
-100.75
 11
32.39
 21
-92.5005
  0
LINE
  8
0
 10
32.39
 20
-92.5005
 11
33.61
 21
-92.5005
  0
LINE
  8
0
 10
33.61
 20
-92.5005
 11
33.61
 21
-100.75
  0
LINE
  8
0
 10
33.61
 20
-100.75
 11
48.89
 21
-100.75
  0
LINE
  8
0
 10
48.89
 20
-100.75
 11
48.89
 21
-92.5005
  0
LINE
  8
0
 10
48.89
 20
-92.5005
 11
50.11
 21
-92.5005
  0
LINE
  8
0
 10
50.11
 20
-92.5005
 11
50.11
 21
-100.75
  0
LINE
  8
0
 10
50.11
 20
-100.75
 11
65.39
 21
-100.75
  0
LINE
  8
0
 10
65.39
 20
-100.75
 11
65.39
 21
-92.5005
  0
LINE
  8
0
 10
65.39
 20
-92.5005
 11
66.61
 21
-92.5005
  0
LINE
  8
0
 10
66.61
 20
-92.5005
 11
66.61
 21
-100.75
  0
LINE
  8
0
 10
66.61
 20
-100.75
 11
81.89
 21
-100.75
  0
LINE
  8
0
 10
81.89
 20
-100.75
 11
81.89
 21
-92.5005
  0
LINE
  8
0
 10
81.89
 20
-92.5005
 11
83.11
 21
-92.5005
  0
LINE
  8
0
 10
83.11
 20
-92.5005
 11
83.11
 21
-100.75
  0
LINE
  8
0
 10
83.11
 20
-100.75
 11
98.39
 21
-100.75
  0
LINE
  8
0
 10
98.39
 20
-100.75
 11
98.39
 21
-92.5005
  0
LINE
  8
0
 10
98.39
 20
-92.5005
 11
99.61
 21
-92.5005
  0
LINE
  8
0
 10
99.61
 20
-92.5005
 11
99.61
 21
-100.75
  0
LINE
  8
0
 10
99.61
 20
-100.75
 11
114.89
 21
-100.75
  0
LINE
  8
0
 10
114.89
 20
-100.75
 11
114.89
 21
-92.5005
  0
LINE
  8
0
 10
114.89
 20
-92.5005
 11
116.11
 21
-92.5005
  0
LINE
  8
0
 10
116.11
 20
-92.5005
 11
116.11
 21
-100.75
  0
LINE
  8
0
 10
116.11
 20
-100.75
 11
131.39
 21
-100.75
  0
LINE
  8
0
 10
131.39
 20
-100.75
 11
131.39
 21
-92.5005
  0
LINE
  8
0
 10
131.39
 20
-92.5005
 11
132.61
 21
-92.5005
  0
LINE
  8
0
 10
132.61
 20
-92.5005
 11
132.61
 21
-100.75
  0
LINE
  8
0
 10
132.61
 20
-100.75
 11
147.89
 21
-100.75
  0
LINE
  8
0
 10
147.89
 20
-100.75
 11
147.89
 21
-92.5005
  0
LINE
  8
0
 10
147.89
 20
-92.5005
 11
149.11
 21
-92.5005
  0
LINE
  8
0
 10
149.11
 20
-92.5005
 11
149.11
 21
-100.75
  0
LINE
  8
0
 10
149.11
 20
-100.75
 11
164.39
 21
-100.75
  0
LINE
  8
0
 10
164.39
 20
-100.75
 11
164.39
 21
-92.5005
  0
LINE
  8
0
 10
164.39
 20
-92.5005
 11
165.61
 21
-92.5005
  0
LINE
  8
0
 10
165.61
 20
-92.5005
 11
165.61
 21
-100.75
  0
LINE
  8
0
 10
165.61
 20
-100.75
 11
180.89
 21
-100.75
  0
LINE
  8
0
 10
180.89
 20
-100.75
 11
180.89
 21
-92.5005
  0
LINE
  8
0
 10
180.89
 20
-92.5005
 11
182.11
 21
-92.5005
  0
LINE
  8
0
 10
182.11
 20
-92.5005
 11
182.11
 21
-100.75
  0
LINE
  8
0
 10
182.11
 20
-100.75
 11
197.39
 21
-100.75
  0
LINE
  8
0
 10
197.39
 20
-100.75
 11
197.39
 21
-92.5005
  0
LINE
  8
0
 10
197.39
 20
-92.5005
 11
198.61
 21
-92.5005
  0
LINE
  8
0
 10
198.61
 20
-92.5005
 11
198.61
 21
-100.75
  0
LINE
  8
0
 10
198.61
 20
-100.75
 11
213.89
 21
-100.75
  0
LINE
  8
0
 10
213.89
 20
-100.75
 11
213.89
 21
-92.5005
  0
LINE
  8
0
 10
213.89
 20
-92.5005
 11
215.11
 21
-92.5005
  0
LINE
  8
0
 10
215.11
 20
-92.5005
 11
215.11
 21
-100.75
  0
LINE
  8
0
 10
215.11
 20
-100.75
 11
230.39
 21
-100.75
  0
LINE
  8
0
 10
230.39
 20
-100.75
 11
230.39
 21
-92.5005
  0
LINE
  8
0
 10
230.39
 20
-92.5005
 11
231.61
 21
-92.5005
  0
LINE
  8
0
 10
231.61
 20
-92.5005
 11
231.61
 21
-100.75
  0
LINE
  8
0
 10
231.61
 20
-100.75
 11
246.89
 21
-100.75
  0
LINE
  8
0
 10
246.89
 20
-100.75
 11
246.89
 21
-92.5005
  0
LINE
  8
0
 10
246.89
 20
-92.5005
 11
248.11
 21
-92.5005
  0
LINE
  8
0
 10
248.11
 20
-92.5005
 11
248.11
 21
-100.75
  0
LINE
  8
0
 10
248.11
 20
-100.75
 11
255.75
 21
-100.75
  0
LINE
  8
0
 10
255.75
 20
-100.75
 11
255.75
 21
-84.2505
  0
LINE
  8
0
 10
255.75
 20
-84.2505
 11
-255.75
 21
-84.2505
  0
LINE
  8
0
 10
-255.75
 20
-100.751
 11
-255.75
 21
-117.251
  0
LINE
  8
0
 10
-255.75
 20
-117.251
 11
-248.11
 21
-117.251
  0
LINE
  8
0
 10
-248.11
 20
-117.251
 11
-248.11
 21
-109.001
  0
LINE
  8
0
 10
-248.11
 20
-109.001
 11
-246.89
 21
-109.001
  0
LINE
  8
0
 10
-246.89
 20
-109.001
 11
-246.89
 21
-117.251
  0
LINE
  8
0
 10
-246.89
 20
-117.251
 11
-231.61
 21
-117.251
  0
LINE
  8
0
 10
-231.61
 20
-117.251
 11
-231.61
 21
-109.001
  0
LINE
  8
0
 10
-231.61
 20
-109.001
 11
-230.39
 21
-109.001
  0
LINE
  8
0
 10
-230.39
 20
-109.001
 11
-230.39
 21
-117.251
  0
LINE
  8
0
 10
-230.39
 20
-117.251
 11
-215.11
 21
-117.251
  0
LINE
  8
0
 10
-215.11
 20
-117.251
 11
-215.11
 21
-109.001
  0
LINE
  8
0
 10
-215.11
 20
-109.001
 11
-213.89
 21
-109.001
  0
LINE
  8
0
 10
-213.89
 20
-109.001
 11
-213.89
 21
-117.251
  0
LINE
  8
0
 10
-213.89
 20
-117.251
 11
-198.61
 21
-117.251
  0
LINE
  8
0
 10
-198.61
 20
-117.251
 11
-198.61
 21
-109.001
  0
LINE
  8
0
 10
-198.61
 20
-109.001
 11
-197.39
 21
-109.001
  0
LINE
  8
0
 10
-197.39
 20
-109.001
 11
-197.39
 21
-117.251
  0
LINE
  8
0
 10
-197.39
 20
-117.251
 11
-182.11
 21
-117.251
  0
LINE
  8
0
 10
-182.11
 20
-117.251
 11
-182.11
 21
-109.001
  0
LINE
  8
0
 10
-182.11
 20
-109.001
 11
-180.89
 21
-109.001
  0
LINE
  8
0
 10
-180.89
 20
-109.001
 11
-180.89
 21
-117.251
  0
LINE
  8
0
 10
-180.89
 20
-117.251
 11
-165.61
 21
-117.251
  0
LINE
  8
0
 10
-165.61
 20
-117.251
 11
-165.61
 21
-109.001
  0
LINE
  8
0
 10
-165.61
 20
-109.001
 11
-164.39
 21
-109.001
  0
LINE
  8
0
 10
-164.39
 20
-109.001
 11
-164.39
 21
-117.251
  0
LINE
  8
0
 10
-164.39
 20
-117.251
 11
-149.11
 21
-117.251
  0
LINE
  8
0
 10
-149.11
 20
-117.251
 11
-149.11
 21
-109.001
  0
LINE
  8
0
 10
-149.11
 20
-109.001
 11
-147.89
 21
-109.001
  0
LINE
  8
0
 10
-147.89
 20
-109.001
 11
-147.89
 21
-117.251
  0
LINE
  8
0
 10
-147.89
 20
-117.251
 11
-132.61
 21
-117.251
  0
LINE
  8
0
 10
-132.61
 20
-117.251
 11
-132.61
 21
-109.001
  0
LINE
  8
0
 10
-132.61
 20
-109.001
 11
-131.39
 21
-109.001
  0
LINE
  8
0
 10
-131.39
 20
-109.001
 11
-131.39
 21
-117.251
  0
LINE
  8
0
 10
-131.39
 20
-117.251
 11
-116.11
 21
-117.251
  0
LINE
  8
0
 10
-116.11
 20
-117.251
 11
-116.11
 21
-109.001
  0
LINE
  8
0
 10
-116.11
 20
-109.001
 11
-114.89
 21
-109.001
  0
LINE
  8
0
 10
-114.89
 20
-109.001
 11
-114.89
 21
-117.251
  0
LINE
  8
0
 10
-114.89
 20
-117.251
 11
-99.61
 21
-117.251
  0
LINE
  8
0
 10
-99.61
 20
-117.251
 11
-99.61
 21
-109.001
  0
LINE
  8
0
 10
-99.61
 20
-109.001
 11
-98.39
 21
-109.001
  0
LINE
  8
0
 10
-98.39
 20
-109.001
 11
-98.39
 21
-117.251
  0
LINE
  8
0
 10
-98.39
 20
-117.251
 11
-83.11
 21
-117.251
  0
LINE
  8
0
 10
-83.11
 20
-117.251
 11
-83.11
 21
-109.001
  0
LINE
  8
0
 10
-83.11
 20
-109.001
 11
-81.89
 21
-109.001
  0
LINE
  8
0
 10
-81.89
 20
-109.001
 11
-81.89
 21
-117.251
  0
LINE
  8
0
 10
-81.89
 20
-117.251
 11
-66.61
 21
-117.251
  0
LINE
  8
0
 10
-66.61
 20
-117.251
 11
-66.61
 21
-109.001
  0
LINE
  8
0
 10
-66.61
 20
-109.001
 11
-65.39
 21
-109.001
  0
LINE
  8
0
 10
-65.39
 20
-109.001
 11
-65.39
 21
-117.251
  0
LINE
  8
0
 10
-65.39
 20
-117.251
 11
-50.11
 21
-117.251
  0
LINE
  8
0
 10
-50.11
 20
-117.251
 11
-50.11
 21
-109.001
  0
LINE
  8
0
 10
-50.11
 20
-109.001
 11
-48.89
 21
-109.001
  0
LINE
  8
0
 10
-48.89
 20
-109.001
 11
-48.89
 21
-117.251
  0
LINE
  8
0
 10
-48.89
 20
-117.251
 11
-33.61
 21
-117.251
  0
LINE
  8
0
 10
-33.61
 20
-117.251
 11
-33.61
 21
-109.001
  0
LINE
  8
0
 10
-33.61
 20
-109.001
 11
-32.39
 21
-109.001
  0
LINE
  8
0
 10
-32.39
 20
-109.001
 11
-32.39
 21
-117.251
  0
LINE
  8
0
 10
-32.39
 20
-117.251
 11
-17.11
 21
-117.251
  0
LINE
  8
0
 10
-17.11
 20
-117.251
 11
-17.11
 21
-109.001
  0
LINE
  8
0
 10
-17.11
 20
-109.001
 11
-15.89
 21
-109.001
  0
LINE
  8
0
 10
-15.89
 20
-109.001
 11
-15.89
 21
-117.251
  0
LINE
  8
0
 10
-15.89
 20
-117.251
 11
-0.610001
 21
-117.251
  0
LINE
  8
0
 10
-0.610001
 20
-117.251
 11
-0.610001
 21
-109.001
  0
LINE
  8
0
 10
-0.610001
 20
-109.001
 11
0.609985
 21
-109.001
  0
LINE
  8
0
 10
0.609985
 20
-109.001
 11
0.609985
 21
-117.251
  0
LINE
  8
0
 10
0.609985
 20
-117.251
 11
15.89
 21
-117.251
  0
LINE
  8
0
 10
15.89
 20
-117.251
 11
15.89
 21
-109.001
  0
LINE
  8
0
 10
15.89
 20
-109.001
 11
17.11
 21
-109.001
  0
LINE
  8
0
 10
17.11
 20
-109.001
 11
17.11
 21
-117.251
  0
LINE
  8
0
 10
17.11
 20
-117.251
 11
32.39
 21
-117.251
  0
LINE
  8
0
 10
32.39
 20
-117.251
 11
32.39
 21
-109.001
  0
LINE
  8
0
 10
32.39
 20
-109.001
 11
33.61
 21
-109.001
  0
LINE
  8
0
 10
33.61
 20
-109.001
 11
33.61
 21
-117.251
  0
LINE
  8
0
 10
33.61
 20
-117.251
 11
48.89
 21
-117.251
  0
LINE
  8
0
 10
48.89
 20
-117.251
 11
48.89
 21
-109.001
  0
LINE
  8
0
 10
48.89
 20
-109.001
 11
50.11
 21
-109.001
  0
LINE
  8
0
 10
50.11
 20
-109.001
 11
50.11
 21
-117.251
  0
LINE
  8
0
 10
50.11
 20
-117.251
 11
65.39
 21
-117.251
  0
LINE
  8
0
 10
65.39
 20
-117.251
 11
65.39
 21
-109.001
  0
LINE
  8
0
 10
65.39
 20
-109.001
 11
66.61
 21
-109.001
  0
LINE
  8
0
 10
66.61
 20
-109.001
 11
66.61
 21
-117.251
  0
LINE
  8
0
 10
66.61
 20
-117.251
 11
81.89
 21
-117.251
  0
LINE
  8
0
 10
81.89
 20
-117.251
 11
81.89
 21
-109.001
  0
LINE
  8
0
 10
81.89
 20
-109.001
 11
83.11
 21
-109.001
  0
LINE
  8
0
 10
83.11
 20
-109.001
 11
83.11
 21
-117.251
  0
LINE
  8
0
 10
83.11
 20
-117.251
 11
98.39
 21
-117.251
  0
LINE
  8
0
 10
98.39
 20
-117.251
 11
98.39
 21
-109.001
  0
LINE
  8
0
 10
98.39
 20
-109.001
 11
99.61
 21
-109.001
  0
LINE
  8
0
 10
99.61
 20
-109.001
 11
99.61
 21
-117.251
  0
LINE
  8
0
 10
99.61
 20
-117.251
 11
114.89
 21
-117.251
  0
LINE
  8
0
 10
114.89
 20
-117.251
 11
114.89
 21
-109.001
  0
LINE
  8
0
 10
114.89
 20
-109.001
 11
116.11
 21
-109.001
  0
LINE
  8
0
 10
116.11
 20
-109.001
 11
116.11
 21
-117.251
  0
LINE
  8
0
 10
116.11
 20
-117.251
 11
131.39
 21
-117.251
  0
LINE
  8
0
 10
131.39
 20
-117.251
 11
131.39
 21
-109.001
  0
LINE
  8
0
 10
131.39
 20
-109.001
 11
132.61
 21
-109.001
  0
LINE
  8
0
 10
132.61
 20
-109.001
 11
132.61
 21
-117.251
  0
LINE
  8
0
 10
132.61
 20
-117.251
 11
147.89
 21
-117.251
  0
LINE
  8
0
 10
147.89
 20
-117.251
 11
147.89
 21
-109.001
  0
LINE
  8
0
 10
147.89
 20
-109.001
 11
149.11
 21
-109.001
  0
LINE
  8
0
 10
149.11
 20
-109.001
 11
149.11
 21
-117.251
  0
LINE
  8
0
 10
149.11
 20
-117.251
 11
164.39
 21
-117.251
  0
LINE
  8
0
 10
164.39
 20
-117.251
 11
164.39
 21
-109.001
  0
LINE
  8
0
 10
164.39
 20
-109.001
 11
165.61
 21
-109.001
  0
LINE
  8
0
 10
165.61
 20
-109.001
 11
165.61
 21
-117.251
  0
LINE
  8
0
 10
165.61
 20
-117.251
 11
180.89
 21
-117.251
  0
LINE
  8
0
 10
180.89
 20
-117.251
 11
180.89
 21
-109.001
  0
LINE
  8
0
 10
180.89
 20
-109.001
 11
182.11
 21
-109.001
  0
LINE
  8
0
 10
182.11
 20
-109.001
 11
182.11
 21
-117.251
  0
LINE
  8
0
 10
182.11
 20
-117.251
 11
197.39
 21
-117.251
  0
LINE
  8
0
 10
197.39
 20
-117.251
 11
197.39
 21
-109.001
  0
LINE
  8
0
 10
197.39
 20
-109.001
 11
198.61
 21
-109.001
  0
LINE
  8
0
 10
198.61
 20
-109.001
 11
198.61
 21
-117.251
  0
LINE
  8
0
 10
198.61
 20
-117.251
 11
213.89
 21
-117.251
  0
LINE
  8
0
 10
213.89
 20
-117.251
 11
213.89
 21
-109.001
  0
LINE
  8
0
 10
213.89
 20
-109.001
 11
215.11
 21
-109.001
  0
LINE
  8
0
 10
215.11
 20
-109.001
 11
215.11
 21
-117.251
  0
LINE
  8
0
 10
215.11
 20
-117.251
 11
230.39
 21
-117.251
  0
LINE
  8
0
 10
230.39
 20
-117.251
 11
230.39
 21
-109.001
  0
LINE
  8
0
 10
230.39
 20
-109.001
 11
231.61
 21
-109.001
  0
LINE
  8
0
 10
231.61
 20
-109.001
 11
231.61
 21
-117.251
  0
LINE
  8
0
 10
231.61
 20
-117.251
 11
246.89
 21
-117.251
  0
LINE
  8
0
 10
246.89
 20
-117.251
 11
246.89
 21
-109.001
  0
LINE
  8
0
 10
246.89
 20
-109.001
 11
248.11
 21
-109.001
  0
LINE
  8
0
 10
248.11
 20
-109.001
 11
248.11
 21
-117.251
  0
LINE
  8
0
 10
248.11
 20
-117.251
 11
255.75
 21
-117.251
  0
LINE
  8
0
 10
255.75
 20
-117.251
 11
255.75
 21
-100.751
  0
LINE
  8
0
 10
255.75
 20
-100.751
 11
-255.75
 21
-100.751
  0
LINE
  8
0
 10
-255.75
 20
-117.251
 11
-255.75
 21
-133.751
  0
LINE
  8
0
 10
-255.75
 20
-133.751
 11
-248.11
 21
-133.751
  0
LINE
  8
0
 10
-248.11
 20
-133.751
 11
-248.11
 21
-125.501
  0
LINE
  8
0
 10
-248.11
 20
-125.501
 11
-246.89
 21
-125.501
  0
LINE
  8
0
 10
-246.89
 20
-125.501
 11
-246.89
 21
-133.751
  0
LINE
  8
0
 10
-246.89
 20
-133.751
 11
-231.61
 21
-133.751
  0
LINE
  8
0
 10
-231.61
 20
-133.751
 11
-231.61
 21
-125.501
  0
LINE
  8
0
 10
-231.61
 20
-125.501
 11
-230.39
 21
-125.501
  0
LINE
  8
0
 10
-230.39
 20
-125.501
 11
-230.39
 21
-133.751
  0
LINE
  8
0
 10
-230.39
 20
-133.751
 11
-215.11
 21
-133.751
  0
LINE
  8
0
 10
-215.11
 20
-133.751
 11
-215.11
 21
-125.501
  0
LINE
  8
0
 10
-215.11
 20
-125.501
 11
-213.89
 21
-125.501
  0
LINE
  8
0
 10
-213.89
 20
-125.501
 11
-213.89
 21
-133.751
  0
LINE
  8
0
 10
-213.89
 20
-133.751
 11
-198.61
 21
-133.751
  0
LINE
  8
0
 10
-198.61
 20
-133.751
 11
-198.61
 21
-125.501
  0
LINE
  8
0
 10
-198.61
 20
-125.501
 11
-197.39
 21
-125.501
  0
LINE
  8
0
 10
-197.39
 20
-125.501
 11
-197.39
 21
-133.751
  0
LINE
  8
0
 10
-197.39
 20
-133.751
 11
-182.11
 21
-133.751
  0
LINE
  8
0
 10
-182.11
 20
-133.751
 11
-182.11
 21
-125.501
  0
LINE
  8
0
 10
-182.11
 20
-125.501
 11
-180.89
 21
-125.501
  0
LINE
  8
0
 10
-180.89
 20
-125.501
 11
-180.89
 21
-133.751
  0
LINE
  8
0
 10
-180.89
 20
-133.751
 11
-165.61
 21
-133.751
  0
LINE
  8
0
 10
-165.61
 20
-133.751
 11
-165.61
 21
-125.501
  0
LINE
  8
0
 10
-165.61
 20
-125.501
 11
-164.39
 21
-125.501
  0
LINE
  8
0
 10
-164.39
 20
-125.501
 11
-164.39
 21
-133.751
  0
LINE
  8
0
 10
-164.39
 20
-133.751
 11
-149.11
 21
-133.751
  0
LINE
  8
0
 10
-149.11
 20
-133.751
 11
-149.11
 21
-125.501
  0
LINE
  8
0
 10
-149.11
 20
-125.501
 11
-147.89
 21
-125.501
  0
LINE
  8
0
 10
-147.89
 20
-125.501
 11
-147.89
 21
-133.751
  0
LINE
  8
0
 10
-147.89
 20
-133.751
 11
-132.61
 21
-133.751
  0
LINE
  8
0
 10
-132.61
 20
-133.751
 11
-132.61
 21
-125.501
  0
LINE
  8
0
 10
-132.61
 20
-125.501
 11
-131.39
 21
-125.501
  0
LINE
  8
0
 10
-131.39
 20
-125.501
 11
-131.39
 21
-133.751
  0
LINE
  8
0
 10
-131.39
 20
-133.751
 11
-116.11
 21
-133.751
  0
LINE
  8
0
 10
-116.11
 20
-133.751
 11
-116.11
 21
-125.501
  0
LINE
  8
0
 10
-116.11
 20
-125.501
 11
-114.89
 21
-125.501
  0
LINE
  8
0
 10
-114.89
 20
-125.501
 11
-114.89
 21
-133.751
  0
LINE
  8
0
 10
-114.89
 20
-133.751
 11
-99.61
 21
-133.751
  0
LINE
  8
0
 10
-99.61
 20
-133.751
 11
-99.61
 21
-125.501
  0
LINE
  8
0
 10
-99.61
 20
-125.501
 11
-98.39
 21
-125.501
  0
LINE
  8
0
 10
-98.39
 20
-125.501
 11
-98.39
 21
-133.751
  0
LINE
  8
0
 10
-98.39
 20
-133.751
 11
-83.11
 21
-133.751
  0
LINE
  8
0
 10
-83.11
 20
-133.751
 11
-83.11
 21
-125.501
  0
LINE
  8
0
 10
-83.11
 20
-125.501
 11
-81.89
 21
-125.501
  0
LINE
  8
0
 10
-81.89
 20
-125.501
 11
-81.89
 21
-133.751
  0
LINE
  8
0
 10
-81.89
 20
-133.751
 11
-66.61
 21
-133.751
  0
LINE
  8
0
 10
-66.61
 20
-133.751
 11
-66.61
 21
-125.501
  0
LINE
  8
0
 10
-66.61
 20
-125.501
 11
-65.39
 21
-125.501
  0
LINE
  8
0
 10
-65.39
 20
-125.501
 11
-65.39
 21
-133.751
  0
LINE
  8
0
 10
-65.39
 20
-133.751
 11
-50.11
 21
-133.751
  0
LINE
  8
0
 10
-50.11
 20
-133.751
 11
-50.11
 21
-125.501
  0
LINE
  8
0
 10
-50.11
 20
-125.501
 11
-48.89
 21
-125.501
  0
LINE
  8
0
 10
-48.89
 20
-125.501
 11
-48.89
 21
-133.751
  0
LINE
  8
0
 10
-48.89
 20
-133.751
 11
-33.61
 21
-133.751
  0
LINE
  8
0
 10
-33.61
 20
-133.751
 11
-33.61
 21
-125.501
  0
LINE
  8
0
 10
-33.61
 20
-125.501
 11
-32.39
 21
-125.501
  0
LINE
  8
0
 10
-32.39
 20
-125.501
 11
-32.39
 21
-133.751
  0
LINE
  8
0
 10
-32.39
 20
-133.751
 11
-17.11
 21
-133.751
  0
LINE
  8
0
 10
-17.11
 20
-133.751
 11
-17.11
 21
-125.501
  0
LINE
  8
0
 10
-17.11
 20
-125.501
 11
-15.89
 21
-125.501
  0
LINE
  8
0
 10
-15.89
 20
-125.501
 11
-15.89
 21
-133.751
  0
LINE
  8
0
 10
-15.89
 20
-133.751
 11
-0.610001
 21
-133.751
  0
LINE
  8
0
 10
-0.610001
 20
-133.751
 11
-0.610001
 21
-125.501
  0
LINE
  8
0
 10
-0.610001
 20
-125.501
 11
0.609985
 21
-125.501
  0
LINE
  8
0
 10
0.609985
 20
-125.501
 11
0.609985
 21
-133.751
  0
LINE
  8
0
 10
0.609985
 20
-133.751
 11
15.89
 21
-133.751
  0
LINE
  8
0
 10
15.89
 20
-133.751
 11
15.89
 21
-125.501
  0
LINE
  8
0
 10
15.89
 20
-125.501
 11
17.11
 21
-125.501
  0
LINE
  8
0
 10
17.11
 20
-125.501
 11
17.11
 21
-133.751
  0
LINE
  8
0
 10
17.11
 20
-133.751
 11
32.39
 21
-133.751
  0
LINE
  8
0
 10
32.39
 20
-133.751
 11
32.39
 21
-125.501
  0
LINE
  8
0
 10
32.39
 20
-125.501
 11
33.61
 21
-125.501
  0
LINE
  8
0
 10
33.61
 20
-125.501
 11
33.61
 21
-133.751
  0
LINE
  8
0
 10
33.61
 20
-133.751
 11
48.89
 21
-133.751
  0
LINE
  8
0
 10
48.89
 20
-133.751
 11
48.89
 21
-125.501
  0
LINE
  8
0
 10
48.89
 20
-125.501
 11
50.11
 21
-125.501
  0
LINE
  8
0
 10
50.11
 20
-125.501
 11
50.11
 21
-133.751
  0
LINE
  8
0
 10
50.11
 20
-133.751
 11
65.39
 21
-133.751
  0
LINE
  8
0
 10
65.39
 20
-133.751
 11
65.39
 21
-125.501
  0
LINE
  8
0
 10
65.39
 20
-125.501
 11
66.61
 21
-125.501
  0
LINE
  8
0
 10
66.61
 20
-125.501
 11
66.61
 21
-133.751
  0
LINE
  8
0
 10
66.61
 20
-133.751
 11
81.89
 21
-133.751
  0
LINE
  8
0
 10
81.89
 20
-133.751
 11
81.89
 21
-125.501
  0
LINE
  8
0
 10
81.89
 20
-125.501
 11
83.11
 21
-125.501
  0
LINE
  8
0
 10
83.11
 20
-125.501
 11
83.11
 21
-133.751
  0
LINE
  8
0
 10
83.11
 20
-133.751
 11
98.39
 21
-133.751
  0
LINE
  8
0
 10
98.39
 20
-133.751
 11
98.39
 21
-125.501
  0
LINE
  8
0
 10
98.39
 20
-125.501
 11
99.61
 21
-125.501
  0
LINE
  8
0
 10
99.61
 20
-125.501
 11
99.61
 21
-133.751
  0
LINE
  8
0
 10
99.61
 20
-133.751
 11
114.89
 21
-133.751
  0
LINE
  8
0
 10
114.89
 20
-133.751
 11
114.89
 21
-125.501
  0
LINE
  8
0
 10
114.89
 20
-125.501
 11
116.11
 21
-125.501
  0
LINE
  8
0
 10
116.11
 20
-125.501
 11
116.11
 21
-133.751
  0
LINE
  8
0
 10
116.11
 20
-133.751
 11
131.39
 21
-133.751
  0
LINE
  8
0
 10
131.39
 20
-133.751
 11
131.39
 21
-125.501
  0
LINE
  8
0
 10
131.39
 20
-125.501
 11
132.61
 21
-125.501
  0
LINE
  8
0
 10
132.61
 20
-125.501
 11
132.61
 21
-133.751
  0
LINE
  8
0
 10
132.61
 20
-133.751
 11
147.89
 21
-133.751
  0
LINE
  8
0
 10
147.89
 20
-133.751
 11
147.89
 21
-125.501
  0
LINE
  8
0
 10
147.89
 20
-125.501
 11
149.11
 21
-125.501
  0
LINE
  8
0
 10
149.11
 20
-125.501
 11
149.11
 21
-133.751
  0
LINE
  8
0
 10
149.11
 20
-133.751
 11
164.39
 21
-133.751
  0
LINE
  8
0
 10
164.39
 20
-133.751
 11
164.39
 21
-125.501
  0
LINE
  8
0
 10
164.39
 20
-125.501
 11
165.61
 21
-125.501
  0
LINE
  8
0
 10
165.61
 20
-125.501
 11
165.61
 21
-133.751
  0
LINE
  8
0
 10
165.61
 20
-133.751
 11
180.89
 21
-133.751
  0
LINE
  8
0
 10
180.89
 20
-133.751
 11
180.89
 21
-125.501
  0
LINE
  8
0
 10
180.89
 20
-125.501
 11
182.11
 21
-125.501
  0
LINE
  8
0
 10
182.11
 20
-125.501
 11
182.11
 21
-133.751
  0
LINE
  8
0
 10
182.11
 20
-133.751
 11
197.39
 21
-133.751
  0
LINE
  8
0
 10
197.39
 20
-133.751
 11
197.39
 21
-125.501
  0
LINE
  8
0
 10
197.39
 20
-125.501
 11
198.61
 21
-125.501
  0
LINE
  8
0
 10
198.61
 20
-125.501
 11
198.61
 21
-133.751
  0
LINE
  8
0
 10
198.61
 20
-133.751
 11
213.89
 21
-133.751
  0
LINE
  8
0
 10
213.89
 20
-133.751
 11
213.89
 21
-125.501
  0
LINE
  8
0
 10
213.89
 20
-125.501
 11
215.11
 21
-125.501
  0
LINE
  8
0
 10
215.11
 20
-125.501
 11
215.11
 21
-133.751
  0
LINE
  8
0
 10
215.11
 20
-133.751
 11
230.39
 21
-133.751
  0
LINE
  8
0
 10
230.39
 20
-133.751
 11
230.39
 21
-125.501
  0
LINE
  8
0
 10
230.39
 20
-125.501
 11
231.61
 21
-125.501
  0
LINE
  8
0
 10
231.61
 20
-125.501
 11
231.61
 21
-133.751
  0
LINE
  8
0
 10
231.61
 20
-133.751
 11
246.89
 21
-133.751
  0
LINE
  8
0
 10
246.89
 20
-133.751
 11
246.89
 21
-125.501
  0
LINE
  8
0
 10
246.89
 20
-125.501
 11
248.11
 21
-125.501
  0
LINE
  8
0
 10
248.11
 20
-125.501
 11
248.11
 21
-133.751
  0
LINE
  8
0
 10
248.11
 20
-133.751
 11
255.75
 21
-133.751
  0
LINE
  8
0
 10
255.75
 20
-133.751
 11
255.75
 21
-117.251
  0
LINE
  8
0
 10
255.75
 20
-117.251
 11
-255.75
 21
-117.251
  0
LINE
  8
0
 10
-255.75
 20
-133.751
 11
-255.75
 21
-150.251
  0
LINE
  8
0
 10
-255.75
 20
-150.251
 11
-248.11
 21
-150.251
  0
LINE
  8
0
 10
-248.11
 20
-150.251
 11
-248.11
 21
-142.001
  0
LINE
  8
0
 10
-248.11
 20
-142.001
 11
-246.89
 21
-142.001
  0
LINE
  8
0
 10
-246.89
 20
-142.001
 11
-246.89
 21
-150.251
  0
LINE
  8
0
 10
-246.89
 20
-150.251
 11
-231.61
 21
-150.251
  0
LINE
  8
0
 10
-231.61
 20
-150.251
 11
-231.61
 21
-142.001
  0
LINE
  8
0
 10
-231.61
 20
-142.001
 11
-230.39
 21
-142.001
  0
LINE
  8
0
 10
-230.39
 20
-142.001
 11
-230.39
 21
-150.251
  0
LINE
  8
0
 10
-230.39
 20
-150.251
 11
-215.11
 21
-150.251
  0
LINE
  8
0
 10
-215.11
 20
-150.251
 11
-215.11
 21
-142.001
  0
LINE
  8
0
 10
-215.11
 20
-142.001
 11
-213.89
 21
-142.001
  0
LINE
  8
0
 10
-213.89
 20
-142.001
 11
-213.89
 21
-150.251
  0
LINE
  8
0
 10
-213.89
 20
-150.251
 11
-198.61
 21
-150.251
  0
LINE
  8
0
 10
-198.61
 20
-150.251
 11
-198.61
 21
-142.001
  0
LINE
  8
0
 10
-198.61
 20
-142.001
 11
-197.39
 21
-142.001
  0
LINE
  8
0
 10
-197.39
 20
-142.001
 11
-197.39
 21
-150.251
  0
LINE
  8
0
 10
-197.39
 20
-150.251
 11
-182.11
 21
-150.251
  0
LINE
  8
0
 10
-182.11
 20
-150.251
 11
-182.11
 21
-142.001
  0
LINE
  8
0
 10
-182.11
 20
-142.001
 11
-180.89
 21
-142.001
  0
LINE
  8
0
 10
-180.89
 20
-142.001
 11
-180.89
 21
-150.251
  0
LINE
  8
0
 10
-180.89
 20
-150.251
 11
-165.61
 21
-150.251
  0
LINE
  8
0
 10
-165.61
 20
-150.251
 11
-165.61
 21
-142.001
  0
LINE
  8
0
 10
-165.61
 20
-142.001
 11
-164.39
 21
-142.001
  0
LINE
  8
0
 10
-164.39
 20
-142.001
 11
-164.39
 21
-150.251
  0
LINE
  8
0
 10
-164.39
 20
-150.251
 11
-149.11
 21
-150.251
  0
LINE
  8
0
 10
-149.11
 20
-150.251
 11
-149.11
 21
-142.001
  0
LINE
  8
0
 10
-149.11
 20
-142.001
 11
-147.89
 21
-142.001
  0
LINE
  8
0
 10
-147.89
 20
-142.001
 11
-147.89
 21
-150.251
  0
LINE
  8
0
 10
-147.89
 20
-150.251
 11
-132.61
 21
-150.251
  0
LINE
  8
0
 10
-132.61
 20
-150.251
 11
-132.61
 21
-142.001
  0
LINE
  8
0
 10
-132.61
 20
-142.001
 11
-131.39
 21
-142.001
  0
LINE
  8
0
 10
-131.39
 20
-142.001
 11
-131.39
 21
-150.251
  0
LINE
  8
0
 10
-131.39
 20
-150.251
 11
-116.11
 21
-150.251
  0
LINE
  8
0
 10
-116.11
 20
-150.251
 11
-116.11
 21
-142.001
  0
LINE
  8
0
 10
-116.11
 20
-142.001
 11
-114.89
 21
-142.001
  0
LINE
  8
0
 10
-114.89
 20
-142.001
 11
-114.89
 21
-150.251
  0
LINE
  8
0
 10
-114.89
 20
-150.251
 11
-99.61
 21
-150.251
  0
LINE
  8
0
 10
-99.61
 20
-150.251
 11
-99.61
 21
-142.001
  0
LINE
  8
0
 10
-99.61
 20
-142.001
 11
-98.39
 21
-142.001
  0
LINE
  8
0
 10
-98.39
 20
-142.001
 11
-98.39
 21
-150.251
  0
LINE
  8
0
 10
-98.39
 20
-150.251
 11
-83.11
 21
-150.251
  0
LINE
  8
0
 10
-83.11
 20
-150.251
 11
-83.11
 21
-142.001
  0
LINE
  8
0
 10
-83.11
 20
-142.001
 11
-81.89
 21
-142.001
  0
LINE
  8
0
 10
-81.89
 20
-142.001
 11
-81.89
 21
-150.251
  0
LINE
  8
0
 10
-81.89
 20
-150.251
 11
-66.61
 21
-150.251
  0
LINE
  8
0
 10
-66.61
 20
-150.251
 11
-66.61
 21
-142.001
  0
LINE
  8
0
 10
-66.61
 20
-142.001
 11
-65.39
 21
-142.001
  0
LINE
  8
0
 10
-65.39
 20
-142.001
 11
-65.39
 21
-150.251
  0
LINE
  8
0
 10
-65.39
 20
-150.251
 11
-50.11
 21
-150.251
  0
LINE
  8
0
 10
-50.11
 20
-150.251
 11
-50.11
 21
-142.001
  0
LINE
  8
0
 10
-50.11
 20
-142.001
 11
-48.89
 21
-142.001
  0
LINE
  8
0
 10
-48.89
 20
-142.001
 11
-48.89
 21
-150.251
  0
LINE
  8
0
 10
-48.89
 20
-150.251
 11
-33.61
 21
-150.251
  0
LINE
  8
0
 10
-33.61
 20
-150.251
 11
-33.61
 21
-142.001
  0
LINE
  8
0
 10
-33.61
 20
-142.001
 11
-32.39
 21
-142.001
  0
LINE
  8
0
 10
-32.39
 20
-142.001
 11
-32.39
 21
-150.251
  0
LINE
  8
0
 10
-32.39
 20
-150.251
 11
-17.11
 21
-150.251
  0
LINE
  8
0
 10
-17.11
 20
-150.251
 11
-17.11
 21
-142.001
  0
LINE
  8
0
 10
-17.11
 20
-142.001
 11
-15.89
 21
-142.001
  0
LINE
  8
0
 10
-15.89
 20
-142.001
 11
-15.89
 21
-150.251
  0
LINE
  8
0
 10
-15.89
 20
-150.251
 11
-0.610001
 21
-150.251
  0
LINE
  8
0
 10
-0.610001
 20
-150.251
 11
-0.610001
 21
-142.001
  0
LINE
  8
0
 10
-0.610001
 20
-142.001
 11
0.609985
 21
-142.001
  0
LINE
  8
0
 10
0.609985
 20
-142.001
 11
0.609985
 21
-150.251
  0
LINE
  8
0
 10
0.609985
 20
-150.251
 11
15.89
 21
-150.251
  0
LINE
  8
0
 10
15.89
 20
-150.251
 11
15.89
 21
-142.001
  0
LINE
  8
0
 10
15.89
 20
-142.001
 11
17.11
 21
-142.001
  0
LINE
  8
0
 10
17.11
 20
-142.001
 11
17.11
 21
-150.251
  0
LINE
  8
0
 10
17.11
 20
-150.251
 11
32.39
 21
-150.251
  0
LINE
  8
0
 10
32.39
 20
-150.251
 11
32.39
 21
-142.001
  0
LINE
  8
0
 10
32.39
 20
-142.001
 11
33.61
 21
-142.001
  0
LINE
  8
0
 10
33.61
 20
-142.001
 11
33.61
 21
-150.251
  0
LINE
  8
0
 10
33.61
 20
-150.251
 11
48.89
 21
-150.251
  0
LINE
  8
0
 10
48.89
 20
-150.251
 11
48.89
 21
-142.001
  0
LINE
  8
0
 10
48.89
 20
-142.001
 11
50.11
 21
-142.001
  0
LINE
  8
0
 10
50.11
 20
-142.001
 11
50.11
 21
-150.251
  0
LINE
  8
0
 10
50.11
 20
-150.251
 11
65.39
 21
-150.251
  0
LINE
  8
0
 10
65.39
 20
-150.251
 11
65.39
 21
-142.001
  0
LINE
  8
0
 10
65.39
 20
-142.001
 11
66.61
 21
-142.001
  0
LINE
  8
0
 10
66.61
 20
-142.001
 11
66.61
 21
-150.251
  0
LINE
  8
0
 10
66.61
 20
-150.251
 11
81.89
 21
-150.251
  0
LINE
  8
0
 10
81.89
 20
-150.251
 11
81.89
 21
-142.001
  0
LINE
  8
0
 10
81.89
 20
-142.001
 11
83.11
 21
-142.001
  0
LINE
  8
0
 10
83.11
 20
-142.001
 11
83.11
 21
-150.251
  0
LINE
  8
0
 10
83.11
 20
-150.251
 11
98.39
 21
-150.251
  0
LINE
  8
0
 10
98.39
 20
-150.251
 11
98.39
 21
-142.001
  0
LINE
  8
0
 10
98.39
 20
-142.001
 11
99.61
 21
-142.001
  0
LINE
  8
0
 10
99.61
 20
-142.001
 11
99.61
 21
-150.251
  0
LINE
  8
0
 10
99.61
 20
-150.251
 11
114.89
 21
-150.251
  0
LINE
  8
0
 10
114.89
 20
-150.251
 11
114.89
 21
-142.001
  0
LINE
  8
0
 10
114.89
 20
-142.001
 11
116.11
 21
-142.001
  0
LINE
  8
0
 10
116.11
 20
-142.001
 11
116.11
 21
-150.251
  0
LINE
  8
0
 10
116.11
 20
-150.251
 11
131.39
 21
-150.251
  0
LINE
  8
0
 10
131.39
 20
-150.251
 11
131.39
 21
-142.001
  0
LINE
  8
0
 10
131.39
 20
-142.001
 11
132.61
 21
-142.001
  0
LINE
  8
0
 10
132.61
 20
-142.001
 11
132.61
 21
-150.251
  0
LINE
  8
0
 10
132.61
 20
-150.251
 11
147.89
 21
-150.251
  0
LINE
  8
0
 10
147.89
 20
-150.251
 11
147.89
 21
-142.001
  0
LINE
  8
0
 10
147.89
 20
-142.001
 11
149.11
 21
-142.001
  0
LINE
  8
0
 10
149.11
 20
-142.001
 11
149.11
 21
-150.251
  0
LINE
  8
0
 10
149.11
 20
-150.251
 11
164.39
 21
-150.251
  0
LINE
  8
0
 10
164.39
 20
-150.251
 11
164.39
 21
-142.001
  0
LINE
  8
0
 10
164.39
 20
-142.001
 11
165.61
 21
-142.001
  0
LINE
  8
0
 10
165.61
 20
-142.001
 11
165.61
 21
-150.251
  0
LINE
  8
0
 10
165.61
 20
-150.251
 11
180.89
 21
-150.251
  0
LINE
  8
0
 10
180.89
 20
-150.251
 11
180.89
 21
-142.001
  0
LINE
  8
0
 10
180.89
 20
-142.001
 11
182.11
 21
-142.001
  0
LINE
  8
0
 10
182.11
 20
-142.001
 11
182.11
 21
-150.251
  0
LINE
  8
0
 10
182.11
 20
-150.251
 11
197.39
 21
-150.251
  0
LINE
  8
0
 10
197.39
 20
-150.251
 11
197.39
 21
-142.001
  0
LINE
  8
0
 10
197.39
 20
-142.001
 11
198.61
 21
-142.001
  0
LINE
  8
0
 10
198.61
 20
-142.001
 11
198.61
 21
-150.251
  0
LINE
  8
0
 10
198.61
 20
-150.251
 11
213.89
 21
-150.251
  0
LINE
  8
0
 10
213.89
 20
-150.251
 11
213.89
 21
-142.001
  0
LINE
  8
0
 10
213.89
 20
-142.001
 11
215.11
 21
-142.001
  0
LINE
  8
0
 10
215.11
 20
-142.001
 11
215.11
 21
-150.251
  0
LINE
  8
0
 10
215.11
 20
-150.251
 11
230.39
 21
-150.251
  0
LINE
  8
0
 10
230.39
 20
-150.251
 11
230.39
 21
-142.001
  0
LINE
  8
0
 10
230.39
 20
-142.001
 11
231.61
 21
-142.001
  0
LINE
  8
0
 10
231.61
 20
-142.001
 11
231.61
 21
-150.251
  0
LINE
  8
0
 10
231.61
 20
-150.251
 11
246.89
 21
-150.251
  0
LINE
  8
0
 10
246.89
 20
-150.251
 11
246.89
 21
-142.001
  0
LINE
  8
0
 10
246.89
 20
-142.001
 11
248.11
 21
-142.001
  0
LINE
  8
0
 10
248.11
 20
-142.001
 11
248.11
 21
-150.251
  0
LINE
  8
0
 10
248.11
 20
-150.251
 11
255.75
 21
-150.251
  0
LINE
  8
0
 10
255.75
 20
-150.251
 11
255.75
 21
-133.751
  0
LINE
  8
0
 10
255.75
 20
-133.751
 11
-255.75
 21
-133.751
  0
LINE
  8
0
 10
-255.75
 20
-150.251
 11
-255.75
 21
-166.751
  0
LINE
  8
0
 10
-255.75
 20
-166.751
 11
-248.11
 21
-166.751
  0
LINE
  8
0
 10
-248.11
 20
-166.751
 11
-248.11
 21
-158.501
  0
LINE
  8
0
 10
-248.11
 20
-158.501
 11
-246.89
 21
-158.501
  0
LINE
  8
0
 10
-246.89
 20
-158.501
 11
-246.89
 21
-166.751
  0
LINE
  8
0
 10
-246.89
 20
-166.751
 11
-231.61
 21
-166.751
  0
LINE
  8
0
 10
-231.61
 20
-166.751
 11
-231.61
 21
-158.501
  0
LINE
  8
0
 10
-231.61
 20
-158.501
 11
-230.39
 21
-158.501
  0
LINE
  8
0
 10
-230.39
 20
-158.501
 11
-230.39
 21
-166.751
  0
LINE
  8
0
 10
-230.39
 20
-166.751
 11
-215.11
 21
-166.751
  0
LINE
  8
0
 10
-215.11
 20
-166.751
 11
-215.11
 21
-158.501
  0
LINE
  8
0
 10
-215.11
 20
-158.501
 11
-213.89
 21
-158.501
  0
LINE
  8
0
 10
-213.89
 20
-158.501
 11
-213.89
 21
-166.751
  0
LINE
  8
0
 10
-213.89
 20
-166.751
 11
-198.61
 21
-166.751
  0
LINE
  8
0
 10
-198.61
 20
-166.751
 11
-198.61
 21
-158.501
  0
LINE
  8
0
 10
-198.61
 20
-158.501
 11
-197.39
 21
-158.501
  0
LINE
  8
0
 10
-197.39
 20
-158.501
 11
-197.39
 21
-166.751
  0
LINE
  8
0
 10
-197.39
 20
-166.751
 11
-182.11
 21
-166.751
  0
LINE
  8
0
 10
-182.11
 20
-166.751
 11
-182.11
 21
-158.501
  0
LINE
  8
0
 10
-182.11
 20
-158.501
 11
-180.89
 21
-158.501
  0
LINE
  8
0
 10
-180.89
 20
-158.501
 11
-180.89
 21
-166.751
  0
LINE
  8
0
 10
-180.89
 20
-166.751
 11
-165.61
 21
-166.751
  0
LINE
  8
0
 10
-165.61
 20
-166.751
 11
-165.61
 21
-158.501
  0
LINE
  8
0
 10
-165.61
 20
-158.501
 11
-164.39
 21
-158.501
  0
LINE
  8
0
 10
-164.39
 20
-158.501
 11
-164.39
 21
-166.751
  0
LINE
  8
0
 10
-164.39
 20
-166.751
 11
-149.11
 21
-166.751
  0
LINE
  8
0
 10
-149.11
 20
-166.751
 11
-149.11
 21
-158.501
  0
LINE
  8
0
 10
-149.11
 20
-158.501
 11
-147.89
 21
-158.501
  0
LINE
  8
0
 10
-147.89
 20
-158.501
 11
-147.89
 21
-166.751
  0
LINE
  8
0
 10
-147.89
 20
-166.751
 11
-132.61
 21
-166.751
  0
LINE
  8
0
 10
-132.61
 20
-166.751
 11
-132.61
 21
-158.501
  0
LINE
  8
0
 10
-132.61
 20
-158.501
 11
-131.39
 21
-158.501
  0
LINE
  8
0
 10
-131.39
 20
-158.501
 11
-131.39
 21
-166.751
  0
LINE
  8
0
 10
-131.39
 20
-166.751
 11
-116.11
 21
-166.751
  0
LINE
  8
0
 10
-116.11
 20
-166.751
 11
-116.11
 21
-158.501
  0
LINE
  8
0
 10
-116.11
 20
-158.501
 11
-114.89
 21
-158.501
  0
LINE
  8
0
 10
-114.89
 20
-158.501
 11
-114.89
 21
-166.751
  0
LINE
  8
0
 10
-114.89
 20
-166.751
 11
-99.61
 21
-166.751
  0
LINE
  8
0
 10
-99.61
 20
-166.751
 11
-99.61
 21
-158.501
  0
LINE
  8
0
 10
-99.61
 20
-158.501
 11
-98.39
 21
-158.501
  0
LINE
  8
0
 10
-98.39
 20
-158.501
 11
-98.39
 21
-166.751
  0
LINE
  8
0
 10
-98.39
 20
-166.751
 11
-83.11
 21
-166.751
  0
LINE
  8
0
 10
-83.11
 20
-166.751
 11
-83.11
 21
-158.501
  0
LINE
  8
0
 10
-83.11
 20
-158.501
 11
-81.89
 21
-158.501
  0
LINE
  8
0
 10
-81.89
 20
-158.501
 11
-81.89
 21
-166.751
  0
LINE
  8
0
 10
-81.89
 20
-166.751
 11
-66.61
 21
-166.751
  0
LINE
  8
0
 10
-66.61
 20
-166.751
 11
-66.61
 21
-158.501
  0
LINE
  8
0
 10
-66.61
 20
-158.501
 11
-65.39
 21
-158.501
  0
LINE
  8
0
 10
-65.39
 20
-158.501
 11
-65.39
 21
-166.751
  0
LINE
  8
0
 10
-65.39
 20
-166.751
 11
-50.11
 21
-166.751
  0
LINE
  8
0
 10
-50.11
 20
-166.751
 11
-50.11
 21
-158.501
  0
LINE
  8
0
 10
-50.11
 20
-158.501
 11
-48.89
 21
-158.501
  0
LINE
  8
0
 10
-48.89
 20
-158.501
 11
-48.89
 21
-166.751
  0
LINE
  8
0
 10
-48.89
 20
-166.751
 11
-33.61
 21
-166.751
  0
LINE
  8
0
 10
-33.61
 20
-166.751
 11
-33.61
 21
-158.501
  0
LINE
  8
0
 10
-33.61
 20
-158.501
 11
-32.39
 21
-158.501
  0
LINE
  8
0
 10
-32.39
 20
-158.501
 11
-32.39
 21
-166.751
  0
LINE
  8
0
 10
-32.39
 20
-166.751
 11
-17.11
 21
-166.751
  0
LINE
  8
0
 10
-17.11
 20
-166.751
 11
-17.11
 21
-158.501
  0
LINE
  8
0
 10
-17.11
 20
-158.501
 11
-15.89
 21
-158.501
  0
LINE
  8
0
 10
-15.89
 20
-158.501
 11
-15.89
 21
-166.751
  0
LINE
  8
0
 10
-15.89
 20
-166.751
 11
-0.610001
 21
-166.751
  0
LINE
  8
0
 10
-0.610001
 20
-166.751
 11
-0.610001
 21
-158.501
  0
LINE
  8
0
 10
-0.610001
 20
-158.501
 11
0.609985
 21
-158.501
  0
LINE
  8
0
 10
0.609985
 20
-158.501
 11
0.609985
 21
-166.751
  0
LINE
  8
0
 10
0.609985
 20
-166.751
 11
15.89
 21
-166.751
  0
LINE
  8
0
 10
15.89
 20
-166.751
 11
15.89
 21
-158.501
  0
LINE
  8
0
 10
15.89
 20
-158.501
 11
17.11
 21
-158.501
  0
LINE
  8
0
 10
17.11
 20
-158.501
 11
17.11
 21
-166.751
  0
LINE
  8
0
 10
17.11
 20
-166.751
 11
32.39
 21
-166.751
  0
LINE
  8
0
 10
32.39
 20
-166.751
 11
32.39
 21
-158.501
  0
LINE
  8
0
 10
32.39
 20
-158.501
 11
33.61
 21
-158.501
  0
LINE
  8
0
 10
33.61
 20
-158.501
 11
33.61
 21
-166.751
  0
LINE
  8
0
 10
33.61
 20
-166.751
 11
48.89
 21
-166.751
  0
LINE
  8
0
 10
48.89
 20
-166.751
 11
48.89
 21
-158.501
  0
LINE
  8
0
 10
48.89
 20
-158.501
 11
50.11
 21
-158.501
  0
LINE
  8
0
 10
50.11
 20
-158.501
 11
50.11
 21
-166.751
  0
LINE
  8
0
 10
50.11
 20
-166.751
 11
65.39
 21
-166.751
  0
LINE
  8
0
 10
65.39
 20
-166.751
 11
65.39
 21
-158.501
  0
LINE
  8
0
 10
65.39
 20
-158.501
 11
66.61
 21
-158.501
  0
LINE
  8
0
 10
66.61
 20
-158.501
 11
66.61
 21
-166.751
  0
LINE
  8
0
 10
66.61
 20
-166.751
 11
81.89
 21
-166.751
  0
LINE
  8
0
 10
81.89
 20
-166.751
 11
81.89
 21
-158.501
  0
LINE
  8
0
 10
81.89
 20
-158.501
 11
83.11
 21
-158.501
  0
LINE
  8
0
 10
83.11
 20
-158.501
 11
83.11
 21
-166.751
  0
LINE
  8
0
 10
83.11
 20
-166.751
 11
98.39
 21
-166.751
  0
LINE
  8
0
 10
98.39
 20
-166.751
 11
98.39
 21
-158.501
  0
LINE
  8
0
 10
98.39
 20
-158.501
 11
99.61
 21
-158.501
  0
LINE
  8
0
 10
99.61
 20
-158.501
 11
99.61
 21
-166.751
  0
LINE
  8
0
 10
99.61
 20
-166.751
 11
114.89
 21
-166.751
  0
LINE
  8
0
 10
114.89
 20
-166.751
 11
114.89
 21
-158.501
  0
LINE
  8
0
 10
114.89
 20
-158.501
 11
116.11
 21
-158.501
  0
LINE
  8
0
 10
116.11
 20
-158.501
 11
116.11
 21
-166.751
  0
LINE
  8
0
 10
116.11
 20
-166.751
 11
131.39
 21
-166.751
  0
LINE
  8
0
 10
131.39
 20
-166.751
 11
131.39
 21
-158.501
  0
LINE
  8
0
 10
131.39
 20
-158.501
 11
132.61
 21
-158.501
  0
LINE
  8
0
 10
132.61
 20
-158.501
 11
132.61
 21
-166.751
  0
LINE
  8
0
 10
132.61
 20
-166.751
 11
147.89
 21
-166.751
  0
LINE
  8
0
 10
147.89
 20
-166.751
 11
147.89
 21
-158.501
  0
LINE
  8
0
 10
147.89
 20
-158.501
 11
149.11
 21
-158.501
  0
LINE
  8
0
 10
149.11
 20
-158.501
 11
149.11
 21
-166.751
  0
LINE
  8
0
 10
149.11
 20
-166.751
 11
164.39
 21
-166.751
  0
LINE
  8
0
 10
164.39
 20
-166.751
 11
164.39
 21
-158.501
  0
LINE
  8
0
 10
164.39
 20
-158.501
 11
165.61
 21
-158.501
  0
LINE
  8
0
 10
165.61
 20
-158.501
 11
165.61
 21
-166.751
  0
LINE
  8
0
 10
165.61
 20
-166.751
 11
180.89
 21
-166.751
  0
LINE
  8
0
 10
180.89
 20
-166.751
 11
180.89
 21
-158.501
  0
LINE
  8
0
 10
180.89
 20
-158.501
 11
182.11
 21
-158.501
  0
LINE
  8
0
 10
182.11
 20
-158.501
 11
182.11
 21
-166.751
  0
LINE
  8
0
 10
182.11
 20
-166.751
 11
197.39
 21
-166.751
  0
LINE
  8
0
 10
197.39
 20
-166.751
 11
197.39
 21
-158.501
  0
LINE
  8
0
 10
197.39
 20
-158.501
 11
198.61
 21
-158.501
  0
LINE
  8
0
 10
198.61
 20
-158.501
 11
198.61
 21
-166.751
  0
LINE
  8
0
 10
198.61
 20
-166.751
 11
213.89
 21
-166.751
  0
LINE
  8
0
 10
213.89
 20
-166.751
 11
213.89
 21
-158.501
  0
LINE
  8
0
 10
213.89
 20
-158.501
 11
215.11
 21
-158.501
  0
LINE
  8
0
 10
215.11
 20
-158.501
 11
215.11
 21
-166.751
  0
LINE
  8
0
 10
215.11
 20
-166.751
 11
230.39
 21
-166.751
  0
LINE
  8
0
 10
230.39
 20
-166.751
 11
230.39
 21
-158.501
  0
LINE
  8
0
 10
230.39
 20
-158.501
 11
231.61
 21
-158.501
  0
LINE
  8
0
 10
231.61
 20
-158.501
 11
231.61
 21
-166.751
  0
LINE
  8
0
 10
231.61
 20
-166.751
 11
246.89
 21
-166.751
  0
LINE
  8
0
 10
246.89
 20
-166.751
 11
246.89
 21
-158.501
  0
LINE
  8
0
 10
246.89
 20
-158.501
 11
248.11
 21
-158.501
  0
LINE
  8
0
 10
248.11
 20
-158.501
 11
248.11
 21
-166.751
  0
LINE
  8
0
 10
248.11
 20
-166.751
 11
255.75
 21
-166.751
  0
LINE
  8
0
 10
255.75
 20
-166.751
 11
255.75
 21
-150.251
  0
LINE
  8
0
 10
255.75
 20
-150.251
 11
-255.75
 21
-150.251
  0
LINE
  8
0
 10
-255.75
 20
-166.751
 11
-255.75
 21
-183.251
  0
LINE
  8
0
 10
-255.75
 20
-183.251
 11
-248.11
 21
-183.251
  0
LINE
  8
0
 10
-248.11
 20
-183.251
 11
-248.11
 21
-175.001
  0
LINE
  8
0
 10
-248.11
 20
-175.001
 11
-246.89
 21
-175.001
  0
LINE
  8
0
 10
-246.89
 20
-175.001
 11
-246.89
 21
-183.251
  0
LINE
  8
0
 10
-246.89
 20
-183.251
 11
-231.61
 21
-183.251
  0
LINE
  8
0
 10
-231.61
 20
-183.251
 11
-231.61
 21
-175.001
  0
LINE
  8
0
 10
-231.61
 20
-175.001
 11
-230.39
 21
-175.001
  0
LINE
  8
0
 10
-230.39
 20
-175.001
 11
-230.39
 21
-183.251
  0
LINE
  8
0
 10
-230.39
 20
-183.251
 11
-215.11
 21
-183.251
  0
LINE
  8
0
 10
-215.11
 20
-183.251
 11
-215.11
 21
-175.001
  0
LINE
  8
0
 10
-215.11
 20
-175.001
 11
-213.89
 21
-175.001
  0
LINE
  8
0
 10
-213.89
 20
-175.001
 11
-213.89
 21
-183.251
  0
LINE
  8
0
 10
-213.89
 20
-183.251
 11
-198.61
 21
-183.251
  0
LINE
  8
0
 10
-198.61
 20
-183.251
 11
-198.61
 21
-175.001
  0
LINE
  8
0
 10
-198.61
 20
-175.001
 11
-197.39
 21
-175.001
  0
LINE
  8
0
 10
-197.39
 20
-175.001
 11
-197.39
 21
-183.251
  0
LINE
  8
0
 10
-197.39
 20
-183.251
 11
-182.11
 21
-183.251
  0
LINE
  8
0
 10
-182.11
 20
-183.251
 11
-182.11
 21
-175.001
  0
LINE
  8
0
 10
-182.11
 20
-175.001
 11
-180.89
 21
-175.001
  0
LINE
  8
0
 10
-180.89
 20
-175.001
 11
-180.89
 21
-183.251
  0
LINE
  8
0
 10
-180.89
 20
-183.251
 11
-165.61
 21
-183.251
  0
LINE
  8
0
 10
-165.61
 20
-183.251
 11
-165.61
 21
-175.001
  0
LINE
  8
0
 10
-165.61
 20
-175.001
 11
-164.39
 21
-175.001
  0
LINE
  8
0
 10
-164.39
 20
-175.001
 11
-164.39
 21
-183.251
  0
LINE
  8
0
 10
-164.39
 20
-183.251
 11
-149.11
 21
-183.251
  0
LINE
  8
0
 10
-149.11
 20
-183.251
 11
-149.11
 21
-175.001
  0
LINE
  8
0
 10
-149.11
 20
-175.001
 11
-147.89
 21
-175.001
  0
LINE
  8
0
 10
-147.89
 20
-175.001
 11
-147.89
 21
-183.251
  0
LINE
  8
0
 10
-147.89
 20
-183.251
 11
-132.61
 21
-183.251
  0
LINE
  8
0
 10
-132.61
 20
-183.251
 11
-132.61
 21
-175.001
  0
LINE
  8
0
 10
-132.61
 20
-175.001
 11
-131.39
 21
-175.001
  0
LINE
  8
0
 10
-131.39
 20
-175.001
 11
-131.39
 21
-183.251
  0
LINE
  8
0
 10
-131.39
 20
-183.251
 11
-116.11
 21
-183.251
  0
LINE
  8
0
 10
-116.11
 20
-183.251
 11
-116.11
 21
-175.001
  0
LINE
  8
0
 10
-116.11
 20
-175.001
 11
-114.89
 21
-175.001
  0
LINE
  8
0
 10
-114.89
 20
-175.001
 11
-114.89
 21
-183.251
  0
LINE
  8
0
 10
-114.89
 20
-183.251
 11
-99.61
 21
-183.251
  0
LINE
  8
0
 10
-99.61
 20
-183.251
 11
-99.61
 21
-175.001
  0
LINE
  8
0
 10
-99.61
 20
-175.001
 11
-98.39
 21
-175.001
  0
LINE
  8
0
 10
-98.39
 20
-175.001
 11
-98.39
 21
-183.251
  0
LINE
  8
0
 10
-98.39
 20
-183.251
 11
-83.11
 21
-183.251
  0
LINE
  8
0
 10
-83.11
 20
-183.251
 11
-83.11
 21
-175.001
  0
LINE
  8
0
 10
-83.11
 20
-175.001
 11
-81.89
 21
-175.001
  0
LINE
  8
0
 10
-81.89
 20
-175.001
 11
-81.89
 21
-183.251
  0
LINE
  8
0
 10
-81.89
 20
-183.251
 11
-66.61
 21
-183.251
  0
LINE
  8
0
 10
-66.61
 20
-183.251
 11
-66.61
 21
-175.001
  0
LINE
  8
0
 10
-66.61
 20
-175.001
 11
-65.39
 21
-175.001
  0
LINE
  8
0
 10
-65.39
 20
-175.001
 11
-65.39
 21
-183.251
  0
LINE
  8
0
 10
-65.39
 20
-183.251
 11
-50.11
 21
-183.251
  0
LINE
  8
0
 10
-50.11
 20
-183.251
 11
-50.11
 21
-175.001
  0
LINE
  8
0
 10
-50.11
 20
-175.001
 11
-48.89
 21
-175.001
  0
LINE
  8
0
 10
-48.89
 20
-175.001
 11
-48.89
 21
-183.251
  0
LINE
  8
0
 10
-48.89
 20
-183.251
 11
-33.61
 21
-183.251
  0
LINE
  8
0
 10
-33.61
 20
-183.251
 11
-33.61
 21
-175.001
  0
LINE
  8
0
 10
-33.61
 20
-175.001
 11
-32.39
 21
-175.001
  0
LINE
  8
0
 10
-32.39
 20
-175.001
 11
-32.39
 21
-183.251
  0
LINE
  8
0
 10
-32.39
 20
-183.251
 11
-17.11
 21
-183.251
  0
LINE
  8
0
 10
-17.11
 20
-183.251
 11
-17.11
 21
-175.001
  0
LINE
  8
0
 10
-17.11
 20
-175.001
 11
-15.89
 21
-175.001
  0
LINE
  8
0
 10
-15.89
 20
-175.001
 11
-15.89
 21
-183.251
  0
LINE
  8
0
 10
-15.89
 20
-183.251
 11
-0.610001
 21
-183.251
  0
LINE
  8
0
 10
-0.610001
 20
-183.251
 11
-0.610001
 21
-175.001
  0
LINE
  8
0
 10
-0.610001
 20
-175.001
 11
0.609985
 21
-175.001
  0
LINE
  8
0
 10
0.609985
 20
-175.001
 11
0.609985
 21
-183.251
  0
LINE
  8
0
 10
0.609985
 20
-183.251
 11
15.89
 21
-183.251
  0
LINE
  8
0
 10
15.89
 20
-183.251
 11
15.89
 21
-175.001
  0
LINE
  8
0
 10
15.89
 20
-175.001
 11
17.11
 21
-175.001
  0
LINE
  8
0
 10
17.11
 20
-175.001
 11
17.11
 21
-183.251
  0
LINE
  8
0
 10
17.11
 20
-183.251
 11
32.39
 21
-183.251
  0
LINE
  8
0
 10
32.39
 20
-183.251
 11
32.39
 21
-175.001
  0
LINE
  8
0
 10
32.39
 20
-175.001
 11
33.61
 21
-175.001
  0
LINE
  8
0
 10
33.61
 20
-175.001
 11
33.61
 21
-183.251
  0
LINE
  8
0
 10
33.61
 20
-183.251
 11
48.89
 21
-183.251
  0
LINE
  8
0
 10
48.89
 20
-183.251
 11
48.89
 21
-175.001
  0
LINE
  8
0
 10
48.89
 20
-175.001
 11
50.11
 21
-175.001
  0
LINE
  8
0
 10
50.11
 20
-175.001
 11
50.11
 21
-183.251
  0
LINE
  8
0
 10
50.11
 20
-183.251
 11
65.39
 21
-183.251
  0
LINE
  8
0
 10
65.39
 20
-183.251
 11
65.39
 21
-175.001
  0
LINE
  8
0
 10
65.39
 20
-175.001
 11
66.61
 21
-175.001
  0
LINE
  8
0
 10
66.61
 20
-175.001
 11
66.61
 21
-183.251
  0
LINE
  8
0
 10
66.61
 20
-183.251
 11
81.89
 21
-183.251
  0
LINE
  8
0
 10
81.89
 20
-183.251
 11
81.89
 21
-175.001
  0
LINE
  8
0
 10
81.89
 20
-175.001
 11
83.11
 21
-175.001
  0
LINE
  8
0
 10
83.11
 20
-175.001
 11
83.11
 21
-183.251
  0
LINE
  8
0
 10
83.11
 20
-183.251
 11
98.39
 21
-183.251
  0
LINE
  8
0
 10
98.39
 20
-183.251
 11
98.39
 21
-175.001
  0
LINE
  8
0
 10
98.39
 20
-175.001
 11
99.61
 21
-175.001
  0
LINE
  8
0
 10
99.61
 20
-175.001
 11
99.61
 21
-183.251
  0
LINE
  8
0
 10
99.61
 20
-183.251
 11
114.89
 21
-183.251
  0
LINE
  8
0
 10
114.89
 20
-183.251
 11
114.89
 21
-175.001
  0
LINE
  8
0
 10
114.89
 20
-175.001
 11
116.11
 21
-175.001
  0
LINE
  8
0
 10
116.11
 20
-175.001
 11
116.11
 21
-183.251
  0
LINE
  8
0
 10
116.11
 20
-183.251
 11
131.39
 21
-183.251
  0
LINE
  8
0
 10
131.39
 20
-183.251
 11
131.39
 21
-175.001
  0
LINE
  8
0
 10
131.39
 20
-175.001
 11
132.61
 21
-175.001
  0
LINE
  8
0
 10
132.61
 20
-175.001
 11
132.61
 21
-183.251
  0
LINE
  8
0
 10
132.61
 20
-183.251
 11
147.89
 21
-183.251
  0
LINE
  8
0
 10
147.89
 20
-183.251
 11
147.89
 21
-175.001
  0
LINE
  8
0
 10
147.89
 20
-175.001
 11
149.11
 21
-175.001
  0
LINE
  8
0
 10
149.11
 20
-175.001
 11
149.11
 21
-183.251
  0
LINE
  8
0
 10
149.11
 20
-183.251
 11
164.39
 21
-183.251
  0
LINE
  8
0
 10
164.39
 20
-183.251
 11
164.39
 21
-175.001
  0
LINE
  8
0
 10
164.39
 20
-175.001
 11
165.61
 21
-175.001
  0
LINE
  8
0
 10
165.61
 20
-175.001
 11
165.61
 21
-183.251
  0
LINE
  8
0
 10
165.61
 20
-183.251
 11
180.89
 21
-183.251
  0
LINE
  8
0
 10
180.89
 20
-183.251
 11
180.89
 21
-175.001
  0
LINE
  8
0
 10
180.89
 20
-175.001
 11
182.11
 21
-175.001
  0
LINE
  8
0
 10
182.11
 20
-175.001
 11
182.11
 21
-183.251
  0
LINE
  8
0
 10
182.11
 20
-183.251
 11
197.39
 21
-183.251
  0
LINE
  8
0
 10
197.39
 20
-183.251
 11
197.39
 21
-175.001
  0
LINE
  8
0
 10
197.39
 20
-175.001
 11
198.61
 21
-175.001
  0
LINE
  8
0
 10
198.61
 20
-175.001
 11
198.61
 21
-183.251
  0
LINE
  8
0
 10
198.61
 20
-183.251
 11
213.89
 21
-183.251
  0
LINE
  8
0
 10
213.89
 20
-183.251
 11
213.89
 21
-175.001
  0
LINE
  8
0
 10
213.89
 20
-175.001
 11
215.11
 21
-175.001
  0
LINE
  8
0
 10
215.11
 20
-175.001
 11
215.11
 21
-183.251
  0
LINE
  8
0
 10
215.11
 20
-183.251
 11
230.39
 21
-183.251
  0
LINE
  8
0
 10
230.39
 20
-183.251
 11
230.39
 21
-175.001
  0
LINE
  8
0
 10
230.39
 20
-175.001
 11
231.61
 21
-175.001
  0
LINE
  8
0
 10
231.61
 20
-175.001
 11
231.61
 21
-183.251
  0
LINE
  8
0
 10
231.61
 20
-183.251
 11
246.89
 21
-183.251
  0
LINE
  8
0
 10
246.89
 20
-183.251
 11
246.89
 21
-175.001
  0
LINE
  8
0
 10
246.89
 20
-175.001
 11
248.11
 21
-175.001
  0
LINE
  8
0
 10
248.11
 20
-175.001
 11
248.11
 21
-183.251
  0
LINE
  8
0
 10
248.11
 20
-183.251
 11
255.75
 21
-183.251
  0
LINE
  8
0
 10
255.75
 20
-183.251
 11
255.75
 21
-166.751
  0
LINE
  8
0
 10
255.75
 20
-166.751
 11
-255.75
 21
-166.751
  0
LINE
  8
0
 10
-247.503
 20
181
 11
-247.503
 21
173.36
  0
LINE
  8
0
 10
-247.503
 20
173.36
 11
-239.253
 21
173.36
  0
LINE
  8
0
 10
-239.253
 20
173.36
 11
-239.253
 21
172.14
  0
LINE
  8
0
 10
-239.253
 20
172.14
 11
-247.503
 21
172.14
  0
LINE
  8
0
 10
-247.503
 20
172.14
 11
-247.503
 21
156.86
  0
LINE
  8
0
 10
-247.503
 20
156.86
 11
-239.253
 21
156.86
  0
LINE
  8
0
 10
-239.253
 20
156.86
 11
-239.253
 21
155.64
  0
LINE
  8
0
 10
-239.253
 20
155.64
 11
-247.503
 21
155.64
  0
LINE
  8
0
 10
-247.503
 20
155.64
 11
-247.503
 21
140.36
  0
LINE
  8
0
 10
-247.503
 20
140.36
 11
-239.253
 21
140.36
  0
LINE
  8
0
 10
-239.253
 20
140.36
 11
-239.253
 21
139.14
  0
LINE
  8
0
 10
-239.253
 20
139.14
 11
-247.503
 21
139.14
  0
LINE
  8
0
 10
-247.503
 20
139.14
 11
-247.503
 21
123.86
  0
LINE
  8
0
 10
-247.503
 20
123.86
 11
-239.253
 21
123.86
  0
LINE
  8
0
 10
-239.253
 20
123.86
 11
-239.253
 21
122.64
  0
LINE
  8
0
 10
-239.253
 20
122.64
 11
-247.503
 21
122.64
  0
LINE
  8
0
 10
-247.503
 20
122.64
 11
-247.503
 21
107.36
  0
LINE
  8
0
 10
-247.503
 20
107.36
 11
-239.253
 21
107.36
  0
LINE
  8
0
 10
-239.253
 20
107.36
 11
-239.253
 21
106.14
  0
LINE
  8
0
 10
-239.253
 20
106.14
 11
-247.503
 21
106.14
  0
LINE
  8
0
 10
-247.503
 20
106.14
 11
-247.503
 21
90.86
  0
LINE
  8
0
 10
-247.503
 20
90.86
 11
-239.253
 21
90.86
  0
LINE
  8
0
 10
-239.253
 20
90.86
 11
-239.253
 21
89.64
  0
LINE
  8
0
 10
-239.253
 20
89.64
 11
-247.503
 21
89.64
  0
LINE
  8
0
 10
-247.503
 20
89.64
 11
-247.503
 21
74.36
  0
LINE
  8
0
 10
-247.503
 20
74.36
 11
-239.253
 21
74.36
  0
LINE
  8
0
 10
-239.253
 20
74.36
 11
-239.253
 21
73.14
  0
LINE
  8
0
 10
-239.253
 20
73.14
 11
-247.503
 21
73.14
  0
LINE
  8
0
 10
-247.503
 20
73.14
 11
-247.503
 21
57.86
  0
LINE
  8
0
 10
-247.503
 20
57.86
 11
-239.253
 21
57.86
  0
LINE
  8
0
 10
-239.253
 20
57.86
 11
-239.253
 21
56.64
  0
LINE
  8
0
 10
-239.253
 20
56.64
 11
-247.503
 21
56.64
  0
LINE
  8
0
 10
-247.503
 20
56.64
 11
-247.503
 21
41.36
  0
LINE
  8
0
 10
-247.503
 20
41.36
 11
-239.253
 21
41.36
  0
LINE
  8
0
 10
-239.253
 20
41.36
 11
-239.253
 21
40.14
  0
LINE
  8
0
 10
-239.253
 20
40.14
 11
-247.503
 21
40.14
  0
LINE
  8
0
 10
-247.503
 20
40.14
 11
-247.503
 21
24.86
  0
LINE
  8
0
 10
-247.503
 20
24.86
 11
-239.253
 21
24.86
  0
LINE
  8
0
 10
-239.253
 20
24.86
 11
-239.253
 21
23.64
  0
LINE
  8
0
 10
-239.253
 20
23.64
 11
-247.503
 21
23.64
  0
LINE
  8
0
 10
-247.503
 20
23.64
 11
-247.503
 21
8.36
  0
LINE
  8
0
 10
-247.503
 20
8.36
 11
-239.253
 21
8.36
  0
LINE
  8
0
 10
-239.253
 20
8.36
 11
-239.253
 21
7.14001
  0
LINE
  8
0
 10
-239.253
 20
7.14001
 11
-247.503
 21
7.14001
  0
LINE
  8
0
 10
-247.503
 20
7.14001
 11
-247.503
 21
5.49567e-14
  0
LINE
  8
0
 10
-247.503
 20
5.49567e-14
 11
-231.003
 21
5.1293e-14
  0
LINE
  8
0
 10
-231.003
 20
5.1293e-14
 11
-231.003
 21
181
  0
LINE
  8
0
 10
-231.003
 20
181
 11
-247.503
 21
181
  0
LINE
  8
0
 10
-231.003
 20
181
 11
-231.003
 21
173.36
  0
LINE
  8
0
 10
-231.003
 20
173.36
 11
-222.753
 21
173.36
  0
LINE
  8
0
 10
-222.753
 20
173.36
 11
-222.753
 21
172.14
  0
LINE
  8
0
 10
-222.753
 20
172.14
 11
-231.003
 21
172.14
  0
LINE
  8
0
 10
-231.003
 20
172.14
 11
-231.003
 21
156.86
  0
LINE
  8
0
 10
-231.003
 20
156.86
 11
-222.753
 21
156.86
  0
LINE
  8
0
 10
-222.753
 20
156.86
 11
-222.753
 21
155.64
  0
LINE
  8
0
 10
-222.753
 20
155.64
 11
-231.003
 21
155.64
  0
LINE
  8
0
 10
-231.003
 20
155.64
 11
-231.003
 21
140.36
  0
LINE
  8
0
 10
-231.003
 20
140.36
 11
-222.753
 21
140.36
  0
LINE
  8
0
 10
-222.753
 20
140.36
 11
-222.753
 21
139.14
  0
LINE
  8
0
 10
-222.753
 20
139.14
 11
-231.003
 21
139.14
  0
LINE
  8
0
 10
-231.003
 20
139.14
 11
-231.003
 21
123.86
  0
LINE
  8
0
 10
-231.003
 20
123.86
 11
-222.753
 21
123.86
  0
LINE
  8
0
 10
-222.753
 20
123.86
 11
-222.753
 21
122.64
  0
LINE
  8
0
 10
-222.753
 20
122.64
 11
-231.003
 21
122.64
  0
LINE
  8
0
 10
-231.003
 20
122.64
 11
-231.003
 21
107.36
  0
LINE
  8
0
 10
-231.003
 20
107.36
 11
-222.753
 21
107.36
  0
LINE
  8
0
 10
-222.753
 20
107.36
 11
-222.753
 21
106.14
  0
LINE
  8
0
 10
-222.753
 20
106.14
 11
-231.003
 21
106.14
  0
LINE
  8
0
 10
-231.003
 20
106.14
 11
-231.003
 21
90.86
  0
LINE
  8
0
 10
-231.003
 20
90.86
 11
-222.753
 21
90.86
  0
LINE
  8
0
 10
-222.753
 20
90.86
 11
-222.753
 21
89.64
  0
LINE
  8
0
 10
-222.753
 20
89.64
 11
-231.003
 21
89.64
  0
LINE
  8
0
 10
-231.003
 20
89.64
 11
-231.003
 21
74.36
  0
LINE
  8
0
 10
-231.003
 20
74.36
 11
-222.753
 21
74.36
  0
LINE
  8
0
 10
-222.753
 20
74.36
 11
-222.753
 21
73.14
  0
LINE
  8
0
 10
-222.753
 20
73.14
 11
-231.003
 21
73.14
  0
LINE
  8
0
 10
-231.003
 20
73.14
 11
-231.003
 21
57.86
  0
LINE
  8
0
 10
-231.003
 20
57.86
 11
-222.753
 21
57.86
  0
LINE
  8
0
 10
-222.753
 20
57.86
 11
-222.753
 21
56.64
  0
LINE
  8
0
 10
-222.753
 20
56.64
 11
-231.003
 21
56.64
  0
LINE
  8
0
 10
-231.003
 20
56.64
 11
-231.003
 21
41.36
  0
LINE
  8
0
 10
-231.003
 20
41.36
 11
-222.753
 21
41.36
  0
LINE
  8
0
 10
-222.753
 20
41.36
 11
-222.753
 21
40.14
  0
LINE
  8
0
 10
-222.753
 20
40.14
 11
-231.003
 21
40.14
  0
LINE
  8
0
 10
-231.003
 20
40.14
 11
-231.003
 21
24.86
  0
LINE
  8
0
 10
-231.003
 20
24.86
 11
-222.753
 21
24.86
  0
LINE
  8
0
 10
-222.753
 20
24.86
 11
-222.753
 21
23.64
  0
LINE
  8
0
 10
-222.753
 20
23.64
 11
-231.003
 21
23.64
  0
LINE
  8
0
 10
-231.003
 20
23.64
 11
-231.003
 21
8.36
  0
LINE
  8
0
 10
-231.003
 20
8.36
 11
-222.753
 21
8.36
  0
LINE
  8
0
 10
-222.753
 20
8.36
 11
-222.753
 21
7.14001
  0
LINE
  8
0
 10
-222.753
 20
7.14001
 11
-231.003
 21
7.14001
  0
LINE
  8
0
 10
-231.003
 20
7.14001
 11
-231.003
 21
5.12929e-14
  0
LINE
  8
0
 10
-231.003
 20
5.12929e-14
 11
-214.503
 21
4.76292e-14
  0
LINE
  8
0
 10
-214.503
 20
4.76292e-14
 11
-214.503
 21
181
  0
LINE
  8
0
 10
-214.503
 20
181
 11
-231.003
 21
181
  0
LINE
  8
0
 10
-214.503
 20
181
 11
-214.503
 21
173.36
  0
LINE
  8
0
 10
-214.503
 20
173.36
 11
-206.253
 21
173.36
  0
LINE
  8
0
 10
-206.253
 20
173.36
 11
-206.253
 21
172.14
  0
LINE
  8
0
 10
-206.253
 20
172.14
 11
-214.503
 21
172.14
  0
LINE
  8
0
 10
-214.503
 20
172.14
 11
-214.503
 21
156.86
  0
LINE
  8
0
 10
-214.503
 20
156.86
 11
-206.253
 21
156.86
  0
LINE
  8
0
 10
-206.253
 20
156.86
 11
-206.253
 21
155.64
  0
LINE
  8
0
 10
-206.253
 20
155.64
 11
-214.503
 21
155.64
  0
LINE
  8
0
 10
-214.503
 20
155.64
 11
-214.503
 21
140.36
  0
LINE
  8
0
 10
-214.503
 20
140.36
 11
-206.253
 21
140.36
  0
LINE
  8
0
 10
-206.253
 20
140.36
 11
-206.253
 21
139.14
  0
LINE
  8
0
 10
-206.253
 20
139.14
 11
-214.503
 21
139.14
  0
LINE
  8
0
 10
-214.503
 20
139.14
 11
-214.503
 21
123.86
  0
LINE
  8
0
 10
-214.503
 20
123.86
 11
-206.253
 21
123.86
  0
LINE
  8
0
 10
-206.253
 20
123.86
 11
-206.253
 21
122.64
  0
LINE
  8
0
 10
-206.253
 20
122.64
 11
-214.503
 21
122.64
  0
LINE
  8
0
 10
-214.503
 20
122.64
 11
-214.503
 21
107.36
  0
LINE
  8
0
 10
-214.503
 20
107.36
 11
-206.253
 21
107.36
  0
LINE
  8
0
 10
-206.253
 20
107.36
 11
-206.253
 21
106.14
  0
LINE
  8
0
 10
-206.253
 20
106.14
 11
-214.503
 21
106.14
  0
LINE
  8
0
 10
-214.503
 20
106.14
 11
-214.503
 21
90.86
  0
LINE
  8
0
 10
-214.503
 20
90.86
 11
-206.253
 21
90.86
  0
LINE
  8
0
 10
-206.253
 20
90.86
 11
-206.253
 21
89.64
  0
LINE
  8
0
 10
-206.253
 20
89.64
 11
-214.503
 21
89.64
  0
LINE
  8
0
 10
-214.503
 20
89.64
 11
-214.503
 21
74.36
  0
LINE
  8
0
 10
-214.503
 20
74.36
 11
-206.253
 21
74.36
  0
LINE
  8
0
 10
-206.253
 20
74.36
 11
-206.253
 21
73.14
  0
LINE
  8
0
 10
-206.253
 20
73.14
 11
-214.503
 21
73.14
  0
LINE
  8
0
 10
-214.503
 20
73.14
 11
-214.503
 21
57.86
  0
LINE
  8
0
 10
-214.503
 20
57.86
 11
-206.253
 21
57.86
  0
LINE
  8
0
 10
-206.253
 20
57.86
 11
-206.253
 21
56.64
  0
LINE
  8
0
 10
-206.253
 20
56.64
 11
-214.503
 21
56.64
  0
LINE
  8
0
 10
-214.503
 20
56.64
 11
-214.503
 21
41.36
  0
LINE
  8
0
 10
-214.503
 20
41.36
 11
-206.253
 21
41.36
  0
LINE
  8
0
 10
-206.253
 20
41.36
 11
-206.253
 21
40.14
  0
LINE
  8
0
 10
-206.253
 20
40.14
 11
-214.503
 21
40.14
  0
LINE
  8
0
 10
-214.503
 20
40.14
 11
-214.503
 21
24.86
  0
LINE
  8
0
 10
-214.503
 20
24.86
 11
-206.253
 21
24.86
  0
LINE
  8
0
 10
-206.253
 20
24.86
 11
-206.253
 21
23.64
  0
LINE
  8
0
 10
-206.253
 20
23.64
 11
-214.503
 21
23.64
  0
LINE
  8
0
 10
-214.503
 20
23.64
 11
-214.503
 21
8.36
  0
LINE
  8
0
 10
-214.503
 20
8.36
 11
-206.253
 21
8.36
  0
LINE
  8
0
 10
-206.253
 20
8.36
 11
-206.253
 21
7.14001
  0
LINE
  8
0
 10
-206.253
 20
7.14001
 11
-214.503
 21
7.14001
  0
LINE
  8
0
 10
-214.503
 20
7.14001
 11
-214.503
 21
4.76292e-14
  0
LINE
  8
0
 10
-214.503
 20
4.76292e-14
 11
-198.003
 21
4.39655e-14
  0
LINE
  8
0
 10
-198.003
 20
4.39655e-14
 11
-198.003
 21
181
  0
LINE
  8
0
 10
-198.003
 20
181
 11
-214.503
 21
181
  0
LINE
  8
0
 10
-198.003
 20
181
 11
-198.003
 21
173.36
  0
LINE
  8
0
 10
-198.003
 20
173.36
 11
-189.753
 21
173.36
  0
LINE
  8
0
 10
-189.753
 20
173.36
 11
-189.753
 21
172.14
  0
LINE
  8
0
 10
-189.753
 20
172.14
 11
-198.003
 21
172.14
  0
LINE
  8
0
 10
-198.003
 20
172.14
 11
-198.003
 21
156.86
  0
LINE
  8
0
 10
-198.003
 20
156.86
 11
-189.753
 21
156.86
  0
LINE
  8
0
 10
-189.753
 20
156.86
 11
-189.753
 21
155.64
  0
LINE
  8
0
 10
-189.753
 20
155.64
 11
-198.003
 21
155.64
  0
LINE
  8
0
 10
-198.003
 20
155.64
 11
-198.003
 21
140.36
  0
LINE
  8
0
 10
-198.003
 20
140.36
 11
-189.753
 21
140.36
  0
LINE
  8
0
 10
-189.753
 20
140.36
 11
-189.753
 21
139.14
  0
LINE
  8
0
 10
-189.753
 20
139.14
 11
-198.003
 21
139.14
  0
LINE
  8
0
 10
-198.003
 20
139.14
 11
-198.003
 21
123.86
  0
LINE
  8
0
 10
-198.003
 20
123.86
 11
-189.753
 21
123.86
  0
LINE
  8
0
 10
-189.753
 20
123.86
 11
-189.753
 21
122.64
  0
LINE
  8
0
 10
-189.753
 20
122.64
 11
-198.003
 21
122.64
  0
LINE
  8
0
 10
-198.003
 20
122.64
 11
-198.003
 21
107.36
  0
LINE
  8
0
 10
-198.003
 20
107.36
 11
-189.753
 21
107.36
  0
LINE
  8
0
 10
-189.753
 20
107.36
 11
-189.753
 21
106.14
  0
LINE
  8
0
 10
-189.753
 20
106.14
 11
-198.003
 21
106.14
  0
LINE
  8
0
 10
-198.003
 20
106.14
 11
-198.003
 21
90.86
  0
LINE
  8
0
 10
-198.003
 20
90.86
 11
-189.753
 21
90.86
  0
LINE
  8
0
 10
-189.753
 20
90.86
 11
-189.753
 21
89.64
  0
LINE
  8
0
 10
-189.753
 20
89.64
 11
-198.003
 21
89.64
  0
LINE
  8
0
 10
-198.003
 20
89.64
 11
-198.003
 21
74.36
  0
LINE
  8
0
 10
-198.003
 20
74.36
 11
-189.753
 21
74.36
  0
LINE
  8
0
 10
-189.753
 20
74.36
 11
-189.753
 21
73.14
  0
LINE
  8
0
 10
-189.753
 20
73.14
 11
-198.003
 21
73.14
  0
LINE
  8
0
 10
-198.003
 20
73.14
 11
-198.003
 21
57.86
  0
LINE
  8
0
 10
-198.003
 20
57.86
 11
-189.753
 21
57.86
  0
LINE
  8
0
 10
-189.753
 20
57.86
 11
-189.753
 21
56.64
  0
LINE
  8
0
 10
-189.753
 20
56.64
 11
-198.003
 21
56.64
  0
LINE
  8
0
 10
-198.003
 20
56.64
 11
-198.003
 21
41.36
  0
LINE
  8
0
 10
-198.003
 20
41.36
 11
-189.753
 21
41.36
  0
LINE
  8
0
 10
-189.753
 20
41.36
 11
-189.753
 21
40.14
  0
LINE
  8
0
 10
-189.753
 20
40.14
 11
-198.003
 21
40.14
  0
LINE
  8
0
 10
-198.003
 20
40.14
 11
-198.003
 21
24.86
  0
LINE
  8
0
 10
-198.003
 20
24.86
 11
-189.753
 21
24.86
  0
LINE
  8
0
 10
-189.753
 20
24.86
 11
-189.753
 21
23.64
  0
LINE
  8
0
 10
-189.753
 20
23.64
 11
-198.003
 21
23.64
  0
LINE
  8
0
 10
-198.003
 20
23.64
 11
-198.003
 21
8.36
  0
LINE
  8
0
 10
-198.003
 20
8.36
 11
-189.753
 21
8.36
  0
LINE
  8
0
 10
-189.753
 20
8.36
 11
-189.753
 21
7.14001
  0
LINE
  8
0
 10
-189.753
 20
7.14001
 11
-198.003
 21
7.14001
  0
LINE
  8
0
 10
-198.003
 20
7.14001
 11
-198.003
 21
4.39654e-14
  0
LINE
  8
0
 10
-198.003
 20
4.39654e-14
 11
-181.503
 21
4.03017e-14
  0
LINE
  8
0
 10
-181.503
 20
4.03017e-14
 11
-181.503
 21
181
  0
LINE
  8
0
 10
-181.503
 20
181
 11
-198.003
 21
181
  0
LINE
  8
0
 10
-181.503
 20
181
 11
-181.503
 21
173.36
  0
LINE
  8
0
 10
-181.503
 20
173.36
 11
-173.253
 21
173.36
  0
LINE
  8
0
 10
-173.253
 20
173.36
 11
-173.253
 21
172.14
  0
LINE
  8
0
 10
-173.253
 20
172.14
 11
-181.503
 21
172.14
  0
LINE
  8
0
 10
-181.503
 20
172.14
 11
-181.503
 21
156.86
  0
LINE
  8
0
 10
-181.503
 20
156.86
 11
-173.253
 21
156.86
  0
LINE
  8
0
 10
-173.253
 20
156.86
 11
-173.253
 21
155.64
  0
LINE
  8
0
 10
-173.253
 20
155.64
 11
-181.503
 21
155.64
  0
LINE
  8
0
 10
-181.503
 20
155.64
 11
-181.503
 21
140.36
  0
LINE
  8
0
 10
-181.503
 20
140.36
 11
-173.253
 21
140.36
  0
LINE
  8
0
 10
-173.253
 20
140.36
 11
-173.253
 21
139.14
  0
LINE
  8
0
 10
-173.253
 20
139.14
 11
-181.503
 21
139.14
  0
LINE
  8
0
 10
-181.503
 20
139.14
 11
-181.503
 21
123.86
  0
LINE
  8
0
 10
-181.503
 20
123.86
 11
-173.253
 21
123.86
  0
LINE
  8
0
 10
-173.253
 20
123.86
 11
-173.253
 21
122.64
  0
LINE
  8
0
 10
-173.253
 20
122.64
 11
-181.503
 21
122.64
  0
LINE
  8
0
 10
-181.503
 20
122.64
 11
-181.503
 21
107.36
  0
LINE
  8
0
 10
-181.503
 20
107.36
 11
-173.253
 21
107.36
  0
LINE
  8
0
 10
-173.253
 20
107.36
 11
-173.253
 21
106.14
  0
LINE
  8
0
 10
-173.253
 20
106.14
 11
-181.503
 21
106.14
  0
LINE
  8
0
 10
-181.503
 20
106.14
 11
-181.503
 21
90.86
  0
LINE
  8
0
 10
-181.503
 20
90.86
 11
-173.253
 21
90.86
  0
LINE
  8
0
 10
-173.253
 20
90.86
 11
-173.253
 21
89.64
  0
LINE
  8
0
 10
-173.253
 20
89.64
 11
-181.503
 21
89.64
  0
LINE
  8
0
 10
-181.503
 20
89.64
 11
-181.503
 21
74.36
  0
LINE
  8
0
 10
-181.503
 20
74.36
 11
-173.253
 21
74.36
  0
LINE
  8
0
 10
-173.253
 20
74.36
 11
-173.253
 21
73.14
  0
LINE
  8
0
 10
-173.253
 20
73.14
 11
-181.503
 21
73.14
  0
LINE
  8
0
 10
-181.503
 20
73.14
 11
-181.503
 21
57.86
  0
LINE
  8
0
 10
-181.503
 20
57.86
 11
-173.253
 21
57.86
  0
LINE
  8
0
 10
-173.253
 20
57.86
 11
-173.253
 21
56.64
  0
LINE
  8
0
 10
-173.253
 20
56.64
 11
-181.503
 21
56.64
  0
LINE
  8
0
 10
-181.503
 20
56.64
 11
-181.503
 21
41.36
  0
LINE
  8
0
 10
-181.503
 20
41.36
 11
-173.253
 21
41.36
  0
LINE
  8
0
 10
-173.253
 20
41.36
 11
-173.253
 21
40.14
  0
LINE
  8
0
 10
-173.253
 20
40.14
 11
-181.503
 21
40.14
  0
LINE
  8
0
 10
-181.503
 20
40.14
 11
-181.503
 21
24.86
  0
LINE
  8
0
 10
-181.503
 20
24.86
 11
-173.253
 21
24.86
  0
LINE
  8
0
 10
-173.253
 20
24.86
 11
-173.253
 21
23.64
  0
LINE
  8
0
 10
-173.253
 20
23.64
 11
-181.503
 21
23.64
  0
LINE
  8
0
 10
-181.503
 20
23.64
 11
-181.503
 21
8.36
  0
LINE
  8
0
 10
-181.503
 20
8.36
 11
-173.253
 21
8.36
  0
LINE
  8
0
 10
-173.253
 20
8.36
 11
-173.253
 21
7.14001
  0
LINE
  8
0
 10
-173.253
 20
7.14001
 11
-181.503
 21
7.14001
  0
LINE
  8
0
 10
-181.503
 20
7.14001
 11
-181.503
 21
4.03017e-14
  0
LINE
  8
0
 10
-181.503
 20
4.03017e-14
 11
-165.003
 21
3.66379e-14
  0
LINE
  8
0
 10
-165.003
 20
3.66379e-14
 11
-165.003
 21
181
  0
LINE
  8
0
 10
-165.003
 20
181
 11
-181.503
 21
181
  0
LINE
  8
0
 10
-165.002
 20
181
 11
-165.002
 21
173.36
  0
LINE
  8
0
 10
-165.002
 20
173.36
 11
-156.752
 21
173.36
  0
LINE
  8
0
 10
-156.752
 20
173.36
 11
-156.752
 21
172.14
  0
LINE
  8
0
 10
-156.752
 20
172.14
 11
-165.002
 21
172.14
  0
LINE
  8
0
 10
-165.002
 20
172.14
 11
-165.002
 21
156.86
  0
LINE
  8
0
 10
-165.002
 20
156.86
 11
-156.752
 21
156.86
  0
LINE
  8
0
 10
-156.752
 20
156.86
 11
-156.752
 21
155.64
  0
LINE
  8
0
 10
-156.752
 20
155.64
 11
-165.002
 21
155.64
  0
LINE
  8
0
 10
-165.002
 20
155.64
 11
-165.002
 21
140.36
  0
LINE
  8
0
 10
-165.002
 20
140.36
 11
-156.752
 21
140.36
  0
LINE
  8
0
 10
-156.752
 20
140.36
 11
-156.752
 21
139.14
  0
LINE
  8
0
 10
-156.752
 20
139.14
 11
-165.002
 21
139.14
  0
LINE
  8
0
 10
-165.002
 20
139.14
 11
-165.002
 21
123.86
  0
LINE
  8
0
 10
-165.002
 20
123.86
 11
-156.752
 21
123.86
  0
LINE
  8
0
 10
-156.752
 20
123.86
 11
-156.752
 21
122.64
  0
LINE
  8
0
 10
-156.752
 20
122.64
 11
-165.002
 21
122.64
  0
LINE
  8
0
 10
-165.002
 20
122.64
 11
-165.002
 21
107.36
  0
LINE
  8
0
 10
-165.002
 20
107.36
 11
-156.752
 21
107.36
  0
LINE
  8
0
 10
-156.752
 20
107.36
 11
-156.752
 21
106.14
  0
LINE
  8
0
 10
-156.752
 20
106.14
 11
-165.002
 21
106.14
  0
LINE
  8
0
 10
-165.002
 20
106.14
 11
-165.002
 21
90.86
  0
LINE
  8
0
 10
-165.002
 20
90.86
 11
-156.752
 21
90.86
  0
LINE
  8
0
 10
-156.752
 20
90.86
 11
-156.752
 21
89.64
  0
LINE
  8
0
 10
-156.752
 20
89.64
 11
-165.002
 21
89.64
  0
LINE
  8
0
 10
-165.002
 20
89.64
 11
-165.002
 21
74.36
  0
LINE
  8
0
 10
-165.002
 20
74.36
 11
-156.752
 21
74.36
  0
LINE
  8
0
 10
-156.752
 20
74.36
 11
-156.752
 21
73.14
  0
LINE
  8
0
 10
-156.752
 20
73.14
 11
-165.002
 21
73.14
  0
LINE
  8
0
 10
-165.002
 20
73.14
 11
-165.002
 21
57.86
  0
LINE
  8
0
 10
-165.002
 20
57.86
 11
-156.752
 21
57.86
  0
LINE
  8
0
 10
-156.752
 20
57.86
 11
-156.752
 21
56.64
  0
LINE
  8
0
 10
-156.752
 20
56.64
 11
-165.002
 21
56.64
  0
LINE
  8
0
 10
-165.002
 20
56.64
 11
-165.002
 21
41.36
  0
LINE
  8
0
 10
-165.002
 20
41.36
 11
-156.752
 21
41.36
  0
LINE
  8
0
 10
-156.752
 20
41.36
 11
-156.752
 21
40.14
  0
LINE
  8
0
 10
-156.752
 20
40.14
 11
-165.002
 21
40.14
  0
LINE
  8
0
 10
-165.002
 20
40.14
 11
-165.002
 21
24.86
  0
LINE
  8
0
 10
-165.002
 20
24.86
 11
-156.752
 21
24.86
  0
LINE
  8
0
 10
-156.752
 20
24.86
 11
-156.752
 21
23.64
  0
LINE
  8
0
 10
-156.752
 20
23.64
 11
-165.002
 21
23.64
  0
LINE
  8
0
 10
-165.002
 20
23.64
 11
-165.002
 21
8.36
  0
LINE
  8
0
 10
-165.002
 20
8.36
 11
-156.752
 21
8.36
  0
LINE
  8
0
 10
-156.752
 20
8.36
 11
-156.752
 21
7.14001
  0
LINE
  8
0
 10
-156.752
 20
7.14001
 11
-165.002
 21
7.14001
  0
LINE
  8
0
 10
-165.002
 20
7.14001
 11
-165.002
 21
3.66379e-14
  0
LINE
  8
0
 10
-165.002
 20
3.66379e-14
 11
-148.502
 21
3.29742e-14
  0
LINE
  8
0
 10
-148.502
 20
3.29742e-14
 11
-148.502
 21
181
  0
LINE
  8
0
 10
-148.502
 20
181
 11
-165.002
 21
181
  0
LINE
  8
0
 10
-148.502
 20
181
 11
-148.502
 21
173.36
  0
LINE
  8
0
 10
-148.502
 20
173.36
 11
-140.252
 21
173.36
  0
LINE
  8
0
 10
-140.252
 20
173.36
 11
-140.252
 21
172.14
  0
LINE
  8
0
 10
-140.252
 20
172.14
 11
-148.502
 21
172.14
  0
LINE
  8
0
 10
-148.502
 20
172.14
 11
-148.502
 21
156.86
  0
LINE
  8
0
 10
-148.502
 20
156.86
 11
-140.252
 21
156.86
  0
LINE
  8
0
 10
-140.252
 20
156.86
 11
-140.252
 21
155.64
  0
LINE
  8
0
 10
-140.252
 20
155.64
 11
-148.502
 21
155.64
  0
LINE
  8
0
 10
-148.502
 20
155.64
 11
-148.502
 21
140.36
  0
LINE
  8
0
 10
-148.502
 20
140.36
 11
-140.252
 21
140.36
  0
LINE
  8
0
 10
-140.252
 20
140.36
 11
-140.252
 21
139.14
  0
LINE
  8
0
 10
-140.252
 20
139.14
 11
-148.502
 21
139.14
  0
LINE
  8
0
 10
-148.502
 20
139.14
 11
-148.502
 21
123.86
  0
LINE
  8
0
 10
-148.502
 20
123.86
 11
-140.252
 21
123.86
  0
LINE
  8
0
 10
-140.252
 20
123.86
 11
-140.252
 21
122.64
  0
LINE
  8
0
 10
-140.252
 20
122.64
 11
-148.502
 21
122.64
  0
LINE
  8
0
 10
-148.502
 20
122.64
 11
-148.502
 21
107.36
  0
LINE
  8
0
 10
-148.502
 20
107.36
 11
-140.252
 21
107.36
  0
LINE
  8
0
 10
-140.252
 20
107.36
 11
-140.252
 21
106.14
  0
LINE
  8
0
 10
-140.252
 20
106.14
 11
-148.502
 21
106.14
  0
LINE
  8
0
 10
-148.502
 20
106.14
 11
-148.502
 21
90.86
  0
LINE
  8
0
 10
-148.502
 20
90.86
 11
-140.252
 21
90.86
  0
LINE
  8
0
 10
-140.252
 20
90.86
 11
-140.252
 21
89.64
  0
LINE
  8
0
 10
-140.252
 20
89.64
 11
-148.502
 21
89.64
  0
LINE
  8
0
 10
-148.502
 20
89.64
 11
-148.502
 21
74.36
  0
LINE
  8
0
 10
-148.502
 20
74.36
 11
-140.252
 21
74.36
  0
LINE
  8
0
 10
-140.252
 20
74.36
 11
-140.252
 21
73.14
  0
LINE
  8
0
 10
-140.252
 20
73.14
 11
-148.502
 21
73.14
  0
LINE
  8
0
 10
-148.502
 20
73.14
 11
-148.502
 21
57.86
  0
LINE
  8
0
 10
-148.502
 20
57.86
 11
-140.252
 21
57.86
  0
LINE
  8
0
 10
-140.252
 20
57.86
 11
-140.252
 21
56.64
  0
LINE
  8
0
 10
-140.252
 20
56.64
 11
-148.502
 21
56.64
  0
LINE
  8
0
 10
-148.502
 20
56.64
 11
-148.502
 21
41.36
  0
LINE
  8
0
 10
-148.502
 20
41.36
 11
-140.252
 21
41.36
  0
LINE
  8
0
 10
-140.252
 20
41.36
 11
-140.252
 21
40.14
  0
LINE
  8
0
 10
-140.252
 20
40.14
 11
-148.502
 21
40.14
  0
LINE
  8
0
 10
-148.502
 20
40.14
 11
-148.502
 21
24.86
  0
LINE
  8
0
 10
-148.502
 20
24.86
 11
-140.252
 21
24.86
  0
LINE
  8
0
 10
-140.252
 20
24.86
 11
-140.252
 21
23.64
  0
LINE
  8
0
 10
-140.252
 20
23.64
 11
-148.502
 21
23.64
  0
LINE
  8
0
 10
-148.502
 20
23.64
 11
-148.502
 21
8.36
  0
LINE
  8
0
 10
-148.502
 20
8.36
 11
-140.252
 21
8.36
  0
LINE
  8
0
 10
-140.252
 20
8.36
 11
-140.252
 21
7.14001
  0
LINE
  8
0
 10
-140.252
 20
7.14001
 11
-148.502
 21
7.14001
  0
LINE
  8
0
 10
-148.502
 20
7.14001
 11
-148.502
 21
3.29742e-14
  0
LINE
  8
0
 10
-148.502
 20
3.29742e-14
 11
-132.002
 21
2.93104e-14
  0
LINE
  8
0
 10
-132.002
 20
2.93104e-14
 11
-132.002
 21
181
  0
LINE
  8
0
 10
-132.002
 20
181
 11
-148.502
 21
181
  0
LINE
  8
0
 10
-132.002
 20
181
 11
-132.002
 21
173.36
  0
LINE
  8
0
 10
-132.002
 20
173.36
 11
-123.752
 21
173.36
  0
LINE
  8
0
 10
-123.752
 20
173.36
 11
-123.752
 21
172.14
  0
LINE
  8
0
 10
-123.752
 20
172.14
 11
-132.002
 21
172.14
  0
LINE
  8
0
 10
-132.002
 20
172.14
 11
-132.002
 21
156.86
  0
LINE
  8
0
 10
-132.002
 20
156.86
 11
-123.752
 21
156.86
  0
LINE
  8
0
 10
-123.752
 20
156.86
 11
-123.752
 21
155.64
  0
LINE
  8
0
 10
-123.752
 20
155.64
 11
-132.002
 21
155.64
  0
LINE
  8
0
 10
-132.002
 20
155.64
 11
-132.002
 21
140.36
  0
LINE
  8
0
 10
-132.002
 20
140.36
 11
-123.752
 21
140.36
  0
LINE
  8
0
 10
-123.752
 20
140.36
 11
-123.752
 21
139.14
  0
LINE
  8
0
 10
-123.752
 20
139.14
 11
-132.002
 21
139.14
  0
LINE
  8
0
 10
-132.002
 20
139.14
 11
-132.002
 21
123.86
  0
LINE
  8
0
 10
-132.002
 20
123.86
 11
-123.752
 21
123.86
  0
LINE
  8
0
 10
-123.752
 20
123.86
 11
-123.752
 21
122.64
  0
LINE
  8
0
 10
-123.752
 20
122.64
 11
-132.002
 21
122.64
  0
LINE
  8
0
 10
-132.002
 20
122.64
 11
-132.002
 21
107.36
  0
LINE
  8
0
 10
-132.002
 20
107.36
 11
-123.752
 21
107.36
  0
LINE
  8
0
 10
-123.752
 20
107.36
 11
-123.752
 21
106.14
  0
LINE
  8
0
 10
-123.752
 20
106.14
 11
-132.002
 21
106.14
  0
LINE
  8
0
 10
-132.002
 20
106.14
 11
-132.002
 21
90.86
  0
LINE
  8
0
 10
-132.002
 20
90.86
 11
-123.752
 21
90.86
  0
LINE
  8
0
 10
-123.752
 20
90.86
 11
-123.752
 21
89.64
  0
LINE
  8
0
 10
-123.752
 20
89.64
 11
-132.002
 21
89.64
  0
LINE
  8
0
 10
-132.002
 20
89.64
 11
-132.002
 21
74.36
  0
LINE
  8
0
 10
-132.002
 20
74.36
 11
-123.752
 21
74.36
  0
LINE
  8
0
 10
-123.752
 20
74.36
 11
-123.752
 21
73.14
  0
LINE
  8
0
 10
-123.752
 20
73.14
 11
-132.002
 21
73.14
  0
LINE
  8
0
 10
-132.002
 20
73.14
 11
-132.002
 21
57.86
  0
LINE
  8
0
 10
-132.002
 20
57.86
 11
-123.752
 21
57.86
  0
LINE
  8
0
 10
-123.752
 20
57.86
 11
-123.752
 21
56.64
  0
LINE
  8
0
 10
-123.752
 20
56.64
 11
-132.002
 21
56.64
  0
LINE
  8
0
 10
-132.002
 20
56.64
 11
-132.002
 21
41.36
  0
LINE
  8
0
 10
-132.002
 20
41.36
 11
-123.752
 21
41.36
  0
LINE
  8
0
 10
-123.752
 20
41.36
 11
-123.752
 21
40.14
  0
LINE
  8
0
 10
-123.752
 20
40.14
 11
-132.002
 21
40.14
  0
LINE
  8
0
 10
-132.002
 20
40.14
 11
-132.002
 21
24.86
  0
LINE
  8
0
 10
-132.002
 20
24.86
 11
-123.752
 21
24.86
  0
LINE
  8
0
 10
-123.752
 20
24.86
 11
-123.752
 21
23.64
  0
LINE
  8
0
 10
-123.752
 20
23.64
 11
-132.002
 21
23.64
  0
LINE
  8
0
 10
-132.002
 20
23.64
 11
-132.002
 21
8.36
  0
LINE
  8
0
 10
-132.002
 20
8.36
 11
-123.752
 21
8.36
  0
LINE
  8
0
 10
-123.752
 20
8.36
 11
-123.752
 21
7.14001
  0
LINE
  8
0
 10
-123.752
 20
7.14001
 11
-132.002
 21
7.14001
  0
LINE
  8
0
 10
-132.002
 20
7.14001
 11
-132.002
 21
2.93104e-14
  0
LINE
  8
0
 10
-132.002
 20
2.93104e-14
 11
-115.502
 21
2.56467e-14
  0
LINE
  8
0
 10
-115.502
 20
2.56467e-14
 11
-115.502
 21
181
  0
LINE
  8
0
 10
-115.502
 20
181
 11
-132.002
 21
181
  0
LINE
  8
0
 10
-115.502
 20
181
 11
-115.502
 21
173.36
  0
LINE
  8
0
 10
-115.502
 20
173.36
 11
-107.252
 21
173.36
  0
LINE
  8
0
 10
-107.252
 20
173.36
 11
-107.252
 21
172.14
  0
LINE
  8
0
 10
-107.252
 20
172.14
 11
-115.502
 21
172.14
  0
LINE
  8
0
 10
-115.502
 20
172.14
 11
-115.502
 21
156.86
  0
LINE
  8
0
 10
-115.502
 20
156.86
 11
-107.252
 21
156.86
  0
LINE
  8
0
 10
-107.252
 20
156.86
 11
-107.252
 21
155.64
  0
LINE
  8
0
 10
-107.252
 20
155.64
 11
-115.502
 21
155.64
  0
LINE
  8
0
 10
-115.502
 20
155.64
 11
-115.502
 21
140.36
  0
LINE
  8
0
 10
-115.502
 20
140.36
 11
-107.252
 21
140.36
  0
LINE
  8
0
 10
-107.252
 20
140.36
 11
-107.252
 21
139.14
  0
LINE
  8
0
 10
-107.252
 20
139.14
 11
-115.502
 21
139.14
  0
LINE
  8
0
 10
-115.502
 20
139.14
 11
-115.502
 21
123.86
  0
LINE
  8
0
 10
-115.502
 20
123.86
 11
-107.252
 21
123.86
  0
LINE
  8
0
 10
-107.252
 20
123.86
 11
-107.252
 21
122.64
  0
LINE
  8
0
 10
-107.252
 20
122.64
 11
-115.502
 21
122.64
  0
LINE
  8
0
 10
-115.502
 20
122.64
 11
-115.502
 21
107.36
  0
LINE
  8
0
 10
-115.502
 20
107.36
 11
-107.252
 21
107.36
  0
LINE
  8
0
 10
-107.252
 20
107.36
 11
-107.252
 21
106.14
  0
LINE
  8
0
 10
-107.252
 20
106.14
 11
-115.502
 21
106.14
  0
LINE
  8
0
 10
-115.502
 20
106.14
 11
-115.502
 21
90.86
  0
LINE
  8
0
 10
-115.502
 20
90.86
 11
-107.252
 21
90.86
  0
LINE
  8
0
 10
-107.252
 20
90.86
 11
-107.252
 21
89.64
  0
LINE
  8
0
 10
-107.252
 20
89.64
 11
-115.502
 21
89.64
  0
LINE
  8
0
 10
-115.502
 20
89.64
 11
-115.502
 21
74.36
  0
LINE
  8
0
 10
-115.502
 20
74.36
 11
-107.252
 21
74.36
  0
LINE
  8
0
 10
-107.252
 20
74.36
 11
-107.252
 21
73.14
  0
LINE
  8
0
 10
-107.252
 20
73.14
 11
-115.502
 21
73.14
  0
LINE
  8
0
 10
-115.502
 20
73.14
 11
-115.502
 21
57.86
  0
LINE
  8
0
 10
-115.502
 20
57.86
 11
-107.252
 21
57.86
  0
LINE
  8
0
 10
-107.252
 20
57.86
 11
-107.252
 21
56.64
  0
LINE
  8
0
 10
-107.252
 20
56.64
 11
-115.502
 21
56.64
  0
LINE
  8
0
 10
-115.502
 20
56.64
 11
-115.502
 21
41.36
  0
LINE
  8
0
 10
-115.502
 20
41.36
 11
-107.252
 21
41.36
  0
LINE
  8
0
 10
-107.252
 20
41.36
 11
-107.252
 21
40.14
  0
LINE
  8
0
 10
-107.252
 20
40.14
 11
-115.502
 21
40.14
  0
LINE
  8
0
 10
-115.502
 20
40.14
 11
-115.502
 21
24.86
  0
LINE
  8
0
 10
-115.502
 20
24.86
 11
-107.252
 21
24.86
  0
LINE
  8
0
 10
-107.252
 20
24.86
 11
-107.252
 21
23.64
  0
LINE
  8
0
 10
-107.252
 20
23.64
 11
-115.502
 21
23.64
  0
LINE
  8
0
 10
-115.502
 20
23.64
 11
-115.502
 21
8.36
  0
LINE
  8
0
 10
-115.502
 20
8.36
 11
-107.252
 21
8.36
  0
LINE
  8
0
 10
-107.252
 20
8.36
 11
-107.252
 21
7.14001
  0
LINE
  8
0
 10
-107.252
 20
7.14001
 11
-115.502
 21
7.14001
  0
LINE
  8
0
 10
-115.502
 20
7.14001
 11
-115.502
 21
2.56466e-14
  0
LINE
  8
0
 10
-115.502
 20
2.56466e-14
 11
-99.0022
 21
2.19829e-14
  0
LINE
  8
0
 10
-99.0022
 20
2.19829e-14
 11
-99.0022
 21
181
  0
LINE
  8
0
 10
-99.0022
 20
181
 11
-115.502
 21
181
  0
LINE
  8
0
 10
-99.0021
 20
181
 11
-99.0021
 21
173.36
  0
LINE
  8
0
 10
-99.0021
 20
173.36
 11
-90.7521
 21
173.36
  0
LINE
  8
0
 10
-90.7521
 20
173.36
 11
-90.7521
 21
172.14
  0
LINE
  8
0
 10
-90.7521
 20
172.14
 11
-99.0021
 21
172.14
  0
LINE
  8
0
 10
-99.0021
 20
172.14
 11
-99.0021
 21
156.86
  0
LINE
  8
0
 10
-99.0021
 20
156.86
 11
-90.7521
 21
156.86
  0
LINE
  8
0
 10
-90.7521
 20
156.86
 11
-90.7521
 21
155.64
  0
LINE
  8
0
 10
-90.7521
 20
155.64
 11
-99.0021
 21
155.64
  0
LINE
  8
0
 10
-99.0021
 20
155.64
 11
-99.0021
 21
140.36
  0
LINE
  8
0
 10
-99.0021
 20
140.36
 11
-90.7521
 21
140.36
  0
LINE
  8
0
 10
-90.7521
 20
140.36
 11
-90.7521
 21
139.14
  0
LINE
  8
0
 10
-90.7521
 20
139.14
 11
-99.0021
 21
139.14
  0
LINE
  8
0
 10
-99.0021
 20
139.14
 11
-99.0021
 21
123.86
  0
LINE
  8
0
 10
-99.0021
 20
123.86
 11
-90.7521
 21
123.86
  0
LINE
  8
0
 10
-90.7521
 20
123.86
 11
-90.7521
 21
122.64
  0
LINE
  8
0
 10
-90.7521
 20
122.64
 11
-99.0021
 21
122.64
  0
LINE
  8
0
 10
-99.0021
 20
122.64
 11
-99.0021
 21
107.36
  0
LINE
  8
0
 10
-99.0021
 20
107.36
 11
-90.7521
 21
107.36
  0
LINE
  8
0
 10
-90.7521
 20
107.36
 11
-90.7521
 21
106.14
  0
LINE
  8
0
 10
-90.7521
 20
106.14
 11
-99.0021
 21
106.14
  0
LINE
  8
0
 10
-99.0021
 20
106.14
 11
-99.0021
 21
90.86
  0
LINE
  8
0
 10
-99.0021
 20
90.86
 11
-90.7521
 21
90.86
  0
LINE
  8
0
 10
-90.7521
 20
90.86
 11
-90.7521
 21
89.64
  0
LINE
  8
0
 10
-90.7521
 20
89.64
 11
-99.0021
 21
89.64
  0
LINE
  8
0
 10
-99.0021
 20
89.64
 11
-99.0021
 21
74.36
  0
LINE
  8
0
 10
-99.0021
 20
74.36
 11
-90.7521
 21
74.36
  0
LINE
  8
0
 10
-90.7521
 20
74.36
 11
-90.7521
 21
73.14
  0
LINE
  8
0
 10
-90.7521
 20
73.14
 11
-99.0021
 21
73.14
  0
LINE
  8
0
 10
-99.0021
 20
73.14
 11
-99.0021
 21
57.86
  0
LINE
  8
0
 10
-99.0021
 20
57.86
 11
-90.7521
 21
57.86
  0
LINE
  8
0
 10
-90.7521
 20
57.86
 11
-90.7521
 21
56.64
  0
LINE
  8
0
 10
-90.7521
 20
56.64
 11
-99.0021
 21
56.64
  0
LINE
  8
0
 10
-99.0021
 20
56.64
 11
-99.0021
 21
41.36
  0
LINE
  8
0
 10
-99.0021
 20
41.36
 11
-90.7521
 21
41.36
  0
LINE
  8
0
 10
-90.7521
 20
41.36
 11
-90.7521
 21
40.14
  0
LINE
  8
0
 10
-90.7521
 20
40.14
 11
-99.0021
 21
40.14
  0
LINE
  8
0
 10
-99.0021
 20
40.14
 11
-99.0021
 21
24.86
  0
LINE
  8
0
 10
-99.0021
 20
24.86
 11
-90.7521
 21
24.86
  0
LINE
  8
0
 10
-90.7521
 20
24.86
 11
-90.7521
 21
23.64
  0
LINE
  8
0
 10
-90.7521
 20
23.64
 11
-99.0021
 21
23.64
  0
LINE
  8
0
 10
-99.0021
 20
23.64
 11
-99.0021
 21
8.36
  0
LINE
  8
0
 10
-99.0021
 20
8.36
 11
-90.7521
 21
8.36
  0
LINE
  8
0
 10
-90.7521
 20
8.36
 11
-90.7521
 21
7.14001
  0
LINE
  8
0
 10
-90.7521
 20
7.14001
 11
-99.0021
 21
7.14001
  0
LINE
  8
0
 10
-99.0021
 20
7.14001
 11
-99.0021
 21
2.19829e-14
  0
LINE
  8
0
 10
-99.0021
 20
2.19829e-14
 11
-82.5021
 21
1.83191e-14
  0
LINE
  8
0
 10
-82.5021
 20
1.83191e-14
 11
-82.5021
 21
181
  0
LINE
  8
0
 10
-82.5021
 20
181
 11
-99.0021
 21
181
  0
LINE
  8
0
 10
-82.502
 20
181
 11
-82.502
 21
173.36
  0
LINE
  8
0
 10
-82.502
 20
173.36
 11
-74.252
 21
173.36
  0
LINE
  8
0
 10
-74.252
 20
173.36
 11
-74.252
 21
172.14
  0
LINE
  8
0
 10
-74.252
 20
172.14
 11
-82.502
 21
172.14
  0
LINE
  8
0
 10
-82.502
 20
172.14
 11
-82.502
 21
156.86
  0
LINE
  8
0
 10
-82.502
 20
156.86
 11
-74.252
 21
156.86
  0
LINE
  8
0
 10
-74.252
 20
156.86
 11
-74.252
 21
155.64
  0
LINE
  8
0
 10
-74.252
 20
155.64
 11
-82.502
 21
155.64
  0
LINE
  8
0
 10
-82.502
 20
155.64
 11
-82.502
 21
140.36
  0
LINE
  8
0
 10
-82.502
 20
140.36
 11
-74.252
 21
140.36
  0
LINE
  8
0
 10
-74.252
 20
140.36
 11
-74.252
 21
139.14
  0
LINE
  8
0
 10
-74.252
 20
139.14
 11
-82.502
 21
139.14
  0
LINE
  8
0
 10
-82.502
 20
139.14
 11
-82.502
 21
123.86
  0
LINE
  8
0
 10
-82.502
 20
123.86
 11
-74.252
 21
123.86
  0
LINE
  8
0
 10
-74.252
 20
123.86
 11
-74.252
 21
122.64
  0
LINE
  8
0
 10
-74.252
 20
122.64
 11
-82.502
 21
122.64
  0
LINE
  8
0
 10
-82.502
 20
122.64
 11
-82.502
 21
107.36
  0
LINE
  8
0
 10
-82.502
 20
107.36
 11
-74.252
 21
107.36
  0
LINE
  8
0
 10
-74.252
 20
107.36
 11
-74.252
 21
106.14
  0
LINE
  8
0
 10
-74.252
 20
106.14
 11
-82.502
 21
106.14
  0
LINE
  8
0
 10
-82.502
 20
106.14
 11
-82.502
 21
90.86
  0
LINE
  8
0
 10
-82.502
 20
90.86
 11
-74.252
 21
90.86
  0
LINE
  8
0
 10
-74.252
 20
90.86
 11
-74.252
 21
89.64
  0
LINE
  8
0
 10
-74.252
 20
89.64
 11
-82.502
 21
89.64
  0
LINE
  8
0
 10
-82.502
 20
89.64
 11
-82.502
 21
74.36
  0
LINE
  8
0
 10
-82.502
 20
74.36
 11
-74.252
 21
74.36
  0
LINE
  8
0
 10
-74.252
 20
74.36
 11
-74.252
 21
73.14
  0
LINE
  8
0
 10
-74.252
 20
73.14
 11
-82.502
 21
73.14
  0
LINE
  8
0
 10
-82.502
 20
73.14
 11
-82.502
 21
57.86
  0
LINE
  8
0
 10
-82.502
 20
57.86
 11
-74.252
 21
57.86
  0
LINE
  8
0
 10
-74.252
 20
57.86
 11
-74.252
 21
56.64
  0
LINE
  8
0
 10
-74.252
 20
56.64
 11
-82.502
 21
56.64
  0
LINE
  8
0
 10
-82.502
 20
56.64
 11
-82.502
 21
41.36
  0
LINE
  8
0
 10
-82.502
 20
41.36
 11
-74.252
 21
41.36
  0
LINE
  8
0
 10
-74.252
 20
41.36
 11
-74.252
 21
40.14
  0
LINE
  8
0
 10
-74.252
 20
40.14
 11
-82.502
 21
40.14
  0
LINE
  8
0
 10
-82.502
 20
40.14
 11
-82.502
 21
24.86
  0
LINE
  8
0
 10
-82.502
 20
24.86
 11
-74.252
 21
24.86
  0
LINE
  8
0
 10
-74.252
 20
24.86
 11
-74.252
 21
23.64
  0
LINE
  8
0
 10
-74.252
 20
23.64
 11
-82.502
 21
23.64
  0
LINE
  8
0
 10
-82.502
 20
23.64
 11
-82.502
 21
8.36
  0
LINE
  8
0
 10
-82.502
 20
8.36
 11
-74.252
 21
8.36
  0
LINE
  8
0
 10
-74.252
 20
8.36
 11
-74.252
 21
7.14001
  0
LINE
  8
0
 10
-74.252
 20
7.14001
 11
-82.502
 21
7.14001
  0
LINE
  8
0
 10
-82.502
 20
7.14001
 11
-82.502
 21
1.83191e-14
  0
LINE
  8
0
 10
-82.502
 20
1.83191e-14
 11
-66.002
 21
1.46554e-14
  0
LINE
  8
0
 10
-66.002
 20
1.46554e-14
 11
-66.002
 21
181
  0
LINE
  8
0
 10
-66.002
 20
181
 11
-82.502
 21
181
  0
LINE
  8
0
 10
-66.0019
 20
181
 11
-66.0019
 21
173.36
  0
LINE
  8
0
 10
-66.0019
 20
173.36
 11
-57.7519
 21
173.36
  0
LINE
  8
0
 10
-57.7519
 20
173.36
 11
-57.7519
 21
172.14
  0
LINE
  8
0
 10
-57.7519
 20
172.14
 11
-66.0019
 21
172.14
  0
LINE
  8
0
 10
-66.0019
 20
172.14
 11
-66.0019
 21
156.86
  0
LINE
  8
0
 10
-66.0019
 20
156.86
 11
-57.7519
 21
156.86
  0
LINE
  8
0
 10
-57.7519
 20
156.86
 11
-57.7519
 21
155.64
  0
LINE
  8
0
 10
-57.7519
 20
155.64
 11
-66.0019
 21
155.64
  0
LINE
  8
0
 10
-66.0019
 20
155.64
 11
-66.0019
 21
140.36
  0
LINE
  8
0
 10
-66.0019
 20
140.36
 11
-57.7519
 21
140.36
  0
LINE
  8
0
 10
-57.7519
 20
140.36
 11
-57.7519
 21
139.14
  0
LINE
  8
0
 10
-57.7519
 20
139.14
 11
-66.0019
 21
139.14
  0
LINE
  8
0
 10
-66.0019
 20
139.14
 11
-66.0019
 21
123.86
  0
LINE
  8
0
 10
-66.0019
 20
123.86
 11
-57.7519
 21
123.86
  0
LINE
  8
0
 10
-57.7519
 20
123.86
 11
-57.7519
 21
122.64
  0
LINE
  8
0
 10
-57.7519
 20
122.64
 11
-66.0019
 21
122.64
  0
LINE
  8
0
 10
-66.0019
 20
122.64
 11
-66.0019
 21
107.36
  0
LINE
  8
0
 10
-66.0019
 20
107.36
 11
-57.7519
 21
107.36
  0
LINE
  8
0
 10
-57.7519
 20
107.36
 11
-57.7519
 21
106.14
  0
LINE
  8
0
 10
-57.7519
 20
106.14
 11
-66.0019
 21
106.14
  0
LINE
  8
0
 10
-66.0019
 20
106.14
 11
-66.0019
 21
90.86
  0
LINE
  8
0
 10
-66.0019
 20
90.86
 11
-57.7519
 21
90.86
  0
LINE
  8
0
 10
-57.7519
 20
90.86
 11
-57.7519
 21
89.64
  0
LINE
  8
0
 10
-57.7519
 20
89.64
 11
-66.0019
 21
89.64
  0
LINE
  8
0
 10
-66.0019
 20
89.64
 11
-66.0019
 21
74.36
  0
LINE
  8
0
 10
-66.0019
 20
74.36
 11
-57.7519
 21
74.36
  0
LINE
  8
0
 10
-57.7519
 20
74.36
 11
-57.7519
 21
73.14
  0
LINE
  8
0
 10
-57.7519
 20
73.14
 11
-66.0019
 21
73.14
  0
LINE
  8
0
 10
-66.0019
 20
73.14
 11
-66.0019
 21
57.86
  0
LINE
  8
0
 10
-66.0019
 20
57.86
 11
-57.7519
 21
57.86
  0
LINE
  8
0
 10
-57.7519
 20
57.86
 11
-57.7519
 21
56.64
  0
LINE
  8
0
 10
-57.7519
 20
56.64
 11
-66.0019
 21
56.64
  0
LINE
  8
0
 10
-66.0019
 20
56.64
 11
-66.0019
 21
41.36
  0
LINE
  8
0
 10
-66.0019
 20
41.36
 11
-57.7519
 21
41.36
  0
LINE
  8
0
 10
-57.7519
 20
41.36
 11
-57.7519
 21
40.14
  0
LINE
  8
0
 10
-57.7519
 20
40.14
 11
-66.0019
 21
40.14
  0
LINE
  8
0
 10
-66.0019
 20
40.14
 11
-66.0019
 21
24.86
  0
LINE
  8
0
 10
-66.0019
 20
24.86
 11
-57.7519
 21
24.86
  0
LINE
  8
0
 10
-57.7519
 20
24.86
 11
-57.7519
 21
23.64
  0
LINE
  8
0
 10
-57.7519
 20
23.64
 11
-66.0019
 21
23.64
  0
LINE
  8
0
 10
-66.0019
 20
23.64
 11
-66.0019
 21
8.36
  0
LINE
  8
0
 10
-66.0019
 20
8.36
 11
-57.7519
 21
8.36
  0
LINE
  8
0
 10
-57.7519
 20
8.36
 11
-57.7519
 21
7.14001
  0
LINE
  8
0
 10
-57.7519
 20
7.14001
 11
-66.0019
 21
7.14001
  0
LINE
  8
0
 10
-66.0019
 20
7.14001
 11
-66.0019
 21
1.46554e-14
  0
LINE
  8
0
 10
-66.0019
 20
1.46554e-14
 11
-49.5019
 21
1.09916e-14
  0
LINE
  8
0
 10
-49.5019
 20
1.09916e-14
 11
-49.5019
 21
181
  0
LINE
  8
0
 10
-49.5019
 20
181
 11
-66.0019
 21
181
  0
LINE
  8
0
 10
-49.5018
 20
181
 11
-49.5018
 21
173.36
  0
LINE
  8
0
 10
-49.5018
 20
173.36
 11
-41.2518
 21
173.36
  0
LINE
  8
0
 10
-41.2518
 20
173.36
 11
-41.2518
 21
172.14
  0
LINE
  8
0
 10
-41.2518
 20
172.14
 11
-49.5018
 21
172.14
  0
LINE
  8
0
 10
-49.5018
 20
172.14
 11
-49.5018
 21
156.86
  0
LINE
  8
0
 10
-49.5018
 20
156.86
 11
-41.2518
 21
156.86
  0
LINE
  8
0
 10
-41.2518
 20
156.86
 11
-41.2518
 21
155.64
  0
LINE
  8
0
 10
-41.2518
 20
155.64
 11
-49.5018
 21
155.64
  0
LINE
  8
0
 10
-49.5018
 20
155.64
 11
-49.5018
 21
140.36
  0
LINE
  8
0
 10
-49.5018
 20
140.36
 11
-41.2518
 21
140.36
  0
LINE
  8
0
 10
-41.2518
 20
140.36
 11
-41.2518
 21
139.14
  0
LINE
  8
0
 10
-41.2518
 20
139.14
 11
-49.5018
 21
139.14
  0
LINE
  8
0
 10
-49.5018
 20
139.14
 11
-49.5018
 21
123.86
  0
LINE
  8
0
 10
-49.5018
 20
123.86
 11
-41.2518
 21
123.86
  0
LINE
  8
0
 10
-41.2518
 20
123.86
 11
-41.2518
 21
122.64
  0
LINE
  8
0
 10
-41.2518
 20
122.64
 11
-49.5018
 21
122.64
  0
LINE
  8
0
 10
-49.5018
 20
122.64
 11
-49.5018
 21
107.36
  0
LINE
  8
0
 10
-49.5018
 20
107.36
 11
-41.2518
 21
107.36
  0
LINE
  8
0
 10
-41.2518
 20
107.36
 11
-41.2518
 21
106.14
  0
LINE
  8
0
 10
-41.2518
 20
106.14
 11
-49.5018
 21
106.14
  0
LINE
  8
0
 10
-49.5018
 20
106.14
 11
-49.5018
 21
90.86
  0
LINE
  8
0
 10
-49.5018
 20
90.86
 11
-41.2518
 21
90.86
  0
LINE
  8
0
 10
-41.2518
 20
90.86
 11
-41.2518
 21
89.64
  0
LINE
  8
0
 10
-41.2518
 20
89.64
 11
-49.5018
 21
89.64
  0
LINE
  8
0
 10
-49.5018
 20
89.64
 11
-49.5018
 21
74.36
  0
LINE
  8
0
 10
-49.5018
 20
74.36
 11
-41.2518
 21
74.36
  0
LINE
  8
0
 10
-41.2518
 20
74.36
 11
-41.2518
 21
73.14
  0
LINE
  8
0
 10
-41.2518
 20
73.14
 11
-49.5018
 21
73.14
  0
LINE
  8
0
 10
-49.5018
 20
73.14
 11
-49.5018
 21
57.86
  0
LINE
  8
0
 10
-49.5018
 20
57.86
 11
-41.2518
 21
57.86
  0
LINE
  8
0
 10
-41.2518
 20
57.86
 11
-41.2518
 21
56.64
  0
LINE
  8
0
 10
-41.2518
 20
56.64
 11
-49.5018
 21
56.64
  0
LINE
  8
0
 10
-49.5018
 20
56.64
 11
-49.5018
 21
41.36
  0
LINE
  8
0
 10
-49.5018
 20
41.36
 11
-41.2518
 21
41.36
  0
LINE
  8
0
 10
-41.2518
 20
41.36
 11
-41.2518
 21
40.14
  0
LINE
  8
0
 10
-41.2518
 20
40.14
 11
-49.5018
 21
40.14
  0
LINE
  8
0
 10
-49.5018
 20
40.14
 11
-49.5018
 21
24.86
  0
LINE
  8
0
 10
-49.5018
 20
24.86
 11
-41.2518
 21
24.86
  0
LINE
  8
0
 10
-41.2518
 20
24.86
 11
-41.2518
 21
23.64
  0
LINE
  8
0
 10
-41.2518
 20
23.64
 11
-49.5018
 21
23.64
  0
LINE
  8
0
 10
-49.5018
 20
23.64
 11
-49.5018
 21
8.36
  0
LINE
  8
0
 10
-49.5018
 20
8.36
 11
-41.2518
 21
8.36
  0
LINE
  8
0
 10
-41.2518
 20
8.36
 11
-41.2518
 21
7.14001
  0
LINE
  8
0
 10
-41.2518
 20
7.14001
 11
-49.5018
 21
7.14001
  0
LINE
  8
0
 10
-49.5018
 20
7.14001
 11
-49.5018
 21
1.09916e-14
  0
LINE
  8
0
 10
-49.5018
 20
1.09916e-14
 11
-33.0018
 21
7.32787e-15
  0
LINE
  8
0
 10
-33.0018
 20
7.32787e-15
 11
-33.0018
 21
181
  0
LINE
  8
0
 10
-33.0018
 20
181
 11
-49.5018
 21
181
  0
LINE
  8
0
 10
-33.0017
 20
181
 11
-33.0017
 21
173.36
  0
LINE
  8
0
 10
-33.0017
 20
173.36
 11
-24.7517
 21
173.36
  0
LINE
  8
0
 10
-24.7517
 20
173.36
 11
-24.7517
 21
172.14
  0
LINE
  8
0
 10
-24.7517
 20
172.14
 11
-33.0017
 21
172.14
  0
LINE
  8
0
 10
-33.0017
 20
172.14
 11
-33.0017
 21
156.86
  0
LINE
  8
0
 10
-33.0017
 20
156.86
 11
-24.7517
 21
156.86
  0
LINE
  8
0
 10
-24.7517
 20
156.86
 11
-24.7517
 21
155.64
  0
LINE
  8
0
 10
-24.7517
 20
155.64
 11
-33.0017
 21
155.64
  0
LINE
  8
0
 10
-33.0017
 20
155.64
 11
-33.0017
 21
140.36
  0
LINE
  8
0
 10
-33.0017
 20
140.36
 11
-24.7517
 21
140.36
  0
LINE
  8
0
 10
-24.7517
 20
140.36
 11
-24.7517
 21
139.14
  0
LINE
  8
0
 10
-24.7517
 20
139.14
 11
-33.0017
 21
139.14
  0
LINE
  8
0
 10
-33.0017
 20
139.14
 11
-33.0017
 21
123.86
  0
LINE
  8
0
 10
-33.0017
 20
123.86
 11
-24.7517
 21
123.86
  0
LINE
  8
0
 10
-24.7517
 20
123.86
 11
-24.7517
 21
122.64
  0
LINE
  8
0
 10
-24.7517
 20
122.64
 11
-33.0017
 21
122.64
  0
LINE
  8
0
 10
-33.0017
 20
122.64
 11
-33.0017
 21
107.36
  0
LINE
  8
0
 10
-33.0017
 20
107.36
 11
-24.7517
 21
107.36
  0
LINE
  8
0
 10
-24.7517
 20
107.36
 11
-24.7517
 21
106.14
  0
LINE
  8
0
 10
-24.7517
 20
106.14
 11
-33.0017
 21
106.14
  0
LINE
  8
0
 10
-33.0017
 20
106.14
 11
-33.0017
 21
90.86
  0
LINE
  8
0
 10
-33.0017
 20
90.86
 11
-24.7517
 21
90.86
  0
LINE
  8
0
 10
-24.7517
 20
90.86
 11
-24.7517
 21
89.64
  0
LINE
  8
0
 10
-24.7517
 20
89.64
 11
-33.0017
 21
89.64
  0
LINE
  8
0
 10
-33.0017
 20
89.64
 11
-33.0017
 21
74.36
  0
LINE
  8
0
 10
-33.0017
 20
74.36
 11
-24.7517
 21
74.36
  0
LINE
  8
0
 10
-24.7517
 20
74.36
 11
-24.7517
 21
73.14
  0
LINE
  8
0
 10
-24.7517
 20
73.14
 11
-33.0017
 21
73.14
  0
LINE
  8
0
 10
-33.0017
 20
73.14
 11
-33.0017
 21
57.86
  0
LINE
  8
0
 10
-33.0017
 20
57.86
 11
-24.7517
 21
57.86
  0
LINE
  8
0
 10
-24.7517
 20
57.86
 11
-24.7517
 21
56.64
  0
LINE
  8
0
 10
-24.7517
 20
56.64
 11
-33.0017
 21
56.64
  0
LINE
  8
0
 10
-33.0017
 20
56.64
 11
-33.0017
 21
41.36
  0
LINE
  8
0
 10
-33.0017
 20
41.36
 11
-24.7517
 21
41.36
  0
LINE
  8
0
 10
-24.7517
 20
41.36
 11
-24.7517
 21
40.14
  0
LINE
  8
0
 10
-24.7517
 20
40.14
 11
-33.0017
 21
40.14
  0
LINE
  8
0
 10
-33.0017
 20
40.14
 11
-33.0017
 21
24.86
  0
LINE
  8
0
 10
-33.0017
 20
24.86
 11
-24.7517
 21
24.86
  0
LINE
  8
0
 10
-24.7517
 20
24.86
 11
-24.7517
 21
23.64
  0
LINE
  8
0
 10
-24.7517
 20
23.64
 11
-33.0017
 21
23.64
  0
LINE
  8
0
 10
-33.0017
 20
23.64
 11
-33.0017
 21
8.36
  0
LINE
  8
0
 10
-33.0017
 20
8.36
 11
-24.7517
 21
8.36
  0
LINE
  8
0
 10
-24.7517
 20
8.36
 11
-24.7517
 21
7.14001
  0
LINE
  8
0
 10
-24.7517
 20
7.14001
 11
-33.0017
 21
7.14001
  0
LINE
  8
0
 10
-33.0017
 20
7.14001
 11
-33.0017
 21
7.32785e-15
  0
LINE
  8
0
 10
-33.0017
 20
7.32785e-15
 11
-16.5017
 21
3.66411e-15
  0
LINE
  8
0
 10
-16.5017
 20
3.66411e-15
 11
-16.5017
 21
181
  0
LINE
  8
0
 10
-16.5017
 20
181
 11
-33.0017
 21
181
  0
LINE
  8
0
 10
-16.5016
 20
181
 11
-16.5016
 21
173.36
  0
LINE
  8
0
 10
-16.5016
 20
173.36
 11
-8.25159
 21
173.36
  0
LINE
  8
0
 10
-8.25159
 20
173.36
 11
-8.25159
 21
172.14
  0
LINE
  8
0
 10
-8.25159
 20
172.14
 11
-16.5016
 21
172.14
  0
LINE
  8
0
 10
-16.5016
 20
172.14
 11
-16.5016
 21
156.86
  0
LINE
  8
0
 10
-16.5016
 20
156.86
 11
-8.25159
 21
156.86
  0
LINE
  8
0
 10
-8.25159
 20
156.86
 11
-8.25159
 21
155.64
  0
LINE
  8
0
 10
-8.25159
 20
155.64
 11
-16.5016
 21
155.64
  0
LINE
  8
0
 10
-16.5016
 20
155.64
 11
-16.5016
 21
140.36
  0
LINE
  8
0
 10
-16.5016
 20
140.36
 11
-8.25159
 21
140.36
  0
LINE
  8
0
 10
-8.25159
 20
140.36
 11
-8.25159
 21
139.14
  0
LINE
  8
0
 10
-8.25159
 20
139.14
 11
-16.5016
 21
139.14
  0
LINE
  8
0
 10
-16.5016
 20
139.14
 11
-16.5016
 21
123.86
  0
LINE
  8
0
 10
-16.5016
 20
123.86
 11
-8.25159
 21
123.86
  0
LINE
  8
0
 10
-8.25159
 20
123.86
 11
-8.25159
 21
122.64
  0
LINE
  8
0
 10
-8.25159
 20
122.64
 11
-16.5016
 21
122.64
  0
LINE
  8
0
 10
-16.5016
 20
122.64
 11
-16.5016
 21
107.36
  0
LINE
  8
0
 10
-16.5016
 20
107.36
 11
-8.25159
 21
107.36
  0
LINE
  8
0
 10
-8.25159
 20
107.36
 11
-8.25159
 21
106.14
  0
LINE
  8
0
 10
-8.25159
 20
106.14
 11
-16.5016
 21
106.14
  0
LINE
  8
0
 10
-16.5016
 20
106.14
 11
-16.5016
 21
90.86
  0
LINE
  8
0
 10
-16.5016
 20
90.86
 11
-8.25159
 21
90.86
  0
LINE
  8
0
 10
-8.25159
 20
90.86
 11
-8.25159
 21
89.64
  0
LINE
  8
0
 10
-8.25159
 20
89.64
 11
-16.5016
 21
89.64
  0
LINE
  8
0
 10
-16.5016
 20
89.64
 11
-16.5016
 21
74.36
  0
LINE
  8
0
 10
-16.5016
 20
74.36
 11
-8.25159
 21
74.36
  0
LINE
  8
0
 10
-8.25159
 20
74.36
 11
-8.25159
 21
73.14
  0
LINE
  8
0
 10
-8.25159
 20
73.14
 11
-16.5016
 21
73.14
  0
LINE
  8
0
 10
-16.5016
 20
73.14
 11
-16.5016
 21
57.86
  0
LINE
  8
0
 10
-16.5016
 20
57.86
 11
-8.25159
 21
57.86
  0
LINE
  8
0
 10
-8.25159
 20
57.86
 11
-8.25159
 21
56.64
  0
LINE
  8
0
 10
-8.25159
 20
56.64
 11
-16.5016
 21
56.64
  0
LINE
  8
0
 10
-16.5016
 20
56.64
 11
-16.5016
 21
41.36
  0
LINE
  8
0
 10
-16.5016
 20
41.36
 11
-8.25159
 21
41.36
  0
LINE
  8
0
 10
-8.25159
 20
41.36
 11
-8.25159
 21
40.14
  0
LINE
  8
0
 10
-8.25159
 20
40.14
 11
-16.5016
 21
40.14
  0
LINE
  8
0
 10
-16.5016
 20
40.14
 11
-16.5016
 21
24.86
  0
LINE
  8
0
 10
-16.5016
 20
24.86
 11
-8.25159
 21
24.86
  0
LINE
  8
0
 10
-8.25159
 20
24.86
 11
-8.25159
 21
23.64
  0
LINE
  8
0
 10
-8.25159
 20
23.64
 11
-16.5016
 21
23.64
  0
LINE
  8
0
 10
-16.5016
 20
23.64
 11
-16.5016
 21
8.36
  0
LINE
  8
0
 10
-16.5016
 20
8.36
 11
-8.25159
 21
8.36
  0
LINE
  8
0
 10
-8.25159
 20
8.36
 11
-8.25159
 21
7.14001
  0
LINE
  8
0
 10
-8.25159
 20
7.14001
 11
-16.5016
 21
7.14001
  0
LINE
  8
0
 10
-16.5016
 20
7.14001
 11
-16.5016
 21
3.66409e-15
  0
LINE
  8
0
 10
-16.5016
 20
3.66409e-15
 11
-0.00158691
 21
3.52366e-19
  0
LINE
  8
0
 10
-0.00158691
 20
3.52366e-19
 11
-0.00158691
 21
181
  0
LINE
  8
0
 10
-0.00158691
 20
181
 11
-16.5016
 21
181
  0
LINE
  8
0
 10
-0.00149536
 20
181
 11
-0.00149536
 21
173.36
  0
LINE
  8
0
 10
-0.00149536
 20
173.36
 11
8.2485
 21
173.36
  0
LINE
  8
0
 10
8.2485
 20
173.36
 11
8.2485
 21
172.14
  0
LINE
  8
0
 10
8.2485
 20
172.14
 11
-0.00149536
 21
172.14
  0
LINE
  8
0
 10
-0.00149536
 20
172.14
 11
-0.00149536
 21
156.86
  0
LINE
  8
0
 10
-0.00149536
 20
156.86
 11
8.2485
 21
156.86
  0
LINE
  8
0
 10
8.2485
 20
156.86
 11
8.2485
 21
155.64
  0
LINE
  8
0
 10
8.2485
 20
155.64
 11
-0.00149536
 21
155.64
  0
LINE
  8
0
 10
-0.00149536
 20
155.64
 11
-0.00149536
 21
140.36
  0
LINE
  8
0
 10
-0.00149536
 20
140.36
 11
8.2485
 21
140.36
  0
LINE
  8
0
 10
8.2485
 20
140.36
 11
8.2485
 21
139.14
  0
LINE
  8
0
 10
8.2485
 20
139.14
 11
-0.00149536
 21
139.14
  0
LINE
  8
0
 10
-0.00149536
 20
139.14
 11
-0.00149536
 21
123.86
  0
LINE
  8
0
 10
-0.00149536
 20
123.86
 11
8.2485
 21
123.86
  0
LINE
  8
0
 10
8.2485
 20
123.86
 11
8.2485
 21
122.64
  0
LINE
  8
0
 10
8.2485
 20
122.64
 11
-0.00149536
 21
122.64
  0
LINE
  8
0
 10
-0.00149536
 20
122.64
 11
-0.00149536
 21
107.36
  0
LINE
  8
0
 10
-0.00149536
 20
107.36
 11
8.2485
 21
107.36
  0
LINE
  8
0
 10
8.2485
 20
107.36
 11
8.2485
 21
106.14
  0
LINE
  8
0
 10
8.2485
 20
106.14
 11
-0.00149536
 21
106.14
  0
LINE
  8
0
 10
-0.00149536
 20
106.14
 11
-0.00149536
 21
90.86
  0
LINE
  8
0
 10
-0.00149536
 20
90.86
 11
8.2485
 21
90.86
  0
LINE
  8
0
 10
8.2485
 20
90.86
 11
8.2485
 21
89.64
  0
LINE
  8
0
 10
8.2485
 20
89.64
 11
-0.00149536
 21
89.64
  0
LINE
  8
0
 10
-0.00149536
 20
89.64
 11
-0.00149536
 21
74.36
  0
LINE
  8
0
 10
-0.00149536
 20
74.36
 11
8.2485
 21
74.36
  0
LINE
  8
0
 10
8.2485
 20
74.36
 11
8.2485
 21
73.14
  0
LINE
  8
0
 10
8.2485
 20
73.14
 11
-0.00149536
 21
73.14
  0
LINE
  8
0
 10
-0.00149536
 20
73.14
 11
-0.00149536
 21
57.86
  0
LINE
  8
0
 10
-0.00149536
 20
57.86
 11
8.2485
 21
57.86
  0
LINE
  8
0
 10
8.2485
 20
57.86
 11
8.2485
 21
56.64
  0
LINE
  8
0
 10
8.2485
 20
56.64
 11
-0.00149536
 21
56.64
  0
LINE
  8
0
 10
-0.00149536
 20
56.64
 11
-0.00149536
 21
41.36
  0
LINE
  8
0
 10
-0.00149536
 20
41.36
 11
8.2485
 21
41.36
  0
LINE
  8
0
 10
8.2485
 20
41.36
 11
8.2485
 21
40.14
  0
LINE
  8
0
 10
8.2485
 20
40.14
 11
-0.00149536
 21
40.14
  0
LINE
  8
0
 10
-0.00149536
 20
40.14
 11
-0.00149536
 21
24.86
  0
LINE
  8
0
 10
-0.00149536
 20
24.86
 11
8.2485
 21
24.86
  0
LINE
  8
0
 10
8.2485
 20
24.86
 11
8.2485
 21
23.64
  0
LINE
  8
0
 10
8.2485
 20
23.64
 11
-0.00149536
 21
23.64
  0
LINE
  8
0
 10
-0.00149536
 20
23.64
 11
-0.00149536
 21
8.36
  0
LINE
  8
0
 10
-0.00149536
 20
8.36
 11
8.2485
 21
8.36
  0
LINE
  8
0
 10
8.2485
 20
8.36
 11
8.2485
 21
7.14001
  0
LINE
  8
0
 10
8.2485
 20
7.14001
 11
-0.00149536
 21
7.14001
  0
LINE
  8
0
 10
-0.00149536
 20
7.14001
 11
-0.00149536
 21
3.32037e-19
  0
LINE
  8
0
 10
-0.00149536
 20
3.32037e-19
 11
16.4985
 21
-3.6634e-15
  0
LINE
  8
0
 10
16.4985
 20
-3.6634e-15
 11
16.4985
 21
181
  0
LINE
  8
0
 10
16.4985
 20
181
 11
-0.00149536
 21
181
  0
LINE
  8
0
 10
16.4986
 20
181
 11
16.4986
 21
173.36
  0
LINE
  8
0
 10
16.4986
 20
173.36
 11
24.7486
 21
173.36
  0
LINE
  8
0
 10
24.7486
 20
173.36
 11
24.7486
 21
172.14
  0
LINE
  8
0
 10
24.7486
 20
172.14
 11
16.4986
 21
172.14
  0
LINE
  8
0
 10
16.4986
 20
172.14
 11
16.4986
 21
156.86
  0
LINE
  8
0
 10
16.4986
 20
156.86
 11
24.7486
 21
156.86
  0
LINE
  8
0
 10
24.7486
 20
156.86
 11
24.7486
 21
155.64
  0
LINE
  8
0
 10
24.7486
 20
155.64
 11
16.4986
 21
155.64
  0
LINE
  8
0
 10
16.4986
 20
155.64
 11
16.4986
 21
140.36
  0
LINE
  8
0
 10
16.4986
 20
140.36
 11
24.7486
 21
140.36
  0
LINE
  8
0
 10
24.7486
 20
140.36
 11
24.7486
 21
139.14
  0
LINE
  8
0
 10
24.7486
 20
139.14
 11
16.4986
 21
139.14
  0
LINE
  8
0
 10
16.4986
 20
139.14
 11
16.4986
 21
123.86
  0
LINE
  8
0
 10
16.4986
 20
123.86
 11
24.7486
 21
123.86
  0
LINE
  8
0
 10
24.7486
 20
123.86
 11
24.7486
 21
122.64
  0
LINE
  8
0
 10
24.7486
 20
122.64
 11
16.4986
 21
122.64
  0
LINE
  8
0
 10
16.4986
 20
122.64
 11
16.4986
 21
107.36
  0
LINE
  8
0
 10
16.4986
 20
107.36
 11
24.7486
 21
107.36
  0
LINE
  8
0
 10
24.7486
 20
107.36
 11
24.7486
 21
106.14
  0
LINE
  8
0
 10
24.7486
 20
106.14
 11
16.4986
 21
106.14
  0
LINE
  8
0
 10
16.4986
 20
106.14
 11
16.4986
 21
90.86
  0
LINE
  8
0
 10
16.4986
 20
90.86
 11
24.7486
 21
90.86
  0
LINE
  8
0
 10
24.7486
 20
90.86
 11
24.7486
 21
89.64
  0
LINE
  8
0
 10
24.7486
 20
89.64
 11
16.4986
 21
89.64
  0
LINE
  8
0
 10
16.4986
 20
89.64
 11
16.4986
 21
74.36
  0
LINE
  8
0
 10
16.4986
 20
74.36
 11
24.7486
 21
74.36
  0
LINE
  8
0
 10
24.7486
 20
74.36
 11
24.7486
 21
73.14
  0
LINE
  8
0
 10
24.7486
 20
73.14
 11
16.4986
 21
73.14
  0
LINE
  8
0
 10
16.4986
 20
73.14
 11
16.4986
 21
57.86
  0
LINE
  8
0
 10
16.4986
 20
57.86
 11
24.7486
 21
57.86
  0
LINE
  8
0
 10
24.7486
 20
57.86
 11
24.7486
 21
56.64
  0
LINE
  8
0
 10
24.7486
 20
56.64
 11
16.4986
 21
56.64
  0
LINE
  8
0
 10
16.4986
 20
56.64
 11
16.4986
 21
41.36
  0
LINE
  8
0
 10
16.4986
 20
41.36
 11
24.7486
 21
41.36
  0
LINE
  8
0
 10
24.7486
 20
41.36
 11
24.7486
 21
40.14
  0
LINE
  8
0
 10
24.7486
 20
40.14
 11
16.4986
 21
40.14
  0
LINE
  8
0
 10
16.4986
 20
40.14
 11
16.4986
 21
24.86
  0
LINE
  8
0
 10
16.4986
 20
24.86
 11
24.7486
 21
24.86
  0
LINE
  8
0
 10
24.7486
 20
24.86
 11
24.7486
 21
23.64
  0
LINE
  8
0
 10
24.7486
 20
23.64
 11
16.4986
 21
23.64
  0
LINE
  8
0
 10
16.4986
 20
23.64
 11
16.4986
 21
8.36
  0
LINE
  8
0
 10
16.4986
 20
8.36
 11
24.7486
 21
8.36
  0
LINE
  8
0
 10
24.7486
 20
8.36
 11
24.7486
 21
7.14001
  0
LINE
  8
0
 10
24.7486
 20
7.14001
 11
16.4986
 21
7.14001
  0
LINE
  8
0
 10
16.4986
 20
7.14001
 11
16.4986
 21
-3.66343e-15
  0
LINE
  8
0
 10
16.4986
 20
-3.66343e-15
 11
32.9986
 21
-7.32716e-15
  0
LINE
  8
0
 10
32.9986
 20
-7.32716e-15
 11
32.9986
 21
181
  0
LINE
  8
0
 10
32.9986
 20
181
 11
16.4986
 21
181
  0
LINE
  8
0
 10
32.9987
 20
181
 11
32.9987
 21
173.36
  0
LINE
  8
0
 10
32.9987
 20
173.36
 11
41.2487
 21
173.36
  0
LINE
  8
0
 10
41.2487
 20
173.36
 11
41.2487
 21
172.14
  0
LINE
  8
0
 10
41.2487
 20
172.14
 11
32.9987
 21
172.14
  0
LINE
  8
0
 10
32.9987
 20
172.14
 11
32.9987
 21
156.86
  0
LINE
  8
0
 10
32.9987
 20
156.86
 11
41.2487
 21
156.86
  0
LINE
  8
0
 10
41.2487
 20
156.86
 11
41.2487
 21
155.64
  0
LINE
  8
0
 10
41.2487
 20
155.64
 11
32.9987
 21
155.64
  0
LINE
  8
0
 10
32.9987
 20
155.64
 11
32.9987
 21
140.36
  0
LINE
  8
0
 10
32.9987
 20
140.36
 11
41.2487
 21
140.36
  0
LINE
  8
0
 10
41.2487
 20
140.36
 11
41.2487
 21
139.14
  0
LINE
  8
0
 10
41.2487
 20
139.14
 11
32.9987
 21
139.14
  0
LINE
  8
0
 10
32.9987
 20
139.14
 11
32.9987
 21
123.86
  0
LINE
  8
0
 10
32.9987
 20
123.86
 11
41.2487
 21
123.86
  0
LINE
  8
0
 10
41.2487
 20
123.86
 11
41.2487
 21
122.64
  0
LINE
  8
0
 10
41.2487
 20
122.64
 11
32.9987
 21
122.64
  0
LINE
  8
0
 10
32.9987
 20
122.64
 11
32.9987
 21
107.36
  0
LINE
  8
0
 10
32.9987
 20
107.36
 11
41.2487
 21
107.36
  0
LINE
  8
0
 10
41.2487
 20
107.36
 11
41.2487
 21
106.14
  0
LINE
  8
0
 10
41.2487
 20
106.14
 11
32.9987
 21
106.14
  0
LINE
  8
0
 10
32.9987
 20
106.14
 11
32.9987
 21
90.86
  0
LINE
  8
0
 10
32.9987
 20
90.86
 11
41.2487
 21
90.86
  0
LINE
  8
0
 10
41.2487
 20
90.86
 11
41.2487
 21
89.64
  0
LINE
  8
0
 10
41.2487
 20
89.64
 11
32.9987
 21
89.64
  0
LINE
  8
0
 10
32.9987
 20
89.64
 11
32.9987
 21
74.36
  0
LINE
  8
0
 10
32.9987
 20
74.36
 11
41.2487
 21
74.36
  0
LINE
  8
0
 10
41.2487
 20
74.36
 11
41.2487
 21
73.14
  0
LINE
  8
0
 10
41.2487
 20
73.14
 11
32.9987
 21
73.14
  0
LINE
  8
0
 10
32.9987
 20
73.14
 11
32.9987
 21
57.86
  0
LINE
  8
0
 10
32.9987
 20
57.86
 11
41.2487
 21
57.86
  0
LINE
  8
0
 10
41.2487
 20
57.86
 11
41.2487
 21
56.64
  0
LINE
  8
0
 10
41.2487
 20
56.64
 11
32.9987
 21
56.64
  0
LINE
  8
0
 10
32.9987
 20
56.64
 11
32.9987
 21
41.36
  0
LINE
  8
0
 10
32.9987
 20
41.36
 11
41.2487
 21
41.36
  0
LINE
  8
0
 10
41.2487
 20
41.36
 11
41.2487
 21
40.14
  0
LINE
  8
0
 10
41.2487
 20
40.14
 11
32.9987
 21
40.14
  0
LINE
  8
0
 10
32.9987
 20
40.14
 11
32.9987
 21
24.86
  0
LINE
  8
0
 10
32.9987
 20
24.86
 11
41.2487
 21
24.86
  0
LINE
  8
0
 10
41.2487
 20
24.86
 11
41.2487
 21
23.64
  0
LINE
  8
0
 10
41.2487
 20
23.64
 11
32.9987
 21
23.64
  0
LINE
  8
0
 10
32.9987
 20
23.64
 11
32.9987
 21
8.36
  0
LINE
  8
0
 10
32.9987
 20
8.36
 11
41.2487
 21
8.36
  0
LINE
  8
0
 10
41.2487
 20
8.36
 11
41.2487
 21
7.14001
  0
LINE
  8
0
 10
41.2487
 20
7.14001
 11
32.9987
 21
7.14001
  0
LINE
  8
0
 10
32.9987
 20
7.14001
 11
32.9987
 21
-7.32718e-15
  0
LINE
  8
0
 10
32.9987
 20
-7.32718e-15
 11
49.4987
 21
-1.09909e-14
  0
LINE
  8
0
 10
49.4987
 20
-1.09909e-14
 11
49.4987
 21
181
  0
LINE
  8
0
 10
49.4987
 20
181
 11
32.9987
 21
181
  0
LINE
  8
0
 10
49.4988
 20
181
 11
49.4988
 21
173.36
  0
LINE
  8
0
 10
49.4988
 20
173.36
 11
57.7488
 21
173.36
  0
LINE
  8
0
 10
57.7488
 20
173.36
 11
57.7488
 21
172.14
  0
LINE
  8
0
 10
57.7488
 20
172.14
 11
49.4988
 21
172.14
  0
LINE
  8
0
 10
49.4988
 20
172.14
 11
49.4988
 21
156.86
  0
LINE
  8
0
 10
49.4988
 20
156.86
 11
57.7488
 21
156.86
  0
LINE
  8
0
 10
57.7488
 20
156.86
 11
57.7488
 21
155.64
  0
LINE
  8
0
 10
57.7488
 20
155.64
 11
49.4988
 21
155.64
  0
LINE
  8
0
 10
49.4988
 20
155.64
 11
49.4988
 21
140.36
  0
LINE
  8
0
 10
49.4988
 20
140.36
 11
57.7488
 21
140.36
  0
LINE
  8
0
 10
57.7488
 20
140.36
 11
57.7488
 21
139.14
  0
LINE
  8
0
 10
57.7488
 20
139.14
 11
49.4988
 21
139.14
  0
LINE
  8
0
 10
49.4988
 20
139.14
 11
49.4988
 21
123.86
  0
LINE
  8
0
 10
49.4988
 20
123.86
 11
57.7488
 21
123.86
  0
LINE
  8
0
 10
57.7488
 20
123.86
 11
57.7488
 21
122.64
  0
LINE
  8
0
 10
57.7488
 20
122.64
 11
49.4988
 21
122.64
  0
LINE
  8
0
 10
49.4988
 20
122.64
 11
49.4988
 21
107.36
  0
LINE
  8
0
 10
49.4988
 20
107.36
 11
57.7488
 21
107.36
  0
LINE
  8
0
 10
57.7488
 20
107.36
 11
57.7488
 21
106.14
  0
LINE
  8
0
 10
57.7488
 20
106.14
 11
49.4988
 21
106.14
  0
LINE
  8
0
 10
49.4988
 20
106.14
 11
49.4988
 21
90.86
  0
LINE
  8
0
 10
49.4988
 20
90.86
 11
57.7488
 21
90.86
  0
LINE
  8
0
 10
57.7488
 20
90.86
 11
57.7488
 21
89.64
  0
LINE
  8
0
 10
57.7488
 20
89.64
 11
49.4988
 21
89.64
  0
LINE
  8
0
 10
49.4988
 20
89.64
 11
49.4988
 21
74.36
  0
LINE
  8
0
 10
49.4988
 20
74.36
 11
57.7488
 21
74.36
  0
LINE
  8
0
 10
57.7488
 20
74.36
 11
57.7488
 21
73.14
  0
LINE
  8
0
 10
57.7488
 20
73.14
 11
49.4988
 21
73.14
  0
LINE
  8
0
 10
49.4988
 20
73.14
 11
49.4988
 21
57.86
  0
LINE
  8
0
 10
49.4988
 20
57.86
 11
57.7488
 21
57.86
  0
LINE
  8
0
 10
57.7488
 20
57.86
 11
57.7488
 21
56.64
  0
LINE
  8
0
 10
57.7488
 20
56.64
 11
49.4988
 21
56.64
  0
LINE
  8
0
 10
49.4988
 20
56.64
 11
49.4988
 21
41.36
  0
LINE
  8
0
 10
49.4988
 20
41.36
 11
57.7488
 21
41.36
  0
LINE
  8
0
 10
57.7488
 20
41.36
 11
57.7488
 21
40.14
  0
LINE
  8
0
 10
57.7488
 20
40.14
 11
49.4988
 21
40.14
  0
LINE
  8
0
 10
49.4988
 20
40.14
 11
49.4988
 21
24.86
  0
LINE
  8
0
 10
49.4988
 20
24.86
 11
57.7488
 21
24.86
  0
LINE
  8
0
 10
57.7488
 20
24.86
 11
57.7488
 21
23.64
  0
LINE
  8
0
 10
57.7488
 20
23.64
 11
49.4988
 21
23.64
  0
LINE
  8
0
 10
49.4988
 20
23.64
 11
49.4988
 21
8.36
  0
LINE
  8
0
 10
49.4988
 20
8.36
 11
57.7488
 21
8.36
  0
LINE
  8
0
 10
57.7488
 20
8.36
 11
57.7488
 21
7.14001
  0
LINE
  8
0
 10
57.7488
 20
7.14001
 11
49.4988
 21
7.14001
  0
LINE
  8
0
 10
49.4988
 20
7.14001
 11
49.4988
 21
-1.09909e-14
  0
LINE
  8
0
 10
49.4988
 20
-1.09909e-14
 11
65.9988
 21
-1.46547e-14
  0
LINE
  8
0
 10
65.9988
 20
-1.46547e-14
 11
65.9988
 21
181
  0
LINE
  8
0
 10
65.9988
 20
181
 11
49.4988
 21
181
  0
LINE
  8
0
 10
65.9989
 20
181
 11
65.9989
 21
173.36
  0
LINE
  8
0
 10
65.9989
 20
173.36
 11
74.2489
 21
173.36
  0
LINE
  8
0
 10
74.2489
 20
173.36
 11
74.2489
 21
172.14
  0
LINE
  8
0
 10
74.2489
 20
172.14
 11
65.9989
 21
172.14
  0
LINE
  8
0
 10
65.9989
 20
172.14
 11
65.9989
 21
156.86
  0
LINE
  8
0
 10
65.9989
 20
156.86
 11
74.2489
 21
156.86
  0
LINE
  8
0
 10
74.2489
 20
156.86
 11
74.2489
 21
155.64
  0
LINE
  8
0
 10
74.2489
 20
155.64
 11
65.9989
 21
155.64
  0
LINE
  8
0
 10
65.9989
 20
155.64
 11
65.9989
 21
140.36
  0
LINE
  8
0
 10
65.9989
 20
140.36
 11
74.2489
 21
140.36
  0
LINE
  8
0
 10
74.2489
 20
140.36
 11
74.2489
 21
139.14
  0
LINE
  8
0
 10
74.2489
 20
139.14
 11
65.9989
 21
139.14
  0
LINE
  8
0
 10
65.9989
 20
139.14
 11
65.9989
 21
123.86
  0
LINE
  8
0
 10
65.9989
 20
123.86
 11
74.2489
 21
123.86
  0
LINE
  8
0
 10
74.2489
 20
123.86
 11
74.2489
 21
122.64
  0
LINE
  8
0
 10
74.2489
 20
122.64
 11
65.9989
 21
122.64
  0
LINE
  8
0
 10
65.9989
 20
122.64
 11
65.9989
 21
107.36
  0
LINE
  8
0
 10
65.9989
 20
107.36
 11
74.2489
 21
107.36
  0
LINE
  8
0
 10
74.2489
 20
107.36
 11
74.2489
 21
106.14
  0
LINE
  8
0
 10
74.2489
 20
106.14
 11
65.9989
 21
106.14
  0
LINE
  8
0
 10
65.9989
 20
106.14
 11
65.9989
 21
90.86
  0
LINE
  8
0
 10
65.9989
 20
90.86
 11
74.2489
 21
90.86
  0
LINE
  8
0
 10
74.2489
 20
90.86
 11
74.2489
 21
89.64
  0
LINE
  8
0
 10
74.2489
 20
89.64
 11
65.9989
 21
89.64
  0
LINE
  8
0
 10
65.9989
 20
89.64
 11
65.9989
 21
74.36
  0
LINE
  8
0
 10
65.9989
 20
74.36
 11
74.2489
 21
74.36
  0
LINE
  8
0
 10
74.2489
 20
74.36
 11
74.2489
 21
73.14
  0
LINE
  8
0
 10
74.2489
 20
73.14
 11
65.9989
 21
73.14
  0
LINE
  8
0
 10
65.9989
 20
73.14
 11
65.9989
 21
57.86
  0
LINE
  8
0
 10
65.9989
 20
57.86
 11
74.2489
 21
57.86
  0
LINE
  8
0
 10
74.2489
 20
57.86
 11
74.2489
 21
56.64
  0
LINE
  8
0
 10
74.2489
 20
56.64
 11
65.9989
 21
56.64
  0
LINE
  8
0
 10
65.9989
 20
56.64
 11
65.9989
 21
41.36
  0
LINE
  8
0
 10
65.9989
 20
41.36
 11
74.2489
 21
41.36
  0
LINE
  8
0
 10
74.2489
 20
41.36
 11
74.2489
 21
40.14
  0
LINE
  8
0
 10
74.2489
 20
40.14
 11
65.9989
 21
40.14
  0
LINE
  8
0
 10
65.9989
 20
40.14
 11
65.9989
 21
24.86
  0
LINE
  8
0
 10
65.9989
 20
24.86
 11
74.2489
 21
24.86
  0
LINE
  8
0
 10
74.2489
 20
24.86
 11
74.2489
 21
23.64
  0
LINE
  8
0
 10
74.2489
 20
23.64
 11
65.9989
 21
23.64
  0
LINE
  8
0
 10
65.9989
 20
23.64
 11
65.9989
 21
8.36
  0
LINE
  8
0
 10
65.9989
 20
8.36
 11
74.2489
 21
8.36
  0
LINE
  8
0
 10
74.2489
 20
8.36
 11
74.2489
 21
7.14001
  0
LINE
  8
0
 10
74.2489
 20
7.14001
 11
65.9989
 21
7.14001
  0
LINE
  8
0
 10
65.9989
 20
7.14001
 11
65.9989
 21
-1.46547e-14
  0
LINE
  8
0
 10
65.9989
 20
-1.46547e-14
 11
82.4989
 21
-1.83184e-14
  0
LINE
  8
0
 10
82.4989
 20
-1.83184e-14
 11
82.4989
 21
181
  0
LINE
  8
0
 10
82.4989
 20
181
 11
65.9989
 21
181
  0
LINE
  8
0
 10
82.499
 20
181
 11
82.499
 21
173.36
  0
LINE
  8
0
 10
82.499
 20
173.36
 11
90.749
 21
173.36
  0
LINE
  8
0
 10
90.749
 20
173.36
 11
90.749
 21
172.14
  0
LINE
  8
0
 10
90.749
 20
172.14
 11
82.499
 21
172.14
  0
LINE
  8
0
 10
82.499
 20
172.14
 11
82.499
 21
156.86
  0
LINE
  8
0
 10
82.499
 20
156.86
 11
90.749
 21
156.86
  0
LINE
  8
0
 10
90.749
 20
156.86
 11
90.749
 21
155.64
  0
LINE
  8
0
 10
90.749
 20
155.64
 11
82.499
 21
155.64
  0
LINE
  8
0
 10
82.499
 20
155.64
 11
82.499
 21
140.36
  0
LINE
  8
0
 10
82.499
 20
140.36
 11
90.749
 21
140.36
  0
LINE
  8
0
 10
90.749
 20
140.36
 11
90.749
 21
139.14
  0
LINE
  8
0
 10
90.749
 20
139.14
 11
82.499
 21
139.14
  0
LINE
  8
0
 10
82.499
 20
139.14
 11
82.499
 21
123.86
  0
LINE
  8
0
 10
82.499
 20
123.86
 11
90.749
 21
123.86
  0
LINE
  8
0
 10
90.749
 20
123.86
 11
90.749
 21
122.64
  0
LINE
  8
0
 10
90.749
 20
122.64
 11
82.499
 21
122.64
  0
LINE
  8
0
 10
82.499
 20
122.64
 11
82.499
 21
107.36
  0
LINE
  8
0
 10
82.499
 20
107.36
 11
90.749
 21
107.36
  0
LINE
  8
0
 10
90.749
 20
107.36
 11
90.749
 21
106.14
  0
LINE
  8
0
 10
90.749
 20
106.14
 11
82.499
 21
106.14
  0
LINE
  8
0
 10
82.499
 20
106.14
 11
82.499
 21
90.86
  0
LINE
  8
0
 10
82.499
 20
90.86
 11
90.749
 21
90.86
  0
LINE
  8
0
 10
90.749
 20
90.86
 11
90.749
 21
89.64
  0
LINE
  8
0
 10
90.749
 20
89.64
 11
82.499
 21
89.64
  0
LINE
  8
0
 10
82.499
 20
89.64
 11
82.499
 21
74.36
  0
LINE
  8
0
 10
82.499
 20
74.36
 11
90.749
 21
74.36
  0
LINE
  8
0
 10
90.749
 20
74.36
 11
90.749
 21
73.14
  0
LINE
  8
0
 10
90.749
 20
73.14
 11
82.499
 21
73.14
  0
LINE
  8
0
 10
82.499
 20
73.14
 11
82.499
 21
57.86
  0
LINE
  8
0
 10
82.499
 20
57.86
 11
90.749
 21
57.86
  0
LINE
  8
0
 10
90.749
 20
57.86
 11
90.749
 21
56.64
  0
LINE
  8
0
 10
90.749
 20
56.64
 11
82.499
 21
56.64
  0
LINE
  8
0
 10
82.499
 20
56.64
 11
82.499
 21
41.36
  0
LINE
  8
0
 10
82.499
 20
41.36
 11
90.749
 21
41.36
  0
LINE
  8
0
 10
90.749
 20
41.36
 11
90.749
 21
40.14
  0
LINE
  8
0
 10
90.749
 20
40.14
 11
82.499
 21
40.14
  0
LINE
  8
0
 10
82.499
 20
40.14
 11
82.499
 21
24.86
  0
LINE
  8
0
 10
82.499
 20
24.86
 11
90.749
 21
24.86
  0
LINE
  8
0
 10
90.749
 20
24.86
 11
90.749
 21
23.64
  0
LINE
  8
0
 10
90.749
 20
23.64
 11
82.499
 21
23.64
  0
LINE
  8
0
 10
82.499
 20
23.64
 11
82.499
 21
8.36
  0
LINE
  8
0
 10
82.499
 20
8.36
 11
90.749
 21
8.36
  0
LINE
  8
0
 10
90.749
 20
8.36
 11
90.749
 21
7.14001
  0
LINE
  8
0
 10
90.749
 20
7.14001
 11
82.499
 21
7.14001
  0
LINE
  8
0
 10
82.499
 20
7.14001
 11
82.499
 21
-1.83185e-14
  0
LINE
  8
0
 10
82.499
 20
-1.83185e-14
 11
98.999
 21
-2.19822e-14
  0
LINE
  8
0
 10
98.999
 20
-2.19822e-14
 11
98.999
 21
181
  0
LINE
  8
0
 10
98.999
 20
181
 11
82.499
 21
181
  0
LINE
  8
0
 10
98.9991
 20
181
 11
98.9991
 21
173.36
  0
LINE
  8
0
 10
98.9991
 20
173.36
 11
107.249
 21
173.36
  0
LINE
  8
0
 10
107.249
 20
173.36
 11
107.249
 21
172.14
  0
LINE
  8
0
 10
107.249
 20
172.14
 11
98.9991
 21
172.14
  0
LINE
  8
0
 10
98.9991
 20
172.14
 11
98.9991
 21
156.86
  0
LINE
  8
0
 10
98.9991
 20
156.86
 11
107.249
 21
156.86
  0
LINE
  8
0
 10
107.249
 20
156.86
 11
107.249
 21
155.64
  0
LINE
  8
0
 10
107.249
 20
155.64
 11
98.9991
 21
155.64
  0
LINE
  8
0
 10
98.9991
 20
155.64
 11
98.9991
 21
140.36
  0
LINE
  8
0
 10
98.9991
 20
140.36
 11
107.249
 21
140.36
  0
LINE
  8
0
 10
107.249
 20
140.36
 11
107.249
 21
139.14
  0
LINE
  8
0
 10
107.249
 20
139.14
 11
98.9991
 21
139.14
  0
LINE
  8
0
 10
98.9991
 20
139.14
 11
98.9991
 21
123.86
  0
LINE
  8
0
 10
98.9991
 20
123.86
 11
107.249
 21
123.86
  0
LINE
  8
0
 10
107.249
 20
123.86
 11
107.249
 21
122.64
  0
LINE
  8
0
 10
107.249
 20
122.64
 11
98.9991
 21
122.64
  0
LINE
  8
0
 10
98.9991
 20
122.64
 11
98.9991
 21
107.36
  0
LINE
  8
0
 10
98.9991
 20
107.36
 11
107.249
 21
107.36
  0
LINE
  8
0
 10
107.249
 20
107.36
 11
107.249
 21
106.14
  0
LINE
  8
0
 10
107.249
 20
106.14
 11
98.9991
 21
106.14
  0
LINE
  8
0
 10
98.9991
 20
106.14
 11
98.9991
 21
90.86
  0
LINE
  8
0
 10
98.9991
 20
90.86
 11
107.249
 21
90.86
  0
LINE
  8
0
 10
107.249
 20
90.86
 11
107.249
 21
89.64
  0
LINE
  8
0
 10
107.249
 20
89.64
 11
98.9991
 21
89.64
  0
LINE
  8
0
 10
98.9991
 20
89.64
 11
98.9991
 21
74.36
  0
LINE
  8
0
 10
98.9991
 20
74.36
 11
107.249
 21
74.36
  0
LINE
  8
0
 10
107.249
 20
74.36
 11
107.249
 21
73.14
  0
LINE
  8
0
 10
107.249
 20
73.14
 11
98.9991
 21
73.14
  0
LINE
  8
0
 10
98.9991
 20
73.14
 11
98.9991
 21
57.86
  0
LINE
  8
0
 10
98.9991
 20
57.86
 11
107.249
 21
57.86
  0
LINE
  8
0
 10
107.249
 20
57.86
 11
107.249
 21
56.64
  0
LINE
  8
0
 10
107.249
 20
56.64
 11
98.9991
 21
56.64
  0
LINE
  8
0
 10
98.9991
 20
56.64
 11
98.9991
 21
41.36
  0
LINE
  8
0
 10
98.9991
 20
41.36
 11
107.249
 21
41.36
  0
LINE
  8
0
 10
107.249
 20
41.36
 11
107.249
 21
40.14
  0
LINE
  8
0
 10
107.249
 20
40.14
 11
98.9991
 21
40.14
  0
LINE
  8
0
 10
98.9991
 20
40.14
 11
98.9991
 21
24.86
  0
LINE
  8
0
 10
98.9991
 20
24.86
 11
107.249
 21
24.86
  0
LINE
  8
0
 10
107.249
 20
24.86
 11
107.249
 21
23.64
  0
LINE
  8
0
 10
107.249
 20
23.64
 11
98.9991
 21
23.64
  0
LINE
  8
0
 10
98.9991
 20
23.64
 11
98.9991
 21
8.36
  0
LINE
  8
0
 10
98.9991
 20
8.36
 11
107.249
 21
8.36
  0
LINE
  8
0
 10
107.249
 20
8.36
 11
107.249
 21
7.14001
  0
LINE
  8
0
 10
107.249
 20
7.14001
 11
98.9991
 21
7.14001
  0
LINE
  8
0
 10
98.9991
 20
7.14001
 11
98.9991
 21
-2.19822e-14
  0
LINE
  8
0
 10
98.9991
 20
-2.19822e-14
 11
115.499
 21
-2.5646e-14
  0
LINE
  8
0
 10
115.499
 20
-2.5646e-14
 11
115.499
 21
181
  0
LINE
  8
0
 10
115.499
 20
181
 11
98.9991
 21
181
  0
LINE
  8
0
 10
115.499
 20
181
 11
115.499
 21
173.36
  0
LINE
  8
0
 10
115.499
 20
173.36
 11
123.749
 21
173.36
  0
LINE
  8
0
 10
123.749
 20
173.36
 11
123.749
 21
172.14
  0
LINE
  8
0
 10
123.749
 20
172.14
 11
115.499
 21
172.14
  0
LINE
  8
0
 10
115.499
 20
172.14
 11
115.499
 21
156.86
  0
LINE
  8
0
 10
115.499
 20
156.86
 11
123.749
 21
156.86
  0
LINE
  8
0
 10
123.749
 20
156.86
 11
123.749
 21
155.64
  0
LINE
  8
0
 10
123.749
 20
155.64
 11
115.499
 21
155.64
  0
LINE
  8
0
 10
115.499
 20
155.64
 11
115.499
 21
140.36
  0
LINE
  8
0
 10
115.499
 20
140.36
 11
123.749
 21
140.36
  0
LINE
  8
0
 10
123.749
 20
140.36
 11
123.749
 21
139.14
  0
LINE
  8
0
 10
123.749
 20
139.14
 11
115.499
 21
139.14
  0
LINE
  8
0
 10
115.499
 20
139.14
 11
115.499
 21
123.86
  0
LINE
  8
0
 10
115.499
 20
123.86
 11
123.749
 21
123.86
  0
LINE
  8
0
 10
123.749
 20
123.86
 11
123.749
 21
122.64
  0
LINE
  8
0
 10
123.749
 20
122.64
 11
115.499
 21
122.64
  0
LINE
  8
0
 10
115.499
 20
122.64
 11
115.499
 21
107.36
  0
LINE
  8
0
 10
115.499
 20
107.36
 11
123.749
 21
107.36
  0
LINE
  8
0
 10
123.749
 20
107.36
 11
123.749
 21
106.14
  0
LINE
  8
0
 10
123.749
 20
106.14
 11
115.499
 21
106.14
  0
LINE
  8
0
 10
115.499
 20
106.14
 11
115.499
 21
90.86
  0
LINE
  8
0
 10
115.499
 20
90.86
 11
123.749
 21
90.86
  0
LINE
  8
0
 10
123.749
 20
90.86
 11
123.749
 21
89.64
  0
LINE
  8
0
 10
123.749
 20
89.64
 11
115.499
 21
89.64
  0
LINE
  8
0
 10
115.499
 20
89.64
 11
115.499
 21
74.36
  0
LINE
  8
0
 10
115.499
 20
74.36
 11
123.749
 21
74.36
  0
LINE
  8
0
 10
123.749
 20
74.36
 11
123.749
 21
73.14
  0
LINE
  8
0
 10
123.749
 20
73.14
 11
115.499
 21
73.14
  0
LINE
  8
0
 10
115.499
 20
73.14
 11
115.499
 21
57.86
  0
LINE
  8
0
 10
115.499
 20
57.86
 11
123.749
 21
57.86
  0
LINE
  8
0
 10
123.749
 20
57.86
 11
123.749
 21
56.64
  0
LINE
  8
0
 10
123.749
 20
56.64
 11
115.499
 21
56.64
  0
LINE
  8
0
 10
115.499
 20
56.64
 11
115.499
 21
41.36
  0
LINE
  8
0
 10
115.499
 20
41.36
 11
123.749
 21
41.36
  0
LINE
  8
0
 10
123.749
 20
41.36
 11
123.749
 21
40.14
  0
LINE
  8
0
 10
123.749
 20
40.14
 11
115.499
 21
40.14
  0
LINE
  8
0
 10
115.499
 20
40.14
 11
115.499
 21
24.86
  0
LINE
  8
0
 10
115.499
 20
24.86
 11
123.749
 21
24.86
  0
LINE
  8
0
 10
123.749
 20
24.86
 11
123.749
 21
23.64
  0
LINE
  8
0
 10
123.749
 20
23.64
 11
115.499
 21
23.64
  0
LINE
  8
0
 10
115.499
 20
23.64
 11
115.499
 21
8.36
  0
LINE
  8
0
 10
115.499
 20
8.36
 11
123.749
 21
8.36
  0
LINE
  8
0
 10
123.749
 20
8.36
 11
123.749
 21
7.14001
  0
LINE
  8
0
 10
123.749
 20
7.14001
 11
115.499
 21
7.14001
  0
LINE
  8
0
 10
115.499
 20
7.14001
 11
115.499
 21
-2.5646e-14
  0
LINE
  8
0
 10
115.499
 20
-2.5646e-14
 11
131.999
 21
-2.93097e-14
  0
LINE
  8
0
 10
131.999
 20
-2.93097e-14
 11
131.999
 21
181
  0
LINE
  8
0
 10
131.999
 20
181
 11
115.499
 21
181
  0
LINE
  8
0
 10
131.999
 20
181
 11
131.999
 21
173.36
  0
LINE
  8
0
 10
131.999
 20
173.36
 11
140.249
 21
173.36
  0
LINE
  8
0
 10
140.249
 20
173.36
 11
140.249
 21
172.14
  0
LINE
  8
0
 10
140.249
 20
172.14
 11
131.999
 21
172.14
  0
LINE
  8
0
 10
131.999
 20
172.14
 11
131.999
 21
156.86
  0
LINE
  8
0
 10
131.999
 20
156.86
 11
140.249
 21
156.86
  0
LINE
  8
0
 10
140.249
 20
156.86
 11
140.249
 21
155.64
  0
LINE
  8
0
 10
140.249
 20
155.64
 11
131.999
 21
155.64
  0
LINE
  8
0
 10
131.999
 20
155.64
 11
131.999
 21
140.36
  0
LINE
  8
0
 10
131.999
 20
140.36
 11
140.249
 21
140.36
  0
LINE
  8
0
 10
140.249
 20
140.36
 11
140.249
 21
139.14
  0
LINE
  8
0
 10
140.249
 20
139.14
 11
131.999
 21
139.14
  0
LINE
  8
0
 10
131.999
 20
139.14
 11
131.999
 21
123.86
  0
LINE
  8
0
 10
131.999
 20
123.86
 11
140.249
 21
123.86
  0
LINE
  8
0
 10
140.249
 20
123.86
 11
140.249
 21
122.64
  0
LINE
  8
0
 10
140.249
 20
122.64
 11
131.999
 21
122.64
  0
LINE
  8
0
 10
131.999
 20
122.64
 11
131.999
 21
107.36
  0
LINE
  8
0
 10
131.999
 20
107.36
 11
140.249
 21
107.36
  0
LINE
  8
0
 10
140.249
 20
107.36
 11
140.249
 21
106.14
  0
LINE
  8
0
 10
140.249
 20
106.14
 11
131.999
 21
106.14
  0
LINE
  8
0
 10
131.999
 20
106.14
 11
131.999
 21
90.86
  0
LINE
  8
0
 10
131.999
 20
90.86
 11
140.249
 21
90.86
  0
LINE
  8
0
 10
140.249
 20
90.86
 11
140.249
 21
89.64
  0
LINE
  8
0
 10
140.249
 20
89.64
 11
131.999
 21
89.64
  0
LINE
  8
0
 10
131.999
 20
89.64
 11
131.999
 21
74.36
  0
LINE
  8
0
 10
131.999
 20
74.36
 11
140.249
 21
74.36
  0
LINE
  8
0
 10
140.249
 20
74.36
 11
140.249
 21
73.14
  0
LINE
  8
0
 10
140.249
 20
73.14
 11
131.999
 21
73.14
  0
LINE
  8
0
 10
131.999
 20
73.14
 11
131.999
 21
57.86
  0
LINE
  8
0
 10
131.999
 20
57.86
 11
140.249
 21
57.86
  0
LINE
  8
0
 10
140.249
 20
57.86
 11
140.249
 21
56.64
  0
LINE
  8
0
 10
140.249
 20
56.64
 11
131.999
 21
56.64
  0
LINE
  8
0
 10
131.999
 20
56.64
 11
131.999
 21
41.36
  0
LINE
  8
0
 10
131.999
 20
41.36
 11
140.249
 21
41.36
  0
LINE
  8
0
 10
140.249
 20
41.36
 11
140.249
 21
40.14
  0
LINE
  8
0
 10
140.249
 20
40.14
 11
131.999
 21
40.14
  0
LINE
  8
0
 10
131.999
 20
40.14
 11
131.999
 21
24.86
  0
LINE
  8
0
 10
131.999
 20
24.86
 11
140.249
 21
24.86
  0
LINE
  8
0
 10
140.249
 20
24.86
 11
140.249
 21
23.64
  0
LINE
  8
0
 10
140.249
 20
23.64
 11
131.999
 21
23.64
  0
LINE
  8
0
 10
131.999
 20
23.64
 11
131.999
 21
8.36
  0
LINE
  8
0
 10
131.999
 20
8.36
 11
140.249
 21
8.36
  0
LINE
  8
0
 10
140.249
 20
8.36
 11
140.249
 21
7.14001
  0
LINE
  8
0
 10
140.249
 20
7.14001
 11
131.999
 21
7.14001
  0
LINE
  8
0
 10
131.999
 20
7.14001
 11
131.999
 21
-2.93097e-14
  0
LINE
  8
0
 10
131.999
 20
-2.93097e-14
 11
148.499
 21
-3.29735e-14
  0
LINE
  8
0
 10
148.499
 20
-3.29735e-14
 11
148.499
 21
181
  0
LINE
  8
0
 10
148.499
 20
181
 11
131.999
 21
181
  0
LINE
  8
0
 10
148.499
 20
181
 11
148.499
 21
173.36
  0
LINE
  8
0
 10
148.499
 20
173.36
 11
156.749
 21
173.36
  0
LINE
  8
0
 10
156.749
 20
173.36
 11
156.749
 21
172.14
  0
LINE
  8
0
 10
156.749
 20
172.14
 11
148.499
 21
172.14
  0
LINE
  8
0
 10
148.499
 20
172.14
 11
148.499
 21
156.86
  0
LINE
  8
0
 10
148.499
 20
156.86
 11
156.749
 21
156.86
  0
LINE
  8
0
 10
156.749
 20
156.86
 11
156.749
 21
155.64
  0
LINE
  8
0
 10
156.749
 20
155.64
 11
148.499
 21
155.64
  0
LINE
  8
0
 10
148.499
 20
155.64
 11
148.499
 21
140.36
  0
LINE
  8
0
 10
148.499
 20
140.36
 11
156.749
 21
140.36
  0
LINE
  8
0
 10
156.749
 20
140.36
 11
156.749
 21
139.14
  0
LINE
  8
0
 10
156.749
 20
139.14
 11
148.499
 21
139.14
  0
LINE
  8
0
 10
148.499
 20
139.14
 11
148.499
 21
123.86
  0
LINE
  8
0
 10
148.499
 20
123.86
 11
156.749
 21
123.86
  0
LINE
  8
0
 10
156.749
 20
123.86
 11
156.749
 21
122.64
  0
LINE
  8
0
 10
156.749
 20
122.64
 11
148.499
 21
122.64
  0
LINE
  8
0
 10
148.499
 20
122.64
 11
148.499
 21
107.36
  0
LINE
  8
0
 10
148.499
 20
107.36
 11
156.749
 21
107.36
  0
LINE
  8
0
 10
156.749
 20
107.36
 11
156.749
 21
106.14
  0
LINE
  8
0
 10
156.749
 20
106.14
 11
148.499
 21
106.14
  0
LINE
  8
0
 10
148.499
 20
106.14
 11
148.499
 21
90.86
  0
LINE
  8
0
 10
148.499
 20
90.86
 11
156.749
 21
90.86
  0
LINE
  8
0
 10
156.749
 20
90.86
 11
156.749
 21
89.64
  0
LINE
  8
0
 10
156.749
 20
89.64
 11
148.499
 21
89.64
  0
LINE
  8
0
 10
148.499
 20
89.64
 11
148.499
 21
74.36
  0
LINE
  8
0
 10
148.499
 20
74.36
 11
156.749
 21
74.36
  0
LINE
  8
0
 10
156.749
 20
74.36
 11
156.749
 21
73.14
  0
LINE
  8
0
 10
156.749
 20
73.14
 11
148.499
 21
73.14
  0
LINE
  8
0
 10
148.499
 20
73.14
 11
148.499
 21
57.86
  0
LINE
  8
0
 10
148.499
 20
57.86
 11
156.749
 21
57.86
  0
LINE
  8
0
 10
156.749
 20
57.86
 11
156.749
 21
56.64
  0
LINE
  8
0
 10
156.749
 20
56.64
 11
148.499
 21
56.64
  0
LINE
  8
0
 10
148.499
 20
56.64
 11
148.499
 21
41.36
  0
LINE
  8
0
 10
148.499
 20
41.36
 11
156.749
 21
41.36
  0
LINE
  8
0
 10
156.749
 20
41.36
 11
156.749
 21
40.14
  0
LINE
  8
0
 10
156.749
 20
40.14
 11
148.499
 21
40.14
  0
LINE
  8
0
 10
148.499
 20
40.14
 11
148.499
 21
24.86
  0
LINE
  8
0
 10
148.499
 20
24.86
 11
156.749
 21
24.86
  0
LINE
  8
0
 10
156.749
 20
24.86
 11
156.749
 21
23.64
  0
LINE
  8
0
 10
156.749
 20
23.64
 11
148.499
 21
23.64
  0
LINE
  8
0
 10
148.499
 20
23.64
 11
148.499
 21
8.36
  0
LINE
  8
0
 10
148.499
 20
8.36
 11
156.749
 21
8.36
  0
LINE
  8
0
 10
156.749
 20
8.36
 11
156.749
 21
7.14001
  0
LINE
  8
0
 10
156.749
 20
7.14001
 11
148.499
 21
7.14001
  0
LINE
  8
0
 10
148.499
 20
7.14001
 11
148.499
 21
-3.29735e-14
  0
LINE
  8
0
 10
148.499
 20
-3.29735e-14
 11
164.999
 21
-3.66372e-14
  0
LINE
  8
0
 10
164.999
 20
-3.66372e-14
 11
164.999
 21
181
  0
LINE
  8
0
 10
164.999
 20
181
 11
148.499
 21
181
  0
LINE
  8
0
 10
165
 20
181
 11
165
 21
173.36
  0
LINE
  8
0
 10
165
 20
173.36
 11
173.25
 21
173.36
  0
LINE
  8
0
 10
173.25
 20
173.36
 11
173.25
 21
172.14
  0
LINE
  8
0
 10
173.25
 20
172.14
 11
165
 21
172.14
  0
LINE
  8
0
 10
165
 20
172.14
 11
165
 21
156.86
  0
LINE
  8
0
 10
165
 20
156.86
 11
173.25
 21
156.86
  0
LINE
  8
0
 10
173.25
 20
156.86
 11
173.25
 21
155.64
  0
LINE
  8
0
 10
173.25
 20
155.64
 11
165
 21
155.64
  0
LINE
  8
0
 10
165
 20
155.64
 11
165
 21
140.36
  0
LINE
  8
0
 10
165
 20
140.36
 11
173.25
 21
140.36
  0
LINE
  8
0
 10
173.25
 20
140.36
 11
173.25
 21
139.14
  0
LINE
  8
0
 10
173.25
 20
139.14
 11
165
 21
139.14
  0
LINE
  8
0
 10
165
 20
139.14
 11
165
 21
123.86
  0
LINE
  8
0
 10
165
 20
123.86
 11
173.25
 21
123.86
  0
LINE
  8
0
 10
173.25
 20
123.86
 11
173.25
 21
122.64
  0
LINE
  8
0
 10
173.25
 20
122.64
 11
165
 21
122.64
  0
LINE
  8
0
 10
165
 20
122.64
 11
165
 21
107.36
  0
LINE
  8
0
 10
165
 20
107.36
 11
173.25
 21
107.36
  0
LINE
  8
0
 10
173.25
 20
107.36
 11
173.25
 21
106.14
  0
LINE
  8
0
 10
173.25
 20
106.14
 11
165
 21
106.14
  0
LINE
  8
0
 10
165
 20
106.14
 11
165
 21
90.86
  0
LINE
  8
0
 10
165
 20
90.86
 11
173.25
 21
90.86
  0
LINE
  8
0
 10
173.25
 20
90.86
 11
173.25
 21
89.64
  0
LINE
  8
0
 10
173.25
 20
89.64
 11
165
 21
89.64
  0
LINE
  8
0
 10
165
 20
89.64
 11
165
 21
74.36
  0
LINE
  8
0
 10
165
 20
74.36
 11
173.25
 21
74.36
  0
LINE
  8
0
 10
173.25
 20
74.36
 11
173.25
 21
73.14
  0
LINE
  8
0
 10
173.25
 20
73.14
 11
165
 21
73.14
  0
LINE
  8
0
 10
165
 20
73.14
 11
165
 21
57.86
  0
LINE
  8
0
 10
165
 20
57.86
 11
173.25
 21
57.86
  0
LINE
  8
0
 10
173.25
 20
57.86
 11
173.25
 21
56.64
  0
LINE
  8
0
 10
173.25
 20
56.64
 11
165
 21
56.64
  0
LINE
  8
0
 10
165
 20
56.64
 11
165
 21
41.36
  0
LINE
  8
0
 10
165
 20
41.36
 11
173.25
 21
41.36
  0
LINE
  8
0
 10
173.25
 20
41.36
 11
173.25
 21
40.14
  0
LINE
  8
0
 10
173.25
 20
40.14
 11
165
 21
40.14
  0
LINE
  8
0
 10
165
 20
40.14
 11
165
 21
24.86
  0
LINE
  8
0
 10
165
 20
24.86
 11
173.25
 21
24.86
  0
LINE
  8
0
 10
173.25
 20
24.86
 11
173.25
 21
23.64
  0
LINE
  8
0
 10
173.25
 20
23.64
 11
165
 21
23.64
  0
LINE
  8
0
 10
165
 20
23.64
 11
165
 21
8.36
  0
LINE
  8
0
 10
165
 20
8.36
 11
173.25
 21
8.36
  0
LINE
  8
0
 10
173.25
 20
8.36
 11
173.25
 21
7.14001
  0
LINE
  8
0
 10
173.25
 20
7.14001
 11
165
 21
7.14001
  0
LINE
  8
0
 10
165
 20
7.14001
 11
165
 21
-3.66373e-14
  0
LINE
  8
0
 10
165
 20
-3.66373e-14
 11
181.5
 21
-4.0301e-14
  0
LINE
  8
0
 10
181.5
 20
-4.0301e-14
 11
181.5
 21
181
  0
LINE
  8
0
 10
181.5
 20
181
 11
165
 21
181
  0
LINE
  8
0
 10
181.5
 20
181
 11
181.5
 21
173.36
  0
LINE
  8
0
 10
181.5
 20
173.36
 11
189.75
 21
173.36
  0
LINE
  8
0
 10
189.75
 20
173.36
 11
189.75
 21
172.14
  0
LINE
  8
0
 10
189.75
 20
172.14
 11
181.5
 21
172.14
  0
LINE
  8
0
 10
181.5
 20
172.14
 11
181.5
 21
156.86
  0
LINE
  8
0
 10
181.5
 20
156.86
 11
189.75
 21
156.86
  0
LINE
  8
0
 10
189.75
 20
156.86
 11
189.75
 21
155.64
  0
LINE
  8
0
 10
189.75
 20
155.64
 11
181.5
 21
155.64
  0
LINE
  8
0
 10
181.5
 20
155.64
 11
181.5
 21
140.36
  0
LINE
  8
0
 10
181.5
 20
140.36
 11
189.75
 21
140.36
  0
LINE
  8
0
 10
189.75
 20
140.36
 11
189.75
 21
139.14
  0
LINE
  8
0
 10
189.75
 20
139.14
 11
181.5
 21
139.14
  0
LINE
  8
0
 10
181.5
 20
139.14
 11
181.5
 21
123.86
  0
LINE
  8
0
 10
181.5
 20
123.86
 11
189.75
 21
123.86
  0
LINE
  8
0
 10
189.75
 20
123.86
 11
189.75
 21
122.64
  0
LINE
  8
0
 10
189.75
 20
122.64
 11
181.5
 21
122.64
  0
LINE
  8
0
 10
181.5
 20
122.64
 11
181.5
 21
107.36
  0
LINE
  8
0
 10
181.5
 20
107.36
 11
189.75
 21
107.36
  0
LINE
  8
0
 10
189.75
 20
107.36
 11
189.75
 21
106.14
  0
LINE
  8
0
 10
189.75
 20
106.14
 11
181.5
 21
106.14
  0
LINE
  8
0
 10
181.5
 20
106.14
 11
181.5
 21
90.86
  0
LINE
  8
0
 10
181.5
 20
90.86
 11
189.75
 21
90.86
  0
LINE
  8
0
 10
189.75
 20
90.86
 11
189.75
 21
89.64
  0
LINE
  8
0
 10
189.75
 20
89.64
 11
181.5
 21
89.64
  0
LINE
  8
0
 10
181.5
 20
89.64
 11
181.5
 21
74.36
  0
LINE
  8
0
 10
181.5
 20
74.36
 11
189.75
 21
74.36
  0
LINE
  8
0
 10
189.75
 20
74.36
 11
189.75
 21
73.14
  0
LINE
  8
0
 10
189.75
 20
73.14
 11
181.5
 21
73.14
  0
LINE
  8
0
 10
181.5
 20
73.14
 11
181.5
 21
57.86
  0
LINE
  8
0
 10
181.5
 20
57.86
 11
189.75
 21
57.86
  0
LINE
  8
0
 10
189.75
 20
57.86
 11
189.75
 21
56.64
  0
LINE
  8
0
 10
189.75
 20
56.64
 11
181.5
 21
56.64
  0
LINE
  8
0
 10
181.5
 20
56.64
 11
181.5
 21
41.36
  0
LINE
  8
0
 10
181.5
 20
41.36
 11
189.75
 21
41.36
  0
LINE
  8
0
 10
189.75
 20
41.36
 11
189.75
 21
40.14
  0
LINE
  8
0
 10
189.75
 20
40.14
 11
181.5
 21
40.14
  0
LINE
  8
0
 10
181.5
 20
40.14
 11
181.5
 21
24.86
  0
LINE
  8
0
 10
181.5
 20
24.86
 11
189.75
 21
24.86
  0
LINE
  8
0
 10
189.75
 20
24.86
 11
189.75
 21
23.64
  0
LINE
  8
0
 10
189.75
 20
23.64
 11
181.5
 21
23.64
  0
LINE
  8
0
 10
181.5
 20
23.64
 11
181.5
 21
8.36
  0
LINE
  8
0
 10
181.5
 20
8.36
 11
189.75
 21
8.36
  0
LINE
  8
0
 10
189.75
 20
8.36
 11
189.75
 21
7.14001
  0
LINE
  8
0
 10
189.75
 20
7.14001
 11
181.5
 21
7.14001
  0
LINE
  8
0
 10
181.5
 20
7.14001
 11
181.5
 21
-4.0301e-14
  0
LINE
  8
0
 10
181.5
 20
-4.0301e-14
 11
198
 21
-4.39647e-14
  0
LINE
  8
0
 10
198
 20
-4.39647e-14
 11
198
 21
181
  0
LINE
  8
0
 10
198
 20
181
 11
181.5
 21
181
  0
LINE
  8
0
 10
198
 20
181
 11
198
 21
173.36
  0
LINE
  8
0
 10
198
 20
173.36
 11
206.25
 21
173.36
  0
LINE
  8
0
 10
206.25
 20
173.36
 11
206.25
 21
172.14
  0
LINE
  8
0
 10
206.25
 20
172.14
 11
198
 21
172.14
  0
LINE
  8
0
 10
198
 20
172.14
 11
198
 21
156.86
  0
LINE
  8
0
 10
198
 20
156.86
 11
206.25
 21
156.86
  0
LINE
  8
0
 10
206.25
 20
156.86
 11
206.25
 21
155.64
  0
LINE
  8
0
 10
206.25
 20
155.64
 11
198
 21
155.64
  0
LINE
  8
0
 10
198
 20
155.64
 11
198
 21
140.36
  0
LINE
  8
0
 10
198
 20
140.36
 11
206.25
 21
140.36
  0
LINE
  8
0
 10
206.25
 20
140.36
 11
206.25
 21
139.14
  0
LINE
  8
0
 10
206.25
 20
139.14
 11
198
 21
139.14
  0
LINE
  8
0
 10
198
 20
139.14
 11
198
 21
123.86
  0
LINE
  8
0
 10
198
 20
123.86
 11
206.25
 21
123.86
  0
LINE
  8
0
 10
206.25
 20
123.86
 11
206.25
 21
122.64
  0
LINE
  8
0
 10
206.25
 20
122.64
 11
198
 21
122.64
  0
LINE
  8
0
 10
198
 20
122.64
 11
198
 21
107.36
  0
LINE
  8
0
 10
198
 20
107.36
 11
206.25
 21
107.36
  0
LINE
  8
0
 10
206.25
 20
107.36
 11
206.25
 21
106.14
  0
LINE
  8
0
 10
206.25
 20
106.14
 11
198
 21
106.14
  0
LINE
  8
0
 10
198
 20
106.14
 11
198
 21
90.86
  0
LINE
  8
0
 10
198
 20
90.86
 11
206.25
 21
90.86
  0
LINE
  8
0
 10
206.25
 20
90.86
 11
206.25
 21
89.64
  0
LINE
  8
0
 10
206.25
 20
89.64
 11
198
 21
89.64
  0
LINE
  8
0
 10
198
 20
89.64
 11
198
 21
74.36
  0
LINE
  8
0
 10
198
 20
74.36
 11
206.25
 21
74.36
  0
LINE
  8
0
 10
206.25
 20
74.36
 11
206.25
 21
73.14
  0
LINE
  8
0
 10
206.25
 20
73.14
 11
198
 21
73.14
  0
LINE
  8
0
 10
198
 20
73.14
 11
198
 21
57.86
  0
LINE
  8
0
 10
198
 20
57.86
 11
206.25
 21
57.86
  0
LINE
  8
0
 10
206.25
 20
57.86
 11
206.25
 21
56.64
  0
LINE
  8
0
 10
206.25
 20
56.64
 11
198
 21
56.64
  0
LINE
  8
0
 10
198
 20
56.64
 11
198
 21
41.36
  0
LINE
  8
0
 10
198
 20
41.36
 11
206.25
 21
41.36
  0
LINE
  8
0
 10
206.25
 20
41.36
 11
206.25
 21
40.14
  0
LINE
  8
0
 10
206.25
 20
40.14
 11
198
 21
40.14
  0
LINE
  8
0
 10
198
 20
40.14
 11
198
 21
24.86
  0
LINE
  8
0
 10
198
 20
24.86
 11
206.25
 21
24.86
  0
LINE
  8
0
 10
206.25
 20
24.86
 11
206.25
 21
23.64
  0
LINE
  8
0
 10
206.25
 20
23.64
 11
198
 21
23.64
  0
LINE
  8
0
 10
198
 20
23.64
 11
198
 21
8.36
  0
LINE
  8
0
 10
198
 20
8.36
 11
206.25
 21
8.36
  0
LINE
  8
0
 10
206.25
 20
8.36
 11
206.25
 21
7.14001
  0
LINE
  8
0
 10
206.25
 20
7.14001
 11
198
 21
7.14001
  0
LINE
  8
0
 10
198
 20
7.14001
 11
198
 21
-4.39648e-14
  0
LINE
  8
0
 10
198
 20
-4.39648e-14
 11
214.5
 21
-4.76285e-14
  0
LINE
  8
0
 10
214.5
 20
-4.76285e-14
 11
214.5
 21
181
  0
LINE
  8
0
 10
214.5
 20
181
 11
198
 21
181
  0
LINE
  8
0
 10
214.5
 20
181
 11
214.5
 21
173.36
  0
LINE
  8
0
 10
214.5
 20
173.36
 11
222.75
 21
173.36
  0
LINE
  8
0
 10
222.75
 20
173.36
 11
222.75
 21
172.14
  0
LINE
  8
0
 10
222.75
 20
172.14
 11
214.5
 21
172.14
  0
LINE
  8
0
 10
214.5
 20
172.14
 11
214.5
 21
156.86
  0
LINE
  8
0
 10
214.5
 20
156.86
 11
222.75
 21
156.86
  0
LINE
  8
0
 10
222.75
 20
156.86
 11
222.75
 21
155.64
  0
LINE
  8
0
 10
222.75
 20
155.64
 11
214.5
 21
155.64
  0
LINE
  8
0
 10
214.5
 20
155.64
 11
214.5
 21
140.36
  0
LINE
  8
0
 10
214.5
 20
140.36
 11
222.75
 21
140.36
  0
LINE
  8
0
 10
222.75
 20
140.36
 11
222.75
 21
139.14
  0
LINE
  8
0
 10
222.75
 20
139.14
 11
214.5
 21
139.14
  0
LINE
  8
0
 10
214.5
 20
139.14
 11
214.5
 21
123.86
  0
LINE
  8
0
 10
214.5
 20
123.86
 11
222.75
 21
123.86
  0
LINE
  8
0
 10
222.75
 20
123.86
 11
222.75
 21
122.64
  0
LINE
  8
0
 10
222.75
 20
122.64
 11
214.5
 21
122.64
  0
LINE
  8
0
 10
214.5
 20
122.64
 11
214.5
 21
107.36
  0
LINE
  8
0
 10
214.5
 20
107.36
 11
222.75
 21
107.36
  0
LINE
  8
0
 10
222.75
 20
107.36
 11
222.75
 21
106.14
  0
LINE
  8
0
 10
222.75
 20
106.14
 11
214.5
 21
106.14
  0
LINE
  8
0
 10
214.5
 20
106.14
 11
214.5
 21
90.86
  0
LINE
  8
0
 10
214.5
 20
90.86
 11
222.75
 21
90.86
  0
LINE
  8
0
 10
222.75
 20
90.86
 11
222.75
 21
89.64
  0
LINE
  8
0
 10
222.75
 20
89.64
 11
214.5
 21
89.64
  0
LINE
  8
0
 10
214.5
 20
89.64
 11
214.5
 21
74.36
  0
LINE
  8
0
 10
214.5
 20
74.36
 11
222.75
 21
74.36
  0
LINE
  8
0
 10
222.75
 20
74.36
 11
222.75
 21
73.14
  0
LINE
  8
0
 10
222.75
 20
73.14
 11
214.5
 21
73.14
  0
LINE
  8
0
 10
214.5
 20
73.14
 11
214.5
 21
57.86
  0
LINE
  8
0
 10
214.5
 20
57.86
 11
222.75
 21
57.86
  0
LINE
  8
0
 10
222.75
 20
57.86
 11
222.75
 21
56.64
  0
LINE
  8
0
 10
222.75
 20
56.64
 11
214.5
 21
56.64
  0
LINE
  8
0
 10
214.5
 20
56.64
 11
214.5
 21
41.36
  0
LINE
  8
0
 10
214.5
 20
41.36
 11
222.75
 21
41.36
  0
LINE
  8
0
 10
222.75
 20
41.36
 11
222.75
 21
40.14
  0
LINE
  8
0
 10
222.75
 20
40.14
 11
214.5
 21
40.14
  0
LINE
  8
0
 10
214.5
 20
40.14
 11
214.5
 21
24.86
  0
LINE
  8
0
 10
214.5
 20
24.86
 11
222.75
 21
24.86
  0
LINE
  8
0
 10
222.75
 20
24.86
 11
222.75
 21
23.64
  0
LINE
  8
0
 10
222.75
 20
23.64
 11
214.5
 21
23.64
  0
LINE
  8
0
 10
214.5
 20
23.64
 11
214.5
 21
8.36
  0
LINE
  8
0
 10
214.5
 20
8.36
 11
222.75
 21
8.36
  0
LINE
  8
0
 10
222.75
 20
8.36
 11
222.75
 21
7.14001
  0
LINE
  8
0
 10
222.75
 20
7.14001
 11
214.5
 21
7.14001
  0
LINE
  8
0
 10
214.5
 20
7.14001
 11
214.5
 21
-4.76285e-14
  0
LINE
  8
0
 10
214.5
 20
-4.76285e-14
 11
231
 21
-5.12923e-14
  0
LINE
  8
0
 10
231
 20
-5.12923e-14
 11
231
 21
181
  0
LINE
  8
0
 10
231
 20
181
 11
214.5
 21
181
  0
LINE
  8
0
 10
231
 20
181
 11
231
 21
173.36
  0
LINE
  8
0
 10
231
 20
173.36
 11
239.25
 21
173.36
  0
LINE
  8
0
 10
239.25
 20
173.36
 11
239.25
 21
172.14
  0
LINE
  8
0
 10
239.25
 20
172.14
 11
231
 21
172.14
  0
LINE
  8
0
 10
231
 20
172.14
 11
231
 21
156.86
  0
LINE
  8
0
 10
231
 20
156.86
 11
239.25
 21
156.86
  0
LINE
  8
0
 10
239.25
 20
156.86
 11
239.25
 21
155.64
  0
LINE
  8
0
 10
239.25
 20
155.64
 11
231
 21
155.64
  0
LINE
  8
0
 10
231
 20
155.64
 11
231
 21
140.36
  0
LINE
  8
0
 10
231
 20
140.36
 11
239.25
 21
140.36
  0
LINE
  8
0
 10
239.25
 20
140.36
 11
239.25
 21
139.14
  0
LINE
  8
0
 10
239.25
 20
139.14
 11
231
 21
139.14
  0
LINE
  8
0
 10
231
 20
139.14
 11
231
 21
123.86
  0
LINE
  8
0
 10
231
 20
123.86
 11
239.25
 21
123.86
  0
LINE
  8
0
 10
239.25
 20
123.86
 11
239.25
 21
122.64
  0
LINE
  8
0
 10
239.25
 20
122.64
 11
231
 21
122.64
  0
LINE
  8
0
 10
231
 20
122.64
 11
231
 21
107.36
  0
LINE
  8
0
 10
231
 20
107.36
 11
239.25
 21
107.36
  0
LINE
  8
0
 10
239.25
 20
107.36
 11
239.25
 21
106.14
  0
LINE
  8
0
 10
239.25
 20
106.14
 11
231
 21
106.14
  0
LINE
  8
0
 10
231
 20
106.14
 11
231
 21
90.86
  0
LINE
  8
0
 10
231
 20
90.86
 11
239.25
 21
90.86
  0
LINE
  8
0
 10
239.25
 20
90.86
 11
239.25
 21
89.64
  0
LINE
  8
0
 10
239.25
 20
89.64
 11
231
 21
89.64
  0
LINE
  8
0
 10
231
 20
89.64
 11
231
 21
74.36
  0
LINE
  8
0
 10
231
 20
74.36
 11
239.25
 21
74.36
  0
LINE
  8
0
 10
239.25
 20
74.36
 11
239.25
 21
73.14
  0
LINE
  8
0
 10
239.25
 20
73.14
 11
231
 21
73.14
  0
LINE
  8
0
 10
231
 20
73.14
 11
231
 21
57.86
  0
LINE
  8
0
 10
231
 20
57.86
 11
239.25
 21
57.86
  0
LINE
  8
0
 10
239.25
 20
57.86
 11
239.25
 21
56.64
  0
LINE
  8
0
 10
239.25
 20
56.64
 11
231
 21
56.64
  0
LINE
  8
0
 10
231
 20
56.64
 11
231
 21
41.36
  0
LINE
  8
0
 10
231
 20
41.36
 11
239.25
 21
41.36
  0
LINE
  8
0
 10
239.25
 20
41.36
 11
239.25
 21
40.14
  0
LINE
  8
0
 10
239.25
 20
40.14
 11
231
 21
40.14
  0
LINE
  8
0
 10
231
 20
40.14
 11
231
 21
24.86
  0
LINE
  8
0
 10
231
 20
24.86
 11
239.25
 21
24.86
  0
LINE
  8
0
 10
239.25
 20
24.86
 11
239.25
 21
23.64
  0
LINE
  8
0
 10
239.25
 20
23.64
 11
231
 21
23.64
  0
LINE
  8
0
 10
231
 20
23.64
 11
231
 21
8.36
  0
LINE
  8
0
 10
231
 20
8.36
 11
239.25
 21
8.36
  0
LINE
  8
0
 10
239.25
 20
8.36
 11
239.25
 21
7.14001
  0
LINE
  8
0
 10
239.25
 20
7.14001
 11
231
 21
7.14001
  0
LINE
  8
0
 10
231
 20
7.14001
 11
231
 21
-5.12923e-14
  0
LINE
  8
0
 10
231
 20
-5.12923e-14
 11
247.5
 21
-5.4956e-14
  0
LINE
  8
0
 10
247.5
 20
-5.4956e-14
 11
247.5
 21
181
  0
LINE
  8
0
 10
247.5
 20
181
 11
231
 21
181
  0
LINE
  8
0
 10
247.5
 20
181
 11
247.5
 21
173.36
  0
LINE
  8
0
 10
247.5
 20
173.36
 11
255.75
 21
173.36
  0
LINE
  8
0
 10
255.75
 20
173.36
 11
255.75
 21
172.14
  0
LINE
  8
0
 10
255.75
 20
172.14
 11
247.5
 21
172.14
  0
LINE
  8
0
 10
247.5
 20
172.14
 11
247.5
 21
156.86
  0
LINE
  8
0
 10
247.5
 20
156.86
 11
255.75
 21
156.86
  0
LINE
  8
0
 10
255.75
 20
156.86
 11
255.75
 21
155.64
  0
LINE
  8
0
 10
255.75
 20
155.64
 11
247.5
 21
155.64
  0
LINE
  8
0
 10
247.5
 20
155.64
 11
247.5
 21
140.36
  0
LINE
  8
0
 10
247.5
 20
140.36
 11
255.75
 21
140.36
  0
LINE
  8
0
 10
255.75
 20
140.36
 11
255.75
 21
139.14
  0
LINE
  8
0
 10
255.75
 20
139.14
 11
247.5
 21
139.14
  0
LINE
  8
0
 10
247.5
 20
139.14
 11
247.5
 21
123.86
  0
LINE
  8
0
 10
247.5
 20
123.86
 11
255.75
 21
123.86
  0
LINE
  8
0
 10
255.75
 20
123.86
 11
255.75
 21
122.64
  0
LINE
  8
0
 10
255.75
 20
122.64
 11
247.5
 21
122.64
  0
LINE
  8
0
 10
247.5
 20
122.64
 11
247.5
 21
107.36
  0
LINE
  8
0
 10
247.5
 20
107.36
 11
255.75
 21
107.36
  0
LINE
  8
0
 10
255.75
 20
107.36
 11
255.75
 21
106.14
  0
LINE
  8
0
 10
255.75
 20
106.14
 11
247.5
 21
106.14
  0
LINE
  8
0
 10
247.5
 20
106.14
 11
247.5
 21
90.86
  0
LINE
  8
0
 10
247.5
 20
90.86
 11
255.75
 21
90.86
  0
LINE
  8
0
 10
255.75
 20
90.86
 11
255.75
 21
89.64
  0
LINE
  8
0
 10
255.75
 20
89.64
 11
247.5
 21
89.64
  0
LINE
  8
0
 10
247.5
 20
89.64
 11
247.5
 21
74.36
  0
LINE
  8
0
 10
247.5
 20
74.36
 11
255.75
 21
74.36
  0
LINE
  8
0
 10
255.75
 20
74.36
 11
255.75
 21
73.14
  0
LINE
  8
0
 10
255.75
 20
73.14
 11
247.5
 21
73.14
  0
LINE
  8
0
 10
247.5
 20
73.14
 11
247.5
 21
57.86
  0
LINE
  8
0
 10
247.5
 20
57.86
 11
255.75
 21
57.86
  0
LINE
  8
0
 10
255.75
 20
57.86
 11
255.75
 21
56.64
  0
LINE
  8
0
 10
255.75
 20
56.64
 11
247.5
 21
56.64
  0
LINE
  8
0
 10
247.5
 20
56.64
 11
247.5
 21
41.36
  0
LINE
  8
0
 10
247.5
 20
41.36
 11
255.75
 21
41.36
  0
LINE
  8
0
 10
255.75
 20
41.36
 11
255.75
 21
40.14
  0
LINE
  8
0
 10
255.75
 20
40.14
 11
247.5
 21
40.14
  0
LINE
  8
0
 10
247.5
 20
40.14
 11
247.5
 21
24.86
  0
LINE
  8
0
 10
247.5
 20
24.86
 11
255.75
 21
24.86
  0
LINE
  8
0
 10
255.75
 20
24.86
 11
255.75
 21
23.64
  0
LINE
  8
0
 10
255.75
 20
23.64
 11
247.5
 21
23.64
  0
LINE
  8
0
 10
247.5
 20
23.64
 11
247.5
 21
8.36
  0
LINE
  8
0
 10
247.5
 20
8.36
 11
255.75
 21
8.36
  0
LINE
  8
0
 10
255.75
 20
8.36
 11
255.75
 21
7.14001
  0
LINE
  8
0
 10
255.75
 20
7.14001
 11
247.5
 21
7.14001
  0
LINE
  8
0
 10
247.5
 20
7.14001
 11
247.5
 21
-5.4956e-14
  0
LINE
  8
0
 10
247.5
 20
-5.4956e-14
 11
264
 21
-5.86198e-14
  0
LINE
  8
0
 10
264
 20
-5.86198e-14
 11
264
 21
181
  0
LINE
  8
0
 10
264
 20
181
 11
247.5
 21
181
  0
ENDSEC
  0
SECTION
  2
OBJECTS
  0
DICTIONARY
  0
ENDSEC
  0
EOF
