  0
SECTION
  2
HEADER
  9
$ACADVER
  1
AC1009
  9
$INSBASE
 10
0.0
 20
0.0
 30
0.0
  9
$EXTMIN
 10
0.0
 20
0.0
 30
0.0
  9
$EXTMAX
 10
0.0
 20
0.0
 30
0.0
  0
ENDSEC
  0
SECTION
  2
TABLES
  0
TABLE
  2
VPORT
 70
1
  0
VPORT
  2
*ACTIVE
 70
0
 10
0.0
 20
0.0
 11
1.0
 21
1.0
 12
-5.0
 22
1.0
 13
0.0
 23
0.0
 14
0.1
 24
0.1
 15
0.1
 25
0.1
 16
0.0
 26
0.0
 36
1.0
 17
0.0
 27
0.0
 37
0.0
 40
10.0
 41
1.0
 42
50.0
 43
0.0
 44
0.0
 50
0.0
 51
0.0
 71
0
 72
100
 73
1
 74
1
 75
0
 76
0
 77
0
 78
0
  0
ENDTAB
  0
TABLE
  2
LTYPE
 70
8
  0
LTYPE
  2
CONTINUOUS
 70
0
  3
Solid line
 72
65
 73
0
 40
0.0
  0
LTYPE
  2
DOT
 70
0
  3
. . . . . . .
 72
65
 73
2
 40
0.25
 49
0.0
 49
-0.25
  0
LTYPE
  2
DASHED
 70
0
  3
__ __ __ __ __
 72
65
 73
2
 40
0.8
 49
0.5
 49
-0.3
  0
LTYPE
  2
DASHDOT
 70
0
  3
__ . __ . __ .
 72
65
 73
4
 40
1.0
 49
0.5
 49
-0.25
 49
0.0
 49
-0.25
  0
LTYPE
  2
DIVIDE
 70
0
  3
____ . . ____ . . 
 72
65
 73
6
 40
1.25
 49
0.5
 49
-0.25
 49
0.0
 49
-0.25
 49
0.0
 49
-0.25
  0
LTYPE
  2
BORDER
 70
0
  3
__ __ . __ __ . 
 72
65
 73
6
 40
1.75
 49
0.5
 49
-0.25
 49
0.5
 49
-0.25
 49
0.0
 49
-0.25
  0
LTYPE
  2
HIDDEN
 70
0
  3
__ __ __ __ __
 72
65
 73
2
 40
0.4
 49
0.25
 49
-0.25
  0
LTYPE
  2
CENTER
 70
0
  3
____ _ ____ _ __
 72
65
 73
4
 40
2.0
 49
1.25
 49
-0.25
 49
0.25
 49
-0.25
  0
ENDTAB
  0
TABLE
  2
LAYER
 70
1
  0
LAYER
  2
PYDXF
 70
64
 62
7
  6
continuous
  0
ENDTAB
  0
TABLE
  2
STYLE
 70
1
  0
STYLE
  2
STANDARD
 70
0
 40
0
 41
1.0
 50
0.0
 71
0
 42
1
 3
ARIAL.TTF
 4

  0
ENDTAB
  0
TABLE
  2
VIEW
 70
1
  0
VIEW
  2
BF_TOPVIEW
 70
0
 40
120.0
 10
0.0
 20
0.0
 41
200.0
 11
0.0
 21
0.0
 31
1.0
 12
0.0
 22
0.0
 32
0.0
 42
50.0
 43
0.0
 44
0.0
 50
0.0
 71
0
  0
ENDTAB
  0
ENDSEC
  0
SECTION
  2
BLOCKS
  0
ENDSEC
  0
SECTION
  2
ENTITIES
  0
LINE
  8
0
 10
6.0
 20
70.09999084472656
 30
0.0
 11
5.5858917236328125
 21
70.04547882080078
 31
0.0
  0
LINE
  8
0
 10
5.5858917236328125
 20
70.04547882080078
 30
0.0
 11
5.1999969482421875
 21
69.88563537597656
 31
0.0
  0
LINE
  8
0
 10
5.1999969482421875
 20
69.88563537597656
 30
0.0
 11
4.868629455566406
 21
69.63136291503906
 31
0.0
  0
LINE
  8
0
 10
4.868629455566406
 20
69.63136291503906
 30
0.0
 11
4.6143646240234375
 21
69.29999542236328
 31
0.0
  0
LINE
  8
0
 10
4.6143646240234375
 20
69.29999542236328
 30
0.0
 11
4.4545135498046875
 21
68.91410827636719
 31
0.0
  0
LINE
  8
0
 10
4.4545135498046875
 20
68.91410827636719
 30
0.0
 11
4.400001525878906
 21
68.5
 31
0.0
  0
LINE
  8
0
 10
4.400001525878906
 20
68.5
 30
0.0
 11
4.4545135498046875
 21
68.08588409423828
 31
0.0
  0
LINE
  8
0
 10
4.4545135498046875
 20
68.08588409423828
 30
0.0
 11
4.6143646240234375
 21
67.69999694824219
 31
0.0
  0
LINE
  8
0
 10
4.6143646240234375
 20
67.69999694824219
 30
0.0
 11
4.868629455566406
 21
67.36862182617188
 31
0.0
  0
LINE
  8
0
 10
4.868629455566406
 20
67.36862182617188
 30
0.0
 11
5.1999969482421875
 21
67.1143569946289
 31
0.0
  0
LINE
  8
0
 10
5.1999969482421875
 20
67.1143569946289
 30
0.0
 11
5.5858917236328125
 21
66.95451354980469
 31
0.0
  0
LINE
  8
0
 10
5.5858917236328125
 20
66.95451354980469
 30
0.0
 11
6.0
 21
66.89999389648438
 31
0.0
  0
LINE
  8
0
 10
6.0
 20
66.89999389648438
 30
0.0
 11
6.4141082763671875
 21
66.95451354980469
 31
0.0
  0
LINE
  8
0
 10
6.4141082763671875
 20
66.95451354980469
 30
0.0
 11
6.8000030517578125
 21
67.1143569946289
 31
0.0
  0
LINE
  8
0
 10
6.8000030517578125
 20
67.1143569946289
 30
0.0
 11
7.131370544433594
 21
67.36862182617188
 31
0.0
  0
LINE
  8
0
 10
7.131370544433594
 20
67.36862182617188
 30
0.0
 11
7.3856353759765625
 21
67.69999694824219
 31
0.0
  0
LINE
  8
0
 10
7.3856353759765625
 20
67.69999694824219
 30
0.0
 11
7.5454864501953125
 21
68.08588409423828
 31
0.0
  0
LINE
  8
0
 10
7.5454864501953125
 20
68.08588409423828
 30
0.0
 11
7.599998474121094
 21
68.5
 31
0.0
  0
LINE
  8
0
 10
7.599998474121094
 20
68.5
 30
0.0
 11
7.5454864501953125
 21
68.91410827636719
 31
0.0
  0
LINE
  8
0
 10
7.5454864501953125
 20
68.91410827636719
 30
0.0
 11
7.385643005371094
 21
69.29999542236328
 31
0.0
  0
LINE
  8
0
 10
7.385643005371094
 20
69.29999542236328
 30
0.0
 11
7.131370544433594
 21
69.63136291503906
 31
0.0
  0
LINE
  8
0
 10
7.131370544433594
 20
69.63136291503906
 30
0.0
 11
6.8000030517578125
 21
69.88563537597656
 31
0.0
  0
LINE
  8
0
 10
6.8000030517578125
 20
69.88563537597656
 30
0.0
 11
6.4141082763671875
 21
70.04547882080078
 31
0.0
  0
LINE
  8
0
 10
6.0
 20
70.09999084472656
 30
0.0
 11
6.4141082763671875
 21
70.04547882080078
 31
0.0
  0
LINE
  8
0
 10
98.0
 20
70.09999084472656
 30
0.0
 11
97.58589172363281
 21
70.04547882080078
 31
0.0
  0
LINE
  8
0
 10
97.58589172363281
 20
70.04547882080078
 30
0.0
 11
97.19999694824219
 21
69.88563537597656
 31
0.0
  0
LINE
  8
0
 10
97.19999694824219
 20
69.88563537597656
 30
0.0
 11
96.8686294555664
 21
69.63136291503906
 31
0.0
  0
LINE
  8
0
 10
96.8686294555664
 20
69.63136291503906
 30
0.0
 11
96.61436462402344
 21
69.29999542236328
 31
0.0
  0
LINE
  8
0
 10
96.61436462402344
 20
69.29999542236328
 30
0.0
 11
96.45451354980469
 21
68.91410827636719
 31
0.0
  0
LINE
  8
0
 10
96.45451354980469
 20
68.91410827636719
 30
0.0
 11
96.4000015258789
 21
68.5
 31
0.0
  0
LINE
  8
0
 10
96.4000015258789
 20
68.5
 30
0.0
 11
96.45451354980469
 21
68.08588409423828
 31
0.0
  0
LINE
  8
0
 10
96.45451354980469
 20
68.08588409423828
 30
0.0
 11
96.61436462402344
 21
67.69999694824219
 31
0.0
  0
LINE
  8
0
 10
96.61436462402344
 20
67.69999694824219
 30
0.0
 11
96.8686294555664
 21
67.36862182617188
 31
0.0
  0
LINE
  8
0
 10
96.8686294555664
 20
67.36862182617188
 30
0.0
 11
97.19999694824219
 21
67.1143569946289
 31
0.0
  0
LINE
  8
0
 10
97.19999694824219
 20
67.1143569946289
 30
0.0
 11
97.58589172363281
 21
66.95451354980469
 31
0.0
  0
LINE
  8
0
 10
97.58589172363281
 20
66.95451354980469
 30
0.0
 11
98.0
 21
66.89999389648438
 31
0.0
  0
LINE
  8
0
 10
98.0
 20
66.89999389648438
 30
0.0
 11
98.41410827636719
 21
66.95451354980469
 31
0.0
  0
LINE
  8
0
 10
98.41410827636719
 20
66.95451354980469
 30
0.0
 11
98.80000305175781
 21
67.1143569946289
 31
0.0
  0
LINE
  8
0
 10
98.80000305175781
 20
67.1143569946289
 30
0.0
 11
99.1313705444336
 21
67.36862182617188
 31
0.0
  0
LINE
  8
0
 10
99.1313705444336
 20
67.36862182617188
 30
0.0
 11
99.38563537597656
 21
67.69999694824219
 31
0.0
  0
LINE
  8
0
 10
99.38563537597656
 20
67.69999694824219
 30
0.0
 11
99.54548645019531
 21
68.08588409423828
 31
0.0
  0
LINE
  8
0
 10
99.54548645019531
 20
68.08588409423828
 30
0.0
 11
99.5999984741211
 21
68.5
 31
0.0
  0
LINE
  8
0
 10
99.5999984741211
 20
68.5
 30
0.0
 11
99.54548645019531
 21
68.91410827636719
 31
0.0
  0
LINE
  8
0
 10
99.54548645019531
 20
68.91410827636719
 30
0.0
 11
99.3856430053711
 21
69.29999542236328
 31
0.0
  0
LINE
  8
0
 10
99.3856430053711
 20
69.29999542236328
 30
0.0
 11
99.1313705444336
 21
69.63136291503906
 31
0.0
  0
LINE
  8
0
 10
99.1313705444336
 20
69.63136291503906
 30
0.0
 11
98.80000305175781
 21
69.88563537597656
 31
0.0
  0
LINE
  8
0
 10
98.80000305175781
 20
69.88563537597656
 30
0.0
 11
98.41410827636719
 21
70.04547882080078
 31
0.0
  0
LINE
  8
0
 10
98.0
 20
70.09999084472656
 30
0.0
 11
98.41410827636719
 21
70.04547882080078
 31
0.0
  0
LINE
  8
0
 10
6.0
 20
19.349998474121094
 30
0.0
 11
5.5858917236328125
 21
19.295482635498047
 31
0.0
  0
LINE
  8
0
 10
5.5858917236328125
 20
19.295482635498047
 30
0.0
 11
5.1999969482421875
 21
19.135639190673828
 31
0.0
  0
LINE
  8
0
 10
5.1999969482421875
 20
19.135639190673828
 30
0.0
 11
4.868629455566406
 21
18.881370544433594
 31
0.0
  0
LINE
  8
0
 10
4.868629455566406
 20
18.881370544433594
 30
0.0
 11
4.6143646240234375
 21
18.549999237060547
 31
0.0
  0
LINE
  8
0
 10
4.6143646240234375
 20
18.549999237060547
 30
0.0
 11
4.4545135498046875
 21
18.164112091064453
 31
0.0
  0
LINE
  8
0
 10
4.4545135498046875
 20
18.164112091064453
 30
0.0
 11
4.400001525878906
 21
17.75
 31
0.0
  0
LINE
  8
0
 10
4.400001525878906
 20
17.75
 30
0.0
 11
4.4545135498046875
 21
17.335887908935547
 31
0.0
  0
LINE
  8
0
 10
4.4545135498046875
 20
17.335887908935547
 30
0.0
 11
4.6143646240234375
 21
16.950000762939453
 31
0.0
  0
LINE
  8
0
 10
4.6143646240234375
 20
16.950000762939453
 30
0.0
 11
4.868629455566406
 21
16.618629455566406
 31
0.0
  0
LINE
  8
0
 10
4.868629455566406
 20
16.618629455566406
 30
0.0
 11
5.1999969482421875
 21
16.36435890197754
 31
0.0
  0
LINE
  8
0
 10
5.1999969482421875
 20
16.36435890197754
 30
0.0
 11
5.5858917236328125
 21
16.204519271850586
 31
0.0
  0
LINE
  8
0
 10
5.5858917236328125
 20
16.204519271850586
 30
0.0
 11
6.0
 21
16.149999618530273
 31
0.0
  0
LINE
  8
0
 10
6.0
 20
16.149999618530273
 30
0.0
 11
6.4141082763671875
 21
16.204519271850586
 31
0.0
  0
LINE
  8
0
 10
6.4141082763671875
 20
16.204519271850586
 30
0.0
 11
6.8000030517578125
 21
16.36435890197754
 31
0.0
  0
LINE
  8
0
 10
6.8000030517578125
 20
16.36435890197754
 30
0.0
 11
7.131370544433594
 21
16.618629455566406
 31
0.0
  0
LINE
  8
0
 10
7.131370544433594
 20
16.618629455566406
 30
0.0
 11
7.3856353759765625
 21
16.94999885559082
 31
0.0
  0
LINE
  8
0
 10
7.3856353759765625
 20
16.94999885559082
 30
0.0
 11
7.5454864501953125
 21
17.335887908935547
 31
0.0
  0
LINE
  8
0
 10
7.5454864501953125
 20
17.335887908935547
 30
0.0
 11
7.599998474121094
 21
17.75
 31
0.0
  0
LINE
  8
0
 10
7.599998474121094
 20
17.75
 30
0.0
 11
7.5454864501953125
 21
18.164108276367188
 31
0.0
  0
LINE
  8
0
 10
7.5454864501953125
 20
18.164108276367188
 30
0.0
 11
7.385643005371094
 21
18.549999237060547
 31
0.0
  0
LINE
  8
0
 10
7.385643005371094
 20
18.549999237060547
 30
0.0
 11
7.131370544433594
 21
18.881370544433594
 31
0.0
  0
LINE
  8
0
 10
7.131370544433594
 20
18.881370544433594
 30
0.0
 11
6.8000030517578125
 21
19.135639190673828
 31
0.0
  0
LINE
  8
0
 10
6.8000030517578125
 20
19.135639190673828
 30
0.0
 11
6.4141082763671875
 21
19.295482635498047
 31
0.0
  0
LINE
  8
0
 10
6.0
 20
19.349998474121094
 30
0.0
 11
6.4141082763671875
 21
19.295482635498047
 31
0.0
  0
LINE
  8
0
 10
98.0
 20
19.349998474121094
 30
0.0
 11
97.58589172363281
 21
19.295482635498047
 31
0.0
  0
LINE
  8
0
 10
97.58589172363281
 20
19.295482635498047
 30
0.0
 11
97.19999694824219
 21
19.135639190673828
 31
0.0
  0
LINE
  8
0
 10
97.19999694824219
 20
19.135639190673828
 30
0.0
 11
96.8686294555664
 21
18.881370544433594
 31
0.0
  0
LINE
  8
0
 10
96.8686294555664
 20
18.881370544433594
 30
0.0
 11
96.61436462402344
 21
18.549999237060547
 31
0.0
  0
LINE
  8
0
 10
96.61436462402344
 20
18.549999237060547
 30
0.0
 11
96.45451354980469
 21
18.164112091064453
 31
0.0
  0
LINE
  8
0
 10
96.45451354980469
 20
18.164112091064453
 30
0.0
 11
96.4000015258789
 21
17.75
 31
0.0
  0
LINE
  8
0
 10
96.4000015258789
 20
17.75
 30
0.0
 11
96.45451354980469
 21
17.335887908935547
 31
0.0
  0
LINE
  8
0
 10
96.45451354980469
 20
17.335887908935547
 30
0.0
 11
96.61436462402344
 21
16.950000762939453
 31
0.0
  0
LINE
  8
0
 10
96.61436462402344
 20
16.950000762939453
 30
0.0
 11
96.8686294555664
 21
16.618629455566406
 31
0.0
  0
LINE
  8
0
 10
96.8686294555664
 20
16.618629455566406
 30
0.0
 11
97.19999694824219
 21
16.36435890197754
 31
0.0
  0
LINE
  8
0
 10
97.19999694824219
 20
16.36435890197754
 30
0.0
 11
97.58589172363281
 21
16.204519271850586
 31
0.0
  0
LINE
  8
0
 10
97.58589172363281
 20
16.204519271850586
 30
0.0
 11
98.0
 21
16.149999618530273
 31
0.0
  0
LINE
  8
0
 10
98.0
 20
16.149999618530273
 30
0.0
 11
98.41410827636719
 21
16.204519271850586
 31
0.0
  0
LINE
  8
0
 10
98.41410827636719
 20
16.204519271850586
 30
0.0
 11
98.80000305175781
 21
16.36435890197754
 31
0.0
  0
LINE
  8
0
 10
98.80000305175781
 20
16.36435890197754
 30
0.0
 11
99.1313705444336
 21
16.618629455566406
 31
0.0
  0
LINE
  8
0
 10
99.1313705444336
 20
16.618629455566406
 30
0.0
 11
99.38563537597656
 21
16.94999885559082
 31
0.0
  0
LINE
  8
0
 10
99.38563537597656
 20
16.94999885559082
 30
0.0
 11
99.54548645019531
 21
17.335887908935547
 31
0.0
  0
LINE
  8
0
 10
99.54548645019531
 20
17.335887908935547
 30
0.0
 11
99.5999984741211
 21
17.75
 31
0.0
  0
LINE
  8
0
 10
99.5999984741211
 20
17.75
 30
0.0
 11
99.54548645019531
 21
18.164108276367188
 31
0.0
  0
LINE
  8
0
 10
99.54548645019531
 20
18.164108276367188
 30
0.0
 11
99.3856430053711
 21
18.549999237060547
 31
0.0
  0
LINE
  8
0
 10
99.3856430053711
 20
18.549999237060547
 30
0.0
 11
99.1313705444336
 21
18.881370544433594
 31
0.0
  0
LINE
  8
0
 10
99.1313705444336
 20
18.881370544433594
 30
0.0
 11
98.80000305175781
 21
19.135639190673828
 31
0.0
  0
LINE
  8
0
 10
98.80000305175781
 20
19.135639190673828
 30
0.0
 11
98.41410827636719
 21
19.295482635498047
 31
0.0
  0
LINE
  8
0
 10
98.0
 20
19.349998474121094
 30
0.0
 11
98.41410827636719
 21
19.295482635498047
 31
0.0
  0
LINE
  8
0
 10
12.599998474121094
 20
71.19999694824219
 30
0.0
 11
12.185890197753906
 21
71.14547729492188
 31
0.0
  0
LINE
  8
0
 10
12.185890197753906
 20
71.14547729492188
 30
0.0
 11
11.799995422363281
 21
70.98563385009766
 31
0.0
  0
LINE
  8
0
 10
11.799995422363281
 20
70.98563385009766
 30
0.0
 11
11.4686279296875
 21
70.73136901855469
 31
0.0
  0
LINE
  8
0
 10
11.4686279296875
 20
70.73136901855469
 30
0.0
 11
11.214363098144531
 21
70.39999389648438
 31
0.0
  0
LINE
  8
0
 10
11.214363098144531
 20
70.39999389648438
 30
0.0
 11
11.054512023925781
 21
70.01410675048828
 31
0.0
  0
LINE
  8
0
 10
11.054512023925781
 20
70.01410675048828
 30
0.0
 11
11.0
 21
69.59999084472656
 31
0.0
  0
LINE
  8
0
 10
12.599998474121094
 20
71.19999694824219
 30
0.0
 11
87.4000015258789
 21
71.19999694824219
 31
0.0
  0
LINE
  8
0
 10
89.0
 20
69.59999084472656
 30
0.0
 11
89.0
 21
16.79999542236328
 31
0.0
  0
LINE
  8
0
 10
89.0
 20
69.59999084472656
 30
0.0
 11
88.94548797607422
 21
70.01409912109375
 31
0.0
  0
LINE
  8
0
 10
88.94548797607422
 20
70.01409912109375
 30
0.0
 11
88.78564453125
 21
70.39999389648438
 31
0.0
  0
LINE
  8
0
 10
88.78564453125
 20
70.39999389648438
 30
0.0
 11
88.5313720703125
 21
70.73136901855469
 31
0.0
  0
LINE
  8
0
 10
88.5313720703125
 20
70.73136901855469
 30
0.0
 11
88.20000457763672
 21
70.98563385009766
 31
0.0
  0
LINE
  8
0
 10
88.20000457763672
 20
70.98563385009766
 30
0.0
 11
87.8141098022461
 21
71.14547729492188
 31
0.0
  0
LINE
  8
0
 10
87.4000015258789
 20
71.19999694824219
 30
0.0
 11
87.8141098022461
 21
71.14547729492188
 31
0.0
  0
LINE
  8
0
 10
11.0
 20
16.79999542236328
 30
0.0
 11
11.054512023925781
 21
16.385883331298828
 31
0.0
  0
LINE
  8
0
 10
11.054512023925781
 20
16.385883331298828
 30
0.0
 11
11.214363098144531
 21
15.999996185302734
 31
0.0
  0
LINE
  8
0
 10
11.214363098144531
 20
15.999996185302734
 30
0.0
 11
11.4686279296875
 21
15.668624877929688
 31
0.0
  0
LINE
  8
0
 10
11.4686279296875
 20
15.668624877929688
 30
0.0
 11
11.799995422363281
 21
15.414356231689453
 31
0.0
  0
LINE
  8
0
 10
11.799995422363281
 20
15.414356231689453
 30
0.0
 11
12.185890197753906
 21
15.254512786865234
 31
0.0
  0
LINE
  8
0
 10
12.185890197753906
 20
15.254512786865234
 30
0.0
 11
12.599998474121094
 21
15.199995040893555
 31
0.0
  0
LINE
  8
0
 10
11.0
 20
69.59999084472656
 30
0.0
 11
11.0
 21
16.79999542236328
 31
0.0
  0
LINE
  8
0
 10
87.4000015258789
 20
15.199995040893555
 30
0.0
 11
87.8141098022461
 21
15.254512786865234
 31
0.0
  0
LINE
  8
0
 10
87.8141098022461
 20
15.254512786865234
 30
0.0
 11
88.20000457763672
 21
15.414356231689453
 31
0.0
  0
LINE
  8
0
 10
88.20000457763672
 20
15.414356231689453
 30
0.0
 11
88.5313720703125
 21
15.668624877929688
 31
0.0
  0
LINE
  8
0
 10
88.5313720703125
 20
15.668624877929688
 30
0.0
 11
88.78563690185547
 21
15.999996185302734
 31
0.0
  0
LINE
  8
0
 10
88.78563690185547
 20
15.999996185302734
 30
0.0
 11
88.94548797607422
 21
16.385883331298828
 31
0.0
  0
LINE
  8
0
 10
88.94548797607422
 20
16.385883331298828
 30
0.0
 11
89.0
 21
16.79999542236328
 31
0.0
  0
LINE
  8
0
 10
12.599998474121094
 20
15.199995040893555
 30
0.0
 11
87.4000015258789
 21
15.199995040893555
 31
0.0
  0
LINE
  8
0
 10
100.0
 20
77.0
 30
0.0
 11
100.51763916015625
 21
76.93185424804688
 31
0.0
  0
LINE
  8
0
 10
100.51763916015625
 20
76.93185424804688
 30
0.0
 11
101.0
 21
76.7320556640625
 31
0.0
  0
LINE
  8
0
 10
101.0
 20
76.7320556640625
 30
0.0
 11
101.41421508789062
 21
76.41421508789062
 31
0.0
  0
LINE
  8
0
 10
101.41421508789062
 20
76.41421508789062
 30
0.0
 11
101.73204803466797
 21
76.0
 31
0.0
  0
LINE
  8
0
 10
101.73204803466797
 20
76.0
 30
0.0
 11
101.93185424804688
 21
75.51763916015625
 31
0.0
  0
LINE
  8
0
 10
102.0
 20
75.0
 30
0.0
 11
101.93185424804688
 21
75.51763916015625
 31
0.0
  0
LINE
  8
0
 10
100.0
 20
10.0
 30
0.0
 11
100.51763916015625
 21
10.068147659301758
 31
0.0
  0
LINE
  8
0
 10
101.0
 20
10.267948150634766
 30
0.0
 11
100.51763916015625
 21
10.068147659301758
 31
0.0
  0
LINE
  8
0
 10
101.41421508789062
 20
10.585786819458008
 30
0.0
 11
101.0
 21
10.267948150634766
 31
0.0
  0
LINE
  8
0
 10
101.73204803466797
 20
11.0
 30
0.0
 11
101.41421508789062
 21
10.585786819458008
 31
0.0
  0
LINE
  8
0
 10
101.93185424804688
 20
11.482362747192383
 30
0.0
 11
101.73204803466797
 21
11.0
 31
0.0
  0
LINE
  8
0
 10
102.0
 20
12.0
 30
0.0
 11
101.93185424804688
 21
11.482362747192383
 31
0.0
  0
LINE
  8
0
 10
100.0
 20
10.0
 30
0.0
 11
53.0
 21
10.0
 31
0.0
  0
LINE
  8
0
 10
3.0
 20
77.0
 30
0.0
 11
2.48236083984375
 21
76.93185424804688
 31
0.0
  0
LINE
  8
0
 10
2.0
 20
76.7320556640625
 30
0.0
 11
2.48236083984375
 21
76.93185424804688
 31
0.0
  0
LINE
  8
0
 10
1.585784912109375
 20
76.41421508789062
 30
0.0
 11
2.0
 21
76.7320556640625
 31
0.0
  0
LINE
  8
0
 10
1.2679519653320312
 20
76.0
 30
0.0
 11
1.585784912109375
 21
76.41421508789062
 31
0.0
  0
LINE
  8
0
 10
1.068145751953125
 20
75.51763916015625
 30
0.0
 11
1.2679519653320312
 21
76.0
 31
0.0
  0
LINE
  8
0
 10
1.0
 20
75.0
 30
0.0
 11
1.068145751953125
 21
75.51763916015625
 31
0.0
  0
LINE
  8
0
 10
3.0
 20
77.0
 30
0.0
 11
100.0
 21
77.0
 31
0.0
  0
LINE
  8
0
 10
102.0
 20
12.0
 30
0.0
 11
102.0
 21
75.0
 31
0.0
  0
LINE
  8
0
 10
49.0
 20
1.0
 30
0.0
 11
49.51763916015625
 21
1.068145751953125
 31
0.0
  0
LINE
  8
0
 10
50.0
 20
1.2679481506347656
 30
0.0
 11
49.51763916015625
 21
1.068145751953125
 31
0.0
  0
LINE
  8
0
 10
50.414215087890625
 20
1.585784912109375
 30
0.0
 11
50.0
 21
1.2679481506347656
 31
0.0
  0
LINE
  8
0
 10
50.732051849365234
 20
2.0
 30
0.0
 11
50.414215087890625
 21
1.585784912109375
 31
0.0
  0
LINE
  8
0
 10
50.93185043334961
 20
2.48236083984375
 30
0.0
 11
50.732051849365234
 21
2.0
 31
0.0
  0
LINE
  8
0
 10
51.0
 20
3.0
 30
0.0
 11
50.93185043334961
 21
2.48236083984375
 31
0.0
  0
LINE
  8
0
 10
3.0
 20
1.0
 30
0.0
 11
2.48236083984375
 21
1.068145751953125
 31
0.0
  0
LINE
  8
0
 10
2.48236083984375
 20
1.068145751953125
 30
0.0
 11
2.0
 21
1.2679519653320312
 31
0.0
  0
LINE
  8
0
 10
2.0
 20
1.2679519653320312
 30
0.0
 11
1.585784912109375
 21
1.585784912109375
 31
0.0
  0
LINE
  8
0
 10
1.585784912109375
 20
1.585784912109375
 30
0.0
 11
1.2679519653320312
 21
2.0
 31
0.0
  0
LINE
  8
0
 10
1.2679519653320312
 20
2.0
 30
0.0
 11
1.068145751953125
 21
2.48236083984375
 31
0.0
  0
LINE
  8
0
 10
1.0
 20
3.0
 30
0.0
 11
1.068145751953125
 21
2.48236083984375
 31
0.0
  0
LINE
  8
0
 10
3.0
 20
1.0
 30
0.0
 11
49.0
 21
1.0
 31
0.0
  0
LINE
  8
0
 10
53.0
 20
10.0
 30
0.0
 11
52.48236083984375
 21
9.931852340698242
 31
0.0
  0
LINE
  8
0
 10
52.48236083984375
 20
9.931852340698242
 30
0.0
 11
52.0
 21
9.732049942016602
 31
0.0
  0
LINE
  8
0
 10
52.0
 20
9.732049942016602
 30
0.0
 11
51.585784912109375
 21
9.414213180541992
 31
0.0
  0
LINE
  8
0
 10
51.585784912109375
 20
9.414213180541992
 30
0.0
 11
51.26795196533203
 21
9.0
 31
0.0
  0
LINE
  8
0
 10
51.26795196533203
 20
9.0
 30
0.0
 11
51.068145751953125
 21
8.517637252807617
 31
0.0
  0
LINE
  8
0
 10
51.0
 20
8.0
 30
0.0
 11
51.068145751953125
 21
8.517637252807617
 31
0.0
  0
LINE
  8
0
 10
51.0
 20
3.0
 30
0.0
 11
51.0
 21
8.0
 31
0.0
  0
LINE
  8
0
 10
1.0
 20
75.0
 30
0.0
 11
1.0
 21
3.0
 31
0.0
  0
LINE
  8
0
 10
9.0
 20
12.0
 30
0.0
 11
8.305404663085938
 21
11.939231872558594
 31
0.0
  0
LINE
  8
0
 10
8.305404663085938
 20
11.939231872558594
 30
0.0
 11
7.631919860839844
 21
11.758769989013672
 31
0.0
  0
LINE
  8
0
 10
7.631919860839844
 20
11.758769989013672
 30
0.0
 11
7.0
 21
11.464101791381836
 31
0.0
  0
LINE
  8
0
 10
7.0
 20
11.464101791381836
 30
0.0
 11
6.4288482666015625
 21
11.064178466796875
 31
0.0
  0
LINE
  8
0
 10
6.4288482666015625
 20
11.064178466796875
 30
0.0
 11
5.935821533203125
 21
10.571149826049805
 31
0.0
  0
LINE
  8
0
 10
5.935821533203125
 20
10.571149826049805
 30
0.0
 11
5.535896301269531
 21
10.0
 31
0.0
  0
LINE
  8
0
 10
5.535896301269531
 20
10.0
 30
0.0
 11
5.2412261962890625
 21
9.368080139160156
 31
0.0
  0
LINE
  8
0
 10
5.2412261962890625
 20
9.368080139160156
 30
0.0
 11
5.060768127441406
 21
8.69459342956543
 31
0.0
  0
LINE
  8
0
 10
5.060768127441406
 20
8.69459342956543
 30
0.0
 11
5.0
 21
8.0
 31
0.0
  0
LINE
  8
0
 10
5.0
 20
8.0
 30
0.0
 11
5.060768127441406
 21
7.305408477783203
 31
0.0
  0
LINE
  8
0
 10
5.060768127441406
 20
7.305408477783203
 30
0.0
 11
5.2412261962890625
 21
6.631919860839844
 31
0.0
  0
LINE
  8
0
 10
5.2412261962890625
 20
6.631919860839844
 30
0.0
 11
5.535896301269531
 21
6.0
 31
0.0
  0
LINE
  8
0
 10
5.535896301269531
 20
6.0
 30
0.0
 11
5.935821533203125
 21
5.4288482666015625
 31
0.0
  0
LINE
  8
0
 10
5.935821533203125
 20
5.4288482666015625
 30
0.0
 11
6.4288482666015625
 21
4.935821533203125
 31
0.0
  0
LINE
  8
0
 10
6.4288482666015625
 20
4.935821533203125
 30
0.0
 11
7.0
 21
4.535900115966797
 31
0.0
  0
LINE
  8
0
 10
7.0
 20
4.535900115966797
 30
0.0
 11
7.631919860839844
 21
4.241230010986328
 31
0.0
  0
LINE
  8
0
 10
7.631919860839844
 20
4.241230010986328
 30
0.0
 11
8.305404663085938
 21
4.060768127441406
 31
0.0
  0
LINE
  8
0
 10
8.305404663085938
 20
4.060768127441406
 30
0.0
 11
9.0
 21
4.0
 31
0.0
  0
LINE
  8
0
 10
9.0
 20
4.0
 30
0.0
 11
9.694587707519531
 21
4.060768127441406
 31
0.0
  0
LINE
  8
0
 10
9.694587707519531
 20
4.060768127441406
 30
0.0
 11
10.368080139160156
 21
4.241230010986328
 31
0.0
  0
LINE
  8
0
 10
10.368080139160156
 20
4.241230010986328
 30
0.0
 11
11.0
 21
4.535896301269531
 31
0.0
  0
LINE
  8
0
 10
11.0
 20
4.535896301269531
 30
0.0
 11
11.571151733398438
 21
4.935821533203125
 31
0.0
  0
LINE
  8
0
 10
11.571151733398438
 20
4.935821533203125
 30
0.0
 11
12.064178466796875
 21
5.4288482666015625
 31
0.0
  0
LINE
  8
0
 10
12.064178466796875
 20
5.4288482666015625
 30
0.0
 11
12.464103698730469
 21
6.0
 31
0.0
  0
LINE
  8
0
 10
12.464103698730469
 20
6.0
 30
0.0
 11
12.758773803710938
 21
6.631919860839844
 31
0.0
  0
LINE
  8
0
 10
12.758773803710938
 20
6.631919860839844
 30
0.0
 11
12.939231872558594
 21
7.3054046630859375
 31
0.0
  0
LINE
  8
0
 10
12.939231872558594
 20
7.3054046630859375
 30
0.0
 11
13.0
 21
7.999998092651367
 31
0.0
  0
LINE
  8
0
 10
13.0
 20
7.999998092651367
 30
0.0
 11
12.939231872558594
 21
8.694591522216797
 31
0.0
  0
LINE
  8
0
 10
12.939231872558594
 20
8.694591522216797
 30
0.0
 11
12.758773803710938
 21
9.368078231811523
 31
0.0
  0
LINE
  8
0
 10
12.758773803710938
 20
9.368078231811523
 30
0.0
 11
12.464103698730469
 21
9.999998092651367
 31
0.0
  0
LINE
  8
0
 10
12.464103698730469
 20
9.999998092651367
 30
0.0
 11
12.064178466796875
 21
10.571147918701172
 31
0.0
  0
LINE
  8
0
 10
12.064178466796875
 20
10.571147918701172
 30
0.0
 11
11.571151733398438
 21
11.064176559448242
 31
0.0
  0
LINE
  8
0
 10
11.571151733398438
 20
11.064176559448242
 30
0.0
 11
11.0
 21
11.464099884033203
 31
0.0
  0
LINE
  8
0
 10
11.0
 20
11.464099884033203
 30
0.0
 11
10.368080139160156
 21
11.758769989013672
 31
0.0
  0
LINE
  8
0
 10
10.368080139160156
 20
11.758769989013672
 30
0.0
 11
9.694595336914062
 21
11.939229965209961
 31
0.0
  0
LINE
  8
0
 10
9.0
 20
12.0
 30
0.0
 11
9.694595336914062
 21
11.939229965209961
 31
0.0
  0
ENDSEC
  0
EOF
