  0
SECTION
  2
HEADER
  9
$ACADVER
  1
AC1009
  9
$INSBASE
 10
0.0
 20
0.0
 30
0.0
  9
$EXTMIN
 10
0.0
 20
0.0
 30
0.0
  9
$EXTMAX
 10
0.0
 20
0.0
 30
0.0
  0
ENDSEC
  0
SECTION
  2
TABLES
  0
TABLE
  2
VPORT
 70
1
  0
VPORT
  2
*ACTIVE
 70
0
 10
0.0
 20
0.0
 11
1.0
 21
1.0
 12
-5.0
 22
1.0
 13
0.0
 23
0.0
 14
0.1
 24
0.1
 15
0.1
 25
0.1
 16
0.0
 26
0.0
 36
1.0
 17
0.0
 27
0.0
 37
0.0
 40
10.0
 41
1.0
 42
50.0
 43
0.0
 44
0.0
 50
0.0
 51
0.0
 71
0
 72
100
 73
1
 74
1
 75
0
 76
0
 77
0
 78
0
  0
ENDTAB
  0
TABLE
  2
LTYPE
 70
8
  0
LTYPE
  2
CONTINUOUS
 70
0
  3
Solid line
 72
65
 73
0
 40
0.0
  0
LTYPE
  2
DOT
 70
0
  3
. . . . . . .
 72
65
 73
2
 40
0.25
 49
0.0
 49
-0.25
  0
LTYPE
  2
DASHED
 70
0
  3
__ __ __ __ __
 72
65
 73
2
 40
0.8
 49
0.5
 49
-0.3
  0
LTYPE
  2
DASHDOT
 70
0
  3
__ . __ . __ .
 72
65
 73
4
 40
1.0
 49
0.5
 49
-0.25
 49
0.0
 49
-0.25
  0
LTYPE
  2
DIVIDE
 70
0
  3
____ . . ____ . . 
 72
65
 73
6
 40
1.25
 49
0.5
 49
-0.25
 49
0.0
 49
-0.25
 49
0.0
 49
-0.25
  0
LTYPE
  2
BORDER
 70
0
  3
__ __ . __ __ . 
 72
65
 73
6
 40
1.75
 49
0.5
 49
-0.25
 49
0.5
 49
-0.25
 49
0.0
 49
-0.25
  0
LTYPE
  2
HIDDEN
 70
0
  3
__ __ __ __ __
 72
65
 73
2
 40
0.4
 49
0.25
 49
-0.25
  0
LTYPE
  2
CENTER
 70
0
  3
____ _ ____ _ __
 72
65
 73
4
 40
2.0
 49
1.25
 49
-0.25
 49
0.25
 49
-0.25
  0
ENDTAB
  0
TABLE
  2
LAYER
 70
1
  0
LAYER
  2
PYDXF
 70
64
 62
7
  6
continuous
  0
ENDTAB
  0
TABLE
  2
STYLE
 70
1
  0
STYLE
  2
STANDARD
 70
0
 40
0
 41
1.0
 50
0.0
 71
0
 42
1
 3
ARIAL.TTF
 4

  0
ENDTAB
  0
TABLE
  2
VIEW
 70
1
  0
VIEW
  2
BF_TOPVIEW
 70
0
 40
120.0
 10
0.0
 20
0.0
 41
200.0
 11
0.0
 21
0.0
 31
1.0
 12
0.0
 22
0.0
 32
0.0
 42
50.0
 43
0.0
 44
0.0
 50
0.0
 71
0
  0
ENDTAB
  0
ENDSEC
  0
SECTION
  2
BLOCKS
  0
ENDSEC
  0
SECTION
  2
ENTITIES
  0
LINE
  8
0
 10
76.09999084472656
 20
8.5
 30
0.0
 11
76.04547882080078
 21
8.914108276367188
 31
0.0
  0
LINE
  8
0
 10
76.04547882080078
 20
8.914108276367188
 30
0.0
 11
75.88562774658203
 21
9.300003051757812
 31
0.0
  0
LINE
  8
0
 10
75.88562774658203
 20
9.300003051757812
 30
0.0
 11
75.63136291503906
 21
9.631378173828125
 31
0.0
  0
LINE
  8
0
 10
75.63136291503906
 20
9.631378173828125
 30
0.0
 11
75.29999542236328
 21
9.885635375976562
 31
0.0
  0
LINE
  8
0
 10
75.29999542236328
 20
9.885635375976562
 30
0.0
 11
74.91410064697266
 21
10.045486450195312
 31
0.0
  0
LINE
  8
0
 10
74.91410064697266
 20
10.045486450195312
 30
0.0
 11
74.49999237060547
 21
10.100006103515625
 31
0.0
  0
LINE
  8
0
 10
74.49999237060547
 20
10.100006103515625
 30
0.0
 11
74.08588409423828
 21
10.045486450195312
 31
0.0
  0
LINE
  8
0
 10
74.08588409423828
 20
10.045486450195312
 30
0.0
 11
73.69999694824219
 21
9.885635375976562
 31
0.0
  0
LINE
  8
0
 10
73.69999694824219
 20
9.885635375976562
 30
0.0
 11
73.36862182617188
 21
9.631378173828125
 31
0.0
  0
LINE
  8
0
 10
73.36862182617188
 20
9.631378173828125
 30
0.0
 11
73.11434936523438
 21
9.29998779296875
 31
0.0
  0
LINE
  8
0
 10
73.11434936523438
 20
9.29998779296875
 30
0.0
 11
72.95451354980469
 21
8.91412353515625
 31
0.0
  0
LINE
  8
0
 10
72.95451354980469
 20
8.91412353515625
 30
0.0
 11
72.89999389648438
 21
8.5
 31
0.0
  0
LINE
  8
0
 10
72.89999389648438
 20
8.5
 30
0.0
 11
72.95451354980469
 21
8.085906982421875
 31
0.0
  0
LINE
  8
0
 10
72.95451354980469
 20
8.085906982421875
 30
0.0
 11
73.11434936523438
 21
7.699981689453125
 31
0.0
  0
LINE
  8
0
 10
73.11434936523438
 20
7.699981689453125
 30
0.0
 11
73.36862182617188
 21
7.368621826171875
 31
0.0
  0
LINE
  8
0
 10
73.36862182617188
 20
7.368621826171875
 30
0.0
 11
73.69999694824219
 21
7.1143646240234375
 31
0.0
  0
LINE
  8
0
 10
73.69999694824219
 20
7.1143646240234375
 30
0.0
 11
74.08589172363281
 21
6.9545135498046875
 31
0.0
  0
LINE
  8
0
 10
74.08589172363281
 20
6.9545135498046875
 30
0.0
 11
74.5
 21
6.899993896484375
 31
0.0
  0
LINE
  8
0
 10
74.5
 20
6.899993896484375
 30
0.0
 11
74.91410827636719
 21
6.9545135498046875
 31
0.0
  0
LINE
  8
0
 10
74.91410827636719
 20
6.9545135498046875
 30
0.0
 11
75.29998779296875
 21
7.1143341064453125
 31
0.0
  0
LINE
  8
0
 10
75.29998779296875
 20
7.1143341064453125
 30
0.0
 11
75.63136291503906
 21
7.368621826171875
 31
0.0
  0
LINE
  8
0
 10
75.63136291503906
 20
7.368621826171875
 30
0.0
 11
75.88563537597656
 21
7.6999969482421875
 31
0.0
  0
LINE
  8
0
 10
75.88563537597656
 20
7.6999969482421875
 30
0.0
 11
76.04547882080078
 21
8.085891723632812
 31
0.0
  0
LINE
  8
0
 10
76.09999084472656
 20
8.5
 30
0.0
 11
76.04547882080078
 21
8.085891723632812
 31
0.0
  0
LINE
  8
0
 10
11.099990844726562
 20
8.5
 30
0.0
 11
11.04547119140625
 21
8.914108276367188
 31
0.0
  0
LINE
  8
0
 10
11.04547119140625
 20
8.914108276367188
 30
0.0
 11
10.885635375976562
 21
9.300003051757812
 31
0.0
  0
LINE
  8
0
 10
10.885635375976562
 20
9.300003051757812
 30
0.0
 11
10.631362915039062
 21
9.631378173828125
 31
0.0
  0
LINE
  8
0
 10
10.631362915039062
 20
9.631378173828125
 30
0.0
 11
10.29998779296875
 21
9.885635375976562
 31
0.0
  0
LINE
  8
0
 10
10.29998779296875
 20
9.885635375976562
 30
0.0
 11
9.914108276367188
 21
10.045486450195312
 31
0.0
  0
LINE
  8
0
 10
9.914108276367188
 20
10.045486450195312
 30
0.0
 11
9.499984741210938
 21
10.100006103515625
 31
0.0
  0
LINE
  8
0
 10
9.499984741210938
 20
10.100006103515625
 30
0.0
 11
9.08587646484375
 21
10.045486450195312
 31
0.0
  0
LINE
  8
0
 10
9.08587646484375
 20
10.045486450195312
 30
0.0
 11
8.699996948242188
 21
9.885635375976562
 31
0.0
  0
LINE
  8
0
 10
8.699996948242188
 20
9.885635375976562
 30
0.0
 11
8.368621826171875
 21
9.631378173828125
 31
0.0
  0
LINE
  8
0
 10
8.368621826171875
 20
9.631378173828125
 30
0.0
 11
8.114349365234375
 21
9.29998779296875
 31
0.0
  0
LINE
  8
0
 10
8.114349365234375
 20
9.29998779296875
 30
0.0
 11
7.9545135498046875
 21
8.91412353515625
 31
0.0
  0
LINE
  8
0
 10
7.9545135498046875
 20
8.91412353515625
 30
0.0
 11
7.899993896484375
 21
8.5
 31
0.0
  0
LINE
  8
0
 10
7.899993896484375
 20
8.5
 30
0.0
 11
7.9545135498046875
 21
8.085906982421875
 31
0.0
  0
LINE
  8
0
 10
7.9545135498046875
 20
8.085906982421875
 30
0.0
 11
8.114349365234375
 21
7.699981689453125
 31
0.0
  0
LINE
  8
0
 10
8.114349365234375
 20
7.699981689453125
 30
0.0
 11
8.368621826171875
 21
7.368621826171875
 31
0.0
  0
LINE
  8
0
 10
8.368621826171875
 20
7.368621826171875
 30
0.0
 11
8.699981689453125
 21
7.1143646240234375
 31
0.0
  0
LINE
  8
0
 10
8.699981689453125
 20
7.1143646240234375
 30
0.0
 11
9.08587646484375
 21
6.9545135498046875
 31
0.0
  0
LINE
  8
0
 10
9.08587646484375
 20
6.9545135498046875
 30
0.0
 11
9.499984741210938
 21
6.899993896484375
 31
0.0
  0
LINE
  8
0
 10
9.499984741210938
 20
6.899993896484375
 30
0.0
 11
9.914093017578125
 21
6.9545135498046875
 31
0.0
  0
LINE
  8
0
 10
9.914093017578125
 20
6.9545135498046875
 30
0.0
 11
10.29998779296875
 21
7.114349365234375
 31
0.0
  0
LINE
  8
0
 10
10.29998779296875
 20
7.114349365234375
 30
0.0
 11
10.631362915039062
 21
7.368621826171875
 31
0.0
  0
LINE
  8
0
 10
10.631362915039062
 20
7.368621826171875
 30
0.0
 11
10.885635375976562
 21
7.6999969482421875
 31
0.0
  0
LINE
  8
0
 10
10.885635375976562
 20
7.6999969482421875
 30
0.0
 11
11.04547119140625
 21
8.085891723632812
 31
0.0
  0
LINE
  8
0
 10
11.099990844726562
 20
8.5
 30
0.0
 11
11.04547119140625
 21
8.085891723632812
 31
0.0
  0
LINE
  8
0
 10
76.09999084472656
 20
103.49999237060547
 30
0.0
 11
76.04547882080078
 21
103.91410827636719
 31
0.0
  0
LINE
  8
0
 10
76.04547882080078
 20
103.91410827636719
 30
0.0
 11
75.88562774658203
 21
104.30000305175781
 31
0.0
  0
LINE
  8
0
 10
75.88562774658203
 20
104.30000305175781
 30
0.0
 11
75.63136291503906
 21
104.6313705444336
 31
0.0
  0
LINE
  8
0
 10
75.63136291503906
 20
104.6313705444336
 30
0.0
 11
75.29999542236328
 21
104.88563537597656
 31
0.0
  0
LINE
  8
0
 10
75.29999542236328
 20
104.88563537597656
 30
0.0
 11
74.91410064697266
 21
105.04548645019531
 31
0.0
  0
LINE
  8
0
 10
74.91410064697266
 20
105.04548645019531
 30
0.0
 11
74.49999237060547
 21
105.10000610351562
 31
0.0
  0
LINE
  8
0
 10
74.49999237060547
 20
105.10000610351562
 30
0.0
 11
74.08588409423828
 21
105.04548645019531
 31
0.0
  0
LINE
  8
0
 10
74.08588409423828
 20
105.04548645019531
 30
0.0
 11
73.69998931884766
 21
104.88563537597656
 31
0.0
  0
LINE
  8
0
 10
73.69998931884766
 20
104.88563537597656
 30
0.0
 11
73.36862182617188
 21
104.6313705444336
 31
0.0
  0
LINE
  8
0
 10
73.36862182617188
 20
104.6313705444336
 30
0.0
 11
73.11434936523438
 21
104.29999542236328
 31
0.0
  0
LINE
  8
0
 10
73.11434936523438
 20
104.29999542236328
 30
0.0
 11
72.95451354980469
 21
103.91411590576172
 31
0.0
  0
LINE
  8
0
 10
72.95451354980469
 20
103.91411590576172
 30
0.0
 11
72.89999389648438
 21
103.50000762939453
 31
0.0
  0
LINE
  8
0
 10
72.89999389648438
 20
103.50000762939453
 30
0.0
 11
72.95451354980469
 21
103.08589935302734
 31
0.0
  0
LINE
  8
0
 10
72.95451354980469
 20
103.08589935302734
 30
0.0
 11
73.11434936523438
 21
102.69998931884766
 31
0.0
  0
LINE
  8
0
 10
73.11434936523438
 20
102.69998931884766
 30
0.0
 11
73.36862182617188
 21
102.3686294555664
 31
0.0
  0
LINE
  8
0
 10
73.36862182617188
 20
102.3686294555664
 30
0.0
 11
73.69998931884766
 21
102.11436462402344
 31
0.0
  0
LINE
  8
0
 10
73.69998931884766
 20
102.11436462402344
 30
0.0
 11
74.08588409423828
 21
101.95451354980469
 31
0.0
  0
LINE
  8
0
 10
74.08588409423828
 20
101.95451354980469
 30
0.0
 11
74.49999237060547
 21
101.89999389648438
 31
0.0
  0
LINE
  8
0
 10
74.49999237060547
 20
101.89999389648438
 30
0.0
 11
74.91410064697266
 21
101.95451354980469
 31
0.0
  0
LINE
  8
0
 10
74.91410064697266
 20
101.95451354980469
 30
0.0
 11
75.29999542236328
 21
102.11436462402344
 31
0.0
  0
LINE
  8
0
 10
75.29999542236328
 20
102.11436462402344
 30
0.0
 11
75.63136291503906
 21
102.3686294555664
 31
0.0
  0
LINE
  8
0
 10
75.63136291503906
 20
102.3686294555664
 30
0.0
 11
75.88562774658203
 21
102.69999694824219
 31
0.0
  0
LINE
  8
0
 10
75.88562774658203
 20
102.69999694824219
 30
0.0
 11
76.04547882080078
 21
103.08589172363281
 31
0.0
  0
LINE
  8
0
 10
76.09999084472656
 20
103.49999237060547
 30
0.0
 11
76.04547882080078
 21
103.08589172363281
 31
0.0
  0
LINE
  8
0
 10
11.099990844726562
 20
103.5
 30
0.0
 11
11.045478820800781
 21
103.91410827636719
 31
0.0
  0
LINE
  8
0
 10
11.045478820800781
 20
103.91410827636719
 30
0.0
 11
10.885635375976562
 21
104.30000305175781
 31
0.0
  0
LINE
  8
0
 10
10.885635375976562
 20
104.30000305175781
 30
0.0
 11
10.631362915039062
 21
104.6313705444336
 31
0.0
  0
LINE
  8
0
 10
10.631362915039062
 20
104.6313705444336
 30
0.0
 11
10.299995422363281
 21
104.88563537597656
 31
0.0
  0
LINE
  8
0
 10
10.299995422363281
 20
104.88563537597656
 30
0.0
 11
9.914108276367188
 21
105.04548645019531
 31
0.0
  0
LINE
  8
0
 10
9.914108276367188
 20
105.04548645019531
 30
0.0
 11
9.499992370605469
 21
105.0999984741211
 31
0.0
  0
LINE
  8
0
 10
9.499992370605469
 20
105.0999984741211
 30
0.0
 11
9.085884094238281
 21
105.04548645019531
 31
0.0
  0
LINE
  8
0
 10
9.085884094238281
 20
105.04548645019531
 30
0.0
 11
8.699996948242188
 21
104.88563537597656
 31
0.0
  0
LINE
  8
0
 10
8.699996948242188
 20
104.88563537597656
 30
0.0
 11
8.368621826171875
 21
104.6313705444336
 31
0.0
  0
LINE
  8
0
 10
8.368621826171875
 20
104.6313705444336
 30
0.0
 11
8.114349365234375
 21
104.30000305175781
 31
0.0
  0
LINE
  8
0
 10
8.114349365234375
 20
104.30000305175781
 30
0.0
 11
7.9545135498046875
 21
103.91410827636719
 31
0.0
  0
LINE
  8
0
 10
7.9545135498046875
 20
103.91410827636719
 30
0.0
 11
7.899993896484375
 21
103.5
 31
0.0
  0
LINE
  8
0
 10
7.899993896484375
 20
103.5
 30
0.0
 11
7.9545135498046875
 21
103.08589172363281
 31
0.0
  0
LINE
  8
0
 10
7.9545135498046875
 20
103.08589172363281
 30
0.0
 11
8.114349365234375
 21
102.69999694824219
 31
0.0
  0
LINE
  8
0
 10
8.114349365234375
 20
102.69999694824219
 30
0.0
 11
8.368621826171875
 21
102.3686294555664
 31
0.0
  0
LINE
  8
0
 10
8.368621826171875
 20
102.3686294555664
 30
0.0
 11
8.699989318847656
 21
102.11436462402344
 31
0.0
  0
LINE
  8
0
 10
8.699989318847656
 20
102.11436462402344
 30
0.0
 11
9.085884094238281
 21
101.95451354980469
 31
0.0
  0
LINE
  8
0
 10
9.085884094238281
 20
101.95451354980469
 30
0.0
 11
9.499992370605469
 21
101.9000015258789
 31
0.0
  0
LINE
  8
0
 10
9.499992370605469
 20
101.9000015258789
 30
0.0
 11
9.914100646972656
 21
101.95451354980469
 31
0.0
  0
LINE
  8
0
 10
9.914100646972656
 20
101.95451354980469
 30
0.0
 11
10.299995422363281
 21
102.11436462402344
 31
0.0
  0
LINE
  8
0
 10
10.299995422363281
 20
102.11436462402344
 30
0.0
 11
10.631362915039062
 21
102.3686294555664
 31
0.0
  0
LINE
  8
0
 10
10.631362915039062
 20
102.3686294555664
 30
0.0
 11
10.885635375976562
 21
102.69999694824219
 31
0.0
  0
LINE
  8
0
 10
10.885635375976562
 20
102.69999694824219
 30
0.0
 11
11.045478820800781
 21
103.08589172363281
 31
0.0
  0
LINE
  8
0
 10
11.099990844726562
 20
103.5
 30
0.0
 11
11.045478820800781
 21
103.08589172363281
 31
0.0
  0
LINE
  8
0
 10
69.5999984741211
 20
88.5
 30
0.0
 11
69.54547882080078
 21
88.91410827636719
 31
0.0
  0
LINE
  8
0
 10
69.54547882080078
 20
88.91410827636719
 30
0.0
 11
69.38563537597656
 21
89.29999542236328
 31
0.0
  0
LINE
  8
0
 10
69.38563537597656
 20
89.29999542236328
 30
0.0
 11
69.13136291503906
 21
89.6313705444336
 31
0.0
  0
LINE
  8
0
 10
69.13136291503906
 20
89.6313705444336
 30
0.0
 11
68.79999542236328
 21
89.88563537597656
 31
0.0
  0
LINE
  8
0
 10
68.79999542236328
 20
89.88563537597656
 30
0.0
 11
68.41410064697266
 21
90.04548645019531
 31
0.0
  0
LINE
  8
0
 10
68.41410064697266
 20
90.04548645019531
 30
0.0
 11
67.99999237060547
 21
90.10000610351562
 31
0.0
  0
LINE
  8
0
 10
67.99999237060547
 20
90.10000610351562
 30
0.0
 11
67.58588409423828
 21
90.04548645019531
 31
0.0
  0
LINE
  8
0
 10
67.58588409423828
 20
90.04548645019531
 30
0.0
 11
67.19999694824219
 21
89.8856430053711
 31
0.0
  0
LINE
  8
0
 10
67.19999694824219
 20
89.8856430053711
 30
0.0
 11
66.86862182617188
 21
89.6313705444336
 31
0.0
  0
LINE
  8
0
 10
66.86862182617188
 20
89.6313705444336
 30
0.0
 11
66.6143569946289
 21
89.30000305175781
 31
0.0
  0
LINE
  8
0
 10
66.6143569946289
 20
89.30000305175781
 30
0.0
 11
66.45451354980469
 21
88.91411590576172
 31
0.0
  0
LINE
  8
0
 10
66.45451354980469
 20
88.91411590576172
 30
0.0
 11
66.39999389648438
 21
88.50000762939453
 31
0.0
  0
LINE
  8
0
 10
66.39999389648438
 20
85.50000762939453
 30
0.0
 11
66.45451354980469
 21
85.08589935302734
 31
0.0
  0
LINE
  8
0
 10
66.45451354980469
 20
85.08589935302734
 30
0.0
 11
66.6143569946289
 21
84.69999694824219
 31
0.0
  0
LINE
  8
0
 10
66.6143569946289
 20
84.69999694824219
 30
0.0
 11
66.86862182617188
 21
84.3686294555664
 31
0.0
  0
LINE
  8
0
 10
66.86862182617188
 20
84.3686294555664
 30
0.0
 11
67.19998931884766
 21
84.11436462402344
 31
0.0
  0
LINE
  8
0
 10
67.19998931884766
 20
84.11436462402344
 30
0.0
 11
67.58588409423828
 21
83.95451354980469
 31
0.0
  0
LINE
  8
0
 10
67.58588409423828
 20
83.95451354980469
 30
0.0
 11
67.99999237060547
 21
83.89999389648438
 31
0.0
  0
LINE
  8
0
 10
67.99999237060547
 20
83.89999389648438
 30
0.0
 11
68.41410064697266
 21
83.95451354980469
 31
0.0
  0
LINE
  8
0
 10
68.41410064697266
 20
83.95451354980469
 30
0.0
 11
68.79999542236328
 21
84.11436462402344
 31
0.0
  0
LINE
  8
0
 10
68.79999542236328
 20
84.11436462402344
 30
0.0
 11
69.13136291503906
 21
84.3686294555664
 31
0.0
  0
LINE
  8
0
 10
69.13136291503906
 20
84.3686294555664
 30
0.0
 11
69.38563537597656
 21
84.70000457763672
 31
0.0
  0
LINE
  8
0
 10
69.38563537597656
 20
84.70000457763672
 30
0.0
 11
69.54547882080078
 21
85.08589172363281
 31
0.0
  0
LINE
  8
0
 10
69.5999984741211
 20
85.5
 30
0.0
 11
69.54547882080078
 21
85.08589172363281
 31
0.0
  0
LINE
  8
0
 10
66.39999389648438
 20
88.50000762939453
 30
0.0
 11
66.39999389648438
 21
85.50000762939453
 31
0.0
  0
LINE
  8
0
 10
69.5999984741211
 20
88.5
 30
0.0
 11
69.5999984741211
 21
85.5
 31
0.0
  0
LINE
  8
0
 10
69.5999984741211
 20
78.5
 30
0.0
 11
69.54547882080078
 21
78.91410827636719
 31
0.0
  0
LINE
  8
0
 10
69.54547882080078
 20
78.91410827636719
 30
0.0
 11
69.38563537597656
 21
79.29998779296875
 31
0.0
  0
LINE
  8
0
 10
69.38563537597656
 20
79.29998779296875
 30
0.0
 11
69.13136291503906
 21
79.63137817382812
 31
0.0
  0
LINE
  8
0
 10
69.13136291503906
 20
79.63137817382812
 30
0.0
 11
68.79999542236328
 21
79.88565063476562
 31
0.0
  0
LINE
  8
0
 10
68.79999542236328
 20
79.88565063476562
 30
0.0
 11
68.41410064697266
 21
80.04547119140625
 31
0.0
  0
LINE
  8
0
 10
68.41410064697266
 20
80.04547119140625
 30
0.0
 11
67.99999237060547
 21
80.10000610351562
 31
0.0
  0
LINE
  8
0
 10
67.99999237060547
 20
80.10000610351562
 30
0.0
 11
67.58588409423828
 21
80.04547119140625
 31
0.0
  0
LINE
  8
0
 10
67.58588409423828
 20
80.04547119140625
 30
0.0
 11
67.19999694824219
 21
79.88565063476562
 31
0.0
  0
LINE
  8
0
 10
67.19999694824219
 20
79.88565063476562
 30
0.0
 11
66.86862182617188
 21
79.63137817382812
 31
0.0
  0
LINE
  8
0
 10
66.86862182617188
 20
79.63137817382812
 30
0.0
 11
66.6143569946289
 21
79.30000305175781
 31
0.0
  0
LINE
  8
0
 10
66.6143569946289
 20
79.30000305175781
 30
0.0
 11
66.45451354980469
 21
78.91412353515625
 31
0.0
  0
LINE
  8
0
 10
66.45451354980469
 20
78.91412353515625
 30
0.0
 11
66.39999389648438
 21
78.5
 31
0.0
  0
LINE
  8
0
 10
66.39999389648438
 20
75.5
 30
0.0
 11
66.45451354980469
 21
75.08590698242188
 31
0.0
  0
LINE
  8
0
 10
66.45451354980469
 20
75.08590698242188
 30
0.0
 11
66.6143569946289
 21
74.69999694824219
 31
0.0
  0
LINE
  8
0
 10
66.6143569946289
 20
74.69999694824219
 30
0.0
 11
66.86862182617188
 21
74.36862182617188
 31
0.0
  0
LINE
  8
0
 10
66.86862182617188
 20
74.36862182617188
 30
0.0
 11
67.19998931884766
 21
74.11436462402344
 31
0.0
  0
LINE
  8
0
 10
67.19998931884766
 20
74.11436462402344
 30
0.0
 11
67.58588409423828
 21
73.95452880859375
 31
0.0
  0
LINE
  8
0
 10
67.58588409423828
 20
73.95452880859375
 30
0.0
 11
67.99999237060547
 21
73.89999389648438
 31
0.0
  0
LINE
  8
0
 10
67.99999237060547
 20
73.89999389648438
 30
0.0
 11
68.41410064697266
 21
73.95452880859375
 31
0.0
  0
LINE
  8
0
 10
68.41410064697266
 20
73.95452880859375
 30
0.0
 11
68.79999542236328
 21
74.11436462402344
 31
0.0
  0
LINE
  8
0
 10
68.79999542236328
 20
74.11436462402344
 30
0.0
 11
69.13136291503906
 21
74.36862182617188
 31
0.0
  0
LINE
  8
0
 10
69.13136291503906
 20
74.36862182617188
 30
0.0
 11
69.38563537597656
 21
74.70001220703125
 31
0.0
  0
LINE
  8
0
 10
69.38563537597656
 20
74.70001220703125
 30
0.0
 11
69.54547882080078
 21
75.08587646484375
 31
0.0
  0
LINE
  8
0
 10
69.5999984741211
 20
75.5
 30
0.0
 11
69.54547882080078
 21
75.08587646484375
 31
0.0
  0
LINE
  8
0
 10
66.39999389648438
 20
78.5
 30
0.0
 11
66.39999389648438
 21
75.5
 31
0.0
  0
LINE
  8
0
 10
69.5999984741211
 20
78.5
 30
0.0
 11
69.5999984741211
 21
75.5
 31
0.0
  0
LINE
  8
0
 10
69.5999984741211
 20
68.5
 30
0.0
 11
69.54547882080078
 21
68.91410827636719
 31
0.0
  0
LINE
  8
0
 10
69.54547882080078
 20
68.91410827636719
 30
0.0
 11
69.38563537597656
 21
69.29998779296875
 31
0.0
  0
LINE
  8
0
 10
69.38563537597656
 20
69.29998779296875
 30
0.0
 11
69.13136291503906
 21
69.63137817382812
 31
0.0
  0
LINE
  8
0
 10
69.13136291503906
 20
69.63137817382812
 30
0.0
 11
68.79999542236328
 21
69.88565063476562
 31
0.0
  0
LINE
  8
0
 10
68.79999542236328
 20
69.88565063476562
 30
0.0
 11
68.41410064697266
 21
70.04547119140625
 31
0.0
  0
LINE
  8
0
 10
68.41410064697266
 20
70.04547119140625
 30
0.0
 11
67.99999237060547
 21
70.10000610351562
 31
0.0
  0
LINE
  8
0
 10
67.99999237060547
 20
70.10000610351562
 30
0.0
 11
67.58588409423828
 21
70.04547119140625
 31
0.0
  0
LINE
  8
0
 10
67.58588409423828
 20
70.04547119140625
 30
0.0
 11
67.19999694824219
 21
69.88565063476562
 31
0.0
  0
LINE
  8
0
 10
67.19999694824219
 20
69.88565063476562
 30
0.0
 11
66.86862182617188
 21
69.63137817382812
 31
0.0
  0
LINE
  8
0
 10
66.86862182617188
 20
69.63137817382812
 30
0.0
 11
66.6143569946289
 21
69.30000305175781
 31
0.0
  0
LINE
  8
0
 10
66.6143569946289
 20
69.30000305175781
 30
0.0
 11
66.45451354980469
 21
68.91412353515625
 31
0.0
  0
LINE
  8
0
 10
66.45451354980469
 20
68.91412353515625
 30
0.0
 11
66.39999389648438
 21
68.5
 31
0.0
  0
LINE
  8
0
 10
66.39999389648438
 20
65.5
 30
0.0
 11
66.45451354980469
 21
65.08590698242188
 31
0.0
  0
LINE
  8
0
 10
66.45451354980469
 20
65.08590698242188
 30
0.0
 11
66.6143569946289
 21
64.69999694824219
 31
0.0
  0
LINE
  8
0
 10
66.6143569946289
 20
64.69999694824219
 30
0.0
 11
66.86862182617188
 21
64.36862182617188
 31
0.0
  0
LINE
  8
0
 10
66.86862182617188
 20
64.36862182617188
 30
0.0
 11
67.19998931884766
 21
64.11434936523438
 31
0.0
  0
LINE
  8
0
 10
67.19998931884766
 20
64.11434936523438
 30
0.0
 11
67.58588409423828
 21
63.95452880859375
 31
0.0
  0
LINE
  8
0
 10
67.58588409423828
 20
63.95452880859375
 30
0.0
 11
67.99999237060547
 21
63.899993896484375
 31
0.0
  0
LINE
  8
0
 10
67.99999237060547
 20
63.899993896484375
 30
0.0
 11
68.41410064697266
 21
63.95452880859375
 31
0.0
  0
LINE
  8
0
 10
68.41410064697266
 20
63.95452880859375
 30
0.0
 11
68.79999542236328
 21
64.11434936523438
 31
0.0
  0
LINE
  8
0
 10
68.79999542236328
 20
64.11434936523438
 30
0.0
 11
69.13136291503906
 21
64.36862182617188
 31
0.0
  0
LINE
  8
0
 10
69.13136291503906
 20
64.36862182617188
 30
0.0
 11
69.38563537597656
 21
64.70001220703125
 31
0.0
  0
LINE
  8
0
 10
69.38563537597656
 20
64.70001220703125
 30
0.0
 11
69.54547882080078
 21
65.08587646484375
 31
0.0
  0
LINE
  8
0
 10
69.5999984741211
 20
65.5
 30
0.0
 11
69.54547882080078
 21
65.08587646484375
 31
0.0
  0
LINE
  8
0
 10
66.39999389648438
 20
68.5
 30
0.0
 11
66.39999389648438
 21
65.5
 31
0.0
  0
LINE
  8
0
 10
69.5999984741211
 20
68.5
 30
0.0
 11
69.5999984741211
 21
65.5
 31
0.0
  0
LINE
  8
0
 10
69.5999984741211
 20
58.5
 30
0.0
 11
69.54547882080078
 21
58.91410827636719
 31
0.0
  0
LINE
  8
0
 10
69.54547882080078
 20
58.91410827636719
 30
0.0
 11
69.38563537597656
 21
59.29998779296875
 31
0.0
  0
LINE
  8
0
 10
69.38563537597656
 20
59.29998779296875
 30
0.0
 11
69.13136291503906
 21
59.631378173828125
 31
0.0
  0
LINE
  8
0
 10
69.13136291503906
 20
59.631378173828125
 30
0.0
 11
68.79999542236328
 21
59.885650634765625
 31
0.0
  0
LINE
  8
0
 10
68.79999542236328
 20
59.885650634765625
 30
0.0
 11
68.41410064697266
 21
60.04547119140625
 31
0.0
  0
LINE
  8
0
 10
68.41410064697266
 20
60.04547119140625
 30
0.0
 11
67.99999237060547
 21
60.100006103515625
 31
0.0
  0
LINE
  8
0
 10
67.99999237060547
 20
60.100006103515625
 30
0.0
 11
67.58588409423828
 21
60.04547119140625
 31
0.0
  0
LINE
  8
0
 10
67.58588409423828
 20
60.04547119140625
 30
0.0
 11
67.19999694824219
 21
59.885650634765625
 31
0.0
  0
LINE
  8
0
 10
67.19999694824219
 20
59.885650634765625
 30
0.0
 11
66.86862182617188
 21
59.631378173828125
 31
0.0
  0
LINE
  8
0
 10
66.86862182617188
 20
59.631378173828125
 30
0.0
 11
66.6143569946289
 21
59.30000305175781
 31
0.0
  0
LINE
  8
0
 10
66.6143569946289
 20
59.30000305175781
 30
0.0
 11
66.45451354980469
 21
58.91412353515625
 31
0.0
  0
LINE
  8
0
 10
66.45451354980469
 20
58.91412353515625
 30
0.0
 11
66.39999389648438
 21
58.5
 31
0.0
  0
LINE
  8
0
 10
66.39999389648438
 20
55.5
 30
0.0
 11
66.45451354980469
 21
55.085906982421875
 31
0.0
  0
LINE
  8
0
 10
66.45451354980469
 20
55.085906982421875
 30
0.0
 11
66.6143569946289
 21
54.69999694824219
 31
0.0
  0
LINE
  8
0
 10
66.6143569946289
 20
54.69999694824219
 30
0.0
 11
66.86862182617188
 21
54.368621826171875
 31
0.0
  0
LINE
  8
0
 10
66.86862182617188
 20
54.368621826171875
 30
0.0
 11
67.19998931884766
 21
54.114349365234375
 31
0.0
  0
LINE
  8
0
 10
67.19998931884766
 20
54.114349365234375
 30
0.0
 11
67.58588409423828
 21
53.95452880859375
 31
0.0
  0
LINE
  8
0
 10
67.58588409423828
 20
53.95452880859375
 30
0.0
 11
67.99999237060547
 21
53.899993896484375
 31
0.0
  0
LINE
  8
0
 10
67.99999237060547
 20
53.899993896484375
 30
0.0
 11
68.41410064697266
 21
53.95452880859375
 31
0.0
  0
LINE
  8
0
 10
68.41410064697266
 20
53.95452880859375
 30
0.0
 11
68.79999542236328
 21
54.114349365234375
 31
0.0
  0
LINE
  8
0
 10
68.79999542236328
 20
54.114349365234375
 30
0.0
 11
69.13136291503906
 21
54.368621826171875
 31
0.0
  0
LINE
  8
0
 10
69.13136291503906
 20
54.368621826171875
 30
0.0
 11
69.38563537597656
 21
54.70001220703125
 31
0.0
  0
LINE
  8
0
 10
69.38563537597656
 20
54.70001220703125
 30
0.0
 11
69.54547882080078
 21
55.08587646484375
 31
0.0
  0
LINE
  8
0
 10
69.5999984741211
 20
55.5
 30
0.0
 11
69.54547882080078
 21
55.08587646484375
 31
0.0
  0
LINE
  8
0
 10
66.39999389648438
 20
58.5
 30
0.0
 11
66.39999389648438
 21
55.5
 31
0.0
  0
LINE
  8
0
 10
69.5999984741211
 20
58.5
 30
0.0
 11
69.5999984741211
 21
55.5
 31
0.0
  0
LINE
  8
0
 10
58.499996185302734
 20
105.10000610351562
 30
0.0
 11
58.08588790893555
 21
105.04548645019531
 31
0.0
  0
LINE
  8
0
 10
58.08588790893555
 20
105.04548645019531
 30
0.0
 11
57.70000076293945
 21
104.8856430053711
 31
0.0
  0
LINE
  8
0
 10
57.70000076293945
 20
104.8856430053711
 30
0.0
 11
57.36862564086914
 21
104.6313705444336
 31
0.0
  0
LINE
  8
0
 10
57.36862564086914
 20
104.6313705444336
 30
0.0
 11
57.11436080932617
 21
104.30000305175781
 31
0.0
  0
LINE
  8
0
 10
57.11436080932617
 20
104.30000305175781
 30
0.0
 11
56.95451736450195
 21
103.91411590576172
 31
0.0
  0
LINE
  8
0
 10
56.95451736450195
 20
103.91411590576172
 30
0.0
 11
56.89999771118164
 21
103.50000762939453
 31
0.0
  0
LINE
  8
0
 10
56.89999771118164
 20
98.50000762939453
 30
0.0
 11
56.95451736450195
 21
98.08589935302734
 31
0.0
  0
LINE
  8
0
 10
56.95451736450195
 20
98.08589935302734
 30
0.0
 11
57.11436080932617
 21
97.69999694824219
 31
0.0
  0
LINE
  8
0
 10
57.11436080932617
 20
97.69999694824219
 30
0.0
 11
57.36862564086914
 21
97.3686294555664
 31
0.0
  0
LINE
  8
0
 10
57.36862564086914
 20
97.3686294555664
 30
0.0
 11
57.70000076293945
 21
97.1143569946289
 31
0.0
  0
LINE
  8
0
 10
57.70000076293945
 20
97.1143569946289
 30
0.0
 11
58.08588790893555
 21
96.95451354980469
 31
0.0
  0
LINE
  8
0
 10
58.08588790893555
 20
96.95451354980469
 30
0.0
 11
58.499996185302734
 21
96.89999389648438
 31
0.0
  0
LINE
  8
0
 10
56.89999771118164
 20
103.50000762939453
 30
0.0
 11
56.89999771118164
 21
98.50000762939453
 31
0.0
  0
LINE
  8
0
 10
63.10000228881836
 20
103.5
 30
0.0
 11
63.04548263549805
 21
103.91410827636719
 31
0.0
  0
LINE
  8
0
 10
63.04548263549805
 20
103.91410827636719
 30
0.0
 11
62.88563919067383
 21
104.29999542236328
 31
0.0
  0
LINE
  8
0
 10
62.88563919067383
 20
104.29999542236328
 30
0.0
 11
62.63136672973633
 21
104.6313705444336
 31
0.0
  0
LINE
  8
0
 10
62.63136672973633
 20
104.6313705444336
 30
0.0
 11
62.29999923706055
 21
104.88563537597656
 31
0.0
  0
LINE
  8
0
 10
62.29999923706055
 20
104.88563537597656
 30
0.0
 11
61.91411209106445
 21
105.04547882080078
 31
0.0
  0
LINE
  8
0
 10
61.91411209106445
 20
105.04547882080078
 30
0.0
 11
61.499996185302734
 21
105.10000610351562
 31
0.0
  0
LINE
  8
0
 10
61.499996185302734
 20
96.89999389648438
 30
0.0
 11
61.91411209106445
 21
96.95452117919922
 31
0.0
  0
LINE
  8
0
 10
61.91411209106445
 20
96.95452117919922
 30
0.0
 11
62.29999923706055
 21
97.11436462402344
 31
0.0
  0
LINE
  8
0
 10
62.29999923706055
 20
97.11436462402344
 30
0.0
 11
62.63136672973633
 21
97.3686294555664
 31
0.0
  0
LINE
  8
0
 10
62.63136672973633
 20
97.3686294555664
 30
0.0
 11
62.88563919067383
 21
97.70000457763672
 31
0.0
  0
LINE
  8
0
 10
62.88563919067383
 20
97.70000457763672
 30
0.0
 11
63.04548263549805
 21
98.08589172363281
 31
0.0
  0
LINE
  8
0
 10
63.10000228881836
 20
98.5
 30
0.0
 11
63.04548263549805
 21
98.08589172363281
 31
0.0
  0
LINE
  8
0
 10
63.10000228881836
 20
103.5
 30
0.0
 11
63.10000228881836
 21
98.5
 31
0.0
  0
LINE
  8
0
 10
58.499996185302734
 20
105.10000610351562
 30
0.0
 11
61.499996185302734
 21
105.10000610351562
 31
0.0
  0
LINE
  8
0
 10
58.499996185302734
 20
96.89999389648438
 30
0.0
 11
61.499996185302734
 21
96.89999389648438
 31
0.0
  0
LINE
  8
0
 10
50.499996185302734
 20
105.10000610351562
 30
0.0
 11
50.08588790893555
 21
105.04548645019531
 31
0.0
  0
LINE
  8
0
 10
50.08588790893555
 20
105.04548645019531
 30
0.0
 11
49.70000076293945
 21
104.8856430053711
 31
0.0
  0
LINE
  8
0
 10
49.70000076293945
 20
104.8856430053711
 30
0.0
 11
49.36862564086914
 21
104.6313705444336
 31
0.0
  0
LINE
  8
0
 10
49.36862564086914
 20
104.6313705444336
 30
0.0
 11
49.11436080932617
 21
104.30000305175781
 31
0.0
  0
LINE
  8
0
 10
49.11436080932617
 20
104.30000305175781
 30
0.0
 11
48.95451736450195
 21
103.91411590576172
 31
0.0
  0
LINE
  8
0
 10
48.95451736450195
 20
103.91411590576172
 30
0.0
 11
48.89999771118164
 21
103.50000762939453
 31
0.0
  0
LINE
  8
0
 10
48.899993896484375
 20
98.50000762939453
 30
0.0
 11
48.95451354980469
 21
98.08589935302734
 31
0.0
  0
LINE
  8
0
 10
48.95451354980469
 20
98.08589935302734
 30
0.0
 11
49.11436462402344
 21
97.69999694824219
 31
0.0
  0
LINE
  8
0
 10
49.11436462402344
 20
97.69999694824219
 30
0.0
 11
49.368629455566406
 21
97.3686294555664
 31
0.0
  0
LINE
  8
0
 10
49.368629455566406
 20
97.3686294555664
 30
0.0
 11
49.70000457763672
 21
97.1143569946289
 31
0.0
  0
LINE
  8
0
 10
49.70000457763672
 20
97.1143569946289
 30
0.0
 11
50.08588409423828
 21
96.95451354980469
 31
0.0
  0
LINE
  8
0
 10
50.08588409423828
 20
96.95451354980469
 30
0.0
 11
50.49999237060547
 21
96.89999389648438
 31
0.0
  0
LINE
  8
0
 10
48.89999771118164
 20
103.50000762939453
 30
0.0
 11
48.899993896484375
 21
98.50000762939453
 31
0.0
  0
LINE
  8
0
 10
55.10000228881836
 20
103.5
 30
0.0
 11
55.04548263549805
 21
103.91410827636719
 31
0.0
  0
LINE
  8
0
 10
55.04548263549805
 20
103.91410827636719
 30
0.0
 11
54.88563919067383
 21
104.29999542236328
 31
0.0
  0
LINE
  8
0
 10
54.88563919067383
 20
104.29999542236328
 30
0.0
 11
54.63136672973633
 21
104.6313705444336
 31
0.0
  0
LINE
  8
0
 10
54.63136672973633
 20
104.6313705444336
 30
0.0
 11
54.29999923706055
 21
104.88563537597656
 31
0.0
  0
LINE
  8
0
 10
54.29999923706055
 20
104.88563537597656
 30
0.0
 11
53.91411209106445
 21
105.04547882080078
 31
0.0
  0
LINE
  8
0
 10
53.91411209106445
 20
105.04547882080078
 30
0.0
 11
53.499996185302734
 21
105.10000610351562
 31
0.0
  0
LINE
  8
0
 10
53.499996185302734
 20
96.89999389648438
 30
0.0
 11
53.91411209106445
 21
96.95452117919922
 31
0.0
  0
LINE
  8
0
 10
53.91411209106445
 20
96.95452117919922
 30
0.0
 11
54.29999923706055
 21
97.11436462402344
 31
0.0
  0
LINE
  8
0
 10
54.29999923706055
 20
97.11436462402344
 30
0.0
 11
54.63136672973633
 21
97.3686294555664
 31
0.0
  0
LINE
  8
0
 10
54.63136672973633
 20
97.3686294555664
 30
0.0
 11
54.88563919067383
 21
97.70000457763672
 31
0.0
  0
LINE
  8
0
 10
54.88563919067383
 20
97.70000457763672
 30
0.0
 11
55.04548263549805
 21
98.08589172363281
 31
0.0
  0
LINE
  8
0
 10
55.10000228881836
 20
98.5
 30
0.0
 11
55.04548263549805
 21
98.08589172363281
 31
0.0
  0
LINE
  8
0
 10
55.10000228881836
 20
103.5
 30
0.0
 11
55.10000228881836
 21
98.5
 31
0.0
  0
LINE
  8
0
 10
50.499996185302734
 20
105.10000610351562
 30
0.0
 11
53.499996185302734
 21
105.10000610351562
 31
0.0
  0
LINE
  8
0
 10
50.49999237060547
 20
96.89999389648438
 30
0.0
 11
53.499996185302734
 21
96.89999389648438
 31
0.0
  0
LINE
  8
0
 10
26.49999237060547
 20
105.10000610351562
 30
0.0
 11
26.08588409423828
 21
105.04548645019531
 31
0.0
  0
LINE
  8
0
 10
26.08588409423828
 20
105.04548645019531
 30
0.0
 11
25.699996948242188
 21
104.8856430053711
 31
0.0
  0
LINE
  8
0
 10
25.699996948242188
 20
104.8856430053711
 30
0.0
 11
25.368621826171875
 21
104.6313705444336
 31
0.0
  0
LINE
  8
0
 10
25.368621826171875
 20
104.6313705444336
 30
0.0
 11
25.114349365234375
 21
104.30001068115234
 31
0.0
  0
LINE
  8
0
 10
25.114349365234375
 20
104.30001068115234
 30
0.0
 11
24.954513549804688
 21
103.91411590576172
 31
0.0
  0
LINE
  8
0
 10
24.954513549804688
 20
103.91411590576172
 30
0.0
 11
24.899993896484375
 21
103.50000762939453
 31
0.0
  0
LINE
  8
0
 10
24.899993896484375
 20
98.50000762939453
 30
0.0
 11
24.954513549804688
 21
98.08589935302734
 31
0.0
  0
LINE
  8
0
 10
24.954513549804688
 20
98.08589935302734
 30
0.0
 11
25.114349365234375
 21
97.70000457763672
 31
0.0
  0
LINE
  8
0
 10
25.114349365234375
 20
97.70000457763672
 30
0.0
 11
25.368621826171875
 21
97.3686294555664
 31
0.0
  0
LINE
  8
0
 10
25.368621826171875
 20
97.3686294555664
 30
0.0
 11
25.699989318847656
 21
97.11436462402344
 31
0.0
  0
LINE
  8
0
 10
25.699989318847656
 20
97.11436462402344
 30
0.0
 11
26.08588409423828
 21
96.95452880859375
 31
0.0
  0
LINE
  8
0
 10
26.08588409423828
 20
96.95452880859375
 30
0.0
 11
26.49999237060547
 21
96.90000915527344
 31
0.0
  0
LINE
  8
0
 10
24.899993896484375
 20
103.50000762939453
 30
0.0
 11
24.899993896484375
 21
98.50000762939453
 31
0.0
  0
LINE
  8
0
 10
31.099990844726562
 20
103.50000762939453
 30
0.0
 11
31.04547119140625
 21
103.91411590576172
 31
0.0
  0
LINE
  8
0
 10
31.04547119140625
 20
103.91411590576172
 30
0.0
 11
30.885635375976562
 21
104.29999542236328
 31
0.0
  0
LINE
  8
0
 10
30.885635375976562
 20
104.29999542236328
 30
0.0
 11
30.631362915039062
 21
104.6313705444336
 31
0.0
  0
LINE
  8
0
 10
30.631362915039062
 20
104.6313705444336
 30
0.0
 11
30.29999542236328
 21
104.88565063476562
 31
0.0
  0
LINE
  8
0
 10
30.29999542236328
 20
104.88565063476562
 30
0.0
 11
29.914100646972656
 21
105.04548645019531
 31
0.0
  0
LINE
  8
0
 10
29.914100646972656
 20
105.04548645019531
 30
0.0
 11
29.49999237060547
 21
105.10000610351562
 31
0.0
  0
LINE
  8
0
 10
29.49999237060547
 20
96.90000915527344
 30
0.0
 11
29.914100646972656
 21
96.95452880859375
 31
0.0
  0
LINE
  8
0
 10
29.914100646972656
 20
96.95452880859375
 30
0.0
 11
30.29999542236328
 21
97.11436462402344
 31
0.0
  0
LINE
  8
0
 10
30.29999542236328
 20
97.11436462402344
 30
0.0
 11
30.631362915039062
 21
97.3686294555664
 31
0.0
  0
LINE
  8
0
 10
30.631362915039062
 20
97.3686294555664
 30
0.0
 11
30.885635375976562
 21
97.70000457763672
 31
0.0
  0
LINE
  8
0
 10
30.885635375976562
 20
97.70000457763672
 30
0.0
 11
31.04547119140625
 21
98.08588409423828
 31
0.0
  0
LINE
  8
0
 10
31.099990844726562
 20
98.50000762939453
 30
0.0
 11
31.04547119140625
 21
98.08588409423828
 31
0.0
  0
LINE
  8
0
 10
31.099990844726562
 20
103.50000762939453
 30
0.0
 11
31.099990844726562
 21
98.50000762939453
 31
0.0
  0
LINE
  8
0
 10
26.49999237060547
 20
105.10000610351562
 30
0.0
 11
29.49999237060547
 21
105.10000610351562
 31
0.0
  0
LINE
  8
0
 10
26.49999237060547
 20
96.90000915527344
 30
0.0
 11
29.49999237060547
 21
96.90000915527344
 31
0.0
  0
LINE
  8
0
 10
42.49999237060547
 20
105.10000610351562
 30
0.0
 11
42.08588409423828
 21
105.04548645019531
 31
0.0
  0
LINE
  8
0
 10
42.08588409423828
 20
105.04548645019531
 30
0.0
 11
41.70000457763672
 21
104.8856430053711
 31
0.0
  0
LINE
  8
0
 10
41.70000457763672
 20
104.8856430053711
 30
0.0
 11
41.368629455566406
 21
104.6313705444336
 31
0.0
  0
LINE
  8
0
 10
41.368629455566406
 20
104.6313705444336
 30
0.0
 11
41.11436462402344
 21
104.30000305175781
 31
0.0
  0
LINE
  8
0
 10
41.11436462402344
 20
104.30000305175781
 30
0.0
 11
40.95451354980469
 21
103.91411590576172
 31
0.0
  0
LINE
  8
0
 10
40.95451354980469
 20
103.91411590576172
 30
0.0
 11
40.899993896484375
 21
103.50000762939453
 31
0.0
  0
LINE
  8
0
 10
40.899993896484375
 20
98.50000762939453
 30
0.0
 11
40.95451354980469
 21
98.08589935302734
 31
0.0
  0
LINE
  8
0
 10
40.95451354980469
 20
98.08589935302734
 30
0.0
 11
41.11436462402344
 21
97.69999694824219
 31
0.0
  0
LINE
  8
0
 10
41.11436462402344
 20
97.69999694824219
 30
0.0
 11
41.368629455566406
 21
97.3686294555664
 31
0.0
  0
LINE
  8
0
 10
41.368629455566406
 20
97.3686294555664
 30
0.0
 11
41.70000457763672
 21
97.1143569946289
 31
0.0
  0
LINE
  8
0
 10
41.70000457763672
 20
97.1143569946289
 30
0.0
 11
42.08588409423828
 21
96.95451354980469
 31
0.0
  0
LINE
  8
0
 10
42.08588409423828
 20
96.95451354980469
 30
0.0
 11
42.49999237060547
 21
96.89999389648438
 31
0.0
  0
LINE
  8
0
 10
40.899993896484375
 20
103.50000762939453
 30
0.0
 11
40.899993896484375
 21
98.50000762939453
 31
0.0
  0
LINE
  8
0
 10
47.10000228881836
 20
103.5
 30
0.0
 11
47.04548263549805
 21
103.91410827636719
 31
0.0
  0
LINE
  8
0
 10
47.04548263549805
 20
103.91410827636719
 30
0.0
 11
46.88563919067383
 21
104.29999542236328
 31
0.0
  0
LINE
  8
0
 10
46.88563919067383
 20
104.29999542236328
 30
0.0
 11
46.63136672973633
 21
104.6313705444336
 31
0.0
  0
LINE
  8
0
 10
46.63136672973633
 20
104.6313705444336
 30
0.0
 11
46.29999923706055
 21
104.88563537597656
 31
0.0
  0
LINE
  8
0
 10
46.29999923706055
 20
104.88563537597656
 30
0.0
 11
45.91411209106445
 21
105.04547882080078
 31
0.0
  0
LINE
  8
0
 10
45.91411209106445
 20
105.04547882080078
 30
0.0
 11
45.499996185302734
 21
105.10000610351562
 31
0.0
  0
LINE
  8
0
 10
45.49999237060547
 20
96.89999389648438
 30
0.0
 11
45.91411590576172
 21
96.95452117919922
 31
0.0
  0
LINE
  8
0
 10
45.91411590576172
 20
96.95452117919922
 30
0.0
 11
46.29999542236328
 21
97.11436462402344
 31
0.0
  0
LINE
  8
0
 10
46.29999542236328
 20
97.11436462402344
 30
0.0
 11
46.631370544433594
 21
97.3686294555664
 31
0.0
  0
LINE
  8
0
 10
46.631370544433594
 20
97.3686294555664
 30
0.0
 11
46.88563537597656
 21
97.70000457763672
 31
0.0
  0
LINE
  8
0
 10
46.88563537597656
 20
97.70000457763672
 30
0.0
 11
47.04547882080078
 21
98.08589172363281
 31
0.0
  0
LINE
  8
0
 10
47.100006103515625
 20
98.5
 30
0.0
 11
47.04547882080078
 21
98.08589172363281
 31
0.0
  0
LINE
  8
0
 10
47.10000228881836
 20
103.5
 30
0.0
 11
47.100006103515625
 21
98.5
 31
0.0
  0
LINE
  8
0
 10
42.49999237060547
 20
105.10000610351562
 30
0.0
 11
45.499996185302734
 21
105.10000610351562
 31
0.0
  0
LINE
  8
0
 10
42.49999237060547
 20
96.89999389648438
 30
0.0
 11
45.49999237060547
 21
96.89999389648438
 31
0.0
  0
LINE
  8
0
 10
34.49999237060547
 20
105.10000610351562
 30
0.0
 11
34.08588409423828
 21
105.04548645019531
 31
0.0
  0
LINE
  8
0
 10
34.08588409423828
 20
105.04548645019531
 30
0.0
 11
33.70000457763672
 21
104.8856430053711
 31
0.0
  0
LINE
  8
0
 10
33.70000457763672
 20
104.8856430053711
 30
0.0
 11
33.368629455566406
 21
104.6313705444336
 31
0.0
  0
LINE
  8
0
 10
33.368629455566406
 20
104.6313705444336
 30
0.0
 11
33.11436462402344
 21
104.30000305175781
 31
0.0
  0
LINE
  8
0
 10
33.11436462402344
 20
104.30000305175781
 30
0.0
 11
32.95451354980469
 21
103.91411590576172
 31
0.0
  0
LINE
  8
0
 10
32.95451354980469
 20
103.91411590576172
 30
0.0
 11
32.899993896484375
 21
103.50000762939453
 31
0.0
  0
LINE
  8
0
 10
32.899993896484375
 20
98.50000762939453
 30
0.0
 11
32.95451354980469
 21
98.08589935302734
 31
0.0
  0
LINE
  8
0
 10
32.95451354980469
 20
98.08589935302734
 30
0.0
 11
33.11436462402344
 21
97.69999694824219
 31
0.0
  0
LINE
  8
0
 10
33.11436462402344
 20
97.69999694824219
 30
0.0
 11
33.368629455566406
 21
97.3686294555664
 31
0.0
  0
LINE
  8
0
 10
33.368629455566406
 20
97.3686294555664
 30
0.0
 11
33.70000457763672
 21
97.1143569946289
 31
0.0
  0
LINE
  8
0
 10
33.70000457763672
 20
97.1143569946289
 30
0.0
 11
34.08588409423828
 21
96.95451354980469
 31
0.0
  0
LINE
  8
0
 10
34.08588409423828
 20
96.95451354980469
 30
0.0
 11
34.49999237060547
 21
96.89999389648438
 31
0.0
  0
LINE
  8
0
 10
32.899993896484375
 20
103.50000762939453
 30
0.0
 11
32.899993896484375
 21
98.50000762939453
 31
0.0
  0
LINE
  8
0
 10
39.100006103515625
 20
103.5
 30
0.0
 11
39.04548645019531
 21
103.91410827636719
 31
0.0
  0
LINE
  8
0
 10
39.04548645019531
 20
103.91410827636719
 30
0.0
 11
38.885643005371094
 21
104.29999542236328
 31
0.0
  0
LINE
  8
0
 10
38.885643005371094
 20
104.29999542236328
 30
0.0
 11
38.631370544433594
 21
104.6313705444336
 31
0.0
  0
LINE
  8
0
 10
38.631370544433594
 20
104.6313705444336
 30
0.0
 11
38.29999542236328
 21
104.88563537597656
 31
0.0
  0
LINE
  8
0
 10
38.29999542236328
 20
104.88563537597656
 30
0.0
 11
37.91411590576172
 21
105.04547882080078
 31
0.0
  0
LINE
  8
0
 10
37.91411590576172
 20
105.04547882080078
 30
0.0
 11
37.49999237060547
 21
105.10000610351562
 31
0.0
  0
LINE
  8
0
 10
37.49999237060547
 20
96.89999389648438
 30
0.0
 11
37.91411590576172
 21
96.95452117919922
 31
0.0
  0
LINE
  8
0
 10
37.91411590576172
 20
96.95452117919922
 30
0.0
 11
38.29999542236328
 21
97.11436462402344
 31
0.0
  0
LINE
  8
0
 10
38.29999542236328
 20
97.11436462402344
 30
0.0
 11
38.631370544433594
 21
97.3686294555664
 31
0.0
  0
LINE
  8
0
 10
38.631370544433594
 20
97.3686294555664
 30
0.0
 11
38.88563537597656
 21
97.70000457763672
 31
0.0
  0
LINE
  8
0
 10
38.88563537597656
 20
97.70000457763672
 30
0.0
 11
39.04547882080078
 21
98.08589172363281
 31
0.0
  0
LINE
  8
0
 10
39.100006103515625
 20
98.5
 30
0.0
 11
39.04547882080078
 21
98.08589172363281
 31
0.0
  0
LINE
  8
0
 10
39.100006103515625
 20
103.5
 30
0.0
 11
39.100006103515625
 21
98.5
 31
0.0
  0
LINE
  8
0
 10
34.49999237060547
 20
105.10000610351562
 30
0.0
 11
37.49999237060547
 21
105.10000610351562
 31
0.0
  0
LINE
  8
0
 10
34.49999237060547
 20
96.89999389648438
 30
0.0
 11
37.49999237060547
 21
96.89999389648438
 31
0.0
  0
LINE
  8
0
 10
58.499996185302734
 20
95.10000610351562
 30
0.0
 11
58.08588790893555
 21
95.04548645019531
 31
0.0
  0
LINE
  8
0
 10
58.08588790893555
 20
95.04548645019531
 30
0.0
 11
57.70000076293945
 21
94.8856430053711
 31
0.0
  0
LINE
  8
0
 10
57.70000076293945
 20
94.8856430053711
 30
0.0
 11
57.36862564086914
 21
94.6313705444336
 31
0.0
  0
LINE
  8
0
 10
57.36862564086914
 20
94.6313705444336
 30
0.0
 11
57.11436080932617
 21
94.30000305175781
 31
0.0
  0
LINE
  8
0
 10
57.11436080932617
 20
94.30000305175781
 30
0.0
 11
56.95451736450195
 21
93.91411590576172
 31
0.0
  0
LINE
  8
0
 10
56.95451736450195
 20
93.91411590576172
 30
0.0
 11
56.89999771118164
 21
93.50000762939453
 31
0.0
  0
LINE
  8
0
 10
56.899993896484375
 20
88.50000762939453
 30
0.0
 11
56.95451354980469
 21
88.08589935302734
 31
0.0
  0
LINE
  8
0
 10
56.95451354980469
 20
88.08589935302734
 30
0.0
 11
57.11436462402344
 21
87.69999694824219
 31
0.0
  0
LINE
  8
0
 10
57.11436462402344
 20
87.69999694824219
 30
0.0
 11
57.368629455566406
 21
87.3686294555664
 31
0.0
  0
LINE
  8
0
 10
57.368629455566406
 20
87.3686294555664
 30
0.0
 11
57.70000457763672
 21
87.1143569946289
 31
0.0
  0
LINE
  8
0
 10
57.70000457763672
 20
87.1143569946289
 30
0.0
 11
58.08588409423828
 21
86.95451354980469
 31
0.0
  0
LINE
  8
0
 10
58.08588409423828
 20
86.95451354980469
 30
0.0
 11
58.49999237060547
 21
86.89999389648438
 31
0.0
  0
LINE
  8
0
 10
56.89999771118164
 20
93.50000762939453
 30
0.0
 11
56.899993896484375
 21
88.50000762939453
 31
0.0
  0
LINE
  8
0
 10
63.10000228881836
 20
93.5
 30
0.0
 11
63.04548263549805
 21
93.91410827636719
 31
0.0
  0
LINE
  8
0
 10
63.04548263549805
 20
93.91410827636719
 30
0.0
 11
62.88563919067383
 21
94.29999542236328
 31
0.0
  0
LINE
  8
0
 10
62.88563919067383
 20
94.29999542236328
 30
0.0
 11
62.63136672973633
 21
94.6313705444336
 31
0.0
  0
LINE
  8
0
 10
62.63136672973633
 20
94.6313705444336
 30
0.0
 11
62.29999923706055
 21
94.88563537597656
 31
0.0
  0
LINE
  8
0
 10
62.29999923706055
 20
94.88563537597656
 30
0.0
 11
61.91411209106445
 21
95.04547882080078
 31
0.0
  0
LINE
  8
0
 10
61.91411209106445
 20
95.04547882080078
 30
0.0
 11
61.499996185302734
 21
95.10000610351562
 31
0.0
  0
LINE
  8
0
 10
61.499996185302734
 20
86.89999389648438
 30
0.0
 11
61.91411209106445
 21
86.95452117919922
 31
0.0
  0
LINE
  8
0
 10
61.91411209106445
 20
86.95452117919922
 30
0.0
 11
62.29999923706055
 21
87.11436462402344
 31
0.0
  0
LINE
  8
0
 10
62.29999923706055
 20
87.11436462402344
 30
0.0
 11
62.63136672973633
 21
87.3686294555664
 31
0.0
  0
LINE
  8
0
 10
62.63136672973633
 20
87.3686294555664
 30
0.0
 11
62.88563919067383
 21
87.70000457763672
 31
0.0
  0
LINE
  8
0
 10
62.88563919067383
 20
87.70000457763672
 30
0.0
 11
63.04548263549805
 21
88.08589172363281
 31
0.0
  0
LINE
  8
0
 10
63.10000228881836
 20
88.5
 30
0.0
 11
63.04548263549805
 21
88.08589172363281
 31
0.0
  0
LINE
  8
0
 10
63.10000228881836
 20
93.5
 30
0.0
 11
63.10000228881836
 21
88.5
 31
0.0
  0
LINE
  8
0
 10
58.499996185302734
 20
95.10000610351562
 30
0.0
 11
61.499996185302734
 21
95.10000610351562
 31
0.0
  0
LINE
  8
0
 10
58.49999237060547
 20
86.89999389648438
 30
0.0
 11
61.499996185302734
 21
86.89999389648438
 31
0.0
  0
LINE
  8
0
 10
50.49999237060547
 20
95.10000610351562
 30
0.0
 11
50.08588409423828
 21
95.04548645019531
 31
0.0
  0
LINE
  8
0
 10
50.08588409423828
 20
95.04548645019531
 30
0.0
 11
49.70000457763672
 21
94.8856430053711
 31
0.0
  0
LINE
  8
0
 10
49.70000457763672
 20
94.8856430053711
 30
0.0
 11
49.368629455566406
 21
94.6313705444336
 31
0.0
  0
LINE
  8
0
 10
49.368629455566406
 20
94.6313705444336
 30
0.0
 11
49.11436462402344
 21
94.30000305175781
 31
0.0
  0
LINE
  8
0
 10
49.11436462402344
 20
94.30000305175781
 30
0.0
 11
48.95451354980469
 21
93.91411590576172
 31
0.0
  0
LINE
  8
0
 10
48.95451354980469
 20
93.91411590576172
 30
0.0
 11
48.899993896484375
 21
93.50000762939453
 31
0.0
  0
LINE
  8
0
 10
48.899993896484375
 20
88.50000762939453
 30
0.0
 11
48.95451354980469
 21
88.08589935302734
 31
0.0
  0
LINE
  8
0
 10
48.95451354980469
 20
88.08589935302734
 30
0.0
 11
49.11436462402344
 21
87.69999694824219
 31
0.0
  0
LINE
  8
0
 10
49.11436462402344
 20
87.69999694824219
 30
0.0
 11
49.368629455566406
 21
87.3686294555664
 31
0.0
  0
LINE
  8
0
 10
49.368629455566406
 20
87.3686294555664
 30
0.0
 11
49.70000457763672
 21
87.1143569946289
 31
0.0
  0
LINE
  8
0
 10
49.70000457763672
 20
87.1143569946289
 30
0.0
 11
50.08588409423828
 21
86.95451354980469
 31
0.0
  0
LINE
  8
0
 10
50.08588409423828
 20
86.95451354980469
 30
0.0
 11
50.49999237060547
 21
86.89999389648438
 31
0.0
  0
LINE
  8
0
 10
48.899993896484375
 20
93.50000762939453
 30
0.0
 11
48.899993896484375
 21
88.50000762939453
 31
0.0
  0
LINE
  8
0
 10
55.10000228881836
 20
93.5
 30
0.0
 11
55.04548263549805
 21
93.91410827636719
 31
0.0
  0
LINE
  8
0
 10
55.04548263549805
 20
93.91410827636719
 30
0.0
 11
54.88563919067383
 21
94.29999542236328
 31
0.0
  0
LINE
  8
0
 10
54.88563919067383
 20
94.29999542236328
 30
0.0
 11
54.63136672973633
 21
94.6313705444336
 31
0.0
  0
LINE
  8
0
 10
54.63136672973633
 20
94.6313705444336
 30
0.0
 11
54.29999923706055
 21
94.88563537597656
 31
0.0
  0
LINE
  8
0
 10
54.29999923706055
 20
94.88563537597656
 30
0.0
 11
53.91411209106445
 21
95.04547882080078
 31
0.0
  0
LINE
  8
0
 10
53.91411209106445
 20
95.04547882080078
 30
0.0
 11
53.499996185302734
 21
95.10000610351562
 31
0.0
  0
LINE
  8
0
 10
53.49999237060547
 20
86.89999389648438
 30
0.0
 11
53.91411590576172
 21
86.95452117919922
 31
0.0
  0
LINE
  8
0
 10
53.91411590576172
 20
86.95452117919922
 30
0.0
 11
54.29999542236328
 21
87.11436462402344
 31
0.0
  0
LINE
  8
0
 10
54.29999542236328
 20
87.11436462402344
 30
0.0
 11
54.631370544433594
 21
87.3686294555664
 31
0.0
  0
LINE
  8
0
 10
54.631370544433594
 20
87.3686294555664
 30
0.0
 11
54.88563537597656
 21
87.70000457763672
 31
0.0
  0
LINE
  8
0
 10
54.88563537597656
 20
87.70000457763672
 30
0.0
 11
55.04547882080078
 21
88.08589172363281
 31
0.0
  0
LINE
  8
0
 10
55.100006103515625
 20
88.5
 30
0.0
 11
55.04547882080078
 21
88.08589172363281
 31
0.0
  0
LINE
  8
0
 10
55.10000228881836
 20
93.5
 30
0.0
 11
55.100006103515625
 21
88.5
 31
0.0
  0
LINE
  8
0
 10
50.49999237060547
 20
95.10000610351562
 30
0.0
 11
53.499996185302734
 21
95.10000610351562
 31
0.0
  0
LINE
  8
0
 10
50.49999237060547
 20
86.89999389648438
 30
0.0
 11
53.49999237060547
 21
86.89999389648438
 31
0.0
  0
LINE
  8
0
 10
26.49999237060547
 20
95.10000610351562
 30
0.0
 11
26.08588409423828
 21
95.04548645019531
 31
0.0
  0
LINE
  8
0
 10
26.08588409423828
 20
95.04548645019531
 30
0.0
 11
25.699996948242188
 21
94.8856430053711
 31
0.0
  0
LINE
  8
0
 10
25.699996948242188
 20
94.8856430053711
 30
0.0
 11
25.368621826171875
 21
94.6313705444336
 31
0.0
  0
LINE
  8
0
 10
25.368621826171875
 20
94.6313705444336
 30
0.0
 11
25.114349365234375
 21
94.30001068115234
 31
0.0
  0
LINE
  8
0
 10
25.114349365234375
 20
94.30001068115234
 30
0.0
 11
24.954513549804688
 21
93.91411590576172
 31
0.0
  0
LINE
  8
0
 10
24.954513549804688
 20
93.91411590576172
 30
0.0
 11
24.899993896484375
 21
93.50000762939453
 31
0.0
  0
LINE
  8
0
 10
24.899993896484375
 20
88.50000762939453
 30
0.0
 11
24.954513549804688
 21
88.08589935302734
 31
0.0
  0
LINE
  8
0
 10
24.954513549804688
 20
88.08589935302734
 30
0.0
 11
25.114349365234375
 21
87.70000457763672
 31
0.0
  0
LINE
  8
0
 10
25.114349365234375
 20
87.70000457763672
 30
0.0
 11
25.368621826171875
 21
87.3686294555664
 31
0.0
  0
LINE
  8
0
 10
25.368621826171875
 20
87.3686294555664
 30
0.0
 11
25.699989318847656
 21
87.11436462402344
 31
0.0
  0
LINE
  8
0
 10
25.699989318847656
 20
87.11436462402344
 30
0.0
 11
26.08588409423828
 21
86.95452880859375
 31
0.0
  0
LINE
  8
0
 10
26.08588409423828
 20
86.95452880859375
 30
0.0
 11
26.49999237060547
 21
86.90000915527344
 31
0.0
  0
LINE
  8
0
 10
24.899993896484375
 20
93.50000762939453
 30
0.0
 11
24.899993896484375
 21
88.50000762939453
 31
0.0
  0
LINE
  8
0
 10
31.099990844726562
 20
93.50000762939453
 30
0.0
 11
31.04547119140625
 21
93.91411590576172
 31
0.0
  0
LINE
  8
0
 10
31.04547119140625
 20
93.91411590576172
 30
0.0
 11
30.885635375976562
 21
94.29999542236328
 31
0.0
  0
LINE
  8
0
 10
30.885635375976562
 20
94.29999542236328
 30
0.0
 11
30.631362915039062
 21
94.6313705444336
 31
0.0
  0
LINE
  8
0
 10
30.631362915039062
 20
94.6313705444336
 30
0.0
 11
30.29999542236328
 21
94.88565063476562
 31
0.0
  0
LINE
  8
0
 10
30.29999542236328
 20
94.88565063476562
 30
0.0
 11
29.914100646972656
 21
95.04548645019531
 31
0.0
  0
LINE
  8
0
 10
29.914100646972656
 20
95.04548645019531
 30
0.0
 11
29.49999237060547
 21
95.10000610351562
 31
0.0
  0
LINE
  8
0
 10
29.49999237060547
 20
86.90000915527344
 30
0.0
 11
29.914100646972656
 21
86.95452880859375
 31
0.0
  0
LINE
  8
0
 10
29.914100646972656
 20
86.95452880859375
 30
0.0
 11
30.29999542236328
 21
87.11436462402344
 31
0.0
  0
LINE
  8
0
 10
30.29999542236328
 20
87.11436462402344
 30
0.0
 11
30.631362915039062
 21
87.3686294555664
 31
0.0
  0
LINE
  8
0
 10
30.631362915039062
 20
87.3686294555664
 30
0.0
 11
30.885635375976562
 21
87.70000457763672
 31
0.0
  0
LINE
  8
0
 10
30.885635375976562
 20
87.70000457763672
 30
0.0
 11
31.04547119140625
 21
88.08588409423828
 31
0.0
  0
LINE
  8
0
 10
31.099990844726562
 20
88.50000762939453
 30
0.0
 11
31.04547119140625
 21
88.08588409423828
 31
0.0
  0
LINE
  8
0
 10
31.099990844726562
 20
93.50000762939453
 30
0.0
 11
31.099990844726562
 21
88.50000762939453
 31
0.0
  0
LINE
  8
0
 10
26.49999237060547
 20
95.10000610351562
 30
0.0
 11
29.49999237060547
 21
95.10000610351562
 31
0.0
  0
LINE
  8
0
 10
26.49999237060547
 20
86.90000915527344
 30
0.0
 11
29.49999237060547
 21
86.90000915527344
 31
0.0
  0
LINE
  8
0
 10
42.49999237060547
 20
95.10000610351562
 30
0.0
 11
42.08588409423828
 21
95.04548645019531
 31
0.0
  0
LINE
  8
0
 10
42.08588409423828
 20
95.04548645019531
 30
0.0
 11
41.70000457763672
 21
94.8856430053711
 31
0.0
  0
LINE
  8
0
 10
41.70000457763672
 20
94.8856430053711
 30
0.0
 11
41.368629455566406
 21
94.6313705444336
 31
0.0
  0
LINE
  8
0
 10
41.368629455566406
 20
94.6313705444336
 30
0.0
 11
41.11436462402344
 21
94.30000305175781
 31
0.0
  0
LINE
  8
0
 10
41.11436462402344
 20
94.30000305175781
 30
0.0
 11
40.95451354980469
 21
93.91411590576172
 31
0.0
  0
LINE
  8
0
 10
40.95451354980469
 20
93.91411590576172
 30
0.0
 11
40.899993896484375
 21
93.50000762939453
 31
0.0
  0
LINE
  8
0
 10
40.899993896484375
 20
88.50000762939453
 30
0.0
 11
40.95451354980469
 21
88.08589935302734
 31
0.0
  0
LINE
  8
0
 10
40.95451354980469
 20
88.08589935302734
 30
0.0
 11
41.11436462402344
 21
87.69999694824219
 31
0.0
  0
LINE
  8
0
 10
41.11436462402344
 20
87.69999694824219
 30
0.0
 11
41.368629455566406
 21
87.3686294555664
 31
0.0
  0
LINE
  8
0
 10
41.368629455566406
 20
87.3686294555664
 30
0.0
 11
41.70000457763672
 21
87.1143569946289
 31
0.0
  0
LINE
  8
0
 10
41.70000457763672
 20
87.1143569946289
 30
0.0
 11
42.08588409423828
 21
86.95451354980469
 31
0.0
  0
LINE
  8
0
 10
42.08588409423828
 20
86.95451354980469
 30
0.0
 11
42.49999237060547
 21
86.89999389648438
 31
0.0
  0
LINE
  8
0
 10
40.899993896484375
 20
93.50000762939453
 30
0.0
 11
40.899993896484375
 21
88.50000762939453
 31
0.0
  0
LINE
  8
0
 10
47.100006103515625
 20
93.5
 30
0.0
 11
47.04548645019531
 21
93.91410827636719
 31
0.0
  0
LINE
  8
0
 10
47.04548645019531
 20
93.91410827636719
 30
0.0
 11
46.885643005371094
 21
94.29999542236328
 31
0.0
  0
LINE
  8
0
 10
46.885643005371094
 20
94.29999542236328
 30
0.0
 11
46.631370544433594
 21
94.6313705444336
 31
0.0
  0
LINE
  8
0
 10
46.631370544433594
 20
94.6313705444336
 30
0.0
 11
46.29999542236328
 21
94.88563537597656
 31
0.0
  0
LINE
  8
0
 10
46.29999542236328
 20
94.88563537597656
 30
0.0
 11
45.91411590576172
 21
95.04547882080078
 31
0.0
  0
LINE
  8
0
 10
45.91411590576172
 20
95.04547882080078
 30
0.0
 11
45.49999237060547
 21
95.10000610351562
 31
0.0
  0
LINE
  8
0
 10
45.49999237060547
 20
86.89999389648438
 30
0.0
 11
45.91411590576172
 21
86.95452117919922
 31
0.0
  0
LINE
  8
0
 10
45.91411590576172
 20
86.95452117919922
 30
0.0
 11
46.29999542236328
 21
87.11436462402344
 31
0.0
  0
LINE
  8
0
 10
46.29999542236328
 20
87.11436462402344
 30
0.0
 11
46.631370544433594
 21
87.3686294555664
 31
0.0
  0
LINE
  8
0
 10
46.631370544433594
 20
87.3686294555664
 30
0.0
 11
46.88563537597656
 21
87.70000457763672
 31
0.0
  0
LINE
  8
0
 10
46.88563537597656
 20
87.70000457763672
 30
0.0
 11
47.04547882080078
 21
88.08589172363281
 31
0.0
  0
LINE
  8
0
 10
47.100006103515625
 20
88.5
 30
0.0
 11
47.04547882080078
 21
88.08589172363281
 31
0.0
  0
LINE
  8
0
 10
47.100006103515625
 20
93.5
 30
0.0
 11
47.100006103515625
 21
88.5
 31
0.0
  0
LINE
  8
0
 10
42.49999237060547
 20
95.10000610351562
 30
0.0
 11
45.49999237060547
 21
95.10000610351562
 31
0.0
  0
LINE
  8
0
 10
42.49999237060547
 20
86.89999389648438
 30
0.0
 11
45.49999237060547
 21
86.89999389648438
 31
0.0
  0
LINE
  8
0
 10
34.49999237060547
 20
95.10000610351562
 30
0.0
 11
34.08588409423828
 21
95.04548645019531
 31
0.0
  0
LINE
  8
0
 10
34.08588409423828
 20
95.04548645019531
 30
0.0
 11
33.70000457763672
 21
94.8856430053711
 31
0.0
  0
LINE
  8
0
 10
33.70000457763672
 20
94.8856430053711
 30
0.0
 11
33.368629455566406
 21
94.6313705444336
 31
0.0
  0
LINE
  8
0
 10
33.368629455566406
 20
94.6313705444336
 30
0.0
 11
33.11436462402344
 21
94.30000305175781
 31
0.0
  0
LINE
  8
0
 10
33.11436462402344
 20
94.30000305175781
 30
0.0
 11
32.95451354980469
 21
93.91411590576172
 31
0.0
  0
LINE
  8
0
 10
32.95451354980469
 20
93.91411590576172
 30
0.0
 11
32.899993896484375
 21
93.50000762939453
 31
0.0
  0
LINE
  8
0
 10
32.899993896484375
 20
88.50000762939453
 30
0.0
 11
32.95451354980469
 21
88.08589935302734
 31
0.0
  0
LINE
  8
0
 10
32.95451354980469
 20
88.08589935302734
 30
0.0
 11
33.11436462402344
 21
87.69999694824219
 31
0.0
  0
LINE
  8
0
 10
33.11436462402344
 20
87.69999694824219
 30
0.0
 11
33.368629455566406
 21
87.3686294555664
 31
0.0
  0
LINE
  8
0
 10
33.368629455566406
 20
87.3686294555664
 30
0.0
 11
33.70000457763672
 21
87.1143569946289
 31
0.0
  0
LINE
  8
0
 10
33.70000457763672
 20
87.1143569946289
 30
0.0
 11
34.08588409423828
 21
86.95451354980469
 31
0.0
  0
LINE
  8
0
 10
34.08588409423828
 20
86.95451354980469
 30
0.0
 11
34.49999237060547
 21
86.89999389648438
 31
0.0
  0
LINE
  8
0
 10
32.899993896484375
 20
93.50000762939453
 30
0.0
 11
32.899993896484375
 21
88.50000762939453
 31
0.0
  0
LINE
  8
0
 10
39.100006103515625
 20
93.5
 30
0.0
 11
39.04548645019531
 21
93.91410827636719
 31
0.0
  0
LINE
  8
0
 10
39.04548645019531
 20
93.91410827636719
 30
0.0
 11
38.885643005371094
 21
94.29999542236328
 31
0.0
  0
LINE
  8
0
 10
38.885643005371094
 20
94.29999542236328
 30
0.0
 11
38.631370544433594
 21
94.6313705444336
 31
0.0
  0
LINE
  8
0
 10
38.631370544433594
 20
94.6313705444336
 30
0.0
 11
38.29999542236328
 21
94.88563537597656
 31
0.0
  0
LINE
  8
0
 10
38.29999542236328
 20
94.88563537597656
 30
0.0
 11
37.91411590576172
 21
95.04547882080078
 31
0.0
  0
LINE
  8
0
 10
37.91411590576172
 20
95.04547882080078
 30
0.0
 11
37.49999237060547
 21
95.10000610351562
 31
0.0
  0
LINE
  8
0
 10
37.49999237060547
 20
86.89999389648438
 30
0.0
 11
37.91411590576172
 21
86.95452117919922
 31
0.0
  0
LINE
  8
0
 10
37.91411590576172
 20
86.95452117919922
 30
0.0
 11
38.29999542236328
 21
87.11436462402344
 31
0.0
  0
LINE
  8
0
 10
38.29999542236328
 20
87.11436462402344
 30
0.0
 11
38.631370544433594
 21
87.3686294555664
 31
0.0
  0
LINE
  8
0
 10
38.631370544433594
 20
87.3686294555664
 30
0.0
 11
38.88563537597656
 21
87.70000457763672
 31
0.0
  0
LINE
  8
0
 10
38.88563537597656
 20
87.70000457763672
 30
0.0
 11
39.04547882080078
 21
88.08589172363281
 31
0.0
  0
LINE
  8
0
 10
39.100006103515625
 20
88.5
 30
0.0
 11
39.04547882080078
 21
88.08589172363281
 31
0.0
  0
LINE
  8
0
 10
39.100006103515625
 20
93.5
 30
0.0
 11
39.100006103515625
 21
88.5
 31
0.0
  0
LINE
  8
0
 10
34.49999237060547
 20
95.10000610351562
 30
0.0
 11
37.49999237060547
 21
95.10000610351562
 31
0.0
  0
LINE
  8
0
 10
34.49999237060547
 20
86.89999389648438
 30
0.0
 11
37.49999237060547
 21
86.89999389648438
 31
0.0
  0
LINE
  8
0
 10
58.49999237060547
 20
85.10000610351562
 30
0.0
 11
58.08588409423828
 21
85.04548645019531
 31
0.0
  0
LINE
  8
0
 10
58.08588409423828
 20
85.04548645019531
 30
0.0
 11
57.70000457763672
 21
84.8856430053711
 31
0.0
  0
LINE
  8
0
 10
57.70000457763672
 20
84.8856430053711
 30
0.0
 11
57.368629455566406
 21
84.6313705444336
 31
0.0
  0
LINE
  8
0
 10
57.368629455566406
 20
84.6313705444336
 30
0.0
 11
57.11436462402344
 21
84.30000305175781
 31
0.0
  0
LINE
  8
0
 10
57.11436462402344
 20
84.30000305175781
 30
0.0
 11
56.95451354980469
 21
83.91412353515625
 31
0.0
  0
LINE
  8
0
 10
56.95451354980469
 20
83.91412353515625
 30
0.0
 11
56.899993896484375
 21
83.5
 31
0.0
  0
LINE
  8
0
 10
56.899993896484375
 20
78.5
 30
0.0
 11
56.95451354980469
 21
78.08590698242188
 31
0.0
  0
LINE
  8
0
 10
56.95451354980469
 20
78.08590698242188
 30
0.0
 11
57.114356994628906
 21
77.69999694824219
 31
0.0
  0
LINE
  8
0
 10
57.114356994628906
 20
77.69999694824219
 30
0.0
 11
57.368621826171875
 21
77.36862182617188
 31
0.0
  0
LINE
  8
0
 10
57.368621826171875
 20
77.36862182617188
 30
0.0
 11
57.69999694824219
 21
77.11434936523438
 31
0.0
  0
LINE
  8
0
 10
57.69999694824219
 20
77.11434936523438
 30
0.0
 11
58.08588409423828
 21
76.95452880859375
 31
0.0
  0
LINE
  8
0
 10
58.08588409423828
 20
76.95452880859375
 30
0.0
 11
58.49999237060547
 21
76.89999389648438
 31
0.0
  0
LINE
  8
0
 10
56.899993896484375
 20
83.5
 30
0.0
 11
56.899993896484375
 21
78.5
 31
0.0
  0
LINE
  8
0
 10
63.100006103515625
 20
83.5
 30
0.0
 11
63.04548645019531
 21
83.91410827636719
 31
0.0
  0
LINE
  8
0
 10
63.04548645019531
 20
83.91410827636719
 30
0.0
 11
62.885643005371094
 21
84.29999542236328
 31
0.0
  0
LINE
  8
0
 10
62.885643005371094
 20
84.29999542236328
 30
0.0
 11
62.631370544433594
 21
84.6313705444336
 31
0.0
  0
LINE
  8
0
 10
62.631370544433594
 20
84.6313705444336
 30
0.0
 11
62.29999542236328
 21
84.88563537597656
 31
0.0
  0
LINE
  8
0
 10
62.29999542236328
 20
84.88563537597656
 30
0.0
 11
61.91411590576172
 21
85.04547882080078
 31
0.0
  0
LINE
  8
0
 10
61.91411590576172
 20
85.04547882080078
 30
0.0
 11
61.49999237060547
 21
85.10000610351562
 31
0.0
  0
LINE
  8
0
 10
61.49999237060547
 20
76.89999389648438
 30
0.0
 11
61.91410827636719
 21
76.95452880859375
 31
0.0
  0
LINE
  8
0
 10
61.91410827636719
 20
76.95452880859375
 30
0.0
 11
62.29999542236328
 21
77.11434936523438
 31
0.0
  0
LINE
  8
0
 10
62.29999542236328
 20
77.11434936523438
 30
0.0
 11
62.63136291503906
 21
77.36862182617188
 31
0.0
  0
LINE
  8
0
 10
62.63136291503906
 20
77.36862182617188
 30
0.0
 11
62.88563537597656
 21
77.70001220703125
 31
0.0
  0
LINE
  8
0
 10
62.88563537597656
 20
77.70001220703125
 30
0.0
 11
63.04547882080078
 21
78.08587646484375
 31
0.0
  0
LINE
  8
0
 10
63.099998474121094
 20
78.5
 30
0.0
 11
63.04547882080078
 21
78.08587646484375
 31
0.0
  0
LINE
  8
0
 10
63.100006103515625
 20
83.5
 30
0.0
 11
63.099998474121094
 21
78.5
 31
0.0
  0
LINE
  8
0
 10
58.49999237060547
 20
85.10000610351562
 30
0.0
 11
61.49999237060547
 21
85.10000610351562
 31
0.0
  0
LINE
  8
0
 10
58.49999237060547
 20
76.89999389648438
 30
0.0
 11
61.49999237060547
 21
76.89999389648438
 31
0.0
  0
LINE
  8
0
 10
50.49999237060547
 20
85.10000610351562
 30
0.0
 11
50.08588409423828
 21
85.04548645019531
 31
0.0
  0
LINE
  8
0
 10
50.08588409423828
 20
85.04548645019531
 30
0.0
 11
49.70000457763672
 21
84.8856430053711
 31
0.0
  0
LINE
  8
0
 10
49.70000457763672
 20
84.8856430053711
 30
0.0
 11
49.368629455566406
 21
84.6313705444336
 31
0.0
  0
LINE
  8
0
 10
49.368629455566406
 20
84.6313705444336
 30
0.0
 11
49.11436462402344
 21
84.30000305175781
 31
0.0
  0
LINE
  8
0
 10
49.11436462402344
 20
84.30000305175781
 30
0.0
 11
48.95451354980469
 21
83.91412353515625
 31
0.0
  0
LINE
  8
0
 10
48.95451354980469
 20
83.91412353515625
 30
0.0
 11
48.899993896484375
 21
83.5
 31
0.0
  0
LINE
  8
0
 10
48.899993896484375
 20
78.5
 30
0.0
 11
48.95451354980469
 21
78.08590698242188
 31
0.0
  0
LINE
  8
0
 10
48.95451354980469
 20
78.08590698242188
 30
0.0
 11
49.114356994628906
 21
77.69999694824219
 31
0.0
  0
LINE
  8
0
 10
49.114356994628906
 20
77.69999694824219
 30
0.0
 11
49.368621826171875
 21
77.36862182617188
 31
0.0
  0
LINE
  8
0
 10
49.368621826171875
 20
77.36862182617188
 30
0.0
 11
49.69999694824219
 21
77.11434936523438
 31
0.0
  0
LINE
  8
0
 10
49.69999694824219
 20
77.11434936523438
 30
0.0
 11
50.08588409423828
 21
76.95452880859375
 31
0.0
  0
LINE
  8
0
 10
50.08588409423828
 20
76.95452880859375
 30
0.0
 11
50.49999237060547
 21
76.89999389648438
 31
0.0
  0
LINE
  8
0
 10
48.899993896484375
 20
83.5
 30
0.0
 11
48.899993896484375
 21
78.5
 31
0.0
  0
LINE
  8
0
 10
55.100006103515625
 20
83.5
 30
0.0
 11
55.04548645019531
 21
83.91410827636719
 31
0.0
  0
LINE
  8
0
 10
55.04548645019531
 20
83.91410827636719
 30
0.0
 11
54.885643005371094
 21
84.29999542236328
 31
0.0
  0
LINE
  8
0
 10
54.885643005371094
 20
84.29999542236328
 30
0.0
 11
54.631370544433594
 21
84.6313705444336
 31
0.0
  0
LINE
  8
0
 10
54.631370544433594
 20
84.6313705444336
 30
0.0
 11
54.29999542236328
 21
84.88563537597656
 31
0.0
  0
LINE
  8
0
 10
54.29999542236328
 20
84.88563537597656
 30
0.0
 11
53.91411590576172
 21
85.04547882080078
 31
0.0
  0
LINE
  8
0
 10
53.91411590576172
 20
85.04547882080078
 30
0.0
 11
53.49999237060547
 21
85.10000610351562
 31
0.0
  0
LINE
  8
0
 10
53.49999237060547
 20
76.89999389648438
 30
0.0
 11
53.91410827636719
 21
76.95452880859375
 31
0.0
  0
LINE
  8
0
 10
53.91410827636719
 20
76.95452880859375
 30
0.0
 11
54.29999542236328
 21
77.11434936523438
 31
0.0
  0
LINE
  8
0
 10
54.29999542236328
 20
77.11434936523438
 30
0.0
 11
54.63136291503906
 21
77.36862182617188
 31
0.0
  0
LINE
  8
0
 10
54.63136291503906
 20
77.36862182617188
 30
0.0
 11
54.88563537597656
 21
77.70001220703125
 31
0.0
  0
LINE
  8
0
 10
54.88563537597656
 20
77.70001220703125
 30
0.0
 11
55.04547882080078
 21
78.08587646484375
 31
0.0
  0
LINE
  8
0
 10
55.099998474121094
 20
78.5
 30
0.0
 11
55.04547882080078
 21
78.08587646484375
 31
0.0
  0
LINE
  8
0
 10
55.100006103515625
 20
83.5
 30
0.0
 11
55.099998474121094
 21
78.5
 31
0.0
  0
LINE
  8
0
 10
50.49999237060547
 20
85.10000610351562
 30
0.0
 11
53.49999237060547
 21
85.10000610351562
 31
0.0
  0
LINE
  8
0
 10
50.49999237060547
 20
76.89999389648438
 30
0.0
 11
53.49999237060547
 21
76.89999389648438
 31
0.0
  0
LINE
  8
0
 10
26.49999237060547
 20
85.10000610351562
 30
0.0
 11
26.08588409423828
 21
85.04548645019531
 31
0.0
  0
LINE
  8
0
 10
26.08588409423828
 20
85.04548645019531
 30
0.0
 11
25.699996948242188
 21
84.8856430053711
 31
0.0
  0
LINE
  8
0
 10
25.699996948242188
 20
84.8856430053711
 30
0.0
 11
25.368621826171875
 21
84.6313705444336
 31
0.0
  0
LINE
  8
0
 10
25.368621826171875
 20
84.6313705444336
 30
0.0
 11
25.114349365234375
 21
84.30001068115234
 31
0.0
  0
LINE
  8
0
 10
25.114349365234375
 20
84.30001068115234
 30
0.0
 11
24.954513549804688
 21
83.91410827636719
 31
0.0
  0
LINE
  8
0
 10
24.954513549804688
 20
83.91410827636719
 30
0.0
 11
24.899993896484375
 21
83.5
 31
0.0
  0
LINE
  8
0
 10
24.899993896484375
 20
78.5
 30
0.0
 11
24.954513549804688
 21
78.08589172363281
 31
0.0
  0
LINE
  8
0
 10
24.954513549804688
 20
78.08589172363281
 30
0.0
 11
25.114349365234375
 21
77.69999694824219
 31
0.0
  0
LINE
  8
0
 10
25.114349365234375
 20
77.69999694824219
 30
0.0
 11
25.368621826171875
 21
77.36862182617188
 31
0.0
  0
LINE
  8
0
 10
25.368621826171875
 20
77.36862182617188
 30
0.0
 11
25.699989318847656
 21
77.11434936523438
 31
0.0
  0
LINE
  8
0
 10
25.699989318847656
 20
77.11434936523438
 30
0.0
 11
26.08588409423828
 21
76.95452880859375
 31
0.0
  0
LINE
  8
0
 10
26.08588409423828
 20
76.95452880859375
 30
0.0
 11
26.49999237060547
 21
76.89999389648438
 31
0.0
  0
LINE
  8
0
 10
24.899993896484375
 20
83.5
 30
0.0
 11
24.899993896484375
 21
78.5
 31
0.0
  0
LINE
  8
0
 10
31.099990844726562
 20
83.5
 30
0.0
 11
31.04547119140625
 21
83.91410827636719
 31
0.0
  0
LINE
  8
0
 10
31.04547119140625
 20
83.91410827636719
 30
0.0
 11
30.885635375976562
 21
84.29999542236328
 31
0.0
  0
LINE
  8
0
 10
30.885635375976562
 20
84.29999542236328
 30
0.0
 11
30.631362915039062
 21
84.6313705444336
 31
0.0
  0
LINE
  8
0
 10
30.631362915039062
 20
84.6313705444336
 30
0.0
 11
30.29999542236328
 21
84.88565063476562
 31
0.0
  0
LINE
  8
0
 10
30.29999542236328
 20
84.88565063476562
 30
0.0
 11
29.914100646972656
 21
85.04548645019531
 31
0.0
  0
LINE
  8
0
 10
29.914100646972656
 20
85.04548645019531
 30
0.0
 11
29.49999237060547
 21
85.10000610351562
 31
0.0
  0
LINE
  8
0
 10
29.49999237060547
 20
76.89999389648438
 30
0.0
 11
29.914100646972656
 21
76.95452880859375
 31
0.0
  0
LINE
  8
0
 10
29.914100646972656
 20
76.95452880859375
 30
0.0
 11
30.29999542236328
 21
77.11434936523438
 31
0.0
  0
LINE
  8
0
 10
30.29999542236328
 20
77.11434936523438
 30
0.0
 11
30.631362915039062
 21
77.36862182617188
 31
0.0
  0
LINE
  8
0
 10
30.631362915039062
 20
77.36862182617188
 30
0.0
 11
30.885635375976562
 21
77.69999694824219
 31
0.0
  0
LINE
  8
0
 10
30.885635375976562
 20
77.69999694824219
 30
0.0
 11
31.04547119140625
 21
78.08587646484375
 31
0.0
  0
LINE
  8
0
 10
31.099990844726562
 20
78.5
 30
0.0
 11
31.04547119140625
 21
78.08587646484375
 31
0.0
  0
LINE
  8
0
 10
31.099990844726562
 20
83.5
 30
0.0
 11
31.099990844726562
 21
78.5
 31
0.0
  0
LINE
  8
0
 10
26.49999237060547
 20
85.10000610351562
 30
0.0
 11
29.49999237060547
 21
85.10000610351562
 31
0.0
  0
LINE
  8
0
 10
26.49999237060547
 20
76.89999389648438
 30
0.0
 11
29.49999237060547
 21
76.89999389648438
 31
0.0
  0
LINE
  8
0
 10
42.49999237060547
 20
85.10000610351562
 30
0.0
 11
42.08588409423828
 21
85.04548645019531
 31
0.0
  0
LINE
  8
0
 10
42.08588409423828
 20
85.04548645019531
 30
0.0
 11
41.70000457763672
 21
84.8856430053711
 31
0.0
  0
LINE
  8
0
 10
41.70000457763672
 20
84.8856430053711
 30
0.0
 11
41.368629455566406
 21
84.6313705444336
 31
0.0
  0
LINE
  8
0
 10
41.368629455566406
 20
84.6313705444336
 30
0.0
 11
41.11436462402344
 21
84.30000305175781
 31
0.0
  0
LINE
  8
0
 10
41.11436462402344
 20
84.30000305175781
 30
0.0
 11
40.95451354980469
 21
83.91412353515625
 31
0.0
  0
LINE
  8
0
 10
40.95451354980469
 20
83.91412353515625
 30
0.0
 11
40.899993896484375
 21
83.5
 31
0.0
  0
LINE
  8
0
 10
40.899993896484375
 20
78.5
 30
0.0
 11
40.95451354980469
 21
78.08590698242188
 31
0.0
  0
LINE
  8
0
 10
40.95451354980469
 20
78.08590698242188
 30
0.0
 11
41.114356994628906
 21
77.69999694824219
 31
0.0
  0
LINE
  8
0
 10
41.114356994628906
 20
77.69999694824219
 30
0.0
 11
41.368621826171875
 21
77.36862182617188
 31
0.0
  0
LINE
  8
0
 10
41.368621826171875
 20
77.36862182617188
 30
0.0
 11
41.69999694824219
 21
77.11434936523438
 31
0.0
  0
LINE
  8
0
 10
41.69999694824219
 20
77.11434936523438
 30
0.0
 11
42.08588409423828
 21
76.95452880859375
 31
0.0
  0
LINE
  8
0
 10
42.08588409423828
 20
76.95452880859375
 30
0.0
 11
42.49999237060547
 21
76.89999389648438
 31
0.0
  0
LINE
  8
0
 10
40.899993896484375
 20
83.5
 30
0.0
 11
40.899993896484375
 21
78.5
 31
0.0
  0
LINE
  8
0
 10
47.100006103515625
 20
83.5
 30
0.0
 11
47.04548645019531
 21
83.91410827636719
 31
0.0
  0
LINE
  8
0
 10
47.04548645019531
 20
83.91410827636719
 30
0.0
 11
46.885643005371094
 21
84.29999542236328
 31
0.0
  0
LINE
  8
0
 10
46.885643005371094
 20
84.29999542236328
 30
0.0
 11
46.631370544433594
 21
84.6313705444336
 31
0.0
  0
LINE
  8
0
 10
46.631370544433594
 20
84.6313705444336
 30
0.0
 11
46.29999542236328
 21
84.88563537597656
 31
0.0
  0
LINE
  8
0
 10
46.29999542236328
 20
84.88563537597656
 30
0.0
 11
45.91411590576172
 21
85.04547882080078
 31
0.0
  0
LINE
  8
0
 10
45.91411590576172
 20
85.04547882080078
 30
0.0
 11
45.49999237060547
 21
85.10000610351562
 31
0.0
  0
LINE
  8
0
 10
45.49999237060547
 20
76.89999389648438
 30
0.0
 11
45.91410827636719
 21
76.95452880859375
 31
0.0
  0
LINE
  8
0
 10
45.91410827636719
 20
76.95452880859375
 30
0.0
 11
46.29999542236328
 21
77.11434936523438
 31
0.0
  0
LINE
  8
0
 10
46.29999542236328
 20
77.11434936523438
 30
0.0
 11
46.63136291503906
 21
77.36862182617188
 31
0.0
  0
LINE
  8
0
 10
46.63136291503906
 20
77.36862182617188
 30
0.0
 11
46.88563537597656
 21
77.70001220703125
 31
0.0
  0
LINE
  8
0
 10
46.88563537597656
 20
77.70001220703125
 30
0.0
 11
47.04547882080078
 21
78.08587646484375
 31
0.0
  0
LINE
  8
0
 10
47.099998474121094
 20
78.5
 30
0.0
 11
47.04547882080078
 21
78.08587646484375
 31
0.0
  0
LINE
  8
0
 10
47.100006103515625
 20
83.5
 30
0.0
 11
47.099998474121094
 21
78.5
 31
0.0
  0
LINE
  8
0
 10
42.49999237060547
 20
85.10000610351562
 30
0.0
 11
45.49999237060547
 21
85.10000610351562
 31
0.0
  0
LINE
  8
0
 10
42.49999237060547
 20
76.89999389648438
 30
0.0
 11
45.49999237060547
 21
76.89999389648438
 31
0.0
  0
LINE
  8
0
 10
34.49999237060547
 20
85.10000610351562
 30
0.0
 11
34.08588409423828
 21
85.04548645019531
 31
0.0
  0
LINE
  8
0
 10
34.08588409423828
 20
85.04548645019531
 30
0.0
 11
33.70000457763672
 21
84.8856430053711
 31
0.0
  0
LINE
  8
0
 10
33.70000457763672
 20
84.8856430053711
 30
0.0
 11
33.368629455566406
 21
84.6313705444336
 31
0.0
  0
LINE
  8
0
 10
33.368629455566406
 20
84.6313705444336
 30
0.0
 11
33.11436462402344
 21
84.30000305175781
 31
0.0
  0
LINE
  8
0
 10
33.11436462402344
 20
84.30000305175781
 30
0.0
 11
32.95451354980469
 21
83.91412353515625
 31
0.0
  0
LINE
  8
0
 10
32.95451354980469
 20
83.91412353515625
 30
0.0
 11
32.899993896484375
 21
83.5
 31
0.0
  0
LINE
  8
0
 10
32.899993896484375
 20
78.5
 30
0.0
 11
32.95451354980469
 21
78.08590698242188
 31
0.0
  0
LINE
  8
0
 10
32.95451354980469
 20
78.08590698242188
 30
0.0
 11
33.114356994628906
 21
77.69999694824219
 31
0.0
  0
LINE
  8
0
 10
33.114356994628906
 20
77.69999694824219
 30
0.0
 11
33.368621826171875
 21
77.36862182617188
 31
0.0
  0
LINE
  8
0
 10
33.368621826171875
 20
77.36862182617188
 30
0.0
 11
33.69999694824219
 21
77.11434936523438
 31
0.0
  0
LINE
  8
0
 10
33.69999694824219
 20
77.11434936523438
 30
0.0
 11
34.08588409423828
 21
76.95452880859375
 31
0.0
  0
LINE
  8
0
 10
34.08588409423828
 20
76.95452880859375
 30
0.0
 11
34.49999237060547
 21
76.89999389648438
 31
0.0
  0
LINE
  8
0
 10
32.899993896484375
 20
83.5
 30
0.0
 11
32.899993896484375
 21
78.5
 31
0.0
  0
LINE
  8
0
 10
39.100006103515625
 20
83.5
 30
0.0
 11
39.04548645019531
 21
83.91410827636719
 31
0.0
  0
LINE
  8
0
 10
39.04548645019531
 20
83.91410827636719
 30
0.0
 11
38.885643005371094
 21
84.29999542236328
 31
0.0
  0
LINE
  8
0
 10
38.885643005371094
 20
84.29999542236328
 30
0.0
 11
38.631370544433594
 21
84.6313705444336
 31
0.0
  0
LINE
  8
0
 10
38.631370544433594
 20
84.6313705444336
 30
0.0
 11
38.29999542236328
 21
84.88563537597656
 31
0.0
  0
LINE
  8
0
 10
38.29999542236328
 20
84.88563537597656
 30
0.0
 11
37.91411590576172
 21
85.04547882080078
 31
0.0
  0
LINE
  8
0
 10
37.91411590576172
 20
85.04547882080078
 30
0.0
 11
37.49999237060547
 21
85.10000610351562
 31
0.0
  0
LINE
  8
0
 10
37.49999237060547
 20
76.89999389648438
 30
0.0
 11
37.91410827636719
 21
76.95452880859375
 31
0.0
  0
LINE
  8
0
 10
37.91410827636719
 20
76.95452880859375
 30
0.0
 11
38.29999542236328
 21
77.11434936523438
 31
0.0
  0
LINE
  8
0
 10
38.29999542236328
 20
77.11434936523438
 30
0.0
 11
38.63136291503906
 21
77.36862182617188
 31
0.0
  0
LINE
  8
0
 10
38.63136291503906
 20
77.36862182617188
 30
0.0
 11
38.88563537597656
 21
77.70001220703125
 31
0.0
  0
LINE
  8
0
 10
38.88563537597656
 20
77.70001220703125
 30
0.0
 11
39.04547882080078
 21
78.08587646484375
 31
0.0
  0
LINE
  8
0
 10
39.099998474121094
 20
78.5
 30
0.0
 11
39.04547882080078
 21
78.08587646484375
 31
0.0
  0
LINE
  8
0
 10
39.100006103515625
 20
83.5
 30
0.0
 11
39.099998474121094
 21
78.5
 31
0.0
  0
LINE
  8
0
 10
34.49999237060547
 20
85.10000610351562
 30
0.0
 11
37.49999237060547
 21
85.10000610351562
 31
0.0
  0
LINE
  8
0
 10
34.49999237060547
 20
76.89999389648438
 30
0.0
 11
37.49999237060547
 21
76.89999389648438
 31
0.0
  0
LINE
  8
0
 10
58.49999237060547
 20
75.10000610351562
 30
0.0
 11
58.08588409423828
 21
75.04547119140625
 31
0.0
  0
LINE
  8
0
 10
58.08588409423828
 20
75.04547119140625
 30
0.0
 11
57.69999694824219
 21
74.88565063476562
 31
0.0
  0
LINE
  8
0
 10
57.69999694824219
 20
74.88565063476562
 30
0.0
 11
57.368621826171875
 21
74.63137817382812
 31
0.0
  0
LINE
  8
0
 10
57.368621826171875
 20
74.63137817382812
 30
0.0
 11
57.114356994628906
 21
74.30000305175781
 31
0.0
  0
LINE
  8
0
 10
57.114356994628906
 20
74.30000305175781
 30
0.0
 11
56.95451354980469
 21
73.91412353515625
 31
0.0
  0
LINE
  8
0
 10
56.95451354980469
 20
73.91412353515625
 30
0.0
 11
56.899993896484375
 21
73.5
 31
0.0
  0
LINE
  8
0
 10
56.899993896484375
 20
68.5
 30
0.0
 11
56.95451354980469
 21
68.08590698242188
 31
0.0
  0
LINE
  8
0
 10
56.95451354980469
 20
68.08590698242188
 30
0.0
 11
57.114356994628906
 21
67.69999694824219
 31
0.0
  0
LINE
  8
0
 10
57.114356994628906
 20
67.69999694824219
 30
0.0
 11
57.368621826171875
 21
67.36862182617188
 31
0.0
  0
LINE
  8
0
 10
57.368621826171875
 20
67.36862182617188
 30
0.0
 11
57.69999694824219
 21
67.11434936523438
 31
0.0
  0
LINE
  8
0
 10
57.69999694824219
 20
67.11434936523438
 30
0.0
 11
58.08588409423828
 21
66.95452880859375
 31
0.0
  0
LINE
  8
0
 10
58.08588409423828
 20
66.95452880859375
 30
0.0
 11
58.49999237060547
 21
66.89999389648438
 31
0.0
  0
LINE
  8
0
 10
56.899993896484375
 20
73.5
 30
0.0
 11
56.899993896484375
 21
68.5
 31
0.0
  0
LINE
  8
0
 10
63.099998474121094
 20
73.5
 30
0.0
 11
63.04547882080078
 21
73.91410827636719
 31
0.0
  0
LINE
  8
0
 10
63.04547882080078
 20
73.91410827636719
 30
0.0
 11
62.88563537597656
 21
74.29998779296875
 31
0.0
  0
LINE
  8
0
 10
62.88563537597656
 20
74.29998779296875
 30
0.0
 11
62.63136291503906
 21
74.63137817382812
 31
0.0
  0
LINE
  8
0
 10
62.63136291503906
 20
74.63137817382812
 30
0.0
 11
62.29999542236328
 21
74.88565063476562
 31
0.0
  0
LINE
  8
0
 10
62.29999542236328
 20
74.88565063476562
 30
0.0
 11
61.91410827636719
 21
75.04547119140625
 31
0.0
  0
LINE
  8
0
 10
61.91410827636719
 20
75.04547119140625
 30
0.0
 11
61.49999237060547
 21
75.10000610351562
 31
0.0
  0
LINE
  8
0
 10
61.49999237060547
 20
66.89999389648438
 30
0.0
 11
61.91410827636719
 21
66.95452880859375
 31
0.0
  0
LINE
  8
0
 10
61.91410827636719
 20
66.95452880859375
 30
0.0
 11
62.29999542236328
 21
67.11434936523438
 31
0.0
  0
LINE
  8
0
 10
62.29999542236328
 20
67.11434936523438
 30
0.0
 11
62.63136291503906
 21
67.36862182617188
 31
0.0
  0
LINE
  8
0
 10
62.63136291503906
 20
67.36862182617188
 30
0.0
 11
62.88563537597656
 21
67.70001220703125
 31
0.0
  0
LINE
  8
0
 10
62.88563537597656
 20
67.70001220703125
 30
0.0
 11
63.04547882080078
 21
68.08587646484375
 31
0.0
  0
LINE
  8
0
 10
63.099998474121094
 20
68.5
 30
0.0
 11
63.04547882080078
 21
68.08587646484375
 31
0.0
  0
LINE
  8
0
 10
63.099998474121094
 20
73.5
 30
0.0
 11
63.099998474121094
 21
68.5
 31
0.0
  0
LINE
  8
0
 10
58.49999237060547
 20
75.10000610351562
 30
0.0
 11
61.49999237060547
 21
75.10000610351562
 31
0.0
  0
LINE
  8
0
 10
58.49999237060547
 20
66.89999389648438
 30
0.0
 11
61.49999237060547
 21
66.89999389648438
 31
0.0
  0
LINE
  8
0
 10
50.49999237060547
 20
75.10000610351562
 30
0.0
 11
50.08588409423828
 21
75.04547119140625
 31
0.0
  0
LINE
  8
0
 10
50.08588409423828
 20
75.04547119140625
 30
0.0
 11
49.69999694824219
 21
74.88565063476562
 31
0.0
  0
LINE
  8
0
 10
49.69999694824219
 20
74.88565063476562
 30
0.0
 11
49.368621826171875
 21
74.63137817382812
 31
0.0
  0
LINE
  8
0
 10
49.368621826171875
 20
74.63137817382812
 30
0.0
 11
49.114356994628906
 21
74.30000305175781
 31
0.0
  0
LINE
  8
0
 10
49.114356994628906
 20
74.30000305175781
 30
0.0
 11
48.95451354980469
 21
73.91412353515625
 31
0.0
  0
LINE
  8
0
 10
48.95451354980469
 20
73.91412353515625
 30
0.0
 11
48.899993896484375
 21
73.5
 31
0.0
  0
LINE
  8
0
 10
48.899993896484375
 20
68.5
 30
0.0
 11
48.95451354980469
 21
68.08590698242188
 31
0.0
  0
LINE
  8
0
 10
48.95451354980469
 20
68.08590698242188
 30
0.0
 11
49.114356994628906
 21
67.69999694824219
 31
0.0
  0
LINE
  8
0
 10
49.114356994628906
 20
67.69999694824219
 30
0.0
 11
49.368621826171875
 21
67.36862182617188
 31
0.0
  0
LINE
  8
0
 10
49.368621826171875
 20
67.36862182617188
 30
0.0
 11
49.69999694824219
 21
67.11434936523438
 31
0.0
  0
LINE
  8
0
 10
49.69999694824219
 20
67.11434936523438
 30
0.0
 11
50.08588409423828
 21
66.95452880859375
 31
0.0
  0
LINE
  8
0
 10
50.08588409423828
 20
66.95452880859375
 30
0.0
 11
50.49999237060547
 21
66.89999389648438
 31
0.0
  0
LINE
  8
0
 10
48.899993896484375
 20
73.5
 30
0.0
 11
48.899993896484375
 21
68.5
 31
0.0
  0
LINE
  8
0
 10
55.099998474121094
 20
73.5
 30
0.0
 11
55.04547882080078
 21
73.91410827636719
 31
0.0
  0
LINE
  8
0
 10
55.04547882080078
 20
73.91410827636719
 30
0.0
 11
54.88563537597656
 21
74.29998779296875
 31
0.0
  0
LINE
  8
0
 10
54.88563537597656
 20
74.29998779296875
 30
0.0
 11
54.63136291503906
 21
74.63137817382812
 31
0.0
  0
LINE
  8
0
 10
54.63136291503906
 20
74.63137817382812
 30
0.0
 11
54.29999542236328
 21
74.88565063476562
 31
0.0
  0
LINE
  8
0
 10
54.29999542236328
 20
74.88565063476562
 30
0.0
 11
53.91410827636719
 21
75.04547119140625
 31
0.0
  0
LINE
  8
0
 10
53.91410827636719
 20
75.04547119140625
 30
0.0
 11
53.49999237060547
 21
75.10000610351562
 31
0.0
  0
LINE
  8
0
 10
53.49999237060547
 20
66.89999389648438
 30
0.0
 11
53.91410827636719
 21
66.95452880859375
 31
0.0
  0
LINE
  8
0
 10
53.91410827636719
 20
66.95452880859375
 30
0.0
 11
54.29999542236328
 21
67.11434936523438
 31
0.0
  0
LINE
  8
0
 10
54.29999542236328
 20
67.11434936523438
 30
0.0
 11
54.63136291503906
 21
67.36862182617188
 31
0.0
  0
LINE
  8
0
 10
54.63136291503906
 20
67.36862182617188
 30
0.0
 11
54.88563537597656
 21
67.70001220703125
 31
0.0
  0
LINE
  8
0
 10
54.88563537597656
 20
67.70001220703125
 30
0.0
 11
55.04547882080078
 21
68.08587646484375
 31
0.0
  0
LINE
  8
0
 10
55.099998474121094
 20
68.5
 30
0.0
 11
55.04547882080078
 21
68.08587646484375
 31
0.0
  0
LINE
  8
0
 10
55.099998474121094
 20
73.5
 30
0.0
 11
55.099998474121094
 21
68.5
 31
0.0
  0
LINE
  8
0
 10
50.49999237060547
 20
75.10000610351562
 30
0.0
 11
53.49999237060547
 21
75.10000610351562
 31
0.0
  0
LINE
  8
0
 10
50.49999237060547
 20
66.89999389648438
 30
0.0
 11
53.49999237060547
 21
66.89999389648438
 31
0.0
  0
LINE
  8
0
 10
26.49999237060547
 20
75.10000610351562
 30
0.0
 11
26.08588409423828
 21
75.04547119140625
 31
0.0
  0
LINE
  8
0
 10
26.08588409423828
 20
75.04547119140625
 30
0.0
 11
25.699996948242188
 21
74.88565063476562
 31
0.0
  0
LINE
  8
0
 10
25.699996948242188
 20
74.88565063476562
 30
0.0
 11
25.368621826171875
 21
74.63137817382812
 31
0.0
  0
LINE
  8
0
 10
25.368621826171875
 20
74.63137817382812
 30
0.0
 11
25.114349365234375
 21
74.30000305175781
 31
0.0
  0
LINE
  8
0
 10
25.114349365234375
 20
74.30000305175781
 30
0.0
 11
24.954513549804688
 21
73.91410827636719
 31
0.0
  0
LINE
  8
0
 10
24.954513549804688
 20
73.91410827636719
 30
0.0
 11
24.899993896484375
 21
73.5
 31
0.0
  0
LINE
  8
0
 10
24.899993896484375
 20
68.5
 30
0.0
 11
24.954513549804688
 21
68.08589172363281
 31
0.0
  0
LINE
  8
0
 10
24.954513549804688
 20
68.08589172363281
 30
0.0
 11
25.114349365234375
 21
67.69999694824219
 31
0.0
  0
LINE
  8
0
 10
25.114349365234375
 20
67.69999694824219
 30
0.0
 11
25.368621826171875
 21
67.36862182617188
 31
0.0
  0
LINE
  8
0
 10
25.368621826171875
 20
67.36862182617188
 30
0.0
 11
25.699989318847656
 21
67.11434936523438
 31
0.0
  0
LINE
  8
0
 10
25.699989318847656
 20
67.11434936523438
 30
0.0
 11
26.08588409423828
 21
66.95452880859375
 31
0.0
  0
LINE
  8
0
 10
26.08588409423828
 20
66.95452880859375
 30
0.0
 11
26.49999237060547
 21
66.89999389648438
 31
0.0
  0
LINE
  8
0
 10
24.899993896484375
 20
73.5
 30
0.0
 11
24.899993896484375
 21
68.5
 31
0.0
  0
LINE
  8
0
 10
31.099990844726562
 20
73.5
 30
0.0
 11
31.04547119140625
 21
73.91410827636719
 31
0.0
  0
LINE
  8
0
 10
31.04547119140625
 20
73.91410827636719
 30
0.0
 11
30.885635375976562
 21
74.29998779296875
 31
0.0
  0
LINE
  8
0
 10
30.885635375976562
 20
74.29998779296875
 30
0.0
 11
30.631362915039062
 21
74.63137817382812
 31
0.0
  0
LINE
  8
0
 10
30.631362915039062
 20
74.63137817382812
 30
0.0
 11
30.29999542236328
 21
74.88565063476562
 31
0.0
  0
LINE
  8
0
 10
30.29999542236328
 20
74.88565063476562
 30
0.0
 11
29.914100646972656
 21
75.04547119140625
 31
0.0
  0
LINE
  8
0
 10
29.914100646972656
 20
75.04547119140625
 30
0.0
 11
29.49999237060547
 21
75.10000610351562
 31
0.0
  0
LINE
  8
0
 10
29.49999237060547
 20
66.89999389648438
 30
0.0
 11
29.914100646972656
 21
66.95452880859375
 31
0.0
  0
LINE
  8
0
 10
29.914100646972656
 20
66.95452880859375
 30
0.0
 11
30.29999542236328
 21
67.11434936523438
 31
0.0
  0
LINE
  8
0
 10
30.29999542236328
 20
67.11434936523438
 30
0.0
 11
30.631362915039062
 21
67.36862182617188
 31
0.0
  0
LINE
  8
0
 10
30.631362915039062
 20
67.36862182617188
 30
0.0
 11
30.885635375976562
 21
67.69999694824219
 31
0.0
  0
LINE
  8
0
 10
30.885635375976562
 20
67.69999694824219
 30
0.0
 11
31.04547119140625
 21
68.08587646484375
 31
0.0
  0
LINE
  8
0
 10
31.099990844726562
 20
68.5
 30
0.0
 11
31.04547119140625
 21
68.08587646484375
 31
0.0
  0
LINE
  8
0
 10
31.099990844726562
 20
73.5
 30
0.0
 11
31.099990844726562
 21
68.5
 31
0.0
  0
LINE
  8
0
 10
26.49999237060547
 20
75.10000610351562
 30
0.0
 11
29.49999237060547
 21
75.10000610351562
 31
0.0
  0
LINE
  8
0
 10
26.49999237060547
 20
66.89999389648438
 30
0.0
 11
29.49999237060547
 21
66.89999389648438
 31
0.0
  0
LINE
  8
0
 10
42.49999237060547
 20
75.10000610351562
 30
0.0
 11
42.08588409423828
 21
75.04547119140625
 31
0.0
  0
LINE
  8
0
 10
42.08588409423828
 20
75.04547119140625
 30
0.0
 11
41.69999694824219
 21
74.88565063476562
 31
0.0
  0
LINE
  8
0
 10
41.69999694824219
 20
74.88565063476562
 30
0.0
 11
41.368621826171875
 21
74.63137817382812
 31
0.0
  0
LINE
  8
0
 10
41.368621826171875
 20
74.63137817382812
 30
0.0
 11
41.114356994628906
 21
74.30000305175781
 31
0.0
  0
LINE
  8
0
 10
41.114356994628906
 20
74.30000305175781
 30
0.0
 11
40.95451354980469
 21
73.91412353515625
 31
0.0
  0
LINE
  8
0
 10
40.95451354980469
 20
73.91412353515625
 30
0.0
 11
40.899993896484375
 21
73.5
 31
0.0
  0
LINE
  8
0
 10
40.899993896484375
 20
68.5
 30
0.0
 11
40.95451354980469
 21
68.08590698242188
 31
0.0
  0
LINE
  8
0
 10
40.95451354980469
 20
68.08590698242188
 30
0.0
 11
41.114356994628906
 21
67.69999694824219
 31
0.0
  0
LINE
  8
0
 10
41.114356994628906
 20
67.69999694824219
 30
0.0
 11
41.368621826171875
 21
67.36862182617188
 31
0.0
  0
LINE
  8
0
 10
41.368621826171875
 20
67.36862182617188
 30
0.0
 11
41.69999694824219
 21
67.11434936523438
 31
0.0
  0
LINE
  8
0
 10
41.69999694824219
 20
67.11434936523438
 30
0.0
 11
42.08588409423828
 21
66.95452880859375
 31
0.0
  0
LINE
  8
0
 10
42.08588409423828
 20
66.95452880859375
 30
0.0
 11
42.49999237060547
 21
66.89999389648438
 31
0.0
  0
LINE
  8
0
 10
40.899993896484375
 20
73.5
 30
0.0
 11
40.899993896484375
 21
68.5
 31
0.0
  0
LINE
  8
0
 10
47.099998474121094
 20
73.5
 30
0.0
 11
47.04547882080078
 21
73.91410827636719
 31
0.0
  0
LINE
  8
0
 10
47.04547882080078
 20
73.91410827636719
 30
0.0
 11
46.88563537597656
 21
74.29998779296875
 31
0.0
  0
LINE
  8
0
 10
46.88563537597656
 20
74.29998779296875
 30
0.0
 11
46.63136291503906
 21
74.63137817382812
 31
0.0
  0
LINE
  8
0
 10
46.63136291503906
 20
74.63137817382812
 30
0.0
 11
46.29999542236328
 21
74.88565063476562
 31
0.0
  0
LINE
  8
0
 10
46.29999542236328
 20
74.88565063476562
 30
0.0
 11
45.91410827636719
 21
75.04547119140625
 31
0.0
  0
LINE
  8
0
 10
45.91410827636719
 20
75.04547119140625
 30
0.0
 11
45.49999237060547
 21
75.10000610351562
 31
0.0
  0
LINE
  8
0
 10
45.49999237060547
 20
66.89999389648438
 30
0.0
 11
45.91410827636719
 21
66.95452880859375
 31
0.0
  0
LINE
  8
0
 10
45.91410827636719
 20
66.95452880859375
 30
0.0
 11
46.29999542236328
 21
67.11434936523438
 31
0.0
  0
LINE
  8
0
 10
46.29999542236328
 20
67.11434936523438
 30
0.0
 11
46.63136291503906
 21
67.36862182617188
 31
0.0
  0
LINE
  8
0
 10
46.63136291503906
 20
67.36862182617188
 30
0.0
 11
46.88563537597656
 21
67.70001220703125
 31
0.0
  0
LINE
  8
0
 10
46.88563537597656
 20
67.70001220703125
 30
0.0
 11
47.04547882080078
 21
68.08587646484375
 31
0.0
  0
LINE
  8
0
 10
47.099998474121094
 20
68.5
 30
0.0
 11
47.04547882080078
 21
68.08587646484375
 31
0.0
  0
LINE
  8
0
 10
47.099998474121094
 20
73.5
 30
0.0
 11
47.099998474121094
 21
68.5
 31
0.0
  0
LINE
  8
0
 10
42.49999237060547
 20
75.10000610351562
 30
0.0
 11
45.49999237060547
 21
75.10000610351562
 31
0.0
  0
LINE
  8
0
 10
42.49999237060547
 20
66.89999389648438
 30
0.0
 11
45.49999237060547
 21
66.89999389648438
 31
0.0
  0
LINE
  8
0
 10
34.49999237060547
 20
75.10000610351562
 30
0.0
 11
34.08588409423828
 21
75.04547119140625
 31
0.0
  0
LINE
  8
0
 10
34.08588409423828
 20
75.04547119140625
 30
0.0
 11
33.69999694824219
 21
74.88565063476562
 31
0.0
  0
LINE
  8
0
 10
33.69999694824219
 20
74.88565063476562
 30
0.0
 11
33.368621826171875
 21
74.63137817382812
 31
0.0
  0
LINE
  8
0
 10
33.368621826171875
 20
74.63137817382812
 30
0.0
 11
33.114356994628906
 21
74.30000305175781
 31
0.0
  0
LINE
  8
0
 10
33.114356994628906
 20
74.30000305175781
 30
0.0
 11
32.95451354980469
 21
73.91412353515625
 31
0.0
  0
LINE
  8
0
 10
32.95451354980469
 20
73.91412353515625
 30
0.0
 11
32.899993896484375
 21
73.5
 31
0.0
  0
LINE
  8
0
 10
32.899993896484375
 20
68.5
 30
0.0
 11
32.95451354980469
 21
68.08590698242188
 31
0.0
  0
LINE
  8
0
 10
32.95451354980469
 20
68.08590698242188
 30
0.0
 11
33.114356994628906
 21
67.69999694824219
 31
0.0
  0
LINE
  8
0
 10
33.114356994628906
 20
67.69999694824219
 30
0.0
 11
33.368621826171875
 21
67.36862182617188
 31
0.0
  0
LINE
  8
0
 10
33.368621826171875
 20
67.36862182617188
 30
0.0
 11
33.69999694824219
 21
67.11434936523438
 31
0.0
  0
LINE
  8
0
 10
33.69999694824219
 20
67.11434936523438
 30
0.0
 11
34.08588409423828
 21
66.95452880859375
 31
0.0
  0
LINE
  8
0
 10
34.08588409423828
 20
66.95452880859375
 30
0.0
 11
34.49999237060547
 21
66.89999389648438
 31
0.0
  0
LINE
  8
0
 10
32.899993896484375
 20
73.5
 30
0.0
 11
32.899993896484375
 21
68.5
 31
0.0
  0
LINE
  8
0
 10
39.099998474121094
 20
73.5
 30
0.0
 11
39.04547882080078
 21
73.91410827636719
 31
0.0
  0
LINE
  8
0
 10
39.04547882080078
 20
73.91410827636719
 30
0.0
 11
38.88563537597656
 21
74.29998779296875
 31
0.0
  0
LINE
  8
0
 10
38.88563537597656
 20
74.29998779296875
 30
0.0
 11
38.63136291503906
 21
74.63137817382812
 31
0.0
  0
LINE
  8
0
 10
38.63136291503906
 20
74.63137817382812
 30
0.0
 11
38.29999542236328
 21
74.88565063476562
 31
0.0
  0
LINE
  8
0
 10
38.29999542236328
 20
74.88565063476562
 30
0.0
 11
37.91410827636719
 21
75.04547119140625
 31
0.0
  0
LINE
  8
0
 10
37.91410827636719
 20
75.04547119140625
 30
0.0
 11
37.49999237060547
 21
75.10000610351562
 31
0.0
  0
LINE
  8
0
 10
37.49999237060547
 20
66.89999389648438
 30
0.0
 11
37.91410827636719
 21
66.95452880859375
 31
0.0
  0
LINE
  8
0
 10
37.91410827636719
 20
66.95452880859375
 30
0.0
 11
38.29999542236328
 21
67.11434936523438
 31
0.0
  0
LINE
  8
0
 10
38.29999542236328
 20
67.11434936523438
 30
0.0
 11
38.63136291503906
 21
67.36862182617188
 31
0.0
  0
LINE
  8
0
 10
38.63136291503906
 20
67.36862182617188
 30
0.0
 11
38.88563537597656
 21
67.70001220703125
 31
0.0
  0
LINE
  8
0
 10
38.88563537597656
 20
67.70001220703125
 30
0.0
 11
39.04547882080078
 21
68.08587646484375
 31
0.0
  0
LINE
  8
0
 10
39.099998474121094
 20
68.5
 30
0.0
 11
39.04547882080078
 21
68.08587646484375
 31
0.0
  0
LINE
  8
0
 10
39.099998474121094
 20
73.5
 30
0.0
 11
39.099998474121094
 21
68.5
 31
0.0
  0
LINE
  8
0
 10
34.49999237060547
 20
75.10000610351562
 30
0.0
 11
37.49999237060547
 21
75.10000610351562
 31
0.0
  0
LINE
  8
0
 10
34.49999237060547
 20
66.89999389648438
 30
0.0
 11
37.49999237060547
 21
66.89999389648438
 31
0.0
  0
LINE
  8
0
 10
15.999992370605469
 20
83.10000610351562
 30
0.0
 11
15.585884094238281
 21
83.04547119140625
 31
0.0
  0
LINE
  8
0
 10
15.585884094238281
 20
83.04547119140625
 30
0.0
 11
15.199996948242188
 21
82.88565063476562
 31
0.0
  0
LINE
  8
0
 10
15.199996948242188
 20
82.88565063476562
 30
0.0
 11
14.868621826171875
 21
82.63137817382812
 31
0.0
  0
LINE
  8
0
 10
14.868621826171875
 20
82.63137817382812
 30
0.0
 11
14.614349365234375
 21
82.30000305175781
 31
0.0
  0
LINE
  8
0
 10
14.614349365234375
 20
82.30000305175781
 30
0.0
 11
14.454513549804688
 21
81.91410827636719
 31
0.0
  0
LINE
  8
0
 10
14.454513549804688
 20
81.91410827636719
 30
0.0
 11
14.399993896484375
 21
81.5
 31
0.0
  0
LINE
  8
0
 10
14.399993896484375
 20
76.5
 30
0.0
 11
14.454513549804688
 21
76.08589172363281
 31
0.0
  0
LINE
  8
0
 10
14.454513549804688
 20
76.08589172363281
 30
0.0
 11
14.614349365234375
 21
75.69999694824219
 31
0.0
  0
LINE
  8
0
 10
14.614349365234375
 20
75.69999694824219
 30
0.0
 11
14.868621826171875
 21
75.36862182617188
 31
0.0
  0
LINE
  8
0
 10
14.868621826171875
 20
75.36862182617188
 30
0.0
 11
15.199989318847656
 21
75.11434936523438
 31
0.0
  0
LINE
  8
0
 10
15.199989318847656
 20
75.11434936523438
 30
0.0
 11
15.585884094238281
 21
74.95452880859375
 31
0.0
  0
LINE
  8
0
 10
15.585884094238281
 20
74.95452880859375
 30
0.0
 11
15.999992370605469
 21
74.89999389648438
 31
0.0
  0
LINE
  8
0
 10
14.399993896484375
 20
81.5
 30
0.0
 11
14.399993896484375
 21
76.5
 31
0.0
  0
LINE
  8
0
 10
20.599990844726562
 20
81.5
 30
0.0
 11
20.54547119140625
 21
81.91410827636719
 31
0.0
  0
LINE
  8
0
 10
20.54547119140625
 20
81.91410827636719
 30
0.0
 11
20.385635375976562
 21
82.29998779296875
 31
0.0
  0
LINE
  8
0
 10
20.385635375976562
 20
82.29998779296875
 30
0.0
 11
20.131362915039062
 21
82.63137817382812
 31
0.0
  0
LINE
  8
0
 10
20.131362915039062
 20
82.63137817382812
 30
0.0
 11
19.79999542236328
 21
82.88565063476562
 31
0.0
  0
LINE
  8
0
 10
19.79999542236328
 20
82.88565063476562
 30
0.0
 11
19.414100646972656
 21
83.04547119140625
 31
0.0
  0
LINE
  8
0
 10
19.414100646972656
 20
83.04547119140625
 30
0.0
 11
18.99999237060547
 21
83.10000610351562
 31
0.0
  0
LINE
  8
0
 10
18.99999237060547
 20
74.89999389648438
 30
0.0
 11
19.414100646972656
 21
74.95452880859375
 31
0.0
  0
LINE
  8
0
 10
19.414100646972656
 20
74.95452880859375
 30
0.0
 11
19.79999542236328
 21
75.11434936523438
 31
0.0
  0
LINE
  8
0
 10
19.79999542236328
 20
75.11434936523438
 30
0.0
 11
20.131362915039062
 21
75.36862182617188
 31
0.0
  0
LINE
  8
0
 10
20.131362915039062
 20
75.36862182617188
 30
0.0
 11
20.385635375976562
 21
75.69999694824219
 31
0.0
  0
LINE
  8
0
 10
20.385635375976562
 20
75.69999694824219
 30
0.0
 11
20.54547119140625
 21
76.08587646484375
 31
0.0
  0
LINE
  8
0
 10
20.599990844726562
 20
76.5
 30
0.0
 11
20.54547119140625
 21
76.08587646484375
 31
0.0
  0
LINE
  8
0
 10
20.599990844726562
 20
81.5
 30
0.0
 11
20.599990844726562
 21
76.5
 31
0.0
  0
LINE
  8
0
 10
15.999992370605469
 20
83.10000610351562
 30
0.0
 11
18.99999237060547
 21
83.10000610351562
 31
0.0
  0
LINE
  8
0
 10
15.999992370605469
 20
74.89999389648438
 30
0.0
 11
18.99999237060547
 21
74.89999389648438
 31
0.0
  0
LINE
  8
0
 10
15.999992370605469
 20
73.10000610351562
 30
0.0
 11
15.585884094238281
 21
73.04547119140625
 31
0.0
  0
LINE
  8
0
 10
15.585884094238281
 20
73.04547119140625
 30
0.0
 11
15.199996948242188
 21
72.88565063476562
 31
0.0
  0
LINE
  8
0
 10
15.199996948242188
 20
72.88565063476562
 30
0.0
 11
14.868621826171875
 21
72.63137817382812
 31
0.0
  0
LINE
  8
0
 10
14.868621826171875
 20
72.63137817382812
 30
0.0
 11
14.614349365234375
 21
72.30000305175781
 31
0.0
  0
LINE
  8
0
 10
14.614349365234375
 20
72.30000305175781
 30
0.0
 11
14.454513549804688
 21
71.91410827636719
 31
0.0
  0
LINE
  8
0
 10
14.454513549804688
 20
71.91410827636719
 30
0.0
 11
14.399993896484375
 21
71.5
 31
0.0
  0
LINE
  8
0
 10
14.399993896484375
 20
66.5
 30
0.0
 11
14.454513549804688
 21
66.08589172363281
 31
0.0
  0
LINE
  8
0
 10
14.454513549804688
 20
66.08589172363281
 30
0.0
 11
14.614349365234375
 21
65.69999694824219
 31
0.0
  0
LINE
  8
0
 10
14.614349365234375
 20
65.69999694824219
 30
0.0
 11
14.868621826171875
 21
65.36862182617188
 31
0.0
  0
LINE
  8
0
 10
14.868621826171875
 20
65.36862182617188
 30
0.0
 11
15.199981689453125
 21
65.11434936523438
 31
0.0
  0
LINE
  8
0
 10
15.199981689453125
 20
65.11434936523438
 30
0.0
 11
15.58587646484375
 21
64.95452880859375
 31
0.0
  0
LINE
  8
0
 10
15.58587646484375
 20
64.95452880859375
 30
0.0
 11
15.999984741210938
 21
64.89999389648438
 31
0.0
  0
LINE
  8
0
 10
14.399993896484375
 20
71.5
 30
0.0
 11
14.399993896484375
 21
66.5
 31
0.0
  0
LINE
  8
0
 10
20.599990844726562
 20
71.5
 30
0.0
 11
20.54547119140625
 21
71.91410827636719
 31
0.0
  0
LINE
  8
0
 10
20.54547119140625
 20
71.91410827636719
 30
0.0
 11
20.385635375976562
 21
72.29998779296875
 31
0.0
  0
LINE
  8
0
 10
20.385635375976562
 20
72.29998779296875
 30
0.0
 11
20.131362915039062
 21
72.63137817382812
 31
0.0
  0
LINE
  8
0
 10
20.131362915039062
 20
72.63137817382812
 30
0.0
 11
19.79999542236328
 21
72.88565063476562
 31
0.0
  0
LINE
  8
0
 10
19.79999542236328
 20
72.88565063476562
 30
0.0
 11
19.414100646972656
 21
73.04547119140625
 31
0.0
  0
LINE
  8
0
 10
19.414100646972656
 20
73.04547119140625
 30
0.0
 11
18.99999237060547
 21
73.10000610351562
 31
0.0
  0
LINE
  8
0
 10
19.0
 20
64.89999389648438
 30
0.0
 11
19.414100646972656
 21
64.95452880859375
 31
0.0
  0
LINE
  8
0
 10
19.414100646972656
 20
64.95452880859375
 30
0.0
 11
19.79999542236328
 21
65.11434936523438
 31
0.0
  0
LINE
  8
0
 10
19.79999542236328
 20
65.11434936523438
 30
0.0
 11
20.131362915039062
 21
65.36862182617188
 31
0.0
  0
LINE
  8
0
 10
20.131362915039062
 20
65.36862182617188
 30
0.0
 11
20.385635375976562
 21
65.69999694824219
 31
0.0
  0
LINE
  8
0
 10
20.385635375976562
 20
65.69999694824219
 30
0.0
 11
20.54547119140625
 21
66.08587646484375
 31
0.0
  0
LINE
  8
0
 10
20.599990844726562
 20
66.5
 30
0.0
 11
20.54547119140625
 21
66.08587646484375
 31
0.0
  0
LINE
  8
0
 10
20.599990844726562
 20
71.5
 30
0.0
 11
20.599990844726562
 21
66.5
 31
0.0
  0
LINE
  8
0
 10
15.999992370605469
 20
73.10000610351562
 30
0.0
 11
18.99999237060547
 21
73.10000610351562
 31
0.0
  0
LINE
  8
0
 10
15.999984741210938
 20
64.89999389648438
 30
0.0
 11
19.0
 21
64.89999389648438
 31
0.0
  0
LINE
  8
0
 10
15.999984741210938
 20
63.100006103515625
 30
0.0
 11
15.58587646484375
 21
63.04547119140625
 31
0.0
  0
LINE
  8
0
 10
15.58587646484375
 20
63.04547119140625
 30
0.0
 11
15.199996948242188
 21
62.885650634765625
 31
0.0
  0
LINE
  8
0
 10
15.199996948242188
 20
62.885650634765625
 30
0.0
 11
14.868621826171875
 21
62.631378173828125
 31
0.0
  0
LINE
  8
0
 10
14.868621826171875
 20
62.631378173828125
 30
0.0
 11
14.614349365234375
 21
62.30000305175781
 31
0.0
  0
LINE
  8
0
 10
14.614349365234375
 20
62.30000305175781
 30
0.0
 11
14.454513549804688
 21
61.91410827636719
 31
0.0
  0
LINE
  8
0
 10
14.454513549804688
 20
61.91410827636719
 30
0.0
 11
14.399993896484375
 21
61.5
 31
0.0
  0
LINE
  8
0
 10
14.399993896484375
 20
56.5
 30
0.0
 11
14.454513549804688
 21
56.08589172363281
 31
0.0
  0
LINE
  8
0
 10
14.454513549804688
 20
56.08589172363281
 30
0.0
 11
14.614349365234375
 21
55.69999694824219
 31
0.0
  0
LINE
  8
0
 10
14.614349365234375
 20
55.69999694824219
 30
0.0
 11
14.868621826171875
 21
55.368621826171875
 31
0.0
  0
LINE
  8
0
 10
14.868621826171875
 20
55.368621826171875
 30
0.0
 11
15.199981689453125
 21
55.114349365234375
 31
0.0
  0
LINE
  8
0
 10
15.199981689453125
 20
55.114349365234375
 30
0.0
 11
15.58587646484375
 21
54.95452880859375
 31
0.0
  0
LINE
  8
0
 10
15.58587646484375
 20
54.95452880859375
 30
0.0
 11
15.999984741210938
 21
54.899993896484375
 31
0.0
  0
LINE
  8
0
 10
14.399993896484375
 20
61.5
 30
0.0
 11
14.399993896484375
 21
56.5
 31
0.0
  0
LINE
  8
0
 10
20.599990844726562
 20
61.5
 30
0.0
 11
20.54547119140625
 21
61.91410827636719
 31
0.0
  0
LINE
  8
0
 10
20.54547119140625
 20
61.91410827636719
 30
0.0
 11
20.385635375976562
 21
62.29998779296875
 31
0.0
  0
LINE
  8
0
 10
20.385635375976562
 20
62.29998779296875
 30
0.0
 11
20.131362915039062
 21
62.631378173828125
 31
0.0
  0
LINE
  8
0
 10
20.131362915039062
 20
62.631378173828125
 30
0.0
 11
19.79998779296875
 21
62.885650634765625
 31
0.0
  0
LINE
  8
0
 10
19.79998779296875
 20
62.885650634765625
 30
0.0
 11
19.414093017578125
 21
63.04547119140625
 31
0.0
  0
LINE
  8
0
 10
19.414093017578125
 20
63.04547119140625
 30
0.0
 11
19.0
 21
63.100006103515625
 31
0.0
  0
LINE
  8
0
 10
18.999984741210938
 20
54.899993896484375
 30
0.0
 11
19.414093017578125
 21
54.95452880859375
 31
0.0
  0
LINE
  8
0
 10
19.414093017578125
 20
54.95452880859375
 30
0.0
 11
19.79998779296875
 21
55.114349365234375
 31
0.0
  0
LINE
  8
0
 10
19.79998779296875
 20
55.114349365234375
 30
0.0
 11
20.131362915039062
 21
55.368621826171875
 31
0.0
  0
LINE
  8
0
 10
20.131362915039062
 20
55.368621826171875
 30
0.0
 11
20.385635375976562
 21
55.69999694824219
 31
0.0
  0
LINE
  8
0
 10
20.385635375976562
 20
55.69999694824219
 30
0.0
 11
20.54547119140625
 21
56.08587646484375
 31
0.0
  0
LINE
  8
0
 10
20.599990844726562
 20
56.5
 30
0.0
 11
20.54547119140625
 21
56.08587646484375
 31
0.0
  0
LINE
  8
0
 10
20.599990844726562
 20
61.5
 30
0.0
 11
20.599990844726562
 21
56.5
 31
0.0
  0
LINE
  8
0
 10
15.999984741210938
 20
63.100006103515625
 30
0.0
 11
19.0
 21
63.100006103515625
 31
0.0
  0
LINE
  8
0
 10
15.999984741210938
 20
54.899993896484375
 30
0.0
 11
18.999984741210938
 21
54.899993896484375
 31
0.0
  0
LINE
  8
0
 10
15.999984741210938
 20
53.100006103515625
 30
0.0
 11
15.58587646484375
 21
53.04547119140625
 31
0.0
  0
LINE
  8
0
 10
15.58587646484375
 20
53.04547119140625
 30
0.0
 11
15.199996948242188
 21
52.885650634765625
 31
0.0
  0
LINE
  8
0
 10
15.199996948242188
 20
52.885650634765625
 30
0.0
 11
14.868621826171875
 21
52.631378173828125
 31
0.0
  0
LINE
  8
0
 10
14.868621826171875
 20
52.631378173828125
 30
0.0
 11
14.614349365234375
 21
52.30000305175781
 31
0.0
  0
LINE
  8
0
 10
14.614349365234375
 20
52.30000305175781
 30
0.0
 11
14.454513549804688
 21
51.91410827636719
 31
0.0
  0
LINE
  8
0
 10
14.454513549804688
 20
51.91410827636719
 30
0.0
 11
14.399993896484375
 21
51.5
 31
0.0
  0
LINE
  8
0
 10
14.399993896484375
 20
46.5
 30
0.0
 11
14.454513549804688
 21
46.08589172363281
 31
0.0
  0
LINE
  8
0
 10
14.454513549804688
 20
46.08589172363281
 30
0.0
 11
14.614349365234375
 21
45.69999694824219
 31
0.0
  0
LINE
  8
0
 10
14.614349365234375
 20
45.69999694824219
 30
0.0
 11
14.868621826171875
 21
45.368621826171875
 31
0.0
  0
LINE
  8
0
 10
14.868621826171875
 20
45.368621826171875
 30
0.0
 11
15.199981689453125
 21
45.114349365234375
 31
0.0
  0
LINE
  8
0
 10
15.199981689453125
 20
45.114349365234375
 30
0.0
 11
15.58587646484375
 21
44.95452880859375
 31
0.0
  0
LINE
  8
0
 10
15.58587646484375
 20
44.95452880859375
 30
0.0
 11
15.999984741210938
 21
44.899993896484375
 31
0.0
  0
LINE
  8
0
 10
14.399993896484375
 20
51.5
 30
0.0
 11
14.399993896484375
 21
46.5
 31
0.0
  0
LINE
  8
0
 10
20.599990844726562
 20
51.5
 30
0.0
 11
20.54547119140625
 21
51.91410827636719
 31
0.0
  0
LINE
  8
0
 10
20.54547119140625
 20
51.91410827636719
 30
0.0
 11
20.385635375976562
 21
52.29998779296875
 31
0.0
  0
LINE
  8
0
 10
20.385635375976562
 20
52.29998779296875
 30
0.0
 11
20.131362915039062
 21
52.631378173828125
 31
0.0
  0
LINE
  8
0
 10
20.131362915039062
 20
52.631378173828125
 30
0.0
 11
19.79998779296875
 21
52.885650634765625
 31
0.0
  0
LINE
  8
0
 10
19.79998779296875
 20
52.885650634765625
 30
0.0
 11
19.414093017578125
 21
53.04547119140625
 31
0.0
  0
LINE
  8
0
 10
19.414093017578125
 20
53.04547119140625
 30
0.0
 11
18.999984741210938
 21
53.100006103515625
 31
0.0
  0
LINE
  8
0
 10
18.999984741210938
 20
44.899993896484375
 30
0.0
 11
19.414093017578125
 21
44.95452880859375
 31
0.0
  0
LINE
  8
0
 10
19.414093017578125
 20
44.95452880859375
 30
0.0
 11
19.79998779296875
 21
45.114349365234375
 31
0.0
  0
LINE
  8
0
 10
19.79998779296875
 20
45.114349365234375
 30
0.0
 11
20.131362915039062
 21
45.368621826171875
 31
0.0
  0
LINE
  8
0
 10
20.131362915039062
 20
45.368621826171875
 30
0.0
 11
20.385635375976562
 21
45.69999694824219
 31
0.0
  0
LINE
  8
0
 10
20.385635375976562
 20
45.69999694824219
 30
0.0
 11
20.54547119140625
 21
46.08587646484375
 31
0.0
  0
LINE
  8
0
 10
20.599990844726562
 20
46.5
 30
0.0
 11
20.54547119140625
 21
46.08587646484375
 31
0.0
  0
LINE
  8
0
 10
20.599990844726562
 20
51.5
 30
0.0
 11
20.599990844726562
 21
46.5
 31
0.0
  0
LINE
  8
0
 10
15.999984741210938
 20
53.100006103515625
 30
0.0
 11
18.999984741210938
 21
53.100006103515625
 31
0.0
  0
LINE
  8
0
 10
15.999984741210938
 20
44.899993896484375
 30
0.0
 11
18.999984741210938
 21
44.899993896484375
 31
0.0
  0
LINE
  8
0
 10
65.9000015258789
 20
94.5
 30
1.799071043251388e-07
 11
65.95452117919922
 21
94.08589172363281
 31
1.799071043251388e-07
  0
LINE
  8
0
 10
65.95452117919922
 20
94.08589172363281
 30
1.799071043251388e-07
 11
66.1143569946289
 21
93.69999694824219
 31
1.799071043251388e-07
  0
LINE
  8
0
 10
66.1143569946289
 20
93.69999694824219
 30
1.799071043251388e-07
 11
66.3686294555664
 21
93.36863708496094
 31
1.799071043251388e-07
  0
LINE
  8
0
 10
66.3686294555664
 20
93.36863708496094
 30
1.799071043251388e-07
 11
66.69998931884766
 21
93.11436462402344
 31
1.799071043251388e-07
  0
LINE
  8
0
 10
66.69998931884766
 20
93.11436462402344
 30
1.799071043251388e-07
 11
67.08588409423828
 21
92.95451354980469
 31
1.799071043251388e-07
  0
LINE
  8
0
 10
67.08588409423828
 20
92.95451354980469
 30
1.799071043251388e-07
 11
67.49999237060547
 21
92.89999389648438
 31
1.799071043251388e-07
  0
LINE
  8
0
 10
72.49999237060547
 20
92.89999389648438
 30
1.799071043251388e-07
 11
72.91410064697266
 21
92.95451354980469
 31
1.799071043251388e-07
  0
LINE
  8
0
 10
72.91410064697266
 20
92.95451354980469
 30
1.799071043251388e-07
 11
73.29999542236328
 21
93.11436462402344
 31
1.799071043251388e-07
  0
LINE
  8
0
 10
73.29999542236328
 20
93.11436462402344
 30
1.799071043251388e-07
 11
73.6313705444336
 21
93.36862182617188
 31
1.799071043251388e-07
  0
LINE
  8
0
 10
73.6313705444336
 20
93.36862182617188
 30
1.799071043251388e-07
 11
73.8856430053711
 21
93.69999694824219
 31
1.799071043251388e-07
  0
LINE
  8
0
 10
73.8856430053711
 20
93.69999694824219
 30
1.799071043251388e-07
 11
74.04547882080078
 21
94.08589172363281
 31
1.799071043251388e-07
  0
LINE
  8
0
 10
74.04547882080078
 20
94.08589172363281
 30
1.799071043251388e-07
 11
74.0999984741211
 21
94.5
 31
1.799071043251388e-07
  0
LINE
  8
0
 10
67.49999237060547
 20
92.89999389648438
 30
1.799071043251388e-07
 11
72.49999237060547
 21
92.89999389648438
 31
1.799071043251388e-07
  0
LINE
  8
0
 10
67.49999237060547
 20
99.10000610351562
 30
1.799071043251388e-07
 11
67.08588409423828
 21
99.04548645019531
 31
1.799071043251388e-07
  0
LINE
  8
0
 10
67.08588409423828
 20
99.04548645019531
 30
1.799071043251388e-07
 11
66.70000457763672
 21
98.88565063476562
 31
1.799071043251388e-07
  0
LINE
  8
0
 10
66.70000457763672
 20
98.88565063476562
 30
1.799071043251388e-07
 11
66.3686294555664
 21
98.63136291503906
 31
1.799071043251388e-07
  0
LINE
  8
0
 10
66.3686294555664
 20
98.63136291503906
 30
1.799071043251388e-07
 11
66.1143569946289
 21
98.30000305175781
 31
1.799071043251388e-07
  0
LINE
  8
0
 10
66.1143569946289
 20
98.30000305175781
 30
1.799071043251388e-07
 11
65.95452117919922
 21
97.91410827636719
 31
1.799071043251388e-07
  0
LINE
  8
0
 10
65.95452117919922
 20
97.91410827636719
 30
1.799071043251388e-07
 11
65.9000015258789
 21
97.5
 31
1.799071043251388e-07
  0
LINE
  8
0
 10
74.0999984741211
 20
97.5
 30
1.799071043251388e-07
 11
74.04547882080078
 21
97.91410827636719
 31
1.799071043251388e-07
  0
LINE
  8
0
 10
74.04547882080078
 20
97.91410827636719
 30
1.799071043251388e-07
 11
73.8856430053711
 21
98.30000305175781
 31
1.799071043251388e-07
  0
LINE
  8
0
 10
73.8856430053711
 20
98.30000305175781
 30
1.799071043251388e-07
 11
73.6313705444336
 21
98.63137817382812
 31
1.799071043251388e-07
  0
LINE
  8
0
 10
73.6313705444336
 20
98.63137817382812
 30
1.799071043251388e-07
 11
73.29999542236328
 21
98.88563537597656
 31
1.799071043251388e-07
  0
LINE
  8
0
 10
73.29999542236328
 20
98.88563537597656
 30
1.799071043251388e-07
 11
72.91411590576172
 21
99.04547119140625
 31
1.799071043251388e-07
  0
LINE
  8
0
 10
72.49999237060547
 20
99.10000610351562
 30
1.799071043251388e-07
 11
72.91411590576172
 21
99.04547119140625
 31
1.799071043251388e-07
  0
LINE
  8
0
 10
67.49999237060547
 20
99.10000610351562
 30
1.799071043251388e-07
 11
72.49999237060547
 21
99.10000610351562
 31
1.799071043251388e-07
  0
LINE
  8
0
 10
65.9000015258789
 20
94.5
 30
1.799071043251388e-07
 11
65.9000015258789
 21
97.5
 31
1.799071043251388e-07
  0
LINE
  8
0
 10
74.0999984741211
 20
94.5
 30
1.799071043251388e-07
 11
74.0999984741211
 21
97.5
 31
1.799071043251388e-07
  0
LINE
  8
0
 10
58.49999237060547
 20
65.10000610351562
 30
0.0
 11
58.08588409423828
 21
65.04547119140625
 31
0.0
  0
LINE
  8
0
 10
58.08588409423828
 20
65.04547119140625
 30
0.0
 11
57.69999694824219
 21
64.88565063476562
 31
0.0
  0
LINE
  8
0
 10
57.69999694824219
 20
64.88565063476562
 30
0.0
 11
57.368621826171875
 21
64.63137817382812
 31
0.0
  0
LINE
  8
0
 10
57.368621826171875
 20
64.63137817382812
 30
0.0
 11
57.114356994628906
 21
64.30000305175781
 31
0.0
  0
LINE
  8
0
 10
57.114356994628906
 20
64.30000305175781
 30
0.0
 11
56.95451354980469
 21
63.91412353515625
 31
0.0
  0
LINE
  8
0
 10
56.95451354980469
 20
63.91412353515625
 30
0.0
 11
56.899993896484375
 21
63.5
 31
0.0
  0
LINE
  8
0
 10
56.899993896484375
 20
58.5
 30
0.0
 11
56.95451354980469
 21
58.085906982421875
 31
0.0
  0
LINE
  8
0
 10
56.95451354980469
 20
58.085906982421875
 30
0.0
 11
57.114356994628906
 21
57.69999694824219
 31
0.0
  0
LINE
  8
0
 10
57.114356994628906
 20
57.69999694824219
 30
0.0
 11
57.368621826171875
 21
57.368621826171875
 31
0.0
  0
LINE
  8
0
 10
57.368621826171875
 20
57.368621826171875
 30
0.0
 11
57.69999694824219
 21
57.114349365234375
 31
0.0
  0
LINE
  8
0
 10
57.69999694824219
 20
57.114349365234375
 30
0.0
 11
58.08588409423828
 21
56.95452880859375
 31
0.0
  0
LINE
  8
0
 10
58.08588409423828
 20
56.95452880859375
 30
0.0
 11
58.49999237060547
 21
56.899993896484375
 31
0.0
  0
LINE
  8
0
 10
56.899993896484375
 20
63.5
 30
0.0
 11
56.899993896484375
 21
58.5
 31
0.0
  0
LINE
  8
0
 10
63.099998474121094
 20
63.5
 30
0.0
 11
63.04547882080078
 21
63.91410827636719
 31
0.0
  0
LINE
  8
0
 10
63.04547882080078
 20
63.91410827636719
 30
0.0
 11
62.88563537597656
 21
64.29998779296875
 31
0.0
  0
LINE
  8
0
 10
62.88563537597656
 20
64.29998779296875
 30
0.0
 11
62.63136291503906
 21
64.63137817382812
 31
0.0
  0
LINE
  8
0
 10
62.63136291503906
 20
64.63137817382812
 30
0.0
 11
62.29999542236328
 21
64.88565063476562
 31
0.0
  0
LINE
  8
0
 10
62.29999542236328
 20
64.88565063476562
 30
0.0
 11
61.91410827636719
 21
65.04547119140625
 31
0.0
  0
LINE
  8
0
 10
61.91410827636719
 20
65.04547119140625
 30
0.0
 11
61.49999237060547
 21
65.10000610351562
 31
0.0
  0
LINE
  8
0
 10
61.49999237060547
 20
56.899993896484375
 30
0.0
 11
61.91410827636719
 21
56.95452880859375
 31
0.0
  0
LINE
  8
0
 10
61.91410827636719
 20
56.95452880859375
 30
0.0
 11
62.29999542236328
 21
57.114349365234375
 31
0.0
  0
LINE
  8
0
 10
62.29999542236328
 20
57.114349365234375
 30
0.0
 11
62.63136291503906
 21
57.368621826171875
 31
0.0
  0
LINE
  8
0
 10
62.63136291503906
 20
57.368621826171875
 30
0.0
 11
62.88563537597656
 21
57.70001220703125
 31
0.0
  0
LINE
  8
0
 10
62.88563537597656
 20
57.70001220703125
 30
0.0
 11
63.04547882080078
 21
58.08587646484375
 31
0.0
  0
LINE
  8
0
 10
63.099998474121094
 20
58.5
 30
0.0
 11
63.04547882080078
 21
58.08587646484375
 31
0.0
  0
LINE
  8
0
 10
63.099998474121094
 20
63.5
 30
0.0
 11
63.099998474121094
 21
58.5
 31
0.0
  0
LINE
  8
0
 10
58.49999237060547
 20
65.10000610351562
 30
0.0
 11
61.49999237060547
 21
65.10000610351562
 31
0.0
  0
LINE
  8
0
 10
58.49999237060547
 20
56.899993896484375
 30
0.0
 11
61.49999237060547
 21
56.899993896484375
 31
0.0
  0
LINE
  8
0
 10
50.49999237060547
 20
65.10000610351562
 30
0.0
 11
50.08588409423828
 21
65.04547119140625
 31
0.0
  0
LINE
  8
0
 10
50.08588409423828
 20
65.04547119140625
 30
0.0
 11
49.69999694824219
 21
64.88565063476562
 31
0.0
  0
LINE
  8
0
 10
49.69999694824219
 20
64.88565063476562
 30
0.0
 11
49.368621826171875
 21
64.63137817382812
 31
0.0
  0
LINE
  8
0
 10
49.368621826171875
 20
64.63137817382812
 30
0.0
 11
49.114356994628906
 21
64.30000305175781
 31
0.0
  0
LINE
  8
0
 10
49.114356994628906
 20
64.30000305175781
 30
0.0
 11
48.95451354980469
 21
63.91412353515625
 31
0.0
  0
LINE
  8
0
 10
48.95451354980469
 20
63.91412353515625
 30
0.0
 11
48.899993896484375
 21
63.5
 31
0.0
  0
LINE
  8
0
 10
48.899993896484375
 20
58.5
 30
0.0
 11
48.95451354980469
 21
58.085906982421875
 31
0.0
  0
LINE
  8
0
 10
48.95451354980469
 20
58.085906982421875
 30
0.0
 11
49.114356994628906
 21
57.69999694824219
 31
0.0
  0
LINE
  8
0
 10
49.114356994628906
 20
57.69999694824219
 30
0.0
 11
49.368621826171875
 21
57.368621826171875
 31
0.0
  0
LINE
  8
0
 10
49.368621826171875
 20
57.368621826171875
 30
0.0
 11
49.69999694824219
 21
57.114349365234375
 31
0.0
  0
LINE
  8
0
 10
49.69999694824219
 20
57.114349365234375
 30
0.0
 11
50.08588409423828
 21
56.95452880859375
 31
0.0
  0
LINE
  8
0
 10
50.08588409423828
 20
56.95452880859375
 30
0.0
 11
50.49999237060547
 21
56.899993896484375
 31
0.0
  0
LINE
  8
0
 10
48.899993896484375
 20
63.5
 30
0.0
 11
48.899993896484375
 21
58.5
 31
0.0
  0
LINE
  8
0
 10
55.099998474121094
 20
63.5
 30
0.0
 11
55.04547882080078
 21
63.91410827636719
 31
0.0
  0
LINE
  8
0
 10
55.04547882080078
 20
63.91410827636719
 30
0.0
 11
54.88563537597656
 21
64.29998779296875
 31
0.0
  0
LINE
  8
0
 10
54.88563537597656
 20
64.29998779296875
 30
0.0
 11
54.63136291503906
 21
64.63137817382812
 31
0.0
  0
LINE
  8
0
 10
54.63136291503906
 20
64.63137817382812
 30
0.0
 11
54.29999542236328
 21
64.88565063476562
 31
0.0
  0
LINE
  8
0
 10
54.29999542236328
 20
64.88565063476562
 30
0.0
 11
53.91410827636719
 21
65.04547119140625
 31
0.0
  0
LINE
  8
0
 10
53.91410827636719
 20
65.04547119140625
 30
0.0
 11
53.49999237060547
 21
65.10000610351562
 31
0.0
  0
LINE
  8
0
 10
53.49999237060547
 20
56.899993896484375
 30
0.0
 11
53.91410827636719
 21
56.95452880859375
 31
0.0
  0
LINE
  8
0
 10
53.91410827636719
 20
56.95452880859375
 30
0.0
 11
54.29999542236328
 21
57.114349365234375
 31
0.0
  0
LINE
  8
0
 10
54.29999542236328
 20
57.114349365234375
 30
0.0
 11
54.63136291503906
 21
57.368621826171875
 31
0.0
  0
LINE
  8
0
 10
54.63136291503906
 20
57.368621826171875
 30
0.0
 11
54.88563537597656
 21
57.70001220703125
 31
0.0
  0
LINE
  8
0
 10
54.88563537597656
 20
57.70001220703125
 30
0.0
 11
55.04547882080078
 21
58.08587646484375
 31
0.0
  0
LINE
  8
0
 10
55.099998474121094
 20
58.5
 30
0.0
 11
55.04547882080078
 21
58.08587646484375
 31
0.0
  0
LINE
  8
0
 10
55.099998474121094
 20
63.5
 30
0.0
 11
55.099998474121094
 21
58.5
 31
0.0
  0
LINE
  8
0
 10
50.49999237060547
 20
65.10000610351562
 30
0.0
 11
53.49999237060547
 21
65.10000610351562
 31
0.0
  0
LINE
  8
0
 10
50.49999237060547
 20
56.899993896484375
 30
0.0
 11
53.49999237060547
 21
56.899993896484375
 31
0.0
  0
LINE
  8
0
 10
26.49999237060547
 20
65.10000610351562
 30
0.0
 11
26.08588409423828
 21
65.04547119140625
 31
0.0
  0
LINE
  8
0
 10
26.08588409423828
 20
65.04547119140625
 30
0.0
 11
25.699996948242188
 21
64.88565063476562
 31
0.0
  0
LINE
  8
0
 10
25.699996948242188
 20
64.88565063476562
 30
0.0
 11
25.368621826171875
 21
64.63137817382812
 31
0.0
  0
LINE
  8
0
 10
25.368621826171875
 20
64.63137817382812
 30
0.0
 11
25.114349365234375
 21
64.30000305175781
 31
0.0
  0
LINE
  8
0
 10
25.114349365234375
 20
64.30000305175781
 30
0.0
 11
24.954513549804688
 21
63.91410827636719
 31
0.0
  0
LINE
  8
0
 10
24.954513549804688
 20
63.91410827636719
 30
0.0
 11
24.899993896484375
 21
63.5
 31
0.0
  0
LINE
  8
0
 10
24.899993896484375
 20
58.5
 30
0.0
 11
24.954513549804688
 21
58.08589172363281
 31
0.0
  0
LINE
  8
0
 10
24.954513549804688
 20
58.08589172363281
 30
0.0
 11
25.114349365234375
 21
57.69999694824219
 31
0.0
  0
LINE
  8
0
 10
25.114349365234375
 20
57.69999694824219
 30
0.0
 11
25.368621826171875
 21
57.368621826171875
 31
0.0
  0
LINE
  8
0
 10
25.368621826171875
 20
57.368621826171875
 30
0.0
 11
25.699981689453125
 21
57.114349365234375
 31
0.0
  0
LINE
  8
0
 10
25.699981689453125
 20
57.114349365234375
 30
0.0
 11
26.08587646484375
 21
56.95452880859375
 31
0.0
  0
LINE
  8
0
 10
26.08587646484375
 20
56.95452880859375
 30
0.0
 11
26.499984741210938
 21
56.899993896484375
 31
0.0
  0
LINE
  8
0
 10
24.899993896484375
 20
63.5
 30
0.0
 11
24.899993896484375
 21
58.5
 31
0.0
  0
LINE
  8
0
 10
31.099990844726562
 20
63.5
 30
0.0
 11
31.04547119140625
 21
63.91410827636719
 31
0.0
  0
LINE
  8
0
 10
31.04547119140625
 20
63.91410827636719
 30
0.0
 11
30.885635375976562
 21
64.29998779296875
 31
0.0
  0
LINE
  8
0
 10
30.885635375976562
 20
64.29998779296875
 30
0.0
 11
30.631362915039062
 21
64.63137817382812
 31
0.0
  0
LINE
  8
0
 10
30.631362915039062
 20
64.63137817382812
 30
0.0
 11
30.29999542236328
 21
64.88565063476562
 31
0.0
  0
LINE
  8
0
 10
30.29999542236328
 20
64.88565063476562
 30
0.0
 11
29.914100646972656
 21
65.04547119140625
 31
0.0
  0
LINE
  8
0
 10
29.914100646972656
 20
65.04547119140625
 30
0.0
 11
29.49999237060547
 21
65.10000610351562
 31
0.0
  0
LINE
  8
0
 10
29.49999237060547
 20
56.899993896484375
 30
0.0
 11
29.914100646972656
 21
56.95452880859375
 31
0.0
  0
LINE
  8
0
 10
29.914100646972656
 20
56.95452880859375
 30
0.0
 11
30.29999542236328
 21
57.114349365234375
 31
0.0
  0
LINE
  8
0
 10
30.29999542236328
 20
57.114349365234375
 30
0.0
 11
30.631362915039062
 21
57.368621826171875
 31
0.0
  0
LINE
  8
0
 10
30.631362915039062
 20
57.368621826171875
 30
0.0
 11
30.885635375976562
 21
57.69999694824219
 31
0.0
  0
LINE
  8
0
 10
30.885635375976562
 20
57.69999694824219
 30
0.0
 11
31.04547119140625
 21
58.08587646484375
 31
0.0
  0
LINE
  8
0
 10
31.099990844726562
 20
58.5
 30
0.0
 11
31.04547119140625
 21
58.08587646484375
 31
0.0
  0
LINE
  8
0
 10
31.099990844726562
 20
63.5
 30
0.0
 11
31.099990844726562
 21
58.5
 31
0.0
  0
LINE
  8
0
 10
26.49999237060547
 20
65.10000610351562
 30
0.0
 11
29.49999237060547
 21
65.10000610351562
 31
0.0
  0
LINE
  8
0
 10
26.499984741210938
 20
56.899993896484375
 30
0.0
 11
29.49999237060547
 21
56.899993896484375
 31
0.0
  0
LINE
  8
0
 10
42.49999237060547
 20
65.10000610351562
 30
0.0
 11
42.08588409423828
 21
65.04547119140625
 31
0.0
  0
LINE
  8
0
 10
42.08588409423828
 20
65.04547119140625
 30
0.0
 11
41.69999694824219
 21
64.88565063476562
 31
0.0
  0
LINE
  8
0
 10
41.69999694824219
 20
64.88565063476562
 30
0.0
 11
41.368621826171875
 21
64.63137817382812
 31
0.0
  0
LINE
  8
0
 10
41.368621826171875
 20
64.63137817382812
 30
0.0
 11
41.114356994628906
 21
64.30000305175781
 31
0.0
  0
LINE
  8
0
 10
41.114356994628906
 20
64.30000305175781
 30
0.0
 11
40.95451354980469
 21
63.91412353515625
 31
0.0
  0
LINE
  8
0
 10
40.95451354980469
 20
63.91412353515625
 30
0.0
 11
40.899993896484375
 21
63.5
 31
0.0
  0
LINE
  8
0
 10
40.899993896484375
 20
58.5
 30
0.0
 11
40.95451354980469
 21
58.085906982421875
 31
0.0
  0
LINE
  8
0
 10
40.95451354980469
 20
58.085906982421875
 30
0.0
 11
41.114356994628906
 21
57.69999694824219
 31
0.0
  0
LINE
  8
0
 10
41.114356994628906
 20
57.69999694824219
 30
0.0
 11
41.368621826171875
 21
57.368621826171875
 31
0.0
  0
LINE
  8
0
 10
41.368621826171875
 20
57.368621826171875
 30
0.0
 11
41.69999694824219
 21
57.114349365234375
 31
0.0
  0
LINE
  8
0
 10
41.69999694824219
 20
57.114349365234375
 30
0.0
 11
42.08588409423828
 21
56.95452880859375
 31
0.0
  0
LINE
  8
0
 10
42.08588409423828
 20
56.95452880859375
 30
0.0
 11
42.49999237060547
 21
56.899993896484375
 31
0.0
  0
LINE
  8
0
 10
40.899993896484375
 20
63.5
 30
0.0
 11
40.899993896484375
 21
58.5
 31
0.0
  0
LINE
  8
0
 10
47.099998474121094
 20
63.5
 30
0.0
 11
47.04547882080078
 21
63.91410827636719
 31
0.0
  0
LINE
  8
0
 10
47.04547882080078
 20
63.91410827636719
 30
0.0
 11
46.88563537597656
 21
64.29998779296875
 31
0.0
  0
LINE
  8
0
 10
46.88563537597656
 20
64.29998779296875
 30
0.0
 11
46.63136291503906
 21
64.63137817382812
 31
0.0
  0
LINE
  8
0
 10
46.63136291503906
 20
64.63137817382812
 30
0.0
 11
46.29999542236328
 21
64.88565063476562
 31
0.0
  0
LINE
  8
0
 10
46.29999542236328
 20
64.88565063476562
 30
0.0
 11
45.91410827636719
 21
65.04547119140625
 31
0.0
  0
LINE
  8
0
 10
45.91410827636719
 20
65.04547119140625
 30
0.0
 11
45.49999237060547
 21
65.10000610351562
 31
0.0
  0
LINE
  8
0
 10
45.49999237060547
 20
56.899993896484375
 30
0.0
 11
45.91410827636719
 21
56.95452880859375
 31
0.0
  0
LINE
  8
0
 10
45.91410827636719
 20
56.95452880859375
 30
0.0
 11
46.29999542236328
 21
57.114349365234375
 31
0.0
  0
LINE
  8
0
 10
46.29999542236328
 20
57.114349365234375
 30
0.0
 11
46.63136291503906
 21
57.368621826171875
 31
0.0
  0
LINE
  8
0
 10
46.63136291503906
 20
57.368621826171875
 30
0.0
 11
46.88563537597656
 21
57.70001220703125
 31
0.0
  0
LINE
  8
0
 10
46.88563537597656
 20
57.70001220703125
 30
0.0
 11
47.04547882080078
 21
58.08587646484375
 31
0.0
  0
LINE
  8
0
 10
47.099998474121094
 20
58.5
 30
0.0
 11
47.04547882080078
 21
58.08587646484375
 31
0.0
  0
LINE
  8
0
 10
47.099998474121094
 20
63.5
 30
0.0
 11
47.099998474121094
 21
58.5
 31
0.0
  0
LINE
  8
0
 10
42.49999237060547
 20
65.10000610351562
 30
0.0
 11
45.49999237060547
 21
65.10000610351562
 31
0.0
  0
LINE
  8
0
 10
42.49999237060547
 20
56.899993896484375
 30
0.0
 11
45.49999237060547
 21
56.899993896484375
 31
0.0
  0
LINE
  8
0
 10
34.49999237060547
 20
65.10000610351562
 30
0.0
 11
34.08588409423828
 21
65.04547119140625
 31
0.0
  0
LINE
  8
0
 10
34.08588409423828
 20
65.04547119140625
 30
0.0
 11
33.69999694824219
 21
64.88565063476562
 31
0.0
  0
LINE
  8
0
 10
33.69999694824219
 20
64.88565063476562
 30
0.0
 11
33.368621826171875
 21
64.63137817382812
 31
0.0
  0
LINE
  8
0
 10
33.368621826171875
 20
64.63137817382812
 30
0.0
 11
33.114356994628906
 21
64.30000305175781
 31
0.0
  0
LINE
  8
0
 10
33.114356994628906
 20
64.30000305175781
 30
0.0
 11
32.95451354980469
 21
63.91412353515625
 31
0.0
  0
LINE
  8
0
 10
32.95451354980469
 20
63.91412353515625
 30
0.0
 11
32.899993896484375
 21
63.5
 31
0.0
  0
LINE
  8
0
 10
32.899993896484375
 20
58.5
 30
0.0
 11
32.95451354980469
 21
58.085906982421875
 31
0.0
  0
LINE
  8
0
 10
32.95451354980469
 20
58.085906982421875
 30
0.0
 11
33.114356994628906
 21
57.69999694824219
 31
0.0
  0
LINE
  8
0
 10
33.114356994628906
 20
57.69999694824219
 30
0.0
 11
33.368621826171875
 21
57.368621826171875
 31
0.0
  0
LINE
  8
0
 10
33.368621826171875
 20
57.368621826171875
 30
0.0
 11
33.69999694824219
 21
57.114349365234375
 31
0.0
  0
LINE
  8
0
 10
33.69999694824219
 20
57.114349365234375
 30
0.0
 11
34.08588409423828
 21
56.95452880859375
 31
0.0
  0
LINE
  8
0
 10
34.08588409423828
 20
56.95452880859375
 30
0.0
 11
34.49999237060547
 21
56.899993896484375
 31
0.0
  0
LINE
  8
0
 10
32.899993896484375
 20
63.5
 30
0.0
 11
32.899993896484375
 21
58.5
 31
0.0
  0
LINE
  8
0
 10
39.099998474121094
 20
63.5
 30
0.0
 11
39.04547882080078
 21
63.91410827636719
 31
0.0
  0
LINE
  8
0
 10
39.04547882080078
 20
63.91410827636719
 30
0.0
 11
38.88563537597656
 21
64.29998779296875
 31
0.0
  0
LINE
  8
0
 10
38.88563537597656
 20
64.29998779296875
 30
0.0
 11
38.63136291503906
 21
64.63137817382812
 31
0.0
  0
LINE
  8
0
 10
38.63136291503906
 20
64.63137817382812
 30
0.0
 11
38.29999542236328
 21
64.88565063476562
 31
0.0
  0
LINE
  8
0
 10
38.29999542236328
 20
64.88565063476562
 30
0.0
 11
37.91410827636719
 21
65.04547119140625
 31
0.0
  0
LINE
  8
0
 10
37.91410827636719
 20
65.04547119140625
 30
0.0
 11
37.49999237060547
 21
65.10000610351562
 31
0.0
  0
LINE
  8
0
 10
37.49999237060547
 20
56.899993896484375
 30
0.0
 11
37.91410827636719
 21
56.95452880859375
 31
0.0
  0
LINE
  8
0
 10
37.91410827636719
 20
56.95452880859375
 30
0.0
 11
38.29999542236328
 21
57.114349365234375
 31
0.0
  0
LINE
  8
0
 10
38.29999542236328
 20
57.114349365234375
 30
0.0
 11
38.63136291503906
 21
57.368621826171875
 31
0.0
  0
LINE
  8
0
 10
38.63136291503906
 20
57.368621826171875
 30
0.0
 11
38.88563537597656
 21
57.70001220703125
 31
0.0
  0
LINE
  8
0
 10
38.88563537597656
 20
57.70001220703125
 30
0.0
 11
39.04547882080078
 21
58.08587646484375
 31
0.0
  0
LINE
  8
0
 10
39.099998474121094
 20
58.5
 30
0.0
 11
39.04547882080078
 21
58.08587646484375
 31
0.0
  0
LINE
  8
0
 10
39.099998474121094
 20
63.5
 30
0.0
 11
39.099998474121094
 21
58.5
 31
0.0
  0
LINE
  8
0
 10
34.49999237060547
 20
65.10000610351562
 30
0.0
 11
37.49999237060547
 21
65.10000610351562
 31
0.0
  0
LINE
  8
0
 10
34.49999237060547
 20
56.899993896484375
 30
0.0
 11
37.49999237060547
 21
56.899993896484375
 31
0.0
  0
LINE
  8
0
 10
58.49999237060547
 20
55.100006103515625
 30
0.0
 11
58.08588409423828
 21
55.04547119140625
 31
0.0
  0
LINE
  8
0
 10
58.08588409423828
 20
55.04547119140625
 30
0.0
 11
57.69999694824219
 21
54.885650634765625
 31
0.0
  0
LINE
  8
0
 10
57.69999694824219
 20
54.885650634765625
 30
0.0
 11
57.368621826171875
 21
54.631378173828125
 31
0.0
  0
LINE
  8
0
 10
57.368621826171875
 20
54.631378173828125
 30
0.0
 11
57.114356994628906
 21
54.30000305175781
 31
0.0
  0
LINE
  8
0
 10
57.114356994628906
 20
54.30000305175781
 30
0.0
 11
56.95451354980469
 21
53.91412353515625
 31
0.0
  0
LINE
  8
0
 10
56.95451354980469
 20
53.91412353515625
 30
0.0
 11
56.899993896484375
 21
53.5
 31
0.0
  0
LINE
  8
0
 10
56.899993896484375
 20
48.5
 30
0.0
 11
56.95451354980469
 21
48.085906982421875
 31
0.0
  0
LINE
  8
0
 10
56.95451354980469
 20
48.085906982421875
 30
0.0
 11
57.114356994628906
 21
47.69999694824219
 31
0.0
  0
LINE
  8
0
 10
57.114356994628906
 20
47.69999694824219
 30
0.0
 11
57.368621826171875
 21
47.368621826171875
 31
0.0
  0
LINE
  8
0
 10
57.368621826171875
 20
47.368621826171875
 30
0.0
 11
57.69999694824219
 21
47.114349365234375
 31
0.0
  0
LINE
  8
0
 10
57.69999694824219
 20
47.114349365234375
 30
0.0
 11
58.08588409423828
 21
46.95452880859375
 31
0.0
  0
LINE
  8
0
 10
58.08588409423828
 20
46.95452880859375
 30
0.0
 11
58.49999237060547
 21
46.899993896484375
 31
0.0
  0
LINE
  8
0
 10
56.899993896484375
 20
53.5
 30
0.0
 11
56.899993896484375
 21
48.5
 31
0.0
  0
LINE
  8
0
 10
63.099998474121094
 20
53.5
 30
0.0
 11
63.04547882080078
 21
53.91410827636719
 31
0.0
  0
LINE
  8
0
 10
63.04547882080078
 20
53.91410827636719
 30
0.0
 11
62.88563537597656
 21
54.29998779296875
 31
0.0
  0
LINE
  8
0
 10
62.88563537597656
 20
54.29998779296875
 30
0.0
 11
62.63136291503906
 21
54.631378173828125
 31
0.0
  0
LINE
  8
0
 10
62.63136291503906
 20
54.631378173828125
 30
0.0
 11
62.29999542236328
 21
54.885650634765625
 31
0.0
  0
LINE
  8
0
 10
62.29999542236328
 20
54.885650634765625
 30
0.0
 11
61.91410827636719
 21
55.04547119140625
 31
0.0
  0
LINE
  8
0
 10
61.91410827636719
 20
55.04547119140625
 30
0.0
 11
61.49999237060547
 21
55.100006103515625
 31
0.0
  0
LINE
  8
0
 10
61.49999237060547
 20
46.899993896484375
 30
0.0
 11
61.91410827636719
 21
46.95452880859375
 31
0.0
  0
LINE
  8
0
 10
61.91410827636719
 20
46.95452880859375
 30
0.0
 11
62.29999542236328
 21
47.114349365234375
 31
0.0
  0
LINE
  8
0
 10
62.29999542236328
 20
47.114349365234375
 30
0.0
 11
62.63136291503906
 21
47.368621826171875
 31
0.0
  0
LINE
  8
0
 10
62.63136291503906
 20
47.368621826171875
 30
0.0
 11
62.88563537597656
 21
47.70001220703125
 31
0.0
  0
LINE
  8
0
 10
62.88563537597656
 20
47.70001220703125
 30
0.0
 11
63.04547882080078
 21
48.08587646484375
 31
0.0
  0
LINE
  8
0
 10
63.099998474121094
 20
48.5
 30
0.0
 11
63.04547882080078
 21
48.08587646484375
 31
0.0
  0
LINE
  8
0
 10
63.099998474121094
 20
53.5
 30
0.0
 11
63.099998474121094
 21
48.5
 31
0.0
  0
LINE
  8
0
 10
58.49999237060547
 20
55.100006103515625
 30
0.0
 11
61.49999237060547
 21
55.100006103515625
 31
0.0
  0
LINE
  8
0
 10
58.49999237060547
 20
46.899993896484375
 30
0.0
 11
61.49999237060547
 21
46.899993896484375
 31
0.0
  0
LINE
  8
0
 10
50.49999237060547
 20
55.100006103515625
 30
0.0
 11
50.08588409423828
 21
55.04547119140625
 31
0.0
  0
LINE
  8
0
 10
50.08588409423828
 20
55.04547119140625
 30
0.0
 11
49.69999694824219
 21
54.885650634765625
 31
0.0
  0
LINE
  8
0
 10
49.69999694824219
 20
54.885650634765625
 30
0.0
 11
49.368621826171875
 21
54.631378173828125
 31
0.0
  0
LINE
  8
0
 10
49.368621826171875
 20
54.631378173828125
 30
0.0
 11
49.114356994628906
 21
54.30000305175781
 31
0.0
  0
LINE
  8
0
 10
49.114356994628906
 20
54.30000305175781
 30
0.0
 11
48.95451354980469
 21
53.91412353515625
 31
0.0
  0
LINE
  8
0
 10
48.95451354980469
 20
53.91412353515625
 30
0.0
 11
48.899993896484375
 21
53.5
 31
0.0
  0
LINE
  8
0
 10
48.899993896484375
 20
48.5
 30
0.0
 11
48.95451354980469
 21
48.085906982421875
 31
0.0
  0
LINE
  8
0
 10
48.95451354980469
 20
48.085906982421875
 30
0.0
 11
49.114356994628906
 21
47.69999694824219
 31
0.0
  0
LINE
  8
0
 10
49.114356994628906
 20
47.69999694824219
 30
0.0
 11
49.368621826171875
 21
47.368621826171875
 31
0.0
  0
LINE
  8
0
 10
49.368621826171875
 20
47.368621826171875
 30
0.0
 11
49.69999694824219
 21
47.114349365234375
 31
0.0
  0
LINE
  8
0
 10
49.69999694824219
 20
47.114349365234375
 30
0.0
 11
50.08588409423828
 21
46.95452880859375
 31
0.0
  0
LINE
  8
0
 10
50.08588409423828
 20
46.95452880859375
 30
0.0
 11
50.49999237060547
 21
46.899993896484375
 31
0.0
  0
LINE
  8
0
 10
48.899993896484375
 20
53.5
 30
0.0
 11
48.899993896484375
 21
48.5
 31
0.0
  0
LINE
  8
0
 10
55.099998474121094
 20
53.5
 30
0.0
 11
55.04547882080078
 21
53.91410827636719
 31
0.0
  0
LINE
  8
0
 10
55.04547882080078
 20
53.91410827636719
 30
0.0
 11
54.88563537597656
 21
54.29998779296875
 31
0.0
  0
LINE
  8
0
 10
54.88563537597656
 20
54.29998779296875
 30
0.0
 11
54.63136291503906
 21
54.631378173828125
 31
0.0
  0
LINE
  8
0
 10
54.63136291503906
 20
54.631378173828125
 30
0.0
 11
54.29999542236328
 21
54.885650634765625
 31
0.0
  0
LINE
  8
0
 10
54.29999542236328
 20
54.885650634765625
 30
0.0
 11
53.91410827636719
 21
55.04547119140625
 31
0.0
  0
LINE
  8
0
 10
53.91410827636719
 20
55.04547119140625
 30
0.0
 11
53.49999237060547
 21
55.100006103515625
 31
0.0
  0
LINE
  8
0
 10
53.49999237060547
 20
46.899993896484375
 30
0.0
 11
53.91410827636719
 21
46.95452880859375
 31
0.0
  0
LINE
  8
0
 10
53.91410827636719
 20
46.95452880859375
 30
0.0
 11
54.29999542236328
 21
47.114349365234375
 31
0.0
  0
LINE
  8
0
 10
54.29999542236328
 20
47.114349365234375
 30
0.0
 11
54.63136291503906
 21
47.368621826171875
 31
0.0
  0
LINE
  8
0
 10
54.63136291503906
 20
47.368621826171875
 30
0.0
 11
54.88563537597656
 21
47.70001220703125
 31
0.0
  0
LINE
  8
0
 10
54.88563537597656
 20
47.70001220703125
 30
0.0
 11
55.04547882080078
 21
48.08587646484375
 31
0.0
  0
LINE
  8
0
 10
55.099998474121094
 20
48.5
 30
0.0
 11
55.04547882080078
 21
48.08587646484375
 31
0.0
  0
LINE
  8
0
 10
55.099998474121094
 20
53.5
 30
0.0
 11
55.099998474121094
 21
48.5
 31
0.0
  0
LINE
  8
0
 10
50.49999237060547
 20
55.100006103515625
 30
0.0
 11
53.49999237060547
 21
55.100006103515625
 31
0.0
  0
LINE
  8
0
 10
50.49999237060547
 20
46.899993896484375
 30
0.0
 11
53.49999237060547
 21
46.899993896484375
 31
0.0
  0
LINE
  8
0
 10
26.499984741210938
 20
55.100006103515625
 30
0.0
 11
26.08587646484375
 21
55.04547119140625
 31
0.0
  0
LINE
  8
0
 10
26.08587646484375
 20
55.04547119140625
 30
0.0
 11
25.699996948242188
 21
54.885650634765625
 31
0.0
  0
LINE
  8
0
 10
25.699996948242188
 20
54.885650634765625
 30
0.0
 11
25.368621826171875
 21
54.631378173828125
 31
0.0
  0
LINE
  8
0
 10
25.368621826171875
 20
54.631378173828125
 30
0.0
 11
25.114349365234375
 21
54.30000305175781
 31
0.0
  0
LINE
  8
0
 10
25.114349365234375
 20
54.30000305175781
 30
0.0
 11
24.954513549804688
 21
53.91410827636719
 31
0.0
  0
LINE
  8
0
 10
24.954513549804688
 20
53.91410827636719
 30
0.0
 11
24.899993896484375
 21
53.5
 31
0.0
  0
LINE
  8
0
 10
24.899993896484375
 20
48.5
 30
0.0
 11
24.954513549804688
 21
48.08589172363281
 31
0.0
  0
LINE
  8
0
 10
24.954513549804688
 20
48.08589172363281
 30
0.0
 11
25.114349365234375
 21
47.69999694824219
 31
0.0
  0
LINE
  8
0
 10
25.114349365234375
 20
47.69999694824219
 30
0.0
 11
25.368621826171875
 21
47.368621826171875
 31
0.0
  0
LINE
  8
0
 10
25.368621826171875
 20
47.368621826171875
 30
0.0
 11
25.699981689453125
 21
47.114349365234375
 31
0.0
  0
LINE
  8
0
 10
25.699981689453125
 20
47.114349365234375
 30
0.0
 11
26.08587646484375
 21
46.95452880859375
 31
0.0
  0
LINE
  8
0
 10
26.08587646484375
 20
46.95452880859375
 30
0.0
 11
26.499984741210938
 21
46.899993896484375
 31
0.0
  0
LINE
  8
0
 10
24.899993896484375
 20
53.5
 30
0.0
 11
24.899993896484375
 21
48.5
 31
0.0
  0
LINE
  8
0
 10
31.099990844726562
 20
53.5
 30
0.0
 11
31.04547119140625
 21
53.91410827636719
 31
0.0
  0
LINE
  8
0
 10
31.04547119140625
 20
53.91410827636719
 30
0.0
 11
30.885635375976562
 21
54.29998779296875
 31
0.0
  0
LINE
  8
0
 10
30.885635375976562
 20
54.29998779296875
 30
0.0
 11
30.631362915039062
 21
54.631378173828125
 31
0.0
  0
LINE
  8
0
 10
30.631362915039062
 20
54.631378173828125
 30
0.0
 11
30.29999542236328
 21
54.885650634765625
 31
0.0
  0
LINE
  8
0
 10
30.29999542236328
 20
54.885650634765625
 30
0.0
 11
29.914100646972656
 21
55.04547119140625
 31
0.0
  0
LINE
  8
0
 10
29.914100646972656
 20
55.04547119140625
 30
0.0
 11
29.49999237060547
 21
55.100006103515625
 31
0.0
  0
LINE
  8
0
 10
29.499984741210938
 20
46.899993896484375
 30
0.0
 11
29.914093017578125
 21
46.95452880859375
 31
0.0
  0
LINE
  8
0
 10
29.914093017578125
 20
46.95452880859375
 30
0.0
 11
30.29998779296875
 21
47.114349365234375
 31
0.0
  0
LINE
  8
0
 10
30.29998779296875
 20
47.114349365234375
 30
0.0
 11
30.631362915039062
 21
47.368621826171875
 31
0.0
  0
LINE
  8
0
 10
30.631362915039062
 20
47.368621826171875
 30
0.0
 11
30.885635375976562
 21
47.69999694824219
 31
0.0
  0
LINE
  8
0
 10
30.885635375976562
 20
47.69999694824219
 30
0.0
 11
31.04547119140625
 21
48.08587646484375
 31
0.0
  0
LINE
  8
0
 10
31.099990844726562
 20
48.5
 30
0.0
 11
31.04547119140625
 21
48.08587646484375
 31
0.0
  0
LINE
  8
0
 10
31.099990844726562
 20
53.5
 30
0.0
 11
31.099990844726562
 21
48.5
 31
0.0
  0
LINE
  8
0
 10
26.499984741210938
 20
55.100006103515625
 30
0.0
 11
29.49999237060547
 21
55.100006103515625
 31
0.0
  0
LINE
  8
0
 10
26.499984741210938
 20
46.899993896484375
 30
0.0
 11
29.499984741210938
 21
46.899993896484375
 31
0.0
  0
LINE
  8
0
 10
42.49999237060547
 20
55.100006103515625
 30
0.0
 11
42.08588409423828
 21
55.04547119140625
 31
0.0
  0
LINE
  8
0
 10
42.08588409423828
 20
55.04547119140625
 30
0.0
 11
41.69999694824219
 21
54.885650634765625
 31
0.0
  0
LINE
  8
0
 10
41.69999694824219
 20
54.885650634765625
 30
0.0
 11
41.368621826171875
 21
54.631378173828125
 31
0.0
  0
LINE
  8
0
 10
41.368621826171875
 20
54.631378173828125
 30
0.0
 11
41.114356994628906
 21
54.30000305175781
 31
0.0
  0
LINE
  8
0
 10
41.114356994628906
 20
54.30000305175781
 30
0.0
 11
40.95451354980469
 21
53.91412353515625
 31
0.0
  0
LINE
  8
0
 10
40.95451354980469
 20
53.91412353515625
 30
0.0
 11
40.899993896484375
 21
53.5
 31
0.0
  0
LINE
  8
0
 10
40.899993896484375
 20
48.5
 30
0.0
 11
40.95451354980469
 21
48.085906982421875
 31
0.0
  0
LINE
  8
0
 10
40.95451354980469
 20
48.085906982421875
 30
0.0
 11
41.114356994628906
 21
47.69999694824219
 31
0.0
  0
LINE
  8
0
 10
41.114356994628906
 20
47.69999694824219
 30
0.0
 11
41.368621826171875
 21
47.368621826171875
 31
0.0
  0
LINE
  8
0
 10
41.368621826171875
 20
47.368621826171875
 30
0.0
 11
41.69999694824219
 21
47.114349365234375
 31
0.0
  0
LINE
  8
0
 10
41.69999694824219
 20
47.114349365234375
 30
0.0
 11
42.08588409423828
 21
46.95452880859375
 31
0.0
  0
LINE
  8
0
 10
42.08588409423828
 20
46.95452880859375
 30
0.0
 11
42.49999237060547
 21
46.899993896484375
 31
0.0
  0
LINE
  8
0
 10
40.899993896484375
 20
53.5
 30
0.0
 11
40.899993896484375
 21
48.5
 31
0.0
  0
LINE
  8
0
 10
47.099998474121094
 20
53.5
 30
0.0
 11
47.04547882080078
 21
53.91410827636719
 31
0.0
  0
LINE
  8
0
 10
47.04547882080078
 20
53.91410827636719
 30
0.0
 11
46.88563537597656
 21
54.29998779296875
 31
0.0
  0
LINE
  8
0
 10
46.88563537597656
 20
54.29998779296875
 30
0.0
 11
46.63136291503906
 21
54.631378173828125
 31
0.0
  0
LINE
  8
0
 10
46.63136291503906
 20
54.631378173828125
 30
0.0
 11
46.29999542236328
 21
54.885650634765625
 31
0.0
  0
LINE
  8
0
 10
46.29999542236328
 20
54.885650634765625
 30
0.0
 11
45.91410827636719
 21
55.04547119140625
 31
0.0
  0
LINE
  8
0
 10
45.91410827636719
 20
55.04547119140625
 30
0.0
 11
45.49999237060547
 21
55.100006103515625
 31
0.0
  0
LINE
  8
0
 10
45.49999237060547
 20
46.899993896484375
 30
0.0
 11
45.91410827636719
 21
46.95452880859375
 31
0.0
  0
LINE
  8
0
 10
45.91410827636719
 20
46.95452880859375
 30
0.0
 11
46.29999542236328
 21
47.114349365234375
 31
0.0
  0
LINE
  8
0
 10
46.29999542236328
 20
47.114349365234375
 30
0.0
 11
46.63136291503906
 21
47.368621826171875
 31
0.0
  0
LINE
  8
0
 10
46.63136291503906
 20
47.368621826171875
 30
0.0
 11
46.88563537597656
 21
47.70001220703125
 31
0.0
  0
LINE
  8
0
 10
46.88563537597656
 20
47.70001220703125
 30
0.0
 11
47.04547882080078
 21
48.08587646484375
 31
0.0
  0
LINE
  8
0
 10
47.099998474121094
 20
48.5
 30
0.0
 11
47.04547882080078
 21
48.08587646484375
 31
0.0
  0
LINE
  8
0
 10
47.099998474121094
 20
53.5
 30
0.0
 11
47.099998474121094
 21
48.5
 31
0.0
  0
LINE
  8
0
 10
42.49999237060547
 20
55.100006103515625
 30
0.0
 11
45.49999237060547
 21
55.100006103515625
 31
0.0
  0
LINE
  8
0
 10
42.49999237060547
 20
46.899993896484375
 30
0.0
 11
45.49999237060547
 21
46.899993896484375
 31
0.0
  0
LINE
  8
0
 10
34.49999237060547
 20
55.100006103515625
 30
0.0
 11
34.08588409423828
 21
55.04547119140625
 31
0.0
  0
LINE
  8
0
 10
34.08588409423828
 20
55.04547119140625
 30
0.0
 11
33.69999694824219
 21
54.885650634765625
 31
0.0
  0
LINE
  8
0
 10
33.69999694824219
 20
54.885650634765625
 30
0.0
 11
33.368621826171875
 21
54.631378173828125
 31
0.0
  0
LINE
  8
0
 10
33.368621826171875
 20
54.631378173828125
 30
0.0
 11
33.114356994628906
 21
54.30000305175781
 31
0.0
  0
LINE
  8
0
 10
33.114356994628906
 20
54.30000305175781
 30
0.0
 11
32.95451354980469
 21
53.91412353515625
 31
0.0
  0
LINE
  8
0
 10
32.95451354980469
 20
53.91412353515625
 30
0.0
 11
32.899993896484375
 21
53.5
 31
0.0
  0
LINE
  8
0
 10
32.899993896484375
 20
48.5
 30
0.0
 11
32.95451354980469
 21
48.085906982421875
 31
0.0
  0
LINE
  8
0
 10
32.95451354980469
 20
48.085906982421875
 30
0.0
 11
33.11436462402344
 21
47.69999694824219
 31
0.0
  0
LINE
  8
0
 10
33.11436462402344
 20
47.69999694824219
 30
0.0
 11
33.368621826171875
 21
47.368621826171875
 31
0.0
  0
LINE
  8
0
 10
33.368621826171875
 20
47.368621826171875
 30
0.0
 11
33.69999694824219
 21
47.114349365234375
 31
0.0
  0
LINE
  8
0
 10
33.69999694824219
 20
47.114349365234375
 30
0.0
 11
34.08587646484375
 21
46.95452880859375
 31
0.0
  0
LINE
  8
0
 10
34.08587646484375
 20
46.95452880859375
 30
0.0
 11
34.5
 21
46.899993896484375
 31
0.0
  0
LINE
  8
0
 10
32.899993896484375
 20
53.5
 30
0.0
 11
32.899993896484375
 21
48.5
 31
0.0
  0
LINE
  8
0
 10
39.099998474121094
 20
53.5
 30
0.0
 11
39.04547882080078
 21
53.91410827636719
 31
0.0
  0
LINE
  8
0
 10
39.04547882080078
 20
53.91410827636719
 30
0.0
 11
38.88563537597656
 21
54.29998779296875
 31
0.0
  0
LINE
  8
0
 10
38.88563537597656
 20
54.29998779296875
 30
0.0
 11
38.63136291503906
 21
54.631378173828125
 31
0.0
  0
LINE
  8
0
 10
38.63136291503906
 20
54.631378173828125
 30
0.0
 11
38.29999542236328
 21
54.885650634765625
 31
0.0
  0
LINE
  8
0
 10
38.29999542236328
 20
54.885650634765625
 30
0.0
 11
37.91410827636719
 21
55.04547119140625
 31
0.0
  0
LINE
  8
0
 10
37.91410827636719
 20
55.04547119140625
 30
0.0
 11
37.49999237060547
 21
55.100006103515625
 31
0.0
  0
LINE
  8
0
 10
37.49999237060547
 20
46.899993896484375
 30
0.0
 11
37.91410827636719
 21
46.95452880859375
 31
0.0
  0
LINE
  8
0
 10
37.91410827636719
 20
46.95452880859375
 30
0.0
 11
38.29999542236328
 21
47.114349365234375
 31
0.0
  0
LINE
  8
0
 10
38.29999542236328
 20
47.114349365234375
 30
0.0
 11
38.63136291503906
 21
47.368621826171875
 31
0.0
  0
LINE
  8
0
 10
38.63136291503906
 20
47.368621826171875
 30
0.0
 11
38.88563537597656
 21
47.70001220703125
 31
0.0
  0
LINE
  8
0
 10
38.88563537597656
 20
47.70001220703125
 30
0.0
 11
39.04547882080078
 21
48.08587646484375
 31
0.0
  0
LINE
  8
0
 10
39.099998474121094
 20
48.5
 30
0.0
 11
39.04547882080078
 21
48.08587646484375
 31
0.0
  0
LINE
  8
0
 10
39.099998474121094
 20
53.5
 30
0.0
 11
39.099998474121094
 21
48.5
 31
0.0
  0
LINE
  8
0
 10
34.49999237060547
 20
55.100006103515625
 30
0.0
 11
37.49999237060547
 21
55.100006103515625
 31
0.0
  0
LINE
  8
0
 10
34.5
 20
46.899993896484375
 30
0.0
 11
37.49999237060547
 21
46.899993896484375
 31
0.0
  0
LINE
  8
0
 10
58.49999237060547
 20
45.100006103515625
 30
0.0
 11
58.08588409423828
 21
45.04547119140625
 31
0.0
  0
LINE
  8
0
 10
58.08588409423828
 20
45.04547119140625
 30
0.0
 11
57.69999694824219
 21
44.885650634765625
 31
0.0
  0
LINE
  8
0
 10
57.69999694824219
 20
44.885650634765625
 30
0.0
 11
57.368621826171875
 21
44.631378173828125
 31
0.0
  0
LINE
  8
0
 10
57.368621826171875
 20
44.631378173828125
 30
0.0
 11
57.114356994628906
 21
44.30000305175781
 31
0.0
  0
LINE
  8
0
 10
57.114356994628906
 20
44.30000305175781
 30
0.0
 11
56.95451354980469
 21
43.91412353515625
 31
0.0
  0
LINE
  8
0
 10
56.95451354980469
 20
43.91412353515625
 30
0.0
 11
56.899993896484375
 21
43.5
 31
0.0
  0
LINE
  8
0
 10
56.899993896484375
 20
38.5
 30
0.0
 11
56.95451354980469
 21
38.085906982421875
 31
0.0
  0
LINE
  8
0
 10
56.95451354980469
 20
38.085906982421875
 30
0.0
 11
57.114356994628906
 21
37.69999694824219
 31
0.0
  0
LINE
  8
0
 10
57.114356994628906
 20
37.69999694824219
 30
0.0
 11
57.368621826171875
 21
37.368621826171875
 31
0.0
  0
LINE
  8
0
 10
57.368621826171875
 20
37.368621826171875
 30
0.0
 11
57.69999694824219
 21
37.114349365234375
 31
0.0
  0
LINE
  8
0
 10
57.69999694824219
 20
37.114349365234375
 30
0.0
 11
58.08588409423828
 21
36.95452880859375
 31
0.0
  0
LINE
  8
0
 10
58.08588409423828
 20
36.95452880859375
 30
0.0
 11
58.49999237060547
 21
36.899993896484375
 31
0.0
  0
LINE
  8
0
 10
56.899993896484375
 20
43.5
 30
0.0
 11
56.899993896484375
 21
38.5
 31
0.0
  0
LINE
  8
0
 10
63.099998474121094
 20
43.5
 30
0.0
 11
63.04547882080078
 21
43.91410827636719
 31
0.0
  0
LINE
  8
0
 10
63.04547882080078
 20
43.91410827636719
 30
0.0
 11
62.88563537597656
 21
44.29998779296875
 31
0.0
  0
LINE
  8
0
 10
62.88563537597656
 20
44.29998779296875
 30
0.0
 11
62.63136291503906
 21
44.631378173828125
 31
0.0
  0
LINE
  8
0
 10
62.63136291503906
 20
44.631378173828125
 30
0.0
 11
62.29999542236328
 21
44.885650634765625
 31
0.0
  0
LINE
  8
0
 10
62.29999542236328
 20
44.885650634765625
 30
0.0
 11
61.91410827636719
 21
45.04547119140625
 31
0.0
  0
LINE
  8
0
 10
61.91410827636719
 20
45.04547119140625
 30
0.0
 11
61.49999237060547
 21
45.100006103515625
 31
0.0
  0
LINE
  8
0
 10
61.49999237060547
 20
36.899993896484375
 30
0.0
 11
61.91410827636719
 21
36.95452880859375
 31
0.0
  0
LINE
  8
0
 10
61.91410827636719
 20
36.95452880859375
 30
0.0
 11
62.29999542236328
 21
37.114349365234375
 31
0.0
  0
LINE
  8
0
 10
62.29999542236328
 20
37.114349365234375
 30
0.0
 11
62.63136291503906
 21
37.368621826171875
 31
0.0
  0
LINE
  8
0
 10
62.63136291503906
 20
37.368621826171875
 30
0.0
 11
62.88563537597656
 21
37.70001220703125
 31
0.0
  0
LINE
  8
0
 10
62.88563537597656
 20
37.70001220703125
 30
0.0
 11
63.04547882080078
 21
38.08587646484375
 31
0.0
  0
LINE
  8
0
 10
63.099998474121094
 20
38.5
 30
0.0
 11
63.04547882080078
 21
38.08587646484375
 31
0.0
  0
LINE
  8
0
 10
63.099998474121094
 20
43.5
 30
0.0
 11
63.099998474121094
 21
38.5
 31
0.0
  0
LINE
  8
0
 10
58.49999237060547
 20
45.100006103515625
 30
0.0
 11
61.49999237060547
 21
45.100006103515625
 31
0.0
  0
LINE
  8
0
 10
58.49999237060547
 20
36.899993896484375
 30
0.0
 11
61.49999237060547
 21
36.899993896484375
 31
0.0
  0
LINE
  8
0
 10
50.49999237060547
 20
45.100006103515625
 30
0.0
 11
50.08588409423828
 21
45.04547119140625
 31
0.0
  0
LINE
  8
0
 10
50.08588409423828
 20
45.04547119140625
 30
0.0
 11
49.69999694824219
 21
44.885650634765625
 31
0.0
  0
LINE
  8
0
 10
49.69999694824219
 20
44.885650634765625
 30
0.0
 11
49.368621826171875
 21
44.631378173828125
 31
0.0
  0
LINE
  8
0
 10
49.368621826171875
 20
44.631378173828125
 30
0.0
 11
49.114356994628906
 21
44.30000305175781
 31
0.0
  0
LINE
  8
0
 10
49.114356994628906
 20
44.30000305175781
 30
0.0
 11
48.95451354980469
 21
43.91412353515625
 31
0.0
  0
LINE
  8
0
 10
48.95451354980469
 20
43.91412353515625
 30
0.0
 11
48.899993896484375
 21
43.5
 31
0.0
  0
LINE
  8
0
 10
48.899993896484375
 20
38.5
 30
0.0
 11
48.95451354980469
 21
38.085906982421875
 31
0.0
  0
LINE
  8
0
 10
48.95451354980469
 20
38.085906982421875
 30
0.0
 11
49.114356994628906
 21
37.69999694824219
 31
0.0
  0
LINE
  8
0
 10
49.114356994628906
 20
37.69999694824219
 30
0.0
 11
49.368621826171875
 21
37.368621826171875
 31
0.0
  0
LINE
  8
0
 10
49.368621826171875
 20
37.368621826171875
 30
0.0
 11
49.69999694824219
 21
37.114349365234375
 31
0.0
  0
LINE
  8
0
 10
49.69999694824219
 20
37.114349365234375
 30
0.0
 11
50.08588409423828
 21
36.95452880859375
 31
0.0
  0
LINE
  8
0
 10
50.08588409423828
 20
36.95452880859375
 30
0.0
 11
50.49999237060547
 21
36.899993896484375
 31
0.0
  0
LINE
  8
0
 10
48.899993896484375
 20
43.5
 30
0.0
 11
48.899993896484375
 21
38.5
 31
0.0
  0
LINE
  8
0
 10
55.099998474121094
 20
43.5
 30
0.0
 11
55.04547882080078
 21
43.91410827636719
 31
0.0
  0
LINE
  8
0
 10
55.04547882080078
 20
43.91410827636719
 30
0.0
 11
54.88563537597656
 21
44.29998779296875
 31
0.0
  0
LINE
  8
0
 10
54.88563537597656
 20
44.29998779296875
 30
0.0
 11
54.63136291503906
 21
44.631378173828125
 31
0.0
  0
LINE
  8
0
 10
54.63136291503906
 20
44.631378173828125
 30
0.0
 11
54.29999542236328
 21
44.885650634765625
 31
0.0
  0
LINE
  8
0
 10
54.29999542236328
 20
44.885650634765625
 30
0.0
 11
53.91410827636719
 21
45.04547119140625
 31
0.0
  0
LINE
  8
0
 10
53.91410827636719
 20
45.04547119140625
 30
0.0
 11
53.49999237060547
 21
45.100006103515625
 31
0.0
  0
LINE
  8
0
 10
53.49999237060547
 20
36.899993896484375
 30
0.0
 11
53.91410827636719
 21
36.95452880859375
 31
0.0
  0
LINE
  8
0
 10
53.91410827636719
 20
36.95452880859375
 30
0.0
 11
54.29999542236328
 21
37.114349365234375
 31
0.0
  0
LINE
  8
0
 10
54.29999542236328
 20
37.114349365234375
 30
0.0
 11
54.63136291503906
 21
37.368621826171875
 31
0.0
  0
LINE
  8
0
 10
54.63136291503906
 20
37.368621826171875
 30
0.0
 11
54.88563537597656
 21
37.70001220703125
 31
0.0
  0
LINE
  8
0
 10
54.88563537597656
 20
37.70001220703125
 30
0.0
 11
55.04547882080078
 21
38.08587646484375
 31
0.0
  0
LINE
  8
0
 10
55.099998474121094
 20
38.5
 30
0.0
 11
55.04547882080078
 21
38.08587646484375
 31
0.0
  0
LINE
  8
0
 10
55.099998474121094
 20
43.5
 30
0.0
 11
55.099998474121094
 21
38.5
 31
0.0
  0
LINE
  8
0
 10
50.49999237060547
 20
45.100006103515625
 30
0.0
 11
53.49999237060547
 21
45.100006103515625
 31
0.0
  0
LINE
  8
0
 10
50.49999237060547
 20
36.899993896484375
 30
0.0
 11
53.49999237060547
 21
36.899993896484375
 31
0.0
  0
LINE
  8
0
 10
26.499984741210938
 20
45.100006103515625
 30
0.0
 11
26.08587646484375
 21
45.04547119140625
 31
0.0
  0
LINE
  8
0
 10
26.08587646484375
 20
45.04547119140625
 30
0.0
 11
25.699996948242188
 21
44.885650634765625
 31
0.0
  0
LINE
  8
0
 10
25.699996948242188
 20
44.885650634765625
 30
0.0
 11
25.368621826171875
 21
44.631378173828125
 31
0.0
  0
LINE
  8
0
 10
25.368621826171875
 20
44.631378173828125
 30
0.0
 11
25.114349365234375
 21
44.30000305175781
 31
0.0
  0
LINE
  8
0
 10
25.114349365234375
 20
44.30000305175781
 30
0.0
 11
24.954513549804688
 21
43.91410827636719
 31
0.0
  0
LINE
  8
0
 10
24.954513549804688
 20
43.91410827636719
 30
0.0
 11
24.899993896484375
 21
43.5
 31
0.0
  0
LINE
  8
0
 10
24.899993896484375
 20
38.5
 30
0.0
 11
24.954513549804688
 21
38.08589172363281
 31
0.0
  0
LINE
  8
0
 10
24.954513549804688
 20
38.08589172363281
 30
0.0
 11
25.114349365234375
 21
37.69999694824219
 31
0.0
  0
LINE
  8
0
 10
25.114349365234375
 20
37.69999694824219
 30
0.0
 11
25.368621826171875
 21
37.368621826171875
 31
0.0
  0
LINE
  8
0
 10
25.368621826171875
 20
37.368621826171875
 30
0.0
 11
25.699981689453125
 21
37.114349365234375
 31
0.0
  0
LINE
  8
0
 10
25.699981689453125
 20
37.114349365234375
 30
0.0
 11
26.08587646484375
 21
36.95452880859375
 31
0.0
  0
LINE
  8
0
 10
26.08587646484375
 20
36.95452880859375
 30
0.0
 11
26.499984741210938
 21
36.899993896484375
 31
0.0
  0
LINE
  8
0
 10
24.899993896484375
 20
43.5
 30
0.0
 11
24.899993896484375
 21
38.5
 31
0.0
  0
LINE
  8
0
 10
31.099990844726562
 20
43.5
 30
0.0
 11
31.04547119140625
 21
43.91410827636719
 31
0.0
  0
LINE
  8
0
 10
31.04547119140625
 20
43.91410827636719
 30
0.0
 11
30.885635375976562
 21
44.29998779296875
 31
0.0
  0
LINE
  8
0
 10
30.885635375976562
 20
44.29998779296875
 30
0.0
 11
30.631362915039062
 21
44.631378173828125
 31
0.0
  0
LINE
  8
0
 10
30.631362915039062
 20
44.631378173828125
 30
0.0
 11
30.29998779296875
 21
44.885650634765625
 31
0.0
  0
LINE
  8
0
 10
30.29998779296875
 20
44.885650634765625
 30
0.0
 11
29.914093017578125
 21
45.04547119140625
 31
0.0
  0
LINE
  8
0
 10
29.914093017578125
 20
45.04547119140625
 30
0.0
 11
29.499984741210938
 21
45.100006103515625
 31
0.0
  0
LINE
  8
0
 10
29.499984741210938
 20
36.899993896484375
 30
0.0
 11
29.914093017578125
 21
36.95452880859375
 31
0.0
  0
LINE
  8
0
 10
29.914093017578125
 20
36.95452880859375
 30
0.0
 11
30.29998779296875
 21
37.114349365234375
 31
0.0
  0
LINE
  8
0
 10
30.29998779296875
 20
37.114349365234375
 30
0.0
 11
30.631362915039062
 21
37.368621826171875
 31
0.0
  0
LINE
  8
0
 10
30.631362915039062
 20
37.368621826171875
 30
0.0
 11
30.885635375976562
 21
37.69999694824219
 31
0.0
  0
LINE
  8
0
 10
30.885635375976562
 20
37.69999694824219
 30
0.0
 11
31.04547119140625
 21
38.08587646484375
 31
0.0
  0
LINE
  8
0
 10
31.099990844726562
 20
38.5
 30
0.0
 11
31.04547119140625
 21
38.08587646484375
 31
0.0
  0
LINE
  8
0
 10
31.099990844726562
 20
43.5
 30
0.0
 11
31.099990844726562
 21
38.5
 31
0.0
  0
LINE
  8
0
 10
26.499984741210938
 20
45.100006103515625
 30
0.0
 11
29.499984741210938
 21
45.100006103515625
 31
0.0
  0
LINE
  8
0
 10
26.499984741210938
 20
36.899993896484375
 30
0.0
 11
29.499984741210938
 21
36.899993896484375
 31
0.0
  0
LINE
  8
0
 10
42.49999237060547
 20
45.100006103515625
 30
0.0
 11
42.08588409423828
 21
45.04547119140625
 31
0.0
  0
LINE
  8
0
 10
42.08588409423828
 20
45.04547119140625
 30
0.0
 11
41.69999694824219
 21
44.885650634765625
 31
0.0
  0
LINE
  8
0
 10
41.69999694824219
 20
44.885650634765625
 30
0.0
 11
41.368621826171875
 21
44.631378173828125
 31
0.0
  0
LINE
  8
0
 10
41.368621826171875
 20
44.631378173828125
 30
0.0
 11
41.114356994628906
 21
44.30000305175781
 31
0.0
  0
LINE
  8
0
 10
41.114356994628906
 20
44.30000305175781
 30
0.0
 11
40.95451354980469
 21
43.91412353515625
 31
0.0
  0
LINE
  8
0
 10
40.95451354980469
 20
43.91412353515625
 30
0.0
 11
40.899993896484375
 21
43.5
 31
0.0
  0
LINE
  8
0
 10
40.899993896484375
 20
38.5
 30
0.0
 11
40.95451354980469
 21
38.085906982421875
 31
0.0
  0
LINE
  8
0
 10
40.95451354980469
 20
38.085906982421875
 30
0.0
 11
41.11436462402344
 21
37.69999694824219
 31
0.0
  0
LINE
  8
0
 10
41.11436462402344
 20
37.69999694824219
 30
0.0
 11
41.368621826171875
 21
37.368621826171875
 31
0.0
  0
LINE
  8
0
 10
41.368621826171875
 20
37.368621826171875
 30
0.0
 11
41.69999694824219
 21
37.114349365234375
 31
0.0
  0
LINE
  8
0
 10
41.69999694824219
 20
37.114349365234375
 30
0.0
 11
42.08587646484375
 21
36.95452880859375
 31
0.0
  0
LINE
  8
0
 10
42.08587646484375
 20
36.95452880859375
 30
0.0
 11
42.5
 21
36.899993896484375
 31
0.0
  0
LINE
  8
0
 10
40.899993896484375
 20
43.5
 30
0.0
 11
40.899993896484375
 21
38.5
 31
0.0
  0
LINE
  8
0
 10
47.099998474121094
 20
43.5
 30
0.0
 11
47.04547882080078
 21
43.91410827636719
 31
0.0
  0
LINE
  8
0
 10
47.04547882080078
 20
43.91410827636719
 30
0.0
 11
46.88563537597656
 21
44.29998779296875
 31
0.0
  0
LINE
  8
0
 10
46.88563537597656
 20
44.29998779296875
 30
0.0
 11
46.63136291503906
 21
44.631378173828125
 31
0.0
  0
LINE
  8
0
 10
46.63136291503906
 20
44.631378173828125
 30
0.0
 11
46.29999542236328
 21
44.885650634765625
 31
0.0
  0
LINE
  8
0
 10
46.29999542236328
 20
44.885650634765625
 30
0.0
 11
45.91410827636719
 21
45.04547119140625
 31
0.0
  0
LINE
  8
0
 10
45.91410827636719
 20
45.04547119140625
 30
0.0
 11
45.49999237060547
 21
45.100006103515625
 31
0.0
  0
LINE
  8
0
 10
45.5
 20
36.899993896484375
 30
0.0
 11
45.91410827636719
 21
36.95452880859375
 31
0.0
  0
LINE
  8
0
 10
45.91410827636719
 20
36.95452880859375
 30
0.0
 11
46.29998779296875
 21
37.114349365234375
 31
0.0
  0
LINE
  8
0
 10
46.29998779296875
 20
37.114349365234375
 30
0.0
 11
46.63136291503906
 21
37.368621826171875
 31
0.0
  0
LINE
  8
0
 10
46.63136291503906
 20
37.368621826171875
 30
0.0
 11
46.88563537597656
 21
37.70001220703125
 31
0.0
  0
LINE
  8
0
 10
46.88563537597656
 20
37.70001220703125
 30
0.0
 11
47.04547882080078
 21
38.08587646484375
 31
0.0
  0
LINE
  8
0
 10
47.099998474121094
 20
38.5
 30
0.0
 11
47.04547882080078
 21
38.08587646484375
 31
0.0
  0
LINE
  8
0
 10
47.099998474121094
 20
43.5
 30
0.0
 11
47.099998474121094
 21
38.5
 31
0.0
  0
LINE
  8
0
 10
42.49999237060547
 20
45.100006103515625
 30
0.0
 11
45.49999237060547
 21
45.100006103515625
 31
0.0
  0
LINE
  8
0
 10
42.5
 20
36.899993896484375
 30
0.0
 11
45.5
 21
36.899993896484375
 31
0.0
  0
LINE
  8
0
 10
34.5
 20
45.100006103515625
 30
0.0
 11
34.08587646484375
 21
45.04547119140625
 31
0.0
  0
LINE
  8
0
 10
34.08587646484375
 20
45.04547119140625
 30
0.0
 11
33.69999694824219
 21
44.885650634765625
 31
0.0
  0
LINE
  8
0
 10
33.69999694824219
 20
44.885650634765625
 30
0.0
 11
33.368621826171875
 21
44.631378173828125
 31
0.0
  0
LINE
  8
0
 10
33.368621826171875
 20
44.631378173828125
 30
0.0
 11
33.11436462402344
 21
44.30000305175781
 31
0.0
  0
LINE
  8
0
 10
33.11436462402344
 20
44.30000305175781
 30
0.0
 11
32.95451354980469
 21
43.91412353515625
 31
0.0
  0
LINE
  8
0
 10
32.95451354980469
 20
43.91412353515625
 30
0.0
 11
32.899993896484375
 21
43.5
 31
0.0
  0
LINE
  8
0
 10
32.899993896484375
 20
38.5
 30
0.0
 11
32.95451354980469
 21
38.085906982421875
 31
0.0
  0
LINE
  8
0
 10
32.95451354980469
 20
38.085906982421875
 30
0.0
 11
33.11436462402344
 21
37.69999694824219
 31
0.0
  0
LINE
  8
0
 10
33.11436462402344
 20
37.69999694824219
 30
0.0
 11
33.368621826171875
 21
37.368621826171875
 31
0.0
  0
LINE
  8
0
 10
33.368621826171875
 20
37.368621826171875
 30
0.0
 11
33.69999694824219
 21
37.114349365234375
 31
0.0
  0
LINE
  8
0
 10
33.69999694824219
 20
37.114349365234375
 30
0.0
 11
34.08587646484375
 21
36.95452880859375
 31
0.0
  0
LINE
  8
0
 10
34.08587646484375
 20
36.95452880859375
 30
0.0
 11
34.5
 21
36.899993896484375
 31
0.0
  0
LINE
  8
0
 10
32.899993896484375
 20
43.5
 30
0.0
 11
32.899993896484375
 21
38.5
 31
0.0
  0
LINE
  8
0
 10
39.100006103515625
 20
43.5
 30
0.0
 11
39.04548645019531
 21
43.91410827636719
 31
0.0
  0
LINE
  8
0
 10
39.04548645019531
 20
43.91410827636719
 30
0.0
 11
38.88563537597656
 21
44.29998779296875
 31
0.0
  0
LINE
  8
0
 10
38.88563537597656
 20
44.29998779296875
 30
0.0
 11
38.63136291503906
 21
44.631378173828125
 31
0.0
  0
LINE
  8
0
 10
38.63136291503906
 20
44.631378173828125
 30
0.0
 11
38.29998779296875
 21
44.885650634765625
 31
0.0
  0
LINE
  8
0
 10
38.29998779296875
 20
44.885650634765625
 30
0.0
 11
37.91410827636719
 21
45.04547119140625
 31
0.0
  0
LINE
  8
0
 10
37.91410827636719
 20
45.04547119140625
 30
0.0
 11
37.5
 21
45.100006103515625
 31
0.0
  0
LINE
  8
0
 10
37.5
 20
36.899993896484375
 30
0.0
 11
37.91410827636719
 21
36.95452880859375
 31
0.0
  0
LINE
  8
0
 10
37.91410827636719
 20
36.95452880859375
 30
0.0
 11
38.29998779296875
 21
37.114349365234375
 31
0.0
  0
LINE
  8
0
 10
38.29998779296875
 20
37.114349365234375
 30
0.0
 11
38.63136291503906
 21
37.368621826171875
 31
0.0
  0
LINE
  8
0
 10
38.63136291503906
 20
37.368621826171875
 30
0.0
 11
38.88563537597656
 21
37.70001220703125
 31
0.0
  0
LINE
  8
0
 10
38.88563537597656
 20
37.70001220703125
 30
0.0
 11
39.04547119140625
 21
38.08587646484375
 31
0.0
  0
LINE
  8
0
 10
39.100006103515625
 20
38.5
 30
0.0
 11
39.04547119140625
 21
38.08587646484375
 31
0.0
  0
LINE
  8
0
 10
39.100006103515625
 20
43.5
 30
0.0
 11
39.100006103515625
 21
38.5
 31
0.0
  0
LINE
  8
0
 10
34.5
 20
45.100006103515625
 30
0.0
 11
37.5
 21
45.100006103515625
 31
0.0
  0
LINE
  8
0
 10
34.5
 20
36.899993896484375
 30
0.0
 11
37.5
 21
36.899993896484375
 31
0.0
  0
LINE
  8
0
 10
58.49999237060547
 20
35.100006103515625
 30
0.0
 11
58.08588409423828
 21
35.04547119140625
 31
0.0
  0
LINE
  8
0
 10
58.08588409423828
 20
35.04547119140625
 30
0.0
 11
57.69999694824219
 21
34.885650634765625
 31
0.0
  0
LINE
  8
0
 10
57.69999694824219
 20
34.885650634765625
 30
0.0
 11
57.368621826171875
 21
34.631378173828125
 31
0.0
  0
LINE
  8
0
 10
57.368621826171875
 20
34.631378173828125
 30
0.0
 11
57.114356994628906
 21
34.30000305175781
 31
0.0
  0
LINE
  8
0
 10
57.114356994628906
 20
34.30000305175781
 30
0.0
 11
56.95451354980469
 21
33.91412353515625
 31
0.0
  0
LINE
  8
0
 10
56.95451354980469
 20
33.91412353515625
 30
0.0
 11
56.899993896484375
 21
33.5
 31
0.0
  0
LINE
  8
0
 10
56.899993896484375
 20
28.5
 30
0.0
 11
56.95451354980469
 21
28.085906982421875
 31
0.0
  0
LINE
  8
0
 10
56.95451354980469
 20
28.085906982421875
 30
0.0
 11
57.114356994628906
 21
27.699996948242188
 31
0.0
  0
LINE
  8
0
 10
57.114356994628906
 20
27.699996948242188
 30
0.0
 11
57.368621826171875
 21
27.368621826171875
 31
0.0
  0
LINE
  8
0
 10
57.368621826171875
 20
27.368621826171875
 30
0.0
 11
57.69999694824219
 21
27.114349365234375
 31
0.0
  0
LINE
  8
0
 10
57.69999694824219
 20
27.114349365234375
 30
0.0
 11
58.08588409423828
 21
26.95452880859375
 31
0.0
  0
LINE
  8
0
 10
58.08588409423828
 20
26.95452880859375
 30
0.0
 11
58.49999237060547
 21
26.899993896484375
 31
0.0
  0
LINE
  8
0
 10
56.899993896484375
 20
33.5
 30
0.0
 11
56.899993896484375
 21
28.5
 31
0.0
  0
LINE
  8
0
 10
63.099998474121094
 20
33.5
 30
0.0
 11
63.04547882080078
 21
33.91410827636719
 31
0.0
  0
LINE
  8
0
 10
63.04547882080078
 20
33.91410827636719
 30
0.0
 11
62.88563537597656
 21
34.29998779296875
 31
0.0
  0
LINE
  8
0
 10
62.88563537597656
 20
34.29998779296875
 30
0.0
 11
62.63136291503906
 21
34.631378173828125
 31
0.0
  0
LINE
  8
0
 10
62.63136291503906
 20
34.631378173828125
 30
0.0
 11
62.29999542236328
 21
34.885650634765625
 31
0.0
  0
LINE
  8
0
 10
62.29999542236328
 20
34.885650634765625
 30
0.0
 11
61.91410827636719
 21
35.04547119140625
 31
0.0
  0
LINE
  8
0
 10
61.91410827636719
 20
35.04547119140625
 30
0.0
 11
61.49999237060547
 21
35.100006103515625
 31
0.0
  0
LINE
  8
0
 10
61.49999237060547
 20
26.899993896484375
 30
0.0
 11
61.91410827636719
 21
26.95452880859375
 31
0.0
  0
LINE
  8
0
 10
61.91410827636719
 20
26.95452880859375
 30
0.0
 11
62.29999542236328
 21
27.114349365234375
 31
0.0
  0
LINE
  8
0
 10
62.29999542236328
 20
27.114349365234375
 30
0.0
 11
62.63136291503906
 21
27.368621826171875
 31
0.0
  0
LINE
  8
0
 10
62.63136291503906
 20
27.368621826171875
 30
0.0
 11
62.88563537597656
 21
27.70001220703125
 31
0.0
  0
LINE
  8
0
 10
62.88563537597656
 20
27.70001220703125
 30
0.0
 11
63.04547882080078
 21
28.08587646484375
 31
0.0
  0
LINE
  8
0
 10
63.099998474121094
 20
28.5
 30
0.0
 11
63.04547882080078
 21
28.08587646484375
 31
0.0
  0
LINE
  8
0
 10
63.099998474121094
 20
33.5
 30
0.0
 11
63.099998474121094
 21
28.5
 31
0.0
  0
LINE
  8
0
 10
58.49999237060547
 20
35.100006103515625
 30
0.0
 11
61.49999237060547
 21
35.100006103515625
 31
0.0
  0
LINE
  8
0
 10
58.49999237060547
 20
26.899993896484375
 30
0.0
 11
61.49999237060547
 21
26.899993896484375
 31
0.0
  0
LINE
  8
0
 10
50.49999237060547
 20
35.100006103515625
 30
0.0
 11
50.08588409423828
 21
35.04547119140625
 31
0.0
  0
LINE
  8
0
 10
50.08588409423828
 20
35.04547119140625
 30
0.0
 11
49.69999694824219
 21
34.885650634765625
 31
0.0
  0
LINE
  8
0
 10
49.69999694824219
 20
34.885650634765625
 30
0.0
 11
49.368621826171875
 21
34.631378173828125
 31
0.0
  0
LINE
  8
0
 10
49.368621826171875
 20
34.631378173828125
 30
0.0
 11
49.11436462402344
 21
34.30000305175781
 31
0.0
  0
LINE
  8
0
 10
49.11436462402344
 20
34.30000305175781
 30
0.0
 11
48.95451354980469
 21
33.91412353515625
 31
0.0
  0
LINE
  8
0
 10
48.95451354980469
 20
33.91412353515625
 30
0.0
 11
48.899993896484375
 21
33.5
 31
0.0
  0
LINE
  8
0
 10
48.899993896484375
 20
28.5
 30
0.0
 11
48.95451354980469
 21
28.085906982421875
 31
0.0
  0
LINE
  8
0
 10
48.95451354980469
 20
28.085906982421875
 30
0.0
 11
49.11436462402344
 21
27.699996948242188
 31
0.0
  0
LINE
  8
0
 10
49.11436462402344
 20
27.699996948242188
 30
0.0
 11
49.368621826171875
 21
27.368621826171875
 31
0.0
  0
LINE
  8
0
 10
49.368621826171875
 20
27.368621826171875
 30
0.0
 11
49.69999694824219
 21
27.114349365234375
 31
0.0
  0
LINE
  8
0
 10
49.69999694824219
 20
27.114349365234375
 30
0.0
 11
50.08587646484375
 21
26.95452880859375
 31
0.0
  0
LINE
  8
0
 10
50.08587646484375
 20
26.95452880859375
 30
0.0
 11
50.5
 21
26.899993896484375
 31
0.0
  0
LINE
  8
0
 10
48.899993896484375
 20
33.5
 30
0.0
 11
48.899993896484375
 21
28.5
 31
0.0
  0
LINE
  8
0
 10
55.099998474121094
 20
33.5
 30
0.0
 11
55.04547882080078
 21
33.91410827636719
 31
0.0
  0
LINE
  8
0
 10
55.04547882080078
 20
33.91410827636719
 30
0.0
 11
54.88563537597656
 21
34.29998779296875
 31
0.0
  0
LINE
  8
0
 10
54.88563537597656
 20
34.29998779296875
 30
0.0
 11
54.63136291503906
 21
34.631378173828125
 31
0.0
  0
LINE
  8
0
 10
54.63136291503906
 20
34.631378173828125
 30
0.0
 11
54.29999542236328
 21
34.885650634765625
 31
0.0
  0
LINE
  8
0
 10
54.29999542236328
 20
34.885650634765625
 30
0.0
 11
53.91410827636719
 21
35.04547119140625
 31
0.0
  0
LINE
  8
0
 10
53.91410827636719
 20
35.04547119140625
 30
0.0
 11
53.49999237060547
 21
35.100006103515625
 31
0.0
  0
LINE
  8
0
 10
53.5
 20
26.899993896484375
 30
0.0
 11
53.91410827636719
 21
26.95452880859375
 31
0.0
  0
LINE
  8
0
 10
53.91410827636719
 20
26.95452880859375
 30
0.0
 11
54.29998779296875
 21
27.114349365234375
 31
0.0
  0
LINE
  8
0
 10
54.29998779296875
 20
27.114349365234375
 30
0.0
 11
54.63136291503906
 21
27.368621826171875
 31
0.0
  0
LINE
  8
0
 10
54.63136291503906
 20
27.368621826171875
 30
0.0
 11
54.88563537597656
 21
27.70001220703125
 31
0.0
  0
LINE
  8
0
 10
54.88563537597656
 20
27.70001220703125
 30
0.0
 11
55.04547119140625
 21
28.08587646484375
 31
0.0
  0
LINE
  8
0
 10
55.100006103515625
 20
28.5
 30
0.0
 11
55.04547119140625
 21
28.08587646484375
 31
0.0
  0
LINE
  8
0
 10
55.099998474121094
 20
33.5
 30
0.0
 11
55.100006103515625
 21
28.5
 31
0.0
  0
LINE
  8
0
 10
50.49999237060547
 20
35.100006103515625
 30
0.0
 11
53.49999237060547
 21
35.100006103515625
 31
0.0
  0
LINE
  8
0
 10
50.5
 20
26.899993896484375
 30
0.0
 11
53.5
 21
26.899993896484375
 31
0.0
  0
LINE
  8
0
 10
26.499984741210938
 20
35.100006103515625
 30
0.0
 11
26.08587646484375
 21
35.04547119140625
 31
0.0
  0
LINE
  8
0
 10
26.08587646484375
 20
35.04547119140625
 30
0.0
 11
25.699996948242188
 21
34.885650634765625
 31
0.0
  0
LINE
  8
0
 10
25.699996948242188
 20
34.885650634765625
 30
0.0
 11
25.368621826171875
 21
34.631378173828125
 31
0.0
  0
LINE
  8
0
 10
25.368621826171875
 20
34.631378173828125
 30
0.0
 11
25.114349365234375
 21
34.30000305175781
 31
0.0
  0
LINE
  8
0
 10
25.114349365234375
 20
34.30000305175781
 30
0.0
 11
24.954513549804688
 21
33.91410827636719
 31
0.0
  0
LINE
  8
0
 10
24.954513549804688
 20
33.91410827636719
 30
0.0
 11
24.899993896484375
 21
33.5
 31
0.0
  0
LINE
  8
0
 10
24.899993896484375
 20
28.5
 30
0.0
 11
24.954513549804688
 21
28.085891723632812
 31
0.0
  0
LINE
  8
0
 10
24.954513549804688
 20
28.085891723632812
 30
0.0
 11
25.114349365234375
 21
27.699996948242188
 31
0.0
  0
LINE
  8
0
 10
25.114349365234375
 20
27.699996948242188
 30
0.0
 11
25.368621826171875
 21
27.368621826171875
 31
0.0
  0
LINE
  8
0
 10
25.368621826171875
 20
27.368621826171875
 30
0.0
 11
25.699981689453125
 21
27.114349365234375
 31
0.0
  0
LINE
  8
0
 10
25.699981689453125
 20
27.114349365234375
 30
0.0
 11
26.08587646484375
 21
26.95452880859375
 31
0.0
  0
LINE
  8
0
 10
26.08587646484375
 20
26.95452880859375
 30
0.0
 11
26.499984741210938
 21
26.899993896484375
 31
0.0
  0
LINE
  8
0
 10
24.899993896484375
 20
33.5
 30
0.0
 11
24.899993896484375
 21
28.5
 31
0.0
  0
LINE
  8
0
 10
31.099990844726562
 20
33.5
 30
0.0
 11
31.04547119140625
 21
33.91410827636719
 31
0.0
  0
LINE
  8
0
 10
31.04547119140625
 20
33.91410827636719
 30
0.0
 11
30.885635375976562
 21
34.29998779296875
 31
0.0
  0
LINE
  8
0
 10
30.885635375976562
 20
34.29998779296875
 30
0.0
 11
30.631362915039062
 21
34.631378173828125
 31
0.0
  0
LINE
  8
0
 10
30.631362915039062
 20
34.631378173828125
 30
0.0
 11
30.29998779296875
 21
34.885650634765625
 31
0.0
  0
LINE
  8
0
 10
30.29998779296875
 20
34.885650634765625
 30
0.0
 11
29.914093017578125
 21
35.04547119140625
 31
0.0
  0
LINE
  8
0
 10
29.914093017578125
 20
35.04547119140625
 30
0.0
 11
29.499984741210938
 21
35.100006103515625
 31
0.0
  0
LINE
  8
0
 10
29.499984741210938
 20
26.899993896484375
 30
0.0
 11
29.914093017578125
 21
26.95452880859375
 31
0.0
  0
LINE
  8
0
 10
29.914093017578125
 20
26.95452880859375
 30
0.0
 11
30.29998779296875
 21
27.114349365234375
 31
0.0
  0
LINE
  8
0
 10
30.29998779296875
 20
27.114349365234375
 30
0.0
 11
30.631362915039062
 21
27.368621826171875
 31
0.0
  0
LINE
  8
0
 10
30.631362915039062
 20
27.368621826171875
 30
0.0
 11
30.885635375976562
 21
27.699996948242188
 31
0.0
  0
LINE
  8
0
 10
30.885635375976562
 20
27.699996948242188
 30
0.0
 11
31.04547119140625
 21
28.08587646484375
 31
0.0
  0
LINE
  8
0
 10
31.099990844726562
 20
28.5
 30
0.0
 11
31.04547119140625
 21
28.08587646484375
 31
0.0
  0
LINE
  8
0
 10
31.099990844726562
 20
33.5
 30
0.0
 11
31.099990844726562
 21
28.5
 31
0.0
  0
LINE
  8
0
 10
26.499984741210938
 20
35.100006103515625
 30
0.0
 11
29.499984741210938
 21
35.100006103515625
 31
0.0
  0
LINE
  8
0
 10
26.499984741210938
 20
26.899993896484375
 30
0.0
 11
29.499984741210938
 21
26.899993896484375
 31
0.0
  0
LINE
  8
0
 10
42.5
 20
35.100006103515625
 30
0.0
 11
42.08587646484375
 21
35.04547119140625
 31
0.0
  0
LINE
  8
0
 10
42.08587646484375
 20
35.04547119140625
 30
0.0
 11
41.69999694824219
 21
34.885650634765625
 31
0.0
  0
LINE
  8
0
 10
41.69999694824219
 20
34.885650634765625
 30
0.0
 11
41.368621826171875
 21
34.631378173828125
 31
0.0
  0
LINE
  8
0
 10
41.368621826171875
 20
34.631378173828125
 30
0.0
 11
41.11436462402344
 21
34.30000305175781
 31
0.0
  0
LINE
  8
0
 10
41.11436462402344
 20
34.30000305175781
 30
0.0
 11
40.95451354980469
 21
33.91412353515625
 31
0.0
  0
LINE
  8
0
 10
40.95451354980469
 20
33.91412353515625
 30
0.0
 11
40.899993896484375
 21
33.5
 31
0.0
  0
LINE
  8
0
 10
40.899993896484375
 20
28.5
 30
0.0
 11
40.95451354980469
 21
28.085906982421875
 31
0.0
  0
LINE
  8
0
 10
40.95451354980469
 20
28.085906982421875
 30
0.0
 11
41.11436462402344
 21
27.699996948242188
 31
0.0
  0
LINE
  8
0
 10
41.11436462402344
 20
27.699996948242188
 30
0.0
 11
41.368621826171875
 21
27.368621826171875
 31
0.0
  0
LINE
  8
0
 10
41.368621826171875
 20
27.368621826171875
 30
0.0
 11
41.69999694824219
 21
27.114349365234375
 31
0.0
  0
LINE
  8
0
 10
41.69999694824219
 20
27.114349365234375
 30
0.0
 11
42.08587646484375
 21
26.95452880859375
 31
0.0
  0
LINE
  8
0
 10
42.08587646484375
 20
26.95452880859375
 30
0.0
 11
42.5
 21
26.899993896484375
 31
0.0
  0
LINE
  8
0
 10
40.899993896484375
 20
33.5
 30
0.0
 11
40.899993896484375
 21
28.5
 31
0.0
  0
LINE
  8
0
 10
47.100006103515625
 20
33.5
 30
0.0
 11
47.04548645019531
 21
33.91410827636719
 31
0.0
  0
LINE
  8
0
 10
47.04548645019531
 20
33.91410827636719
 30
0.0
 11
46.88563537597656
 21
34.29998779296875
 31
0.0
  0
LINE
  8
0
 10
46.88563537597656
 20
34.29998779296875
 30
0.0
 11
46.63136291503906
 21
34.631378173828125
 31
0.0
  0
LINE
  8
0
 10
46.63136291503906
 20
34.631378173828125
 30
0.0
 11
46.29998779296875
 21
34.885650634765625
 31
0.0
  0
LINE
  8
0
 10
46.29998779296875
 20
34.885650634765625
 30
0.0
 11
45.91410827636719
 21
35.04547119140625
 31
0.0
  0
LINE
  8
0
 10
45.91410827636719
 20
35.04547119140625
 30
0.0
 11
45.5
 21
35.100006103515625
 31
0.0
  0
LINE
  8
0
 10
45.5
 20
26.899993896484375
 30
0.0
 11
45.91410827636719
 21
26.95452880859375
 31
0.0
  0
LINE
  8
0
 10
45.91410827636719
 20
26.95452880859375
 30
0.0
 11
46.29998779296875
 21
27.114349365234375
 31
0.0
  0
LINE
  8
0
 10
46.29998779296875
 20
27.114349365234375
 30
0.0
 11
46.63136291503906
 21
27.368621826171875
 31
0.0
  0
LINE
  8
0
 10
46.63136291503906
 20
27.368621826171875
 30
0.0
 11
46.88563537597656
 21
27.70001220703125
 31
0.0
  0
LINE
  8
0
 10
46.88563537597656
 20
27.70001220703125
 30
0.0
 11
47.04547119140625
 21
28.08587646484375
 31
0.0
  0
LINE
  8
0
 10
47.100006103515625
 20
28.5
 30
0.0
 11
47.04547119140625
 21
28.08587646484375
 31
0.0
  0
LINE
  8
0
 10
47.100006103515625
 20
33.5
 30
0.0
 11
47.100006103515625
 21
28.5
 31
0.0
  0
LINE
  8
0
 10
42.5
 20
35.100006103515625
 30
0.0
 11
45.5
 21
35.100006103515625
 31
0.0
  0
LINE
  8
0
 10
42.5
 20
26.899993896484375
 30
0.0
 11
45.5
 21
26.899993896484375
 31
0.0
  0
LINE
  8
0
 10
34.5
 20
35.100006103515625
 30
0.0
 11
34.08587646484375
 21
35.04547119140625
 31
0.0
  0
LINE
  8
0
 10
34.08587646484375
 20
35.04547119140625
 30
0.0
 11
33.69999694824219
 21
34.885650634765625
 31
0.0
  0
LINE
  8
0
 10
33.69999694824219
 20
34.885650634765625
 30
0.0
 11
33.368621826171875
 21
34.631378173828125
 31
0.0
  0
LINE
  8
0
 10
33.368621826171875
 20
34.631378173828125
 30
0.0
 11
33.11436462402344
 21
34.30000305175781
 31
0.0
  0
LINE
  8
0
 10
33.11436462402344
 20
34.30000305175781
 30
0.0
 11
32.95451354980469
 21
33.91412353515625
 31
0.0
  0
LINE
  8
0
 10
32.95451354980469
 20
33.91412353515625
 30
0.0
 11
32.899993896484375
 21
33.5
 31
0.0
  0
LINE
  8
0
 10
32.899993896484375
 20
28.5
 30
0.0
 11
32.95451354980469
 21
28.085906982421875
 31
0.0
  0
LINE
  8
0
 10
32.95451354980469
 20
28.085906982421875
 30
0.0
 11
33.11436462402344
 21
27.699996948242188
 31
0.0
  0
LINE
  8
0
 10
33.11436462402344
 20
27.699996948242188
 30
0.0
 11
33.368621826171875
 21
27.368621826171875
 31
0.0
  0
LINE
  8
0
 10
33.368621826171875
 20
27.368621826171875
 30
0.0
 11
33.69999694824219
 21
27.114349365234375
 31
0.0
  0
LINE
  8
0
 10
33.69999694824219
 20
27.114349365234375
 30
0.0
 11
34.08587646484375
 21
26.95452880859375
 31
0.0
  0
LINE
  8
0
 10
34.08587646484375
 20
26.95452880859375
 30
0.0
 11
34.5
 21
26.899993896484375
 31
0.0
  0
LINE
  8
0
 10
32.899993896484375
 20
33.5
 30
0.0
 11
32.899993896484375
 21
28.5
 31
0.0
  0
LINE
  8
0
 10
39.100006103515625
 20
33.5
 30
0.0
 11
39.04548645019531
 21
33.91410827636719
 31
0.0
  0
LINE
  8
0
 10
39.04548645019531
 20
33.91410827636719
 30
0.0
 11
38.88563537597656
 21
34.29998779296875
 31
0.0
  0
LINE
  8
0
 10
38.88563537597656
 20
34.29998779296875
 30
0.0
 11
38.63136291503906
 21
34.631378173828125
 31
0.0
  0
LINE
  8
0
 10
38.63136291503906
 20
34.631378173828125
 30
0.0
 11
38.29998779296875
 21
34.885650634765625
 31
0.0
  0
LINE
  8
0
 10
38.29998779296875
 20
34.885650634765625
 30
0.0
 11
37.91410827636719
 21
35.04547119140625
 31
0.0
  0
LINE
  8
0
 10
37.91410827636719
 20
35.04547119140625
 30
0.0
 11
37.5
 21
35.100006103515625
 31
0.0
  0
LINE
  8
0
 10
37.5
 20
26.899993896484375
 30
0.0
 11
37.91410827636719
 21
26.95452880859375
 31
0.0
  0
LINE
  8
0
 10
37.91410827636719
 20
26.95452880859375
 30
0.0
 11
38.29998779296875
 21
27.114349365234375
 31
0.0
  0
LINE
  8
0
 10
38.29998779296875
 20
27.114349365234375
 30
0.0
 11
38.63136291503906
 21
27.368621826171875
 31
0.0
  0
LINE
  8
0
 10
38.63136291503906
 20
27.368621826171875
 30
0.0
 11
38.88563537597656
 21
27.70001220703125
 31
0.0
  0
LINE
  8
0
 10
38.88563537597656
 20
27.70001220703125
 30
0.0
 11
39.04547119140625
 21
28.08587646484375
 31
0.0
  0
LINE
  8
0
 10
39.100006103515625
 20
28.5
 30
0.0
 11
39.04547119140625
 21
28.08587646484375
 31
0.0
  0
LINE
  8
0
 10
39.100006103515625
 20
33.5
 30
0.0
 11
39.100006103515625
 21
28.5
 31
0.0
  0
LINE
  8
0
 10
34.5
 20
35.100006103515625
 30
0.0
 11
37.5
 21
35.100006103515625
 31
0.0
  0
LINE
  8
0
 10
34.5
 20
26.899993896484375
 30
0.0
 11
37.5
 21
26.899993896484375
 31
0.0
  0
LINE
  8
0
 10
58.5
 20
25.100006103515625
 30
0.0
 11
58.08587646484375
 21
25.04547119140625
 31
0.0
  0
LINE
  8
0
 10
58.08587646484375
 20
25.04547119140625
 30
0.0
 11
57.69999694824219
 21
24.885650634765625
 31
0.0
  0
LINE
  8
0
 10
57.69999694824219
 20
24.885650634765625
 30
0.0
 11
57.368621826171875
 21
24.631378173828125
 31
0.0
  0
LINE
  8
0
 10
57.368621826171875
 20
24.631378173828125
 30
0.0
 11
57.11436462402344
 21
24.300003051757812
 31
0.0
  0
LINE
  8
0
 10
57.11436462402344
 20
24.300003051757812
 30
0.0
 11
56.95451354980469
 21
23.91412353515625
 31
0.0
  0
LINE
  8
0
 10
56.95451354980469
 20
23.91412353515625
 30
0.0
 11
56.899993896484375
 21
23.5
 31
0.0
  0
LINE
  8
0
 10
56.899993896484375
 20
18.5
 30
0.0
 11
56.95451354980469
 21
18.085906982421875
 31
0.0
  0
LINE
  8
0
 10
56.95451354980469
 20
18.085906982421875
 30
0.0
 11
57.11436462402344
 21
17.699996948242188
 31
0.0
  0
LINE
  8
0
 10
57.11436462402344
 20
17.699996948242188
 30
0.0
 11
57.368621826171875
 21
17.368621826171875
 31
0.0
  0
LINE
  8
0
 10
57.368621826171875
 20
17.368621826171875
 30
0.0
 11
57.69999694824219
 21
17.114349365234375
 31
0.0
  0
LINE
  8
0
 10
57.69999694824219
 20
17.114349365234375
 30
0.0
 11
58.08587646484375
 21
16.95452880859375
 31
0.0
  0
LINE
  8
0
 10
58.08587646484375
 20
16.95452880859375
 30
0.0
 11
58.5
 21
16.899993896484375
 31
0.0
  0
LINE
  8
0
 10
56.899993896484375
 20
23.5
 30
0.0
 11
56.899993896484375
 21
18.5
 31
0.0
  0
LINE
  8
0
 10
63.099998474121094
 20
23.5
 30
0.0
 11
63.04547882080078
 21
23.914108276367188
 31
0.0
  0
LINE
  8
0
 10
63.04547882080078
 20
23.914108276367188
 30
0.0
 11
62.88563537597656
 21
24.29998779296875
 31
0.0
  0
LINE
  8
0
 10
62.88563537597656
 20
24.29998779296875
 30
0.0
 11
62.63136291503906
 21
24.631378173828125
 31
0.0
  0
LINE
  8
0
 10
62.63136291503906
 20
24.631378173828125
 30
0.0
 11
62.29999542236328
 21
24.885650634765625
 31
0.0
  0
LINE
  8
0
 10
62.29999542236328
 20
24.885650634765625
 30
0.0
 11
61.91410827636719
 21
25.04547119140625
 31
0.0
  0
LINE
  8
0
 10
61.91410827636719
 20
25.04547119140625
 30
0.0
 11
61.49999237060547
 21
25.100006103515625
 31
0.0
  0
LINE
  8
0
 10
61.5
 20
16.899993896484375
 30
0.0
 11
61.91410827636719
 21
16.95452880859375
 31
0.0
  0
LINE
  8
0
 10
61.91410827636719
 20
16.95452880859375
 30
0.0
 11
62.29998779296875
 21
17.114334106445312
 31
0.0
  0
LINE
  8
0
 10
62.29998779296875
 20
17.114334106445312
 30
0.0
 11
62.63136291503906
 21
17.368621826171875
 31
0.0
  0
LINE
  8
0
 10
62.63136291503906
 20
17.368621826171875
 30
0.0
 11
62.88563537597656
 21
17.70001220703125
 31
0.0
  0
LINE
  8
0
 10
62.88563537597656
 20
17.70001220703125
 30
0.0
 11
63.04547119140625
 21
18.085891723632812
 31
0.0
  0
LINE
  8
0
 10
63.100006103515625
 20
18.5
 30
0.0
 11
63.04547119140625
 21
18.085891723632812
 31
0.0
  0
LINE
  8
0
 10
63.099998474121094
 20
23.5
 30
0.0
 11
63.100006103515625
 21
18.5
 31
0.0
  0
LINE
  8
0
 10
58.5
 20
25.100006103515625
 30
0.0
 11
61.49999237060547
 21
25.100006103515625
 31
0.0
  0
LINE
  8
0
 10
58.5
 20
16.899993896484375
 30
0.0
 11
61.5
 21
16.899993896484375
 31
0.0
  0
LINE
  8
0
 10
50.5
 20
25.100006103515625
 30
0.0
 11
50.08587646484375
 21
25.04547119140625
 31
0.0
  0
LINE
  8
0
 10
50.08587646484375
 20
25.04547119140625
 30
0.0
 11
49.69999694824219
 21
24.885650634765625
 31
0.0
  0
LINE
  8
0
 10
49.69999694824219
 20
24.885650634765625
 30
0.0
 11
49.368621826171875
 21
24.631378173828125
 31
0.0
  0
LINE
  8
0
 10
49.368621826171875
 20
24.631378173828125
 30
0.0
 11
49.11436462402344
 21
24.300003051757812
 31
0.0
  0
LINE
  8
0
 10
49.11436462402344
 20
24.300003051757812
 30
0.0
 11
48.95451354980469
 21
23.91412353515625
 31
0.0
  0
LINE
  8
0
 10
48.95451354980469
 20
23.91412353515625
 30
0.0
 11
48.899993896484375
 21
23.5
 31
0.0
  0
LINE
  8
0
 10
48.899993896484375
 20
18.5
 30
0.0
 11
48.95451354980469
 21
18.085906982421875
 31
0.0
  0
LINE
  8
0
 10
48.95451354980469
 20
18.085906982421875
 30
0.0
 11
49.11436462402344
 21
17.699996948242188
 31
0.0
  0
LINE
  8
0
 10
49.11436462402344
 20
17.699996948242188
 30
0.0
 11
49.368621826171875
 21
17.368621826171875
 31
0.0
  0
LINE
  8
0
 10
49.368621826171875
 20
17.368621826171875
 30
0.0
 11
49.69999694824219
 21
17.114349365234375
 31
0.0
  0
LINE
  8
0
 10
49.69999694824219
 20
17.114349365234375
 30
0.0
 11
50.08587646484375
 21
16.95452880859375
 31
0.0
  0
LINE
  8
0
 10
50.08587646484375
 20
16.95452880859375
 30
0.0
 11
50.5
 21
16.899993896484375
 31
0.0
  0
LINE
  8
0
 10
48.899993896484375
 20
23.5
 30
0.0
 11
48.899993896484375
 21
18.5
 31
0.0
  0
LINE
  8
0
 10
55.100006103515625
 20
23.5
 30
0.0
 11
55.04548645019531
 21
23.914108276367188
 31
0.0
  0
LINE
  8
0
 10
55.04548645019531
 20
23.914108276367188
 30
0.0
 11
54.88563537597656
 21
24.29998779296875
 31
0.0
  0
LINE
  8
0
 10
54.88563537597656
 20
24.29998779296875
 30
0.0
 11
54.63136291503906
 21
24.631378173828125
 31
0.0
  0
LINE
  8
0
 10
54.63136291503906
 20
24.631378173828125
 30
0.0
 11
54.29998779296875
 21
24.885650634765625
 31
0.0
  0
LINE
  8
0
 10
54.29998779296875
 20
24.885650634765625
 30
0.0
 11
53.91410827636719
 21
25.04547119140625
 31
0.0
  0
LINE
  8
0
 10
53.91410827636719
 20
25.04547119140625
 30
0.0
 11
53.5
 21
25.100006103515625
 31
0.0
  0
LINE
  8
0
 10
53.5
 20
16.899993896484375
 30
0.0
 11
53.91410827636719
 21
16.95452880859375
 31
0.0
  0
LINE
  8
0
 10
53.91410827636719
 20
16.95452880859375
 30
0.0
 11
54.29998779296875
 21
17.114349365234375
 31
0.0
  0
LINE
  8
0
 10
54.29998779296875
 20
17.114349365234375
 30
0.0
 11
54.63136291503906
 21
17.368621826171875
 31
0.0
  0
LINE
  8
0
 10
54.63136291503906
 20
17.368621826171875
 30
0.0
 11
54.88563537597656
 21
17.70001220703125
 31
0.0
  0
LINE
  8
0
 10
54.88563537597656
 20
17.70001220703125
 30
0.0
 11
55.04547119140625
 21
18.08587646484375
 31
0.0
  0
LINE
  8
0
 10
55.100006103515625
 20
18.5
 30
0.0
 11
55.04547119140625
 21
18.08587646484375
 31
0.0
  0
LINE
  8
0
 10
55.100006103515625
 20
23.5
 30
0.0
 11
55.100006103515625
 21
18.5
 31
0.0
  0
LINE
  8
0
 10
50.5
 20
25.100006103515625
 30
0.0
 11
53.5
 21
25.100006103515625
 31
0.0
  0
LINE
  8
0
 10
50.5
 20
16.899993896484375
 30
0.0
 11
53.5
 21
16.899993896484375
 31
0.0
  0
LINE
  8
0
 10
26.499984741210938
 20
25.100006103515625
 30
0.0
 11
26.08587646484375
 21
25.04547119140625
 31
0.0
  0
LINE
  8
0
 10
26.08587646484375
 20
25.04547119140625
 30
0.0
 11
25.699996948242188
 21
24.885650634765625
 31
0.0
  0
LINE
  8
0
 10
25.699996948242188
 20
24.885650634765625
 30
0.0
 11
25.368621826171875
 21
24.631378173828125
 31
0.0
  0
LINE
  8
0
 10
25.368621826171875
 20
24.631378173828125
 30
0.0
 11
25.114349365234375
 21
24.300003051757812
 31
0.0
  0
LINE
  8
0
 10
25.114349365234375
 20
24.300003051757812
 30
0.0
 11
24.954513549804688
 21
23.914108276367188
 31
0.0
  0
LINE
  8
0
 10
24.954513549804688
 20
23.914108276367188
 30
0.0
 11
24.899993896484375
 21
23.5
 31
0.0
  0
LINE
  8
0
 10
24.899993896484375
 20
18.5
 30
0.0
 11
24.954513549804688
 21
18.085891723632812
 31
0.0
  0
LINE
  8
0
 10
24.954513549804688
 20
18.085891723632812
 30
0.0
 11
25.114349365234375
 21
17.699996948242188
 31
0.0
  0
LINE
  8
0
 10
25.114349365234375
 20
17.699996948242188
 30
0.0
 11
25.368621826171875
 21
17.368621826171875
 31
0.0
  0
LINE
  8
0
 10
25.368621826171875
 20
17.368621826171875
 30
0.0
 11
25.699981689453125
 21
17.114349365234375
 31
0.0
  0
LINE
  8
0
 10
25.699981689453125
 20
17.114349365234375
 30
0.0
 11
26.08587646484375
 21
16.95452880859375
 31
0.0
  0
LINE
  8
0
 10
26.08587646484375
 20
16.95452880859375
 30
0.0
 11
26.499984741210938
 21
16.899993896484375
 31
0.0
  0
LINE
  8
0
 10
24.899993896484375
 20
23.5
 30
0.0
 11
24.899993896484375
 21
18.5
 31
0.0
  0
LINE
  8
0
 10
31.099990844726562
 20
23.5
 30
0.0
 11
31.04547119140625
 21
23.914108276367188
 31
0.0
  0
LINE
  8
0
 10
31.04547119140625
 20
23.914108276367188
 30
0.0
 11
30.885635375976562
 21
24.29998779296875
 31
0.0
  0
LINE
  8
0
 10
30.885635375976562
 20
24.29998779296875
 30
0.0
 11
30.631362915039062
 21
24.631378173828125
 31
0.0
  0
LINE
  8
0
 10
30.631362915039062
 20
24.631378173828125
 30
0.0
 11
30.29998779296875
 21
24.885650634765625
 31
0.0
  0
LINE
  8
0
 10
30.29998779296875
 20
24.885650634765625
 30
0.0
 11
29.914093017578125
 21
25.04547119140625
 31
0.0
  0
LINE
  8
0
 10
29.914093017578125
 20
25.04547119140625
 30
0.0
 11
29.499984741210938
 21
25.100006103515625
 31
0.0
  0
LINE
  8
0
 10
29.499984741210938
 20
16.899993896484375
 30
0.0
 11
29.914093017578125
 21
16.95452880859375
 31
0.0
  0
LINE
  8
0
 10
29.914093017578125
 20
16.95452880859375
 30
0.0
 11
30.29998779296875
 21
17.114349365234375
 31
0.0
  0
LINE
  8
0
 10
30.29998779296875
 20
17.114349365234375
 30
0.0
 11
30.631362915039062
 21
17.368621826171875
 31
0.0
  0
LINE
  8
0
 10
30.631362915039062
 20
17.368621826171875
 30
0.0
 11
30.885635375976562
 21
17.699996948242188
 31
0.0
  0
LINE
  8
0
 10
30.885635375976562
 20
17.699996948242188
 30
0.0
 11
31.04547119140625
 21
18.08587646484375
 31
0.0
  0
LINE
  8
0
 10
31.099990844726562
 20
18.5
 30
0.0
 11
31.04547119140625
 21
18.08587646484375
 31
0.0
  0
LINE
  8
0
 10
31.099990844726562
 20
23.5
 30
0.0
 11
31.099990844726562
 21
18.5
 31
0.0
  0
LINE
  8
0
 10
26.499984741210938
 20
25.100006103515625
 30
0.0
 11
29.499984741210938
 21
25.100006103515625
 31
0.0
  0
LINE
  8
0
 10
26.499984741210938
 20
16.899993896484375
 30
0.0
 11
29.499984741210938
 21
16.899993896484375
 31
0.0
  0
LINE
  8
0
 10
42.5
 20
25.100006103515625
 30
0.0
 11
42.08587646484375
 21
25.04547119140625
 31
0.0
  0
LINE
  8
0
 10
42.08587646484375
 20
25.04547119140625
 30
0.0
 11
41.69999694824219
 21
24.885650634765625
 31
0.0
  0
LINE
  8
0
 10
41.69999694824219
 20
24.885650634765625
 30
0.0
 11
41.368621826171875
 21
24.631378173828125
 31
0.0
  0
LINE
  8
0
 10
41.368621826171875
 20
24.631378173828125
 30
0.0
 11
41.11436462402344
 21
24.300003051757812
 31
0.0
  0
LINE
  8
0
 10
41.11436462402344
 20
24.300003051757812
 30
0.0
 11
40.95451354980469
 21
23.91412353515625
 31
0.0
  0
LINE
  8
0
 10
40.95451354980469
 20
23.91412353515625
 30
0.0
 11
40.899993896484375
 21
23.5
 31
0.0
  0
LINE
  8
0
 10
40.899993896484375
 20
18.5
 30
0.0
 11
40.95451354980469
 21
18.085906982421875
 31
0.0
  0
LINE
  8
0
 10
40.95451354980469
 20
18.085906982421875
 30
0.0
 11
41.11436462402344
 21
17.699996948242188
 31
0.0
  0
LINE
  8
0
 10
41.11436462402344
 20
17.699996948242188
 30
0.0
 11
41.368621826171875
 21
17.368621826171875
 31
0.0
  0
LINE
  8
0
 10
41.368621826171875
 20
17.368621826171875
 30
0.0
 11
41.69999694824219
 21
17.114349365234375
 31
0.0
  0
LINE
  8
0
 10
41.69999694824219
 20
17.114349365234375
 30
0.0
 11
42.08587646484375
 21
16.95452880859375
 31
0.0
  0
LINE
  8
0
 10
42.08587646484375
 20
16.95452880859375
 30
0.0
 11
42.5
 21
16.899993896484375
 31
0.0
  0
LINE
  8
0
 10
40.899993896484375
 20
23.5
 30
0.0
 11
40.899993896484375
 21
18.5
 31
0.0
  0
LINE
  8
0
 10
47.100006103515625
 20
23.5
 30
0.0
 11
47.04548645019531
 21
23.914108276367188
 31
0.0
  0
LINE
  8
0
 10
47.04548645019531
 20
23.914108276367188
 30
0.0
 11
46.88563537597656
 21
24.29998779296875
 31
0.0
  0
LINE
  8
0
 10
46.88563537597656
 20
24.29998779296875
 30
0.0
 11
46.63136291503906
 21
24.631378173828125
 31
0.0
  0
LINE
  8
0
 10
46.63136291503906
 20
24.631378173828125
 30
0.0
 11
46.29998779296875
 21
24.885650634765625
 31
0.0
  0
LINE
  8
0
 10
46.29998779296875
 20
24.885650634765625
 30
0.0
 11
45.91410827636719
 21
25.04547119140625
 31
0.0
  0
LINE
  8
0
 10
45.91410827636719
 20
25.04547119140625
 30
0.0
 11
45.5
 21
25.100006103515625
 31
0.0
  0
LINE
  8
0
 10
45.5
 20
16.899993896484375
 30
0.0
 11
45.91410827636719
 21
16.95452880859375
 31
0.0
  0
LINE
  8
0
 10
45.91410827636719
 20
16.95452880859375
 30
0.0
 11
46.29998779296875
 21
17.114349365234375
 31
0.0
  0
LINE
  8
0
 10
46.29998779296875
 20
17.114349365234375
 30
0.0
 11
46.63136291503906
 21
17.368621826171875
 31
0.0
  0
LINE
  8
0
 10
46.63136291503906
 20
17.368621826171875
 30
0.0
 11
46.88563537597656
 21
17.70001220703125
 31
0.0
  0
LINE
  8
0
 10
46.88563537597656
 20
17.70001220703125
 30
0.0
 11
47.04547119140625
 21
18.08587646484375
 31
0.0
  0
LINE
  8
0
 10
47.100006103515625
 20
18.5
 30
0.0
 11
47.04547119140625
 21
18.08587646484375
 31
0.0
  0
LINE
  8
0
 10
47.100006103515625
 20
23.5
 30
0.0
 11
47.100006103515625
 21
18.5
 31
0.0
  0
LINE
  8
0
 10
42.5
 20
25.100006103515625
 30
0.0
 11
45.5
 21
25.100006103515625
 31
0.0
  0
LINE
  8
0
 10
42.5
 20
16.899993896484375
 30
0.0
 11
45.5
 21
16.899993896484375
 31
0.0
  0
LINE
  8
0
 10
34.5
 20
25.100006103515625
 30
0.0
 11
34.08587646484375
 21
25.04547119140625
 31
0.0
  0
LINE
  8
0
 10
34.08587646484375
 20
25.04547119140625
 30
0.0
 11
33.69999694824219
 21
24.885650634765625
 31
0.0
  0
LINE
  8
0
 10
33.69999694824219
 20
24.885650634765625
 30
0.0
 11
33.368621826171875
 21
24.631378173828125
 31
0.0
  0
LINE
  8
0
 10
33.368621826171875
 20
24.631378173828125
 30
0.0
 11
33.11436462402344
 21
24.300003051757812
 31
0.0
  0
LINE
  8
0
 10
33.11436462402344
 20
24.300003051757812
 30
0.0
 11
32.95451354980469
 21
23.91412353515625
 31
0.0
  0
LINE
  8
0
 10
32.95451354980469
 20
23.91412353515625
 30
0.0
 11
32.899993896484375
 21
23.5
 31
0.0
  0
LINE
  8
0
 10
32.899993896484375
 20
18.5
 30
0.0
 11
32.95451354980469
 21
18.085906982421875
 31
0.0
  0
LINE
  8
0
 10
32.95451354980469
 20
18.085906982421875
 30
0.0
 11
33.11436462402344
 21
17.699996948242188
 31
0.0
  0
LINE
  8
0
 10
33.11436462402344
 20
17.699996948242188
 30
0.0
 11
33.368621826171875
 21
17.368621826171875
 31
0.0
  0
LINE
  8
0
 10
33.368621826171875
 20
17.368621826171875
 30
0.0
 11
33.69999694824219
 21
17.114349365234375
 31
0.0
  0
LINE
  8
0
 10
33.69999694824219
 20
17.114349365234375
 30
0.0
 11
34.08587646484375
 21
16.95452880859375
 31
0.0
  0
LINE
  8
0
 10
34.08587646484375
 20
16.95452880859375
 30
0.0
 11
34.5
 21
16.899993896484375
 31
0.0
  0
LINE
  8
0
 10
32.899993896484375
 20
23.5
 30
0.0
 11
32.899993896484375
 21
18.5
 31
0.0
  0
LINE
  8
0
 10
39.100006103515625
 20
23.5
 30
0.0
 11
39.04548645019531
 21
23.914108276367188
 31
0.0
  0
LINE
  8
0
 10
39.04548645019531
 20
23.914108276367188
 30
0.0
 11
38.88563537597656
 21
24.29998779296875
 31
0.0
  0
LINE
  8
0
 10
38.88563537597656
 20
24.29998779296875
 30
0.0
 11
38.63136291503906
 21
24.631378173828125
 31
0.0
  0
LINE
  8
0
 10
38.63136291503906
 20
24.631378173828125
 30
0.0
 11
38.29998779296875
 21
24.885650634765625
 31
0.0
  0
LINE
  8
0
 10
38.29998779296875
 20
24.885650634765625
 30
0.0
 11
37.91410827636719
 21
25.04547119140625
 31
0.0
  0
LINE
  8
0
 10
37.91410827636719
 20
25.04547119140625
 30
0.0
 11
37.5
 21
25.100006103515625
 31
0.0
  0
LINE
  8
0
 10
37.5
 20
16.899993896484375
 30
0.0
 11
37.91410827636719
 21
16.95452880859375
 31
0.0
  0
LINE
  8
0
 10
37.91410827636719
 20
16.95452880859375
 30
0.0
 11
38.29998779296875
 21
17.114349365234375
 31
0.0
  0
LINE
  8
0
 10
38.29998779296875
 20
17.114349365234375
 30
0.0
 11
38.63136291503906
 21
17.368621826171875
 31
0.0
  0
LINE
  8
0
 10
38.63136291503906
 20
17.368621826171875
 30
0.0
 11
38.88563537597656
 21
17.70001220703125
 31
0.0
  0
LINE
  8
0
 10
38.88563537597656
 20
17.70001220703125
 30
0.0
 11
39.04547119140625
 21
18.08587646484375
 31
0.0
  0
LINE
  8
0
 10
39.100006103515625
 20
18.5
 30
0.0
 11
39.04547119140625
 21
18.08587646484375
 31
0.0
  0
LINE
  8
0
 10
39.100006103515625
 20
23.5
 30
0.0
 11
39.100006103515625
 21
18.5
 31
0.0
  0
LINE
  8
0
 10
34.5
 20
25.100006103515625
 30
0.0
 11
37.5
 21
25.100006103515625
 31
0.0
  0
LINE
  8
0
 10
34.5
 20
16.899993896484375
 30
0.0
 11
37.5
 21
16.899993896484375
 31
0.0
  0
LINE
  8
0
 10
58.5
 20
15.100006103515625
 30
0.0
 11
58.08587646484375
 21
15.04547119140625
 31
0.0
  0
LINE
  8
0
 10
58.08587646484375
 20
15.04547119140625
 30
0.0
 11
57.69999694824219
 21
14.885650634765625
 31
0.0
  0
LINE
  8
0
 10
57.69999694824219
 20
14.885650634765625
 30
0.0
 11
57.368621826171875
 21
14.631378173828125
 31
0.0
  0
LINE
  8
0
 10
57.368621826171875
 20
14.631378173828125
 30
0.0
 11
57.11436462402344
 21
14.300003051757812
 31
0.0
  0
LINE
  8
0
 10
57.11436462402344
 20
14.300003051757812
 30
0.0
 11
56.95451354980469
 21
13.91412353515625
 31
0.0
  0
LINE
  8
0
 10
56.95451354980469
 20
13.91412353515625
 30
0.0
 11
56.899993896484375
 21
13.5
 31
0.0
  0
LINE
  8
0
 10
56.899993896484375
 20
8.5
 30
0.0
 11
56.95451354980469
 21
8.085906982421875
 31
0.0
  0
LINE
  8
0
 10
56.95451354980469
 20
8.085906982421875
 30
0.0
 11
57.11436462402344
 21
7.6999969482421875
 31
0.0
  0
LINE
  8
0
 10
57.11436462402344
 20
7.6999969482421875
 30
0.0
 11
57.368621826171875
 21
7.368621826171875
 31
0.0
  0
LINE
  8
0
 10
57.368621826171875
 20
7.368621826171875
 30
0.0
 11
57.69999694824219
 21
7.114349365234375
 31
0.0
  0
LINE
  8
0
 10
57.69999694824219
 20
7.114349365234375
 30
0.0
 11
58.08587646484375
 21
6.9545440673828125
 31
0.0
  0
LINE
  8
0
 10
58.08587646484375
 20
6.9545440673828125
 30
0.0
 11
58.5
 21
6.899993896484375
 31
0.0
  0
LINE
  8
0
 10
56.899993896484375
 20
13.5
 30
0.0
 11
56.899993896484375
 21
8.5
 31
0.0
  0
LINE
  8
0
 10
63.100006103515625
 20
13.5
 30
0.0
 11
63.04548645019531
 21
13.914108276367188
 31
0.0
  0
LINE
  8
0
 10
63.04548645019531
 20
13.914108276367188
 30
0.0
 11
62.88563537597656
 21
14.29998779296875
 31
0.0
  0
LINE
  8
0
 10
62.88563537597656
 20
14.29998779296875
 30
0.0
 11
62.63136291503906
 21
14.631378173828125
 31
0.0
  0
LINE
  8
0
 10
62.63136291503906
 20
14.631378173828125
 30
0.0
 11
62.29998779296875
 21
14.885635375976562
 31
0.0
  0
LINE
  8
0
 10
62.29998779296875
 20
14.885635375976562
 30
0.0
 11
61.91410827636719
 21
15.04547119140625
 31
0.0
  0
LINE
  8
0
 10
61.91410827636719
 20
15.04547119140625
 30
0.0
 11
61.5
 21
15.100006103515625
 31
0.0
  0
LINE
  8
0
 10
61.5
 20
6.899993896484375
 30
0.0
 11
61.91410827636719
 21
6.95452880859375
 31
0.0
  0
LINE
  8
0
 10
61.91410827636719
 20
6.95452880859375
 30
0.0
 11
62.29998779296875
 21
7.1143341064453125
 31
0.0
  0
LINE
  8
0
 10
62.29998779296875
 20
7.1143341064453125
 30
0.0
 11
62.63136291503906
 21
7.368621826171875
 31
0.0
  0
LINE
  8
0
 10
62.63136291503906
 20
7.368621826171875
 30
0.0
 11
62.88563537597656
 21
7.70001220703125
 31
0.0
  0
LINE
  8
0
 10
62.88563537597656
 20
7.70001220703125
 30
0.0
 11
63.04547119140625
 21
8.085891723632812
 31
0.0
  0
LINE
  8
0
 10
63.100006103515625
 20
8.5
 30
0.0
 11
63.04547119140625
 21
8.085891723632812
 31
0.0
  0
LINE
  8
0
 10
63.100006103515625
 20
13.5
 30
0.0
 11
63.100006103515625
 21
8.5
 31
0.0
  0
LINE
  8
0
 10
58.5
 20
15.100006103515625
 30
0.0
 11
61.5
 21
15.100006103515625
 31
0.0
  0
LINE
  8
0
 10
58.5
 20
6.899993896484375
 30
0.0
 11
61.5
 21
6.899993896484375
 31
0.0
  0
LINE
  8
0
 10
50.5
 20
15.100006103515625
 30
0.0
 11
50.08587646484375
 21
15.04547119140625
 31
0.0
  0
LINE
  8
0
 10
50.08587646484375
 20
15.04547119140625
 30
0.0
 11
49.69999694824219
 21
14.885650634765625
 31
0.0
  0
LINE
  8
0
 10
49.69999694824219
 20
14.885650634765625
 30
0.0
 11
49.368621826171875
 21
14.631378173828125
 31
0.0
  0
LINE
  8
0
 10
49.368621826171875
 20
14.631378173828125
 30
0.0
 11
49.11436462402344
 21
14.300003051757812
 31
0.0
  0
LINE
  8
0
 10
49.11436462402344
 20
14.300003051757812
 30
0.0
 11
48.95451354980469
 21
13.91412353515625
 31
0.0
  0
LINE
  8
0
 10
48.95451354980469
 20
13.91412353515625
 30
0.0
 11
48.899993896484375
 21
13.5
 31
0.0
  0
LINE
  8
0
 10
48.899993896484375
 20
8.5
 30
0.0
 11
48.95451354980469
 21
8.085906982421875
 31
0.0
  0
LINE
  8
0
 10
48.95451354980469
 20
8.085906982421875
 30
0.0
 11
49.11436462402344
 21
7.6999969482421875
 31
0.0
  0
LINE
  8
0
 10
49.11436462402344
 20
7.6999969482421875
 30
0.0
 11
49.368621826171875
 21
7.368621826171875
 31
0.0
  0
LINE
  8
0
 10
49.368621826171875
 20
7.368621826171875
 30
0.0
 11
49.69999694824219
 21
7.114349365234375
 31
0.0
  0
LINE
  8
0
 10
49.69999694824219
 20
7.114349365234375
 30
0.0
 11
50.08587646484375
 21
6.95452880859375
 31
0.0
  0
LINE
  8
0
 10
50.08587646484375
 20
6.95452880859375
 30
0.0
 11
50.5
 21
6.899993896484375
 31
0.0
  0
LINE
  8
0
 10
48.899993896484375
 20
13.5
 30
0.0
 11
48.899993896484375
 21
8.5
 31
0.0
  0
LINE
  8
0
 10
55.100006103515625
 20
13.5
 30
0.0
 11
55.04548645019531
 21
13.914108276367188
 31
0.0
  0
LINE
  8
0
 10
55.04548645019531
 20
13.914108276367188
 30
0.0
 11
54.88563537597656
 21
14.29998779296875
 31
0.0
  0
LINE
  8
0
 10
54.88563537597656
 20
14.29998779296875
 30
0.0
 11
54.63136291503906
 21
14.631378173828125
 31
0.0
  0
LINE
  8
0
 10
54.63136291503906
 20
14.631378173828125
 30
0.0
 11
54.29998779296875
 21
14.885650634765625
 31
0.0
  0
LINE
  8
0
 10
54.29998779296875
 20
14.885650634765625
 30
0.0
 11
53.91410827636719
 21
15.04547119140625
 31
0.0
  0
LINE
  8
0
 10
53.91410827636719
 20
15.04547119140625
 30
0.0
 11
53.5
 21
15.100006103515625
 31
0.0
  0
LINE
  8
0
 10
53.5
 20
6.899993896484375
 30
0.0
 11
53.91410827636719
 21
6.95452880859375
 31
0.0
  0
LINE
  8
0
 10
53.91410827636719
 20
6.95452880859375
 30
0.0
 11
54.29998779296875
 21
7.1143341064453125
 31
0.0
  0
LINE
  8
0
 10
54.29998779296875
 20
7.1143341064453125
 30
0.0
 11
54.63136291503906
 21
7.368621826171875
 31
0.0
  0
LINE
  8
0
 10
54.63136291503906
 20
7.368621826171875
 30
0.0
 11
54.88563537597656
 21
7.70001220703125
 31
0.0
  0
LINE
  8
0
 10
54.88563537597656
 20
7.70001220703125
 30
0.0
 11
55.04547119140625
 21
8.085891723632812
 31
0.0
  0
LINE
  8
0
 10
55.100006103515625
 20
8.5
 30
0.0
 11
55.04547119140625
 21
8.085891723632812
 31
0.0
  0
LINE
  8
0
 10
55.100006103515625
 20
13.5
 30
0.0
 11
55.100006103515625
 21
8.5
 31
0.0
  0
LINE
  8
0
 10
50.5
 20
15.100006103515625
 30
0.0
 11
53.5
 21
15.100006103515625
 31
0.0
  0
LINE
  8
0
 10
50.5
 20
6.899993896484375
 30
0.0
 11
53.5
 21
6.899993896484375
 31
0.0
  0
LINE
  8
0
 10
26.499984741210938
 20
15.100006103515625
 30
0.0
 11
26.08587646484375
 21
15.04547119140625
 31
0.0
  0
LINE
  8
0
 10
26.08587646484375
 20
15.04547119140625
 30
0.0
 11
25.699996948242188
 21
14.885650634765625
 31
0.0
  0
LINE
  8
0
 10
25.699996948242188
 20
14.885650634765625
 30
0.0
 11
25.368621826171875
 21
14.631378173828125
 31
0.0
  0
LINE
  8
0
 10
25.368621826171875
 20
14.631378173828125
 30
0.0
 11
25.114349365234375
 21
14.300003051757812
 31
0.0
  0
LINE
  8
0
 10
25.114349365234375
 20
14.300003051757812
 30
0.0
 11
24.954513549804688
 21
13.914108276367188
 31
0.0
  0
LINE
  8
0
 10
24.954513549804688
 20
13.914108276367188
 30
0.0
 11
24.899993896484375
 21
13.5
 31
0.0
  0
LINE
  8
0
 10
24.899993896484375
 20
8.5
 30
0.0
 11
24.954513549804688
 21
8.085891723632812
 31
0.0
  0
LINE
  8
0
 10
24.954513549804688
 20
8.085891723632812
 30
0.0
 11
25.114349365234375
 21
7.6999969482421875
 31
0.0
  0
LINE
  8
0
 10
25.114349365234375
 20
7.6999969482421875
 30
0.0
 11
25.368621826171875
 21
7.368621826171875
 31
0.0
  0
LINE
  8
0
 10
25.368621826171875
 20
7.368621826171875
 30
0.0
 11
25.699981689453125
 21
7.114349365234375
 31
0.0
  0
LINE
  8
0
 10
25.699981689453125
 20
7.114349365234375
 30
0.0
 11
26.08587646484375
 21
6.95452880859375
 31
0.0
  0
LINE
  8
0
 10
26.08587646484375
 20
6.95452880859375
 30
0.0
 11
26.499984741210938
 21
6.899993896484375
 31
0.0
  0
LINE
  8
0
 10
24.899993896484375
 20
13.5
 30
0.0
 11
24.899993896484375
 21
8.5
 31
0.0
  0
LINE
  8
0
 10
31.099990844726562
 20
13.5
 30
0.0
 11
31.04547119140625
 21
13.914108276367188
 31
0.0
  0
LINE
  8
0
 10
31.04547119140625
 20
13.914108276367188
 30
0.0
 11
30.885635375976562
 21
14.29998779296875
 31
0.0
  0
LINE
  8
0
 10
30.885635375976562
 20
14.29998779296875
 30
0.0
 11
30.631362915039062
 21
14.631378173828125
 31
0.0
  0
LINE
  8
0
 10
30.631362915039062
 20
14.631378173828125
 30
0.0
 11
30.29998779296875
 21
14.885650634765625
 31
0.0
  0
LINE
  8
0
 10
30.29998779296875
 20
14.885650634765625
 30
0.0
 11
29.914093017578125
 21
15.04547119140625
 31
0.0
  0
LINE
  8
0
 10
29.914093017578125
 20
15.04547119140625
 30
0.0
 11
29.499984741210938
 21
15.100006103515625
 31
0.0
  0
LINE
  8
0
 10
29.499984741210938
 20
6.899993896484375
 30
0.0
 11
29.914093017578125
 21
6.95452880859375
 31
0.0
  0
LINE
  8
0
 10
29.914093017578125
 20
6.95452880859375
 30
0.0
 11
30.29998779296875
 21
7.114349365234375
 31
0.0
  0
LINE
  8
0
 10
30.29998779296875
 20
7.114349365234375
 30
0.0
 11
30.631362915039062
 21
7.368621826171875
 31
0.0
  0
LINE
  8
0
 10
30.631362915039062
 20
7.368621826171875
 30
0.0
 11
30.885635375976562
 21
7.6999969482421875
 31
0.0
  0
LINE
  8
0
 10
30.885635375976562
 20
7.6999969482421875
 30
0.0
 11
31.04547119140625
 21
8.08587646484375
 31
0.0
  0
LINE
  8
0
 10
31.099990844726562
 20
8.5
 30
0.0
 11
31.04547119140625
 21
8.08587646484375
 31
0.0
  0
LINE
  8
0
 10
31.099990844726562
 20
13.5
 30
0.0
 11
31.099990844726562
 21
8.5
 31
0.0
  0
LINE
  8
0
 10
26.499984741210938
 20
15.100006103515625
 30
0.0
 11
29.499984741210938
 21
15.100006103515625
 31
0.0
  0
LINE
  8
0
 10
26.499984741210938
 20
6.899993896484375
 30
0.0
 11
29.499984741210938
 21
6.899993896484375
 31
0.0
  0
LINE
  8
0
 10
42.5
 20
15.100006103515625
 30
0.0
 11
42.08587646484375
 21
15.04547119140625
 31
0.0
  0
LINE
  8
0
 10
42.08587646484375
 20
15.04547119140625
 30
0.0
 11
41.69999694824219
 21
14.885650634765625
 31
0.0
  0
LINE
  8
0
 10
41.69999694824219
 20
14.885650634765625
 30
0.0
 11
41.368621826171875
 21
14.631378173828125
 31
0.0
  0
LINE
  8
0
 10
41.368621826171875
 20
14.631378173828125
 30
0.0
 11
41.11436462402344
 21
14.300003051757812
 31
0.0
  0
LINE
  8
0
 10
41.11436462402344
 20
14.300003051757812
 30
0.0
 11
40.95451354980469
 21
13.91412353515625
 31
0.0
  0
LINE
  8
0
 10
40.95451354980469
 20
13.91412353515625
 30
0.0
 11
40.899993896484375
 21
13.5
 31
0.0
  0
LINE
  8
0
 10
40.899993896484375
 20
8.5
 30
0.0
 11
40.95451354980469
 21
8.085906982421875
 31
0.0
  0
LINE
  8
0
 10
40.95451354980469
 20
8.085906982421875
 30
0.0
 11
41.11436462402344
 21
7.6999969482421875
 31
0.0
  0
LINE
  8
0
 10
41.11436462402344
 20
7.6999969482421875
 30
0.0
 11
41.368621826171875
 21
7.368621826171875
 31
0.0
  0
LINE
  8
0
 10
41.368621826171875
 20
7.368621826171875
 30
0.0
 11
41.69999694824219
 21
7.114349365234375
 31
0.0
  0
LINE
  8
0
 10
41.69999694824219
 20
7.114349365234375
 30
0.0
 11
42.08587646484375
 21
6.95452880859375
 31
0.0
  0
LINE
  8
0
 10
42.08587646484375
 20
6.95452880859375
 30
0.0
 11
42.5
 21
6.899993896484375
 31
0.0
  0
LINE
  8
0
 10
40.899993896484375
 20
13.5
 30
0.0
 11
40.899993896484375
 21
8.5
 31
0.0
  0
LINE
  8
0
 10
47.100006103515625
 20
13.5
 30
0.0
 11
47.04548645019531
 21
13.914108276367188
 31
0.0
  0
LINE
  8
0
 10
47.04548645019531
 20
13.914108276367188
 30
0.0
 11
46.88563537597656
 21
14.29998779296875
 31
0.0
  0
LINE
  8
0
 10
46.88563537597656
 20
14.29998779296875
 30
0.0
 11
46.63136291503906
 21
14.631378173828125
 31
0.0
  0
LINE
  8
0
 10
46.63136291503906
 20
14.631378173828125
 30
0.0
 11
46.29998779296875
 21
14.885650634765625
 31
0.0
  0
LINE
  8
0
 10
46.29998779296875
 20
14.885650634765625
 30
0.0
 11
45.91410827636719
 21
15.04547119140625
 31
0.0
  0
LINE
  8
0
 10
45.91410827636719
 20
15.04547119140625
 30
0.0
 11
45.5
 21
15.100006103515625
 31
0.0
  0
LINE
  8
0
 10
45.5
 20
6.899993896484375
 30
0.0
 11
45.91410827636719
 21
6.95452880859375
 31
0.0
  0
LINE
  8
0
 10
45.91410827636719
 20
6.95452880859375
 30
0.0
 11
46.29998779296875
 21
7.114349365234375
 31
0.0
  0
LINE
  8
0
 10
46.29998779296875
 20
7.114349365234375
 30
0.0
 11
46.63136291503906
 21
7.368621826171875
 31
0.0
  0
LINE
  8
0
 10
46.63136291503906
 20
7.368621826171875
 30
0.0
 11
46.88563537597656
 21
7.70001220703125
 31
0.0
  0
LINE
  8
0
 10
46.88563537597656
 20
7.70001220703125
 30
0.0
 11
47.04547119140625
 21
8.08587646484375
 31
0.0
  0
LINE
  8
0
 10
47.100006103515625
 20
8.5
 30
0.0
 11
47.04547119140625
 21
8.08587646484375
 31
0.0
  0
LINE
  8
0
 10
47.100006103515625
 20
13.5
 30
0.0
 11
47.100006103515625
 21
8.5
 31
0.0
  0
LINE
  8
0
 10
42.5
 20
15.100006103515625
 30
0.0
 11
45.5
 21
15.100006103515625
 31
0.0
  0
LINE
  8
0
 10
42.5
 20
6.899993896484375
 30
0.0
 11
45.5
 21
6.899993896484375
 31
0.0
  0
LINE
  8
0
 10
34.5
 20
15.100006103515625
 30
0.0
 11
34.08587646484375
 21
15.04547119140625
 31
0.0
  0
LINE
  8
0
 10
34.08587646484375
 20
15.04547119140625
 30
0.0
 11
33.69999694824219
 21
14.885650634765625
 31
0.0
  0
LINE
  8
0
 10
33.69999694824219
 20
14.885650634765625
 30
0.0
 11
33.368621826171875
 21
14.631378173828125
 31
0.0
  0
LINE
  8
0
 10
33.368621826171875
 20
14.631378173828125
 30
0.0
 11
33.11436462402344
 21
14.300003051757812
 31
0.0
  0
LINE
  8
0
 10
33.11436462402344
 20
14.300003051757812
 30
0.0
 11
32.95451354980469
 21
13.91412353515625
 31
0.0
  0
LINE
  8
0
 10
32.95451354980469
 20
13.91412353515625
 30
0.0
 11
32.899993896484375
 21
13.5
 31
0.0
  0
LINE
  8
0
 10
32.899993896484375
 20
8.5
 30
0.0
 11
32.95451354980469
 21
8.085906982421875
 31
0.0
  0
LINE
  8
0
 10
32.95451354980469
 20
8.085906982421875
 30
0.0
 11
33.11436462402344
 21
7.6999969482421875
 31
0.0
  0
LINE
  8
0
 10
33.11436462402344
 20
7.6999969482421875
 30
0.0
 11
33.368621826171875
 21
7.368621826171875
 31
0.0
  0
LINE
  8
0
 10
33.368621826171875
 20
7.368621826171875
 30
0.0
 11
33.69999694824219
 21
7.114349365234375
 31
0.0
  0
LINE
  8
0
 10
33.69999694824219
 20
7.114349365234375
 30
0.0
 11
34.08587646484375
 21
6.95452880859375
 31
0.0
  0
LINE
  8
0
 10
34.08587646484375
 20
6.95452880859375
 30
0.0
 11
34.5
 21
6.899993896484375
 31
0.0
  0
LINE
  8
0
 10
32.899993896484375
 20
13.5
 30
0.0
 11
32.899993896484375
 21
8.5
 31
0.0
  0
LINE
  8
0
 10
39.100006103515625
 20
13.5
 30
0.0
 11
39.04548645019531
 21
13.914108276367188
 31
0.0
  0
LINE
  8
0
 10
39.04548645019531
 20
13.914108276367188
 30
0.0
 11
38.88563537597656
 21
14.29998779296875
 31
0.0
  0
LINE
  8
0
 10
38.88563537597656
 20
14.29998779296875
 30
0.0
 11
38.63136291503906
 21
14.631378173828125
 31
0.0
  0
LINE
  8
0
 10
38.63136291503906
 20
14.631378173828125
 30
0.0
 11
38.29998779296875
 21
14.885650634765625
 31
0.0
  0
LINE
  8
0
 10
38.29998779296875
 20
14.885650634765625
 30
0.0
 11
37.91410827636719
 21
15.04547119140625
 31
0.0
  0
LINE
  8
0
 10
37.91410827636719
 20
15.04547119140625
 30
0.0
 11
37.5
 21
15.100006103515625
 31
0.0
  0
LINE
  8
0
 10
37.5
 20
6.899993896484375
 30
0.0
 11
37.91410827636719
 21
6.95452880859375
 31
0.0
  0
LINE
  8
0
 10
37.91410827636719
 20
6.95452880859375
 30
0.0
 11
38.29998779296875
 21
7.114349365234375
 31
0.0
  0
LINE
  8
0
 10
38.29998779296875
 20
7.114349365234375
 30
0.0
 11
38.63136291503906
 21
7.368621826171875
 31
0.0
  0
LINE
  8
0
 10
38.63136291503906
 20
7.368621826171875
 30
0.0
 11
38.88563537597656
 21
7.70001220703125
 31
0.0
  0
LINE
  8
0
 10
38.88563537597656
 20
7.70001220703125
 30
0.0
 11
39.04547119140625
 21
8.08587646484375
 31
0.0
  0
LINE
  8
0
 10
39.100006103515625
 20
8.5
 30
0.0
 11
39.04547119140625
 21
8.08587646484375
 31
0.0
  0
LINE
  8
0
 10
39.100006103515625
 20
13.5
 30
0.0
 11
39.100006103515625
 21
8.5
 31
0.0
  0
LINE
  8
0
 10
34.5
 20
15.100006103515625
 30
0.0
 11
37.5
 21
15.100006103515625
 31
0.0
  0
LINE
  8
0
 10
34.5
 20
6.899993896484375
 30
0.0
 11
37.5
 21
6.899993896484375
 31
0.0
  0
LINE
  8
0
 10
10.999984741210938
 20
35.100006103515625
 30
-1.374771045448142e-06
 11
10.58587646484375
 21
35.04547119140625
 31
-1.374771045448142e-06
  0
LINE
  8
0
 10
10.58587646484375
 20
35.04547119140625
 30
-1.374771045448142e-06
 11
10.199996948242188
 21
34.885650634765625
 31
-1.374771045448142e-06
  0
LINE
  8
0
 10
10.199996948242188
 20
34.885650634765625
 30
-1.374771045448142e-06
 11
9.868621826171875
 21
34.631378173828125
 31
-1.374771045448142e-06
  0
LINE
  8
0
 10
9.868621826171875
 20
34.631378173828125
 30
-1.374771045448142e-06
 11
9.614349365234375
 21
34.29998779296875
 31
-1.374771045448142e-06
  0
LINE
  8
0
 10
9.614349365234375
 20
34.29998779296875
 30
-1.374771045448142e-06
 11
9.454513549804688
 21
33.91412353515625
 31
-1.374771045448142e-06
  0
LINE
  8
0
 10
9.454513549804688
 20
33.91412353515625
 30
-1.374771045448142e-06
 11
9.399993896484375
 21
33.5
 31
-1.374771045448142e-06
  0
LINE
  8
0
 10
9.399993896484375
 20
28.5
 30
-1.374771045448142e-06
 11
9.454513549804688
 21
28.085906982421875
 31
-1.374771045448142e-06
  0
LINE
  8
0
 10
9.454513549804688
 20
28.085906982421875
 30
-1.374771045448142e-06
 11
9.614349365234375
 21
27.699981689453125
 31
-1.374771045448142e-06
  0
LINE
  8
0
 10
9.614349365234375
 20
27.699981689453125
 30
-1.374771045448142e-06
 11
9.868621826171875
 21
27.368621826171875
 31
-1.374771045448142e-06
  0
LINE
  8
0
 10
9.868621826171875
 20
27.368621826171875
 30
-1.374771045448142e-06
 11
10.199981689453125
 21
27.114349365234375
 31
-1.374771045448142e-06
  0
LINE
  8
0
 10
10.199981689453125
 20
27.114349365234375
 30
-1.374771045448142e-06
 11
10.58587646484375
 21
26.95452880859375
 31
-1.374771045448142e-06
  0
LINE
  8
0
 10
10.58587646484375
 20
26.95452880859375
 30
-1.374771045448142e-06
 11
10.999984741210938
 21
26.899993896484375
 31
-1.374771045448142e-06
  0
LINE
  8
0
 10
9.399993896484375
 20
33.5
 30
-1.374771045448142e-06
 11
9.399993896484375
 21
28.5
 31
-1.374771045448142e-06
  0
LINE
  8
0
 10
15.599990844726562
 20
33.5
 30
-1.374771045448142e-06
 11
15.54547119140625
 21
33.91410827636719
 31
-1.374771045448142e-06
  0
LINE
  8
0
 10
15.54547119140625
 20
33.91410827636719
 30
-1.374771045448142e-06
 11
15.385635375976562
 21
34.29998779296875
 31
-1.374771045448142e-06
  0
LINE
  8
0
 10
15.385635375976562
 20
34.29998779296875
 30
-1.374771045448142e-06
 11
15.131362915039062
 21
34.631378173828125
 31
-1.374771045448142e-06
  0
LINE
  8
0
 10
15.131362915039062
 20
34.631378173828125
 30
-1.374771045448142e-06
 11
14.79998779296875
 21
34.885650634765625
 31
-1.374771045448142e-06
  0
LINE
  8
0
 10
14.79998779296875
 20
34.885650634765625
 30
-1.374771045448142e-06
 11
14.414093017578125
 21
35.04547119140625
 31
-1.374771045448142e-06
  0
LINE
  8
0
 10
14.414093017578125
 20
35.04547119140625
 30
-1.374771045448142e-06
 11
13.999984741210938
 21
35.100006103515625
 31
-1.374771045448142e-06
  0
LINE
  8
0
 10
13.999984741210938
 20
26.899993896484375
 30
-1.374771045448142e-06
 11
14.414093017578125
 21
26.95452880859375
 31
-1.374771045448142e-06
  0
LINE
  8
0
 10
14.414093017578125
 20
26.95452880859375
 30
-1.374771045448142e-06
 11
14.79998779296875
 21
27.114349365234375
 31
-1.374771045448142e-06
  0
LINE
  8
0
 10
14.79998779296875
 20
27.114349365234375
 30
-1.374771045448142e-06
 11
15.131362915039062
 21
27.368621826171875
 31
-1.374771045448142e-06
  0
LINE
  8
0
 10
15.131362915039062
 20
27.368621826171875
 30
-1.374771045448142e-06
 11
15.385635375976562
 21
27.699996948242188
 31
-1.374771045448142e-06
  0
LINE
  8
0
 10
15.385635375976562
 20
27.699996948242188
 30
-1.374771045448142e-06
 11
15.54547119140625
 21
28.08587646484375
 31
-1.374771045448142e-06
  0
LINE
  8
0
 10
15.599990844726562
 20
28.5
 30
-1.374771045448142e-06
 11
15.54547119140625
 21
28.08587646484375
 31
-1.374771045448142e-06
  0
LINE
  8
0
 10
15.599990844726562
 20
33.5
 30
-1.374771045448142e-06
 11
15.599990844726562
 21
28.5
 31
-1.374771045448142e-06
  0
LINE
  8
0
 10
10.999984741210938
 20
35.100006103515625
 30
-1.374771045448142e-06
 11
13.999984741210938
 21
35.100006103515625
 31
-1.374771045448142e-06
  0
LINE
  8
0
 10
10.999984741210938
 20
26.899993896484375
 30
-1.374771045448142e-06
 11
13.999984741210938
 21
26.899993896484375
 31
-1.374771045448142e-06
  0
LINE
  8
0
 10
18.5
 20
35.100006103515625
 30
-1.374771045448142e-06
 11
18.085891723632812
 21
35.04547119140625
 31
-1.374771045448142e-06
  0
LINE
  8
0
 10
18.085891723632812
 20
35.04547119140625
 30
-1.374771045448142e-06
 11
17.699996948242188
 21
34.885650634765625
 31
-1.374771045448142e-06
  0
LINE
  8
0
 10
17.699996948242188
 20
34.885650634765625
 30
-1.374771045448142e-06
 11
17.368621826171875
 21
34.631378173828125
 31
-1.374771045448142e-06
  0
LINE
  8
0
 10
17.368621826171875
 20
34.631378173828125
 30
-1.374771045448142e-06
 11
17.114349365234375
 21
34.30000305175781
 31
-1.374771045448142e-06
  0
LINE
  8
0
 10
17.114349365234375
 20
34.30000305175781
 30
-1.374771045448142e-06
 11
16.954513549804688
 21
33.91410827636719
 31
-1.374771045448142e-06
  0
LINE
  8
0
 10
16.954513549804688
 20
33.91410827636719
 30
-1.374771045448142e-06
 11
16.899993896484375
 21
33.5
 31
-1.374771045448142e-06
  0
LINE
  8
0
 10
16.899993896484375
 20
28.5
 30
-1.374771045448142e-06
 11
16.954513549804688
 21
28.085891723632812
 31
-1.374771045448142e-06
  0
LINE
  8
0
 10
16.954513549804688
 20
28.085891723632812
 30
-1.374771045448142e-06
 11
17.114349365234375
 21
27.699996948242188
 31
-1.374771045448142e-06
  0
LINE
  8
0
 10
17.114349365234375
 20
27.699996948242188
 30
-1.374771045448142e-06
 11
17.368621826171875
 21
27.368621826171875
 31
-1.374771045448142e-06
  0
LINE
  8
0
 10
17.368621826171875
 20
27.368621826171875
 30
-1.374771045448142e-06
 11
17.699996948242188
 21
27.114349365234375
 31
-1.374771045448142e-06
  0
LINE
  8
0
 10
17.699996948242188
 20
27.114349365234375
 30
-1.374771045448142e-06
 11
18.085891723632812
 21
26.95452880859375
 31
-1.374771045448142e-06
  0
LINE
  8
0
 10
18.085891723632812
 20
26.95452880859375
 30
-1.374771045448142e-06
 11
18.5
 21
26.899993896484375
 31
-1.374771045448142e-06
  0
LINE
  8
0
 10
16.899993896484375
 20
33.5
 30
-1.374771045448142e-06
 11
16.899993896484375
 21
28.5
 31
-1.374771045448142e-06
  0
LINE
  8
0
 10
23.099990844726562
 20
33.5
 30
-1.374771045448142e-06
 11
23.04547119140625
 21
33.91410827636719
 31
-1.374771045448142e-06
  0
LINE
  8
0
 10
23.04547119140625
 20
33.91410827636719
 30
-1.374771045448142e-06
 11
22.885635375976562
 21
34.29998779296875
 31
-1.374771045448142e-06
  0
LINE
  8
0
 10
22.885635375976562
 20
34.29998779296875
 30
-1.374771045448142e-06
 11
22.631362915039062
 21
34.631378173828125
 31
-1.374771045448142e-06
  0
LINE
  8
0
 10
22.631362915039062
 20
34.631378173828125
 30
-1.374771045448142e-06
 11
22.300003051757812
 21
34.885650634765625
 31
-1.374771045448142e-06
  0
LINE
  8
0
 10
22.300003051757812
 20
34.885650634765625
 30
-1.374771045448142e-06
 11
21.914108276367188
 21
35.04547119140625
 31
-1.374771045448142e-06
  0
LINE
  8
0
 10
21.914108276367188
 20
35.04547119140625
 30
-1.374771045448142e-06
 11
21.5
 21
35.100006103515625
 31
-1.374771045448142e-06
  0
LINE
  8
0
 10
21.5
 20
26.899993896484375
 30
-1.374771045448142e-06
 11
21.914108276367188
 21
26.95452880859375
 31
-1.374771045448142e-06
  0
LINE
  8
0
 10
21.914108276367188
 20
26.95452880859375
 30
-1.374771045448142e-06
 11
22.300003051757812
 21
27.114349365234375
 31
-1.374771045448142e-06
  0
LINE
  8
0
 10
22.300003051757812
 20
27.114349365234375
 30
-1.374771045448142e-06
 11
22.631362915039062
 21
27.368621826171875
 31
-1.374771045448142e-06
  0
LINE
  8
0
 10
22.631362915039062
 20
27.368621826171875
 30
-1.374771045448142e-06
 11
22.885635375976562
 21
27.699996948242188
 31
-1.374771045448142e-06
  0
LINE
  8
0
 10
22.885635375976562
 20
27.699996948242188
 30
-1.374771045448142e-06
 11
23.04547119140625
 21
28.08587646484375
 31
-1.374771045448142e-06
  0
LINE
  8
0
 10
23.099990844726562
 20
28.5
 30
-1.374771045448142e-06
 11
23.04547119140625
 21
28.08587646484375
 31
-1.374771045448142e-06
  0
LINE
  8
0
 10
23.099990844726562
 20
33.5
 30
-1.374771045448142e-06
 11
23.099990844726562
 21
28.5
 31
-1.374771045448142e-06
  0
LINE
  8
0
 10
18.5
 20
35.100006103515625
 30
-1.374771045448142e-06
 11
21.5
 21
35.100006103515625
 31
-1.374771045448142e-06
  0
LINE
  8
0
 10
18.5
 20
26.899993896484375
 30
-1.374771045448142e-06
 11
21.5
 21
26.899993896484375
 31
-1.374771045448142e-06
  0
LINE
  8
0
 10
9.899993896484375
 20
38.5
 30
6.495316142718366e-07
 11
9.954513549804688
 21
38.08589172363281
 31
6.495316142718366e-07
  0
LINE
  8
0
 10
9.954513549804688
 20
38.08589172363281
 30
6.495316142718366e-07
 11
10.114349365234375
 21
37.70001220703125
 31
6.495316142718366e-07
  0
LINE
  8
0
 10
10.114349365234375
 20
37.70001220703125
 30
6.495316142718366e-07
 11
10.368621826171875
 21
37.36863708496094
 31
6.495316142718366e-07
  0
LINE
  8
0
 10
10.368621826171875
 20
37.36863708496094
 30
6.495316142718366e-07
 11
10.699981689453125
 21
37.11436462402344
 31
6.495316142718366e-07
  0
LINE
  8
0
 10
10.699981689453125
 20
37.11436462402344
 30
6.495316142718366e-07
 11
11.08587646484375
 21
36.95452880859375
 31
6.495316142718366e-07
  0
LINE
  8
0
 10
11.08587646484375
 20
36.95452880859375
 30
6.495316142718366e-07
 11
11.499984741210938
 21
36.90000915527344
 31
6.495316142718366e-07
  0
LINE
  8
0
 10
16.499984741210938
 20
36.90000915527344
 30
6.495316142718366e-07
 11
16.914093017578125
 21
36.95452880859375
 31
6.495316142718366e-07
  0
LINE
  8
0
 10
16.914093017578125
 20
36.95452880859375
 30
6.495316142718366e-07
 11
17.29998779296875
 21
37.11436462402344
 31
6.495316142718366e-07
  0
LINE
  8
0
 10
17.29998779296875
 20
37.11436462402344
 30
6.495316142718366e-07
 11
17.631362915039062
 21
37.36863708496094
 31
6.495316142718366e-07
  0
LINE
  8
0
 10
17.631362915039062
 20
37.36863708496094
 30
6.495316142718366e-07
 11
17.885635375976562
 21
37.69999694824219
 31
6.495316142718366e-07
  0
LINE
  8
0
 10
17.885635375976562
 20
37.69999694824219
 30
6.495316142718366e-07
 11
18.04547119140625
 21
38.08589172363281
 31
6.495316142718366e-07
  0
LINE
  8
0
 10
18.04547119140625
 20
38.08589172363281
 30
6.495316142718366e-07
 11
18.099990844726562
 21
38.5
 31
6.495316142718366e-07
  0
LINE
  8
0
 10
11.499984741210938
 20
36.90000915527344
 30
6.495316142718366e-07
 11
16.499984741210938
 21
36.90000915527344
 31
6.495316142718366e-07
  0
LINE
  8
0
 10
11.499984741210938
 20
43.100006103515625
 30
6.495316142718366e-07
 11
11.08587646484375
 21
43.04548645019531
 31
6.495316142718366e-07
  0
LINE
  8
0
 10
11.08587646484375
 20
43.04548645019531
 30
6.495316142718366e-07
 11
10.699996948242188
 21
42.885650634765625
 31
6.495316142718366e-07
  0
LINE
  8
0
 10
10.699996948242188
 20
42.885650634765625
 30
6.495316142718366e-07
 11
10.368621826171875
 21
42.631378173828125
 31
6.495316142718366e-07
  0
LINE
  8
0
 10
10.368621826171875
 20
42.631378173828125
 30
6.495316142718366e-07
 11
10.114349365234375
 21
42.30000305175781
 31
6.495316142718366e-07
  0
LINE
  8
0
 10
10.114349365234375
 20
42.30000305175781
 30
6.495316142718366e-07
 11
9.954513549804688
 21
41.91410827636719
 31
6.495316142718366e-07
  0
LINE
  8
0
 10
9.954513549804688
 20
41.91410827636719
 30
6.495316142718366e-07
 11
9.899993896484375
 21
41.5
 31
6.495316142718366e-07
  0
LINE
  8
0
 10
18.099990844726562
 20
41.5
 30
6.495316142718366e-07
 11
18.04547119140625
 21
41.91410827636719
 31
6.495316142718366e-07
  0
LINE
  8
0
 10
18.04547119140625
 20
41.91410827636719
 30
6.495316142718366e-07
 11
17.885635375976562
 21
42.30000305175781
 31
6.495316142718366e-07
  0
LINE
  8
0
 10
17.885635375976562
 20
42.30000305175781
 30
6.495316142718366e-07
 11
17.631362915039062
 21
42.631378173828125
 31
6.495316142718366e-07
  0
LINE
  8
0
 10
17.631362915039062
 20
42.631378173828125
 30
6.495316142718366e-07
 11
17.29998779296875
 21
42.885650634765625
 31
6.495316142718366e-07
  0
LINE
  8
0
 10
17.29998779296875
 20
42.885650634765625
 30
6.495316142718366e-07
 11
16.914108276367188
 21
43.04548645019531
 31
6.495316142718366e-07
  0
LINE
  8
0
 10
16.499984741210938
 20
43.100006103515625
 30
6.495316142718366e-07
 11
16.914108276367188
 21
43.04548645019531
 31
6.495316142718366e-07
  0
LINE
  8
0
 10
11.499984741210938
 20
43.100006103515625
 30
6.495316142718366e-07
 11
16.499984741210938
 21
43.100006103515625
 31
6.495316142718366e-07
  0
LINE
  8
0
 10
9.899993896484375
 20
38.5
 30
6.495316142718366e-07
 11
9.899993896484375
 21
41.5
 31
6.495316142718366e-07
  0
LINE
  8
0
 10
18.099990844726562
 20
38.5
 30
6.495316142718366e-07
 11
18.099990844726562
 21
41.5
 31
6.495316142718366e-07
  0
LINE
  8
0
 10
9.899978637695312
 20
20.5
 30
6.495316142718366e-07
 11
9.954498291015625
 21
20.085891723632812
 31
6.495316142718366e-07
  0
LINE
  8
0
 10
9.954498291015625
 20
20.085891723632812
 30
6.495316142718366e-07
 11
10.114334106445312
 21
19.70001220703125
 31
6.495316142718366e-07
  0
LINE
  8
0
 10
10.114334106445312
 20
19.70001220703125
 30
6.495316142718366e-07
 11
10.368606567382812
 21
19.368621826171875
 31
6.495316142718366e-07
  0
LINE
  8
0
 10
10.368606567382812
 20
19.368621826171875
 30
6.495316142718366e-07
 11
10.699981689453125
 21
19.114349365234375
 31
6.495316142718366e-07
  0
LINE
  8
0
 10
10.699981689453125
 20
19.114349365234375
 30
6.495316142718366e-07
 11
11.08587646484375
 21
18.95452880859375
 31
6.495316142718366e-07
  0
LINE
  8
0
 10
11.08587646484375
 20
18.95452880859375
 30
6.495316142718366e-07
 11
11.499984741210938
 21
18.899993896484375
 31
6.495316142718366e-07
  0
LINE
  8
0
 10
16.499984741210938
 20
18.899993896484375
 30
6.495316142718366e-07
 11
16.914093017578125
 21
18.95452880859375
 31
6.495316142718366e-07
  0
LINE
  8
0
 10
16.914093017578125
 20
18.95452880859375
 30
6.495316142718366e-07
 11
17.29998779296875
 21
19.114349365234375
 31
6.495316142718366e-07
  0
LINE
  8
0
 10
17.29998779296875
 20
19.114349365234375
 30
6.495316142718366e-07
 11
17.63134765625
 21
19.368621826171875
 31
6.495316142718366e-07
  0
LINE
  8
0
 10
17.63134765625
 20
19.368621826171875
 30
6.495316142718366e-07
 11
17.8856201171875
 21
19.699996948242188
 31
6.495316142718366e-07
  0
LINE
  8
0
 10
17.8856201171875
 20
19.699996948242188
 30
6.495316142718366e-07
 11
18.045455932617188
 21
20.085891723632812
 31
6.495316142718366e-07
  0
LINE
  8
0
 10
18.045455932617188
 20
20.085891723632812
 30
6.495316142718366e-07
 11
18.0999755859375
 21
20.5
 31
6.495316142718366e-07
  0
LINE
  8
0
 10
11.499984741210938
 20
18.899993896484375
 30
6.495316142718366e-07
 11
16.499984741210938
 21
18.899993896484375
 31
6.495316142718366e-07
  0
LINE
  8
0
 10
11.499984741210938
 20
25.100006103515625
 30
6.495316142718366e-07
 11
11.08587646484375
 21
25.04547119140625
 31
6.495316142718366e-07
  0
LINE
  8
0
 10
11.08587646484375
 20
25.04547119140625
 30
6.495316142718366e-07
 11
10.699981689453125
 21
24.885650634765625
 31
6.495316142718366e-07
  0
LINE
  8
0
 10
10.699981689453125
 20
24.885650634765625
 30
6.495316142718366e-07
 11
10.368606567382812
 21
24.631378173828125
 31
6.495316142718366e-07
  0
LINE
  8
0
 10
10.368606567382812
 20
24.631378173828125
 30
6.495316142718366e-07
 11
10.114334106445312
 21
24.300003051757812
 31
6.495316142718366e-07
  0
LINE
  8
0
 10
10.114334106445312
 20
24.300003051757812
 30
6.495316142718366e-07
 11
9.954498291015625
 21
23.914108276367188
 31
6.495316142718366e-07
  0
LINE
  8
0
 10
9.954498291015625
 20
23.914108276367188
 30
6.495316142718366e-07
 11
9.899978637695312
 21
23.5
 31
6.495316142718366e-07
  0
LINE
  8
0
 10
18.0999755859375
 20
23.5
 30
6.495316142718366e-07
 11
18.045455932617188
 21
23.914108276367188
 31
6.495316142718366e-07
  0
LINE
  8
0
 10
18.045455932617188
 20
23.914108276367188
 30
6.495316142718366e-07
 11
17.8856201171875
 21
24.300003051757812
 31
6.495316142718366e-07
  0
LINE
  8
0
 10
17.8856201171875
 20
24.300003051757812
 30
6.495316142718366e-07
 11
17.63134765625
 21
24.631378173828125
 31
6.495316142718366e-07
  0
LINE
  8
0
 10
17.63134765625
 20
24.631378173828125
 30
6.495316142718366e-07
 11
17.29998779296875
 21
24.885650634765625
 31
6.495316142718366e-07
  0
LINE
  8
0
 10
17.29998779296875
 20
24.885650634765625
 30
6.495316142718366e-07
 11
16.914093017578125
 21
25.04547119140625
 31
6.495316142718366e-07
  0
LINE
  8
0
 10
16.499984741210938
 20
25.100006103515625
 30
6.495316142718366e-07
 11
16.914093017578125
 21
25.04547119140625
 31
6.495316142718366e-07
  0
LINE
  8
0
 10
11.499984741210938
 20
25.100006103515625
 30
6.495316142718366e-07
 11
16.499984741210938
 21
25.100006103515625
 31
6.495316142718366e-07
  0
LINE
  8
0
 10
9.899978637695312
 20
20.5
 30
6.495316142718366e-07
 11
9.899978637695312
 21
23.5
 31
6.495316142718366e-07
  0
LINE
  8
0
 10
18.0999755859375
 20
20.5
 30
6.495316142718366e-07
 11
18.0999755859375
 21
23.5
 31
6.495316142718366e-07
  0
LINE
  8
0
 10
13.399978637695312
 20
12.5
 30
7.031665631984652e-07
 11
13.454498291015625
 21
12.085891723632812
 31
7.031665631984652e-07
  0
LINE
  8
0
 10
13.454498291015625
 20
12.085891723632812
 30
7.031665631984652e-07
 11
13.614334106445312
 21
11.70001220703125
 31
7.031665631984652e-07
  0
LINE
  8
0
 10
13.614334106445312
 20
11.70001220703125
 30
7.031665631984652e-07
 11
13.868606567382812
 21
11.368621826171875
 31
7.031665631984652e-07
  0
LINE
  8
0
 10
13.868606567382812
 20
11.368621826171875
 30
7.031665631984652e-07
 11
14.199981689453125
 21
11.114349365234375
 31
7.031665631984652e-07
  0
LINE
  8
0
 10
14.199981689453125
 20
11.114349365234375
 30
7.031665631984652e-07
 11
14.58587646484375
 21
10.95452880859375
 31
7.031665631984652e-07
  0
LINE
  8
0
 10
14.58587646484375
 20
10.95452880859375
 30
7.031665631984652e-07
 11
14.999984741210938
 21
10.899993896484375
 31
7.031665631984652e-07
  0
LINE
  8
0
 10
19.999984741210938
 20
10.899993896484375
 30
7.031665631984652e-07
 11
20.414093017578125
 21
10.95452880859375
 31
7.031665631984652e-07
  0
LINE
  8
0
 10
20.414093017578125
 20
10.95452880859375
 30
7.031665631984652e-07
 11
20.79998779296875
 21
11.114349365234375
 31
7.031665631984652e-07
  0
LINE
  8
0
 10
20.79998779296875
 20
11.114349365234375
 30
7.031665631984652e-07
 11
21.13134765625
 21
11.368621826171875
 31
7.031665631984652e-07
  0
LINE
  8
0
 10
21.13134765625
 20
11.368621826171875
 30
7.031665631984652e-07
 11
21.3856201171875
 21
11.699996948242188
 31
7.031665631984652e-07
  0
LINE
  8
0
 10
21.3856201171875
 20
11.699996948242188
 30
7.031665631984652e-07
 11
21.545455932617188
 21
12.085891723632812
 31
7.031665631984652e-07
  0
LINE
  8
0
 10
21.545455932617188
 20
12.085891723632812
 30
7.031665631984652e-07
 11
21.5999755859375
 21
12.5
 31
7.031665631984652e-07
  0
LINE
  8
0
 10
14.999984741210938
 20
10.899993896484375
 30
7.031665631984652e-07
 11
19.999984741210938
 21
10.899993896484375
 31
7.031665631984652e-07
  0
LINE
  8
0
 10
14.999984741210938
 20
17.100006103515625
 30
7.031665631984652e-07
 11
14.58587646484375
 21
17.04547119140625
 31
7.031665631984652e-07
  0
LINE
  8
0
 10
14.58587646484375
 20
17.04547119140625
 30
7.031665631984652e-07
 11
14.199981689453125
 21
16.885650634765625
 31
7.031665631984652e-07
  0
LINE
  8
0
 10
14.199981689453125
 20
16.885650634765625
 30
7.031665631984652e-07
 11
13.868606567382812
 21
16.631378173828125
 31
7.031665631984652e-07
  0
LINE
  8
0
 10
13.868606567382812
 20
16.631378173828125
 30
7.031665631984652e-07
 11
13.614334106445312
 21
16.300003051757812
 31
7.031665631984652e-07
  0
LINE
  8
0
 10
13.614334106445312
 20
16.300003051757812
 30
7.031665631984652e-07
 11
13.454498291015625
 21
15.914108276367188
 31
7.031665631984652e-07
  0
LINE
  8
0
 10
13.454498291015625
 20
15.914108276367188
 30
7.031665631984652e-07
 11
13.399978637695312
 21
15.5
 31
7.031665631984652e-07
  0
LINE
  8
0
 10
21.5999755859375
 20
15.5
 30
7.031665631984652e-07
 11
21.545455932617188
 21
15.914108276367188
 31
7.031665631984652e-07
  0
LINE
  8
0
 10
21.545455932617188
 20
15.914108276367188
 30
7.031665631984652e-07
 11
21.3856201171875
 21
16.300003051757812
 31
7.031665631984652e-07
  0
LINE
  8
0
 10
21.3856201171875
 20
16.300003051757812
 30
7.031665631984652e-07
 11
21.13134765625
 21
16.631378173828125
 31
7.031665631984652e-07
  0
LINE
  8
0
 10
21.13134765625
 20
16.631378173828125
 30
7.031665631984652e-07
 11
20.79998779296875
 21
16.885650634765625
 31
7.031665631984652e-07
  0
LINE
  8
0
 10
20.79998779296875
 20
16.885650634765625
 30
7.031665631984652e-07
 11
20.414093017578125
 21
17.04547119140625
 31
7.031665631984652e-07
  0
LINE
  8
0
 10
19.999984741210938
 20
17.100006103515625
 30
7.031665631984652e-07
 11
20.414093017578125
 21
17.04547119140625
 31
7.031665631984652e-07
  0
LINE
  8
0
 10
14.999984741210938
 20
17.100006103515625
 30
7.031665631984652e-07
 11
19.999984741210938
 21
17.100006103515625
 31
7.031665631984652e-07
  0
LINE
  8
0
 10
13.399978637695312
 20
12.5
 30
7.031665631984652e-07
 11
13.399978637695312
 21
15.5
 31
7.031665631984652e-07
  0
LINE
  8
0
 10
21.5999755859375
 20
12.5
 30
7.031665631984652e-07
 11
21.5999755859375
 21
15.5
 31
7.031665631984652e-07
  0
LINE
  8
0
 10
73.09999084472656
 20
203.0
 30
0.0
 11
73.04547882080078
 21
203.4141082763672
 31
0.0
  0
LINE
  8
0
 10
73.04547882080078
 20
203.4141082763672
 30
0.0
 11
72.88563537597656
 21
203.8000030517578
 31
0.0
  0
LINE
  8
0
 10
72.88563537597656
 20
203.8000030517578
 30
0.0
 11
72.63136291503906
 21
204.13137817382812
 31
0.0
  0
LINE
  8
0
 10
72.63136291503906
 20
204.13137817382812
 30
0.0
 11
72.29999542236328
 21
204.38563537597656
 31
0.0
  0
LINE
  8
0
 10
72.29999542236328
 20
204.38563537597656
 30
0.0
 11
71.91410827636719
 21
204.5454864501953
 31
0.0
  0
LINE
  8
0
 10
71.91410827636719
 20
204.5454864501953
 30
0.0
 11
71.5
 21
204.60000610351562
 31
0.0
  0
LINE
  8
0
 10
71.5
 20
204.60000610351562
 30
0.0
 11
71.08588409423828
 21
204.5454864501953
 31
0.0
  0
LINE
  8
0
 10
71.08588409423828
 20
204.5454864501953
 30
0.0
 11
70.69999694824219
 21
204.38563537597656
 31
0.0
  0
LINE
  8
0
 10
70.69999694824219
 20
204.38563537597656
 30
0.0
 11
70.36862182617188
 21
204.13137817382812
 31
0.0
  0
LINE
  8
0
 10
70.36862182617188
 20
204.13137817382812
 30
0.0
 11
70.1143569946289
 21
203.8000030517578
 31
0.0
  0
LINE
  8
0
 10
70.1143569946289
 20
203.8000030517578
 30
0.0
 11
69.95451354980469
 21
203.4141082763672
 31
0.0
  0
LINE
  8
0
 10
69.95451354980469
 20
203.4141082763672
 30
0.0
 11
69.89999389648438
 21
203.0
 31
0.0
  0
LINE
  8
0
 10
69.89999389648438
 20
203.0
 30
0.0
 11
69.95451354980469
 21
202.5858917236328
 31
0.0
  0
LINE
  8
0
 10
69.95451354980469
 20
202.5858917236328
 30
0.0
 11
70.1143569946289
 21
202.1999969482422
 31
0.0
  0
LINE
  8
0
 10
70.1143569946289
 20
202.1999969482422
 30
0.0
 11
70.36862182617188
 21
201.86862182617188
 31
0.0
  0
LINE
  8
0
 10
70.36862182617188
 20
201.86862182617188
 30
0.0
 11
70.69999694824219
 21
201.61436462402344
 31
0.0
  0
LINE
  8
0
 10
70.69999694824219
 20
201.61436462402344
 30
0.0
 11
71.08588409423828
 21
201.4545135498047
 31
0.0
  0
LINE
  8
0
 10
71.08588409423828
 20
201.4545135498047
 30
0.0
 11
71.5
 21
201.39999389648438
 31
0.0
  0
LINE
  8
0
 10
71.5
 20
201.39999389648438
 30
0.0
 11
71.91410827636719
 21
201.4545135498047
 31
0.0
  0
LINE
  8
0
 10
71.91410827636719
 20
201.4545135498047
 30
0.0
 11
72.29999542236328
 21
201.61434936523438
 31
0.0
  0
LINE
  8
0
 10
72.29999542236328
 20
201.61434936523438
 30
0.0
 11
72.63136291503906
 21
201.86862182617188
 31
0.0
  0
LINE
  8
0
 10
72.63136291503906
 20
201.86862182617188
 30
0.0
 11
72.88563537597656
 21
202.1999969482422
 31
0.0
  0
LINE
  8
0
 10
72.88563537597656
 20
202.1999969482422
 30
0.0
 11
73.04547882080078
 21
202.5858917236328
 31
0.0
  0
LINE
  8
0
 10
73.09999084472656
 20
203.0
 30
0.0
 11
73.04547882080078
 21
202.5858917236328
 31
0.0
  0
LINE
  8
0
 10
73.09998321533203
 20
111.0
 30
0.0
 11
73.04547119140625
 21
111.41410064697266
 31
0.0
  0
LINE
  8
0
 10
73.04547119140625
 20
111.41410064697266
 30
0.0
 11
72.88562774658203
 21
111.80000305175781
 31
0.0
  0
LINE
  8
0
 10
72.88562774658203
 20
111.80000305175781
 30
0.0
 11
72.63135528564453
 21
112.13136291503906
 31
0.0
  0
LINE
  8
0
 10
72.63135528564453
 20
112.13136291503906
 30
0.0
 11
72.29998779296875
 21
112.38562774658203
 31
0.0
  0
LINE
  8
0
 10
72.29998779296875
 20
112.38562774658203
 30
0.0
 11
71.91410064697266
 21
112.54548645019531
 31
0.0
  0
LINE
  8
0
 10
71.91410064697266
 20
112.54548645019531
 30
0.0
 11
71.49999237060547
 21
112.60000610351562
 31
0.0
  0
LINE
  8
0
 10
71.49999237060547
 20
112.60000610351562
 30
0.0
 11
71.08587646484375
 21
112.54547882080078
 31
0.0
  0
LINE
  8
0
 10
71.08587646484375
 20
112.54547882080078
 30
0.0
 11
70.69998931884766
 21
112.38563537597656
 31
0.0
  0
LINE
  8
0
 10
70.69998931884766
 20
112.38563537597656
 30
0.0
 11
70.36861419677734
 21
112.13137817382812
 31
0.0
  0
LINE
  8
0
 10
70.36861419677734
 20
112.13137817382812
 30
0.0
 11
70.11434936523438
 21
111.79999542236328
 31
0.0
  0
LINE
  8
0
 10
70.11434936523438
 20
111.79999542236328
 30
0.0
 11
69.95450592041016
 21
111.41410827636719
 31
0.0
  0
LINE
  8
0
 10
69.95450592041016
 20
111.41410827636719
 30
0.0
 11
69.89998626708984
 21
111.0
 31
0.0
  0
LINE
  8
0
 10
69.89998626708984
 20
111.0
 30
0.0
 11
69.95450592041016
 21
110.58589172363281
 31
0.0
  0
LINE
  8
0
 10
69.95450592041016
 20
110.58589172363281
 30
0.0
 11
70.11434936523438
 21
110.19998931884766
 31
0.0
  0
LINE
  8
0
 10
70.11434936523438
 20
110.19998931884766
 30
0.0
 11
70.36861419677734
 21
109.86862182617188
 31
0.0
  0
LINE
  8
0
 10
70.36861419677734
 20
109.86862182617188
 30
0.0
 11
70.69998931884766
 21
109.61436462402344
 31
0.0
  0
LINE
  8
0
 10
70.69998931884766
 20
109.61436462402344
 30
0.0
 11
71.08587646484375
 21
109.45450592041016
 31
0.0
  0
LINE
  8
0
 10
71.08587646484375
 20
109.45450592041016
 30
0.0
 11
71.49999237060547
 21
109.39999389648438
 31
0.0
  0
LINE
  8
0
 10
71.49999237060547
 20
109.39999389648438
 30
0.0
 11
71.91410064697266
 21
109.45451354980469
 31
0.0
  0
LINE
  8
0
 10
71.91410064697266
 20
109.45451354980469
 30
0.0
 11
72.29998779296875
 21
109.6143569946289
 31
0.0
  0
LINE
  8
0
 10
72.29998779296875
 20
109.6143569946289
 30
0.0
 11
72.63135528564453
 21
109.86863708496094
 31
0.0
  0
LINE
  8
0
 10
72.63135528564453
 20
109.86863708496094
 30
0.0
 11
72.88562774658203
 21
110.19999694824219
 31
0.0
  0
LINE
  8
0
 10
72.88562774658203
 20
110.19999694824219
 30
0.0
 11
73.04547119140625
 21
110.58588409423828
 31
0.0
  0
LINE
  8
0
 10
73.09998321533203
 20
111.0
 30
0.0
 11
73.04547119140625
 21
110.58588409423828
 31
0.0
  0
LINE
  8
0
 10
22.349998474121094
 20
203.0
 30
0.0
 11
22.295482635498047
 21
203.4141082763672
 31
0.0
  0
LINE
  8
0
 10
22.295482635498047
 20
203.4141082763672
 30
0.0
 11
22.135639190673828
 21
203.8000030517578
 31
0.0
  0
LINE
  8
0
 10
22.135639190673828
 20
203.8000030517578
 30
0.0
 11
21.881370544433594
 21
204.13137817382812
 31
0.0
  0
LINE
  8
0
 10
21.881370544433594
 20
204.13137817382812
 30
0.0
 11
21.549999237060547
 21
204.38563537597656
 31
0.0
  0
LINE
  8
0
 10
21.549999237060547
 20
204.38563537597656
 30
0.0
 11
21.164112091064453
 21
204.5454864501953
 31
0.0
  0
LINE
  8
0
 10
21.164112091064453
 20
204.5454864501953
 30
0.0
 11
20.75
 21
204.60000610351562
 31
0.0
  0
LINE
  8
0
 10
20.75
 20
204.60000610351562
 30
0.0
 11
20.335887908935547
 21
204.5454864501953
 31
0.0
  0
LINE
  8
0
 10
20.335887908935547
 20
204.5454864501953
 30
0.0
 11
19.950000762939453
 21
204.38563537597656
 31
0.0
  0
LINE
  8
0
 10
19.950000762939453
 20
204.38563537597656
 30
0.0
 11
19.618629455566406
 21
204.13137817382812
 31
0.0
  0
LINE
  8
0
 10
19.618629455566406
 20
204.13137817382812
 30
0.0
 11
19.36435890197754
 21
203.8000030517578
 31
0.0
  0
LINE
  8
0
 10
19.36435890197754
 20
203.8000030517578
 30
0.0
 11
19.204519271850586
 21
203.4141082763672
 31
0.0
  0
LINE
  8
0
 10
19.204519271850586
 20
203.4141082763672
 30
0.0
 11
19.149999618530273
 21
203.0
 31
0.0
  0
LINE
  8
0
 10
19.149999618530273
 20
203.0
 30
0.0
 11
19.204519271850586
 21
202.5858917236328
 31
0.0
  0
LINE
  8
0
 10
19.204519271850586
 20
202.5858917236328
 30
0.0
 11
19.36435890197754
 21
202.1999969482422
 31
0.0
  0
LINE
  8
0
 10
19.36435890197754
 20
202.1999969482422
 30
0.0
 11
19.618629455566406
 21
201.86862182617188
 31
0.0
  0
LINE
  8
0
 10
19.618629455566406
 20
201.86862182617188
 30
0.0
 11
19.94999885559082
 21
201.61436462402344
 31
0.0
  0
LINE
  8
0
 10
19.94999885559082
 20
201.61436462402344
 30
0.0
 11
20.335887908935547
 21
201.4545135498047
 31
0.0
  0
LINE
  8
0
 10
20.335887908935547
 20
201.4545135498047
 30
0.0
 11
20.75
 21
201.39999389648438
 31
0.0
  0
LINE
  8
0
 10
20.75
 20
201.39999389648438
 30
0.0
 11
21.164108276367188
 21
201.4545135498047
 31
0.0
  0
LINE
  8
0
 10
21.164108276367188
 20
201.4545135498047
 30
0.0
 11
21.549999237060547
 21
201.61434936523438
 31
0.0
  0
LINE
  8
0
 10
21.549999237060547
 20
201.61434936523438
 30
0.0
 11
21.881370544433594
 21
201.86862182617188
 31
0.0
  0
LINE
  8
0
 10
21.881370544433594
 20
201.86862182617188
 30
0.0
 11
22.135639190673828
 21
202.1999969482422
 31
0.0
  0
LINE
  8
0
 10
22.135639190673828
 20
202.1999969482422
 30
0.0
 11
22.295482635498047
 21
202.5858917236328
 31
0.0
  0
LINE
  8
0
 10
22.349998474121094
 20
203.0
 30
0.0
 11
22.295482635498047
 21
202.5858917236328
 31
0.0
  0
LINE
  8
0
 10
22.349990844726562
 20
111.0
 30
0.0
 11
22.29547882080078
 21
111.41410827636719
 31
0.0
  0
LINE
  8
0
 10
22.29547882080078
 20
111.41410827636719
 30
0.0
 11
22.135635375976562
 21
111.80000305175781
 31
0.0
  0
LINE
  8
0
 10
22.135635375976562
 20
111.80000305175781
 30
0.0
 11
21.881370544433594
 21
112.1313705444336
 31
0.0
  0
LINE
  8
0
 10
21.881370544433594
 20
112.1313705444336
 30
0.0
 11
21.54999542236328
 21
112.38563537597656
 31
0.0
  0
LINE
  8
0
 10
21.54999542236328
 20
112.38563537597656
 30
0.0
 11
21.164108276367188
 21
112.54548645019531
 31
0.0
  0
LINE
  8
0
 10
21.164108276367188
 20
112.54548645019531
 30
0.0
 11
20.74999237060547
 21
112.5999984741211
 31
0.0
  0
LINE
  8
0
 10
20.74999237060547
 20
112.5999984741211
 30
0.0
 11
20.33588409423828
 21
112.54548645019531
 31
0.0
  0
LINE
  8
0
 10
20.33588409423828
 20
112.54548645019531
 30
0.0
 11
19.949996948242188
 21
112.38563537597656
 31
0.0
  0
LINE
  8
0
 10
19.949996948242188
 20
112.38563537597656
 30
0.0
 11
19.618629455566406
 21
112.1313705444336
 31
0.0
  0
LINE
  8
0
 10
19.618629455566406
 20
112.1313705444336
 30
0.0
 11
19.364356994628906
 21
111.80000305175781
 31
0.0
  0
LINE
  8
0
 10
19.364356994628906
 20
111.80000305175781
 30
0.0
 11
19.204513549804688
 21
111.41410827636719
 31
0.0
  0
LINE
  8
0
 10
19.204513549804688
 20
111.41410827636719
 30
0.0
 11
19.149993896484375
 21
111.0
 31
0.0
  0
LINE
  8
0
 10
19.149993896484375
 20
111.0
 30
0.0
 11
19.204513549804688
 21
110.58589172363281
 31
0.0
  0
LINE
  8
0
 10
19.204513549804688
 20
110.58589172363281
 30
0.0
 11
19.364356994628906
 21
110.19999694824219
 31
0.0
  0
LINE
  8
0
 10
19.364356994628906
 20
110.19999694824219
 30
0.0
 11
19.618629455566406
 21
109.8686294555664
 31
0.0
  0
LINE
  8
0
 10
19.618629455566406
 20
109.8686294555664
 30
0.0
 11
19.949996948242188
 21
109.61436462402344
 31
0.0
  0
LINE
  8
0
 10
19.949996948242188
 20
109.61436462402344
 30
0.0
 11
20.33588409423828
 21
109.45451354980469
 31
0.0
  0
LINE
  8
0
 10
20.33588409423828
 20
109.45451354980469
 30
0.0
 11
20.74999237060547
 21
109.4000015258789
 31
0.0
  0
LINE
  8
0
 10
20.74999237060547
 20
109.4000015258789
 30
0.0
 11
21.164108276367188
 21
109.45451354980469
 31
0.0
  0
LINE
  8
0
 10
21.164108276367188
 20
109.45451354980469
 30
0.0
 11
21.54999542236328
 21
109.61436462402344
 31
0.0
  0
LINE
  8
0
 10
21.54999542236328
 20
109.61436462402344
 30
0.0
 11
21.881370544433594
 21
109.8686294555664
 31
0.0
  0
LINE
  8
0
 10
21.881370544433594
 20
109.8686294555664
 30
0.0
 11
22.135635375976562
 21
110.19999694824219
 31
0.0
  0
LINE
  8
0
 10
22.135635375976562
 20
110.19999694824219
 30
0.0
 11
22.29547882080078
 21
110.58589172363281
 31
0.0
  0
LINE
  8
0
 10
22.349990844726562
 20
111.0
 30
0.0
 11
22.29547882080078
 21
110.58589172363281
 31
0.0
  0
LINE
  8
0
 10
80.0
 20
210.0
 30
0.0
 11
80.51763916015625
 21
209.93185424804688
 31
0.0
  0
LINE
  8
0
 10
80.51763916015625
 20
209.93185424804688
 30
0.0
 11
81.0
 21
209.7320556640625
 31
0.0
  0
LINE
  8
0
 10
81.0
 20
209.7320556640625
 30
0.0
 11
81.41421508789062
 21
209.41421508789062
 31
0.0
  0
LINE
  8
0
 10
81.41421508789062
 20
209.41421508789062
 30
0.0
 11
81.7320556640625
 21
209.0
 31
0.0
  0
LINE
  8
0
 10
81.7320556640625
 20
209.0
 30
0.0
 11
81.93185424804688
 21
208.51763916015625
 31
0.0
  0
LINE
  8
0
 10
82.0
 20
208.0
 30
0.0
 11
81.93185424804688
 21
208.51763916015625
 31
0.0
  0
LINE
  8
0
 10
80.0
 20
2.0
 30
0.0
 11
80.51763916015625
 21
2.068145751953125
 31
0.0
  0
LINE
  8
0
 10
81.0
 20
2.2679443359375
 30
0.0
 11
80.51763916015625
 21
2.068145751953125
 31
0.0
  0
LINE
  8
0
 10
81.41421508789062
 20
2.585784912109375
 30
0.0
 11
81.0
 21
2.2679443359375
 31
0.0
  0
LINE
  8
0
 10
81.73204803466797
 20
3.0
 30
0.0
 11
81.41421508789062
 21
2.585784912109375
 31
0.0
  0
LINE
  8
0
 10
81.93184661865234
 20
3.48236083984375
 30
0.0
 11
81.73204803466797
 21
3.0
 31
0.0
  0
LINE
  8
0
 10
81.99999237060547
 20
4.0
 30
0.0
 11
81.93184661865234
 21
3.48236083984375
 31
0.0
  0
LINE
  8
0
 10
3.9999847412109375
 20
2.0
 30
0.0
 11
3.4823455810546875
 21
2.068145751953125
 31
0.0
  0
LINE
  8
0
 10
3.4823455810546875
 20
2.068145751953125
 30
0.0
 11
2.9999847412109375
 21
2.2679443359375
 31
0.0
  0
LINE
  8
0
 10
2.9999847412109375
 20
2.2679443359375
 30
0.0
 11
2.5857696533203125
 21
2.585784912109375
 31
0.0
  0
LINE
  8
0
 10
2.5857696533203125
 20
2.585784912109375
 30
0.0
 11
2.2679443359375
 21
3.0
 31
0.0
  0
LINE
  8
0
 10
2.2679443359375
 20
3.0
 30
0.0
 11
2.068145751953125
 21
3.48236083984375
 31
0.0
  0
LINE
  8
0
 10
1.9999847412109375
 20
4.0
 30
0.0
 11
2.068145751953125
 21
3.48236083984375
 31
0.0
  0
LINE
  8
0
 10
4.0
 20
210.0
 30
0.0
 11
3.48236083984375
 21
209.93185424804688
 31
0.0
  0
LINE
  8
0
 10
3.0
 20
209.7320556640625
 30
0.0
 11
3.48236083984375
 21
209.93185424804688
 31
0.0
  0
LINE
  8
0
 10
2.585784912109375
 20
209.41421508789062
 30
0.0
 11
3.0
 21
209.7320556640625
 31
0.0
  0
LINE
  8
0
 10
2.2679479122161865
 20
209.0
 30
0.0
 11
2.585784912109375
 21
209.41421508789062
 31
0.0
  0
LINE
  8
0
 10
2.0681493282318115
 20
208.51763916015625
 30
0.0
 11
2.2679479122161865
 21
209.0
 31
0.0
  0
LINE
  8
0
 10
2.0
 20
208.0
 30
0.0
 11
2.0681493282318115
 21
208.51763916015625
 31
0.0
  0
LINE
  8
0
 10
2.0
 20
208.0
 30
0.0
 11
1.9999847412109375
 21
4.0
 31
0.0
  0
LINE
  8
0
 10
4.0
 20
210.0
 30
0.0
 11
80.0
 21
210.0
 31
0.0
  0
LINE
  8
0
 10
82.0
 20
208.0
 30
0.0
 11
81.99999237060547
 21
4.0
 31
0.0
  0
LINE
  8
0
 10
3.9999847412109375
 20
2.0
 30
0.0
 11
80.0
 21
2.0
 31
0.0
  0
LINE
  8
0
 10
6.499996185302734
 20
153.10000610351562
 30
0.0
 11
6.085887908935547
 21
153.04547119140625
 31
0.0
  0
LINE
  8
0
 10
6.085887908935547
 20
153.04547119140625
 30
0.0
 11
5.700000762939453
 21
152.88565063476562
 31
0.0
  0
LINE
  8
0
 10
5.700000762939453
 20
152.88565063476562
 30
0.0
 11
5.368625640869141
 21
152.63137817382812
 31
0.0
  0
LINE
  8
0
 10
5.368625640869141
 20
152.63137817382812
 30
0.0
 11
5.114353179931641
 21
152.3000030517578
 31
0.0
  0
LINE
  8
0
 10
5.114353179931641
 20
152.3000030517578
 30
0.0
 11
4.954517364501953
 21
151.9141082763672
 31
0.0
  0
LINE
  8
0
 10
4.954517364501953
 20
151.9141082763672
 30
0.0
 11
4.899997711181641
 21
151.5
 31
0.0
  0
LINE
  8
0
 10
4.899997711181641
 20
146.5
 30
0.0
 11
4.954517364501953
 21
146.0858917236328
 31
0.0
  0
LINE
  8
0
 10
4.954517364501953
 20
146.0858917236328
 30
0.0
 11
5.114353179931641
 21
145.6999969482422
 31
0.0
  0
LINE
  8
0
 10
5.114353179931641
 20
145.6999969482422
 30
0.0
 11
5.368625640869141
 21
145.36862182617188
 31
0.0
  0
LINE
  8
0
 10
5.368625640869141
 20
145.36862182617188
 30
0.0
 11
5.699993133544922
 21
145.11434936523438
 31
0.0
  0
LINE
  8
0
 10
5.699993133544922
 20
145.11434936523438
 30
0.0
 11
6.085887908935547
 21
144.95452880859375
 31
0.0
  0
LINE
  8
0
 10
6.085887908935547
 20
144.95452880859375
 30
0.0
 11
6.499996185302734
 21
144.89999389648438
 31
0.0
  0
LINE
  8
0
 10
4.899997711181641
 20
151.5
 30
0.0
 11
4.899997711181641
 21
146.5
 31
0.0
  0
LINE
  8
0
 10
11.099994659423828
 20
151.5
 30
0.0
 11
11.045475006103516
 21
151.9141082763672
 31
0.0
  0
LINE
  8
0
 10
11.045475006103516
 20
151.9141082763672
 30
0.0
 11
10.885639190673828
 21
152.29998779296875
 31
0.0
  0
LINE
  8
0
 10
10.885639190673828
 20
152.29998779296875
 30
0.0
 11
10.631366729736328
 21
152.63137817382812
 31
0.0
  0
LINE
  8
0
 10
10.631366729736328
 20
152.63137817382812
 30
0.0
 11
10.299999237060547
 21
152.88565063476562
 31
0.0
  0
LINE
  8
0
 10
10.299999237060547
 20
152.88565063476562
 30
0.0
 11
9.914104461669922
 21
153.04547119140625
 31
0.0
  0
LINE
  8
0
 10
9.914104461669922
 20
153.04547119140625
 30
0.0
 11
9.499996185302734
 21
153.10000610351562
 31
0.0
  0
LINE
  8
0
 10
9.499996185302734
 20
144.89999389648438
 30
0.0
 11
9.914104461669922
 21
144.95452880859375
 31
0.0
  0
LINE
  8
0
 10
9.914104461669922
 20
144.95452880859375
 30
0.0
 11
10.299999237060547
 21
145.11434936523438
 31
0.0
  0
LINE
  8
0
 10
10.299999237060547
 20
145.11434936523438
 30
0.0
 11
10.631366729736328
 21
145.36862182617188
 31
0.0
  0
LINE
  8
0
 10
10.631366729736328
 20
145.36862182617188
 30
0.0
 11
10.885639190673828
 21
145.6999969482422
 31
0.0
  0
LINE
  8
0
 10
10.885639190673828
 20
145.6999969482422
 30
0.0
 11
11.045475006103516
 21
146.08587646484375
 31
0.0
  0
LINE
  8
0
 10
11.099994659423828
 20
146.5
 30
0.0
 11
11.045475006103516
 21
146.08587646484375
 31
0.0
  0
LINE
  8
0
 10
11.099994659423828
 20
151.5
 30
0.0
 11
11.099994659423828
 21
146.5
 31
0.0
  0
LINE
  8
0
 10
6.499996185302734
 20
153.10000610351562
 30
0.0
 11
9.499996185302734
 21
153.10000610351562
 31
0.0
  0
LINE
  8
0
 10
6.499996185302734
 20
144.89999389648438
 30
0.0
 11
9.499996185302734
 21
144.89999389648438
 31
0.0
  0
LINE
  8
0
 10
6.499996185302734
 20
143.10000610351562
 30
0.0
 11
6.085887908935547
 21
143.04547119140625
 31
0.0
  0
LINE
  8
0
 10
6.085887908935547
 20
143.04547119140625
 30
0.0
 11
5.700000762939453
 21
142.88565063476562
 31
0.0
  0
LINE
  8
0
 10
5.700000762939453
 20
142.88565063476562
 30
0.0
 11
5.368629455566406
 21
142.63137817382812
 31
0.0
  0
LINE
  8
0
 10
5.368629455566406
 20
142.63137817382812
 30
0.0
 11
5.114356994628906
 21
142.3000030517578
 31
0.0
  0
LINE
  8
0
 10
5.114356994628906
 20
142.3000030517578
 30
0.0
 11
4.954521179199219
 21
141.9141082763672
 31
0.0
  0
LINE
  8
0
 10
4.954521179199219
 20
141.9141082763672
 30
0.0
 11
4.900001525878906
 21
141.5
 31
0.0
  0
LINE
  8
0
 10
4.900001525878906
 20
136.5
 30
0.0
 11
4.954521179199219
 21
136.0858917236328
 31
0.0
  0
LINE
  8
0
 10
4.954521179199219
 20
136.0858917236328
 30
0.0
 11
5.114356994628906
 21
135.6999969482422
 31
0.0
  0
LINE
  8
0
 10
5.114356994628906
 20
135.6999969482422
 30
0.0
 11
5.368629455566406
 21
135.36862182617188
 31
0.0
  0
LINE
  8
0
 10
5.368629455566406
 20
135.36862182617188
 30
0.0
 11
5.6999969482421875
 21
135.11434936523438
 31
0.0
  0
LINE
  8
0
 10
5.6999969482421875
 20
135.11434936523438
 30
0.0
 11
6.0858917236328125
 21
134.95452880859375
 31
0.0
  0
LINE
  8
0
 10
6.0858917236328125
 20
134.95452880859375
 30
0.0
 11
6.5
 21
134.89999389648438
 31
0.0
  0
LINE
  8
0
 10
4.900001525878906
 20
141.5
 30
0.0
 11
4.900001525878906
 21
136.5
 31
0.0
  0
LINE
  8
0
 10
11.099994659423828
 20
141.5
 30
0.0
 11
11.045475006103516
 21
141.9141082763672
 31
0.0
  0
LINE
  8
0
 10
11.045475006103516
 20
141.9141082763672
 30
0.0
 11
10.885639190673828
 21
142.29998779296875
 31
0.0
  0
LINE
  8
0
 10
10.885639190673828
 20
142.29998779296875
 30
0.0
 11
10.631366729736328
 21
142.63137817382812
 31
0.0
  0
LINE
  8
0
 10
10.631366729736328
 20
142.63137817382812
 30
0.0
 11
10.299999237060547
 21
142.88565063476562
 31
0.0
  0
LINE
  8
0
 10
10.299999237060547
 20
142.88565063476562
 30
0.0
 11
9.914104461669922
 21
143.04547119140625
 31
0.0
  0
LINE
  8
0
 10
9.914104461669922
 20
143.04547119140625
 30
0.0
 11
9.499996185302734
 21
143.10000610351562
 31
0.0
  0
LINE
  8
0
 10
9.499992370605469
 20
134.89999389648438
 30
0.0
 11
9.914100646972656
 21
134.95452880859375
 31
0.0
  0
LINE
  8
0
 10
9.914100646972656
 20
134.95452880859375
 30
0.0
 11
10.299995422363281
 21
135.11434936523438
 31
0.0
  0
LINE
  8
0
 10
10.299995422363281
 20
135.11434936523438
 30
0.0
 11
10.631362915039062
 21
135.36862182617188
 31
0.0
  0
LINE
  8
0
 10
10.631362915039062
 20
135.36862182617188
 30
0.0
 11
10.885635375976562
 21
135.6999969482422
 31
0.0
  0
LINE
  8
0
 10
10.885635375976562
 20
135.6999969482422
 30
0.0
 11
11.04547119140625
 21
136.08587646484375
 31
0.0
  0
LINE
  8
0
 10
11.099990844726562
 20
136.5
 30
0.0
 11
11.04547119140625
 21
136.08587646484375
 31
0.0
  0
LINE
  8
0
 10
11.099994659423828
 20
141.5
 30
0.0
 11
11.099990844726562
 21
136.5
 31
0.0
  0
LINE
  8
0
 10
6.499996185302734
 20
143.10000610351562
 30
0.0
 11
9.499996185302734
 21
143.10000610351562
 31
0.0
  0
LINE
  8
0
 10
6.5
 20
134.89999389648438
 30
0.0
 11
9.499992370605469
 21
134.89999389648438
 31
0.0
  0
LINE
  8
0
 10
6.5
 20
133.10000610351562
 30
0.0
 11
6.0858917236328125
 21
133.04547119140625
 31
0.0
  0
LINE
  8
0
 10
6.0858917236328125
 20
133.04547119140625
 30
0.0
 11
5.700004577636719
 21
132.88565063476562
 31
0.0
  0
LINE
  8
0
 10
5.700004577636719
 20
132.88565063476562
 30
0.0
 11
5.368629455566406
 21
132.63137817382812
 31
0.0
  0
LINE
  8
0
 10
5.368629455566406
 20
132.63137817382812
 30
0.0
 11
5.114356994628906
 21
132.3000030517578
 31
0.0
  0
LINE
  8
0
 10
5.114356994628906
 20
132.3000030517578
 30
0.0
 11
4.954521179199219
 21
131.9141082763672
 31
0.0
  0
LINE
  8
0
 10
4.954521179199219
 20
131.9141082763672
 30
0.0
 11
4.900001525878906
 21
131.5
 31
0.0
  0
LINE
  8
0
 10
4.899993896484375
 20
126.5
 30
0.0
 11
4.9545135498046875
 21
126.08589172363281
 31
0.0
  0
LINE
  8
0
 10
4.9545135498046875
 20
126.08589172363281
 30
0.0
 11
5.114349365234375
 21
125.69999694824219
 31
0.0
  0
LINE
  8
0
 10
5.114349365234375
 20
125.69999694824219
 30
0.0
 11
5.368629455566406
 21
125.3686294555664
 31
0.0
  0
LINE
  8
0
 10
5.368629455566406
 20
125.3686294555664
 30
0.0
 11
5.699989318847656
 21
125.1143569946289
 31
0.0
  0
LINE
  8
0
 10
5.699989318847656
 20
125.1143569946289
 30
0.0
 11
6.085884094238281
 21
124.95452117919922
 31
0.0
  0
LINE
  8
0
 10
6.085884094238281
 20
124.95452117919922
 30
0.0
 11
6.499992370605469
 21
124.9000015258789
 31
0.0
  0
LINE
  8
0
 10
4.900001525878906
 20
131.5
 30
0.0
 11
4.899993896484375
 21
126.5
 31
0.0
  0
LINE
  8
0
 10
11.099990844726562
 20
131.5
 30
0.0
 11
11.04547119140625
 21
131.9141082763672
 31
0.0
  0
LINE
  8
0
 10
11.04547119140625
 20
131.9141082763672
 30
0.0
 11
10.885635375976562
 21
132.29998779296875
 31
0.0
  0
LINE
  8
0
 10
10.885635375976562
 20
132.29998779296875
 30
0.0
 11
10.631362915039062
 21
132.63137817382812
 31
0.0
  0
LINE
  8
0
 10
10.631362915039062
 20
132.63137817382812
 30
0.0
 11
10.299995422363281
 21
132.88565063476562
 31
0.0
  0
LINE
  8
0
 10
10.299995422363281
 20
132.88565063476562
 30
0.0
 11
9.914100646972656
 21
133.04547119140625
 31
0.0
  0
LINE
  8
0
 10
9.914100646972656
 20
133.04547119140625
 30
0.0
 11
9.499992370605469
 21
133.10000610351562
 31
0.0
  0
LINE
  8
0
 10
9.499992370605469
 20
124.9000015258789
 30
0.0
 11
9.914100646972656
 21
124.95452117919922
 31
0.0
  0
LINE
  8
0
 10
9.914100646972656
 20
124.95452117919922
 30
0.0
 11
10.299995422363281
 21
125.1143569946289
 31
0.0
  0
LINE
  8
0
 10
10.299995422363281
 20
125.1143569946289
 30
0.0
 11
10.631362915039062
 21
125.3686294555664
 31
0.0
  0
LINE
  8
0
 10
10.631362915039062
 20
125.3686294555664
 30
0.0
 11
10.885635375976562
 21
125.69999694824219
 31
0.0
  0
LINE
  8
0
 10
10.885635375976562
 20
125.69999694824219
 30
0.0
 11
11.04547119140625
 21
126.08588409423828
 31
0.0
  0
LINE
  8
0
 10
11.099990844726562
 20
126.5
 30
0.0
 11
11.04547119140625
 21
126.08588409423828
 31
0.0
  0
LINE
  8
0
 10
11.099990844726562
 20
131.5
 30
0.0
 11
11.099990844726562
 21
126.5
 31
0.0
  0
LINE
  8
0
 10
6.5
 20
133.10000610351562
 30
0.0
 11
9.499992370605469
 21
133.10000610351562
 31
0.0
  0
LINE
  8
0
 10
6.499992370605469
 20
124.9000015258789
 30
0.0
 11
9.499992370605469
 21
124.9000015258789
 31
0.0
  0
LINE
  8
0
 10
6.499992370605469
 20
123.0999984741211
 30
0.0
 11
6.085884094238281
 21
123.04547882080078
 31
0.0
  0
LINE
  8
0
 10
6.085884094238281
 20
123.04547882080078
 30
0.0
 11
5.700004577636719
 21
122.8856430053711
 31
0.0
  0
LINE
  8
0
 10
5.700004577636719
 20
122.8856430053711
 30
0.0
 11
5.368629455566406
 21
122.6313705444336
 31
0.0
  0
LINE
  8
0
 10
5.368629455566406
 20
122.6313705444336
 30
0.0
 11
5.114349365234375
 21
122.30000305175781
 31
0.0
  0
LINE
  8
0
 10
5.114349365234375
 20
122.30000305175781
 30
0.0
 11
4.9545135498046875
 21
121.91410827636719
 31
0.0
  0
LINE
  8
0
 10
4.9545135498046875
 20
121.91410827636719
 30
0.0
 11
4.899993896484375
 21
121.5
 31
0.0
  0
LINE
  8
0
 10
4.899993896484375
 20
116.5
 30
0.0
 11
4.9545135498046875
 21
116.08589172363281
 31
0.0
  0
LINE
  8
0
 10
4.9545135498046875
 20
116.08589172363281
 30
0.0
 11
5.114349365234375
 21
115.69999694824219
 31
0.0
  0
LINE
  8
0
 10
5.114349365234375
 20
115.69999694824219
 30
0.0
 11
5.368621826171875
 21
115.3686294555664
 31
0.0
  0
LINE
  8
0
 10
5.368621826171875
 20
115.3686294555664
 30
0.0
 11
5.699989318847656
 21
115.1143569946289
 31
0.0
  0
LINE
  8
0
 10
5.699989318847656
 20
115.1143569946289
 30
0.0
 11
6.085884094238281
 21
114.95452117919922
 31
0.0
  0
LINE
  8
0
 10
6.085884094238281
 20
114.95452117919922
 30
0.0
 11
6.499992370605469
 21
114.9000015258789
 31
0.0
  0
LINE
  8
0
 10
4.899993896484375
 20
121.5
 30
0.0
 11
4.899993896484375
 21
116.5
 31
0.0
  0
LINE
  8
0
 10
11.099990844726562
 20
121.5
 30
0.0
 11
11.04547119140625
 21
121.91410827636719
 31
0.0
  0
LINE
  8
0
 10
11.04547119140625
 20
121.91410827636719
 30
0.0
 11
10.885635375976562
 21
122.29999542236328
 31
0.0
  0
LINE
  8
0
 10
10.885635375976562
 20
122.29999542236328
 30
0.0
 11
10.631362915039062
 21
122.6313705444336
 31
0.0
  0
LINE
  8
0
 10
10.631362915039062
 20
122.6313705444336
 30
0.0
 11
10.299995422363281
 21
122.8856430053711
 31
0.0
  0
LINE
  8
0
 10
10.299995422363281
 20
122.8856430053711
 30
0.0
 11
9.914100646972656
 21
123.04547882080078
 31
0.0
  0
LINE
  8
0
 10
9.914100646972656
 20
123.04547882080078
 30
0.0
 11
9.499992370605469
 21
123.0999984741211
 31
0.0
  0
LINE
  8
0
 10
9.499992370605469
 20
114.9000015258789
 30
0.0
 11
9.914100646972656
 21
114.95452117919922
 31
0.0
  0
LINE
  8
0
 10
9.914100646972656
 20
114.95452117919922
 30
0.0
 11
10.299995422363281
 21
115.1143569946289
 31
0.0
  0
LINE
  8
0
 10
10.299995422363281
 20
115.1143569946289
 30
0.0
 11
10.631362915039062
 21
115.3686294555664
 31
0.0
  0
LINE
  8
0
 10
10.631362915039062
 20
115.3686294555664
 30
0.0
 11
10.885635375976562
 21
115.69999694824219
 31
0.0
  0
LINE
  8
0
 10
10.885635375976562
 20
115.69999694824219
 30
0.0
 11
11.04547119140625
 21
116.08588409423828
 31
0.0
  0
LINE
  8
0
 10
11.099990844726562
 20
116.5
 30
0.0
 11
11.04547119140625
 21
116.08588409423828
 31
0.0
  0
LINE
  8
0
 10
11.099990844726562
 20
121.5
 30
0.0
 11
11.099990844726562
 21
116.5
 31
0.0
  0
LINE
  8
0
 10
6.499992370605469
 20
123.0999984741211
 30
0.0
 11
9.499992370605469
 21
123.0999984741211
 31
0.0
  0
LINE
  8
0
 10
6.499992370605469
 20
114.9000015258789
 30
0.0
 11
9.499992370605469
 21
114.9000015258789
 31
0.0
  0
LINE
  8
0
 10
75.69999694824219
 20
198.89999389648438
 30
0.0
 11
75.69998931884766
 21
115.09999084472656
 31
0.0
  0
LINE
  8
0
 10
74.09998321533203
 20
113.5
 30
0.0
 11
18.29998779296875
 21
113.5
 31
0.0
  0
LINE
  8
0
 10
74.09999084472656
 20
200.5
 30
0.0
 11
18.29999542236328
 21
200.5
 31
0.0
  0
LINE
  8
0
 10
16.699995040893555
 20
193.8000030517578
 30
0.0
 11
16.699989318847656
 21
115.0999984741211
 31
0.0
  0
LINE
  8
0
 10
17.200000762939453
 20
200.5
 30
0.0
 11
17.10580825805664
 21
201.07662963867188
 31
0.0
  0
LINE
  8
0
 10
17.10580825805664
 20
201.07662963867188
 30
0.0
 11
16.826093673706055
 21
202.12051391601562
 31
0.0
  0
LINE
  8
0
 10
16.826093673706055
 20
202.12051391601562
 30
0.0
 11
16.36935806274414
 21
203.10000610351562
 31
0.0
  0
LINE
  8
0
 10
16.36935806274414
 20
203.10000610351562
 30
0.0
 11
15.749475479125977
 21
203.9852752685547
 31
0.0
  0
LINE
  8
0
 10
15.749475479125977
 20
203.9852752685547
 30
0.0
 11
14.985282897949219
 21
204.74948120117188
 31
0.0
  0
LINE
  8
0
 10
14.985282897949219
 20
204.74948120117188
 30
0.0
 11
14.100000381469727
 21
205.36935424804688
 31
0.0
  0
LINE
  8
0
 10
14.100000381469727
 20
205.36935424804688
 30
0.0
 11
13.120525360107422
 21
205.8260955810547
 31
0.0
  0
LINE
  8
0
 10
13.120525360107422
 20
205.8260955810547
 30
0.0
 11
12.076618194580078
 21
206.10580444335938
 31
0.0
  0
LINE
  8
0
 10
12.076618194580078
 20
206.10580444335938
 30
0.0
 11
11.0
 21
206.1999969482422
 31
0.0
  0
LINE
  8
0
 10
11.0
 20
206.1999969482422
 30
0.0
 11
9.923381805419922
 21
206.10580444335938
 31
0.0
  0
LINE
  8
0
 10
9.923381805419922
 20
206.10580444335938
 30
0.0
 11
8.879474639892578
 21
205.8260955810547
 31
0.0
  0
LINE
  8
0
 10
8.879474639892578
 20
205.8260955810547
 30
0.0
 11
7.900001049041748
 21
205.36935424804688
 31
0.0
  0
LINE
  8
0
 10
7.900001049041748
 20
205.36935424804688
 30
0.0
 11
7.014716625213623
 21
204.74948120117188
 31
0.0
  0
LINE
  8
0
 10
7.014716625213623
 20
204.74948120117188
 30
0.0
 11
6.250525951385498
 21
203.98529052734375
 31
0.0
  0
LINE
  8
0
 10
6.250525951385498
 20
203.98529052734375
 30
0.0
 11
5.630641460418701
 21
203.10000610351562
 31
0.0
  0
LINE
  8
0
 10
5.630641460418701
 20
203.10000610351562
 30
0.0
 11
5.17390775680542
 21
202.1205291748047
 31
0.0
  0
LINE
  8
0
 10
5.17390775680542
 20
202.1205291748047
 30
0.0
 11
4.894191265106201
 21
201.07662963867188
 31
0.0
  0
LINE
  8
0
 10
4.894191265106201
 20
201.07662963867188
 30
0.0
 11
4.799998760223389
 21
200.0
 31
0.0
  0
LINE
  8
0
 10
4.799998760223389
 20
200.0
 30
0.0
 11
4.894191741943359
 21
198.9233856201172
 31
0.0
  0
LINE
  8
0
 10
4.894191741943359
 20
198.9233856201172
 30
0.0
 11
5.1739044189453125
 21
197.87948608398438
 31
0.0
  0
LINE
  8
0
 10
5.1739044189453125
 20
197.87948608398438
 30
0.0
 11
5.630641937255859
 21
196.89999389648438
 31
0.0
  0
LINE
  8
0
 10
5.630641937255859
 20
196.89999389648438
 30
0.0
 11
6.250522613525391
 21
196.01470947265625
 31
0.0
  0
LINE
  8
0
 10
6.250522613525391
 20
196.01470947265625
 30
0.0
 11
7.014716148376465
 21
195.25051879882812
 31
0.0
  0
LINE
  8
0
 10
7.014716148376465
 20
195.25051879882812
 30
0.0
 11
7.899996757507324
 21
194.63064575195312
 31
0.0
  0
LINE
  8
0
 10
7.899996757507324
 20
194.63064575195312
 30
0.0
 11
8.879473686218262
 21
194.1739044189453
 31
0.0
  0
LINE
  8
0
 10
8.879473686218262
 20
194.1739044189453
 30
0.0
 11
9.92337703704834
 21
193.89419555664062
 31
0.0
  0
LINE
  8
0
 10
9.92337703704834
 20
193.89419555664062
 30
0.0
 11
10.999995231628418
 21
193.8000030517578
 31
0.0
  0
LINE
  8
0
 10
18.29999542236328
 20
200.5
 30
0.0
 11
17.200000762939453
 21
200.5
 31
0.0
  0
LINE
  8
0
 10
16.699995040893555
 20
193.8000030517578
 30
0.0
 11
10.999995231628418
 21
193.8000030517578
 31
0.0
  0
LINE
  8
0
 10
16.029991149902344
 20
114.43000793457031
 30
0.0
 11
16.084510803222656
 21
114.0158920288086
 31
0.0
  0
LINE
  8
0
 10
16.084510803222656
 20
114.0158920288086
 30
0.0
 11
16.244354248046875
 21
113.62999725341797
 31
0.0
  0
LINE
  8
0
 10
16.244354248046875
 20
113.62999725341797
 30
0.0
 11
16.498619079589844
 21
113.29862976074219
 31
0.0
  0
LINE
  8
0
 10
16.498619079589844
 20
113.29862976074219
 30
0.0
 11
16.829994201660156
 21
113.04436492919922
 31
0.0
  0
LINE
  8
0
 10
16.829994201660156
 20
113.04436492919922
 30
0.0
 11
17.21588134765625
 21
112.88451385498047
 31
0.0
  0
LINE
  8
0
 10
17.21588134765625
 20
112.88451385498047
 30
0.0
 11
17.629989624023438
 21
112.83000183105469
 31
0.0
  0
LINE
  8
0
 10
16.699989318847656
 20
115.0999984741211
 30
0.0
 11
16.029991149902344
 21
114.43000793457031
 31
0.0
  0
LINE
  8
0
 10
18.29998779296875
 20
113.5
 30
0.0
 11
17.629989624023438
 21
112.83000183105469
 31
0.0
  0
LINE
  8
0
 10
74.76998138427734
 20
112.83000183105469
 30
4.685080767785621e-09
 11
75.18408966064453
 21
112.88450622558594
 31
4.685080767785621e-09
  0
LINE
  8
0
 10
75.18408966064453
 20
112.88450622558594
 30
4.685080767785621e-09
 11
75.56998443603516
 21
113.04435729980469
 31
4.685080767785621e-09
  0
LINE
  8
0
 10
75.56998443603516
 20
113.04435729980469
 30
4.685080767785621e-09
 11
75.90135955810547
 21
113.29862976074219
 31
4.685080767785621e-09
  0
LINE
  8
0
 10
75.90135955810547
 20
113.29862976074219
 30
4.685080767785621e-09
 11
76.15562438964844
 21
113.62999725341797
 31
4.685080767785621e-09
  0
LINE
  8
0
 10
76.15562438964844
 20
113.62999725341797
 30
4.685080767785621e-09
 11
76.31546783447266
 21
114.01588439941406
 31
4.685080767785621e-09
  0
LINE
  8
0
 10
76.36998748779297
 20
114.42999267578125
 30
4.685080767785621e-09
 11
76.31546783447266
 21
114.01588439941406
 31
4.685080767785621e-09
  0
LINE
  8
0
 10
74.09998321533203
 20
113.5
 30
0.0
 11
74.76998138427734
 21
112.83000183105469
 31
4.685080767785621e-09
  0
LINE
  8
0
 10
75.69998931884766
 20
115.09999084472656
 30
0.0
 11
76.36998748779297
 21
114.42999267578125
 31
4.685080767785621e-09
  0
LINE
  8
0
 10
76.3699951171875
 20
199.5699920654297
 30
-2.783095975900096e-09
 11
76.31547546386719
 21
199.98410034179688
 31
-2.783095975900096e-09
  0
LINE
  8
0
 10
76.31547546386719
 20
199.98410034179688
 30
-2.783095975900096e-09
 11
76.15563201904297
 21
200.3699951171875
 31
-2.783095975900096e-09
  0
LINE
  8
0
 10
76.15563201904297
 20
200.3699951171875
 30
-2.783095975900096e-09
 11
75.9013671875
 21
200.7013702392578
 31
-2.783095975900096e-09
  0
LINE
  8
0
 10
75.9013671875
 20
200.7013702392578
 30
-2.783095975900096e-09
 11
75.56999206542969
 21
200.95562744140625
 31
-2.783095975900096e-09
  0
LINE
  8
0
 10
75.56999206542969
 20
200.95562744140625
 30
-2.783095975900096e-09
 11
75.1841049194336
 21
201.115478515625
 31
-2.783095975900096e-09
  0
LINE
  8
0
 10
75.1841049194336
 20
201.115478515625
 30
-2.783095975900096e-09
 11
74.76998901367188
 21
201.1699981689453
 31
-2.783095975900096e-09
  0
LINE
  8
0
 10
75.69999694824219
 20
198.89999389648438
 30
0.0
 11
76.3699951171875
 21
199.5699920654297
 31
-2.783095975900096e-09
  0
LINE
  8
0
 10
74.09999084472656
 20
200.5
 30
0.0
 11
74.76998901367188
 21
201.1699981689453
 31
-2.783095975900096e-09
  0
ENDSEC
  0
EOF
