999
AlanCooper@StartMail.com
0
SECTION
2
ENTITIES
0
POINT
8
Gear
62
0
10
19.5000
20
0.0000
30
0.0000
0
CIRCLE
8
Gear
62
1
10
19.5000
20
0.0000
30
0.0000
40
10.5000
0
CIRCLE
8
Gear
62
4
10
19.5000
20
0.0000
30
0.0000
40
9.2500
0
CIRCLE
8
Gear
62
5
10
19.5000
20
0.0000
30
0.0000
40
11.5000
0
CIRCLE
8
Gear
62
6
10
19.5000
20
0.0000
30
0.0000
40
9.5162
0
POLYLINE
8
Gear
62
2
70
8
66
1
0
VERTEX
70
8
10
19.9145
20
-9.2407
30
0.0000
0
VERTEX
70
8
10
19.9205
20
-9.3737
30
0.0000
0
VERTEX
70
8
10
19.9264
20
-9.5067
30
0.0000
0
VERTEX
70
8
10
19.9284
20
-9.5285
30
0.0000
0
VERTEX
70
8
10
19.9382
20
-9.5934
30
0.0000
0
VERTEX
70
8
10
19.9618
20
-9.7004
30
0.0000
0
VERTEX
70
8
10
19.9832
20
-9.7740
30
0.0000
0
VERTEX
70
8
10
20.0047
20
-9.8476
30
0.0000
0
VERTEX
70
8
10
20.0386
20
-9.9401
30
0.0000
0
VERTEX
70
8
10
20.0726
20
-10.0326
30
0.0000
0
VERTEX
70
8
10
20.1216
20
-10.1427
30
0.0000
0
VERTEX
70
8
10
20.1706
20
-10.2527
30
0.0000
0
VERTEX
70
8
10
20.2372
20
-10.3785
30
0.0000
0
VERTEX
70
8
10
20.3038
20
-10.5043
30
0.0000
0
VERTEX
70
8
10
20.3470
20
-10.5742
30
0.0000
0
VERTEX
70
8
10
20.3902
20
-10.6440
30
0.0000
0
VERTEX
70
8
10
20.4335
20
-10.7138
30
0.0000
0
VERTEX
70
8
10
20.4767
20
-10.7836
30
0.0000
0
VERTEX
70
8
10
20.5310
20
-10.8593
30
0.0000
0
VERTEX
70
8
10
20.5852
20
-10.9349
30
0.0000
0
VERTEX
70
8
10
20.6395
20
-11.0106
30
0.0000
0
VERTEX
70
8
10
20.6937
20
-11.0862
30
0.0000
0
VERTEX
70
8
10
20.7599
20
-11.1664
30
0.0000
0
VERTEX
70
8
10
20.8262
20
-11.2467
30
0.0000
0
VERTEX
70
8
10
20.8924
20
-11.3269
30
0.0000
0
VERTEX
70
8
10
20.9586
20
-11.4071
30
0.0000
0
VERTEX
70
8
10
21.0861
20
-11.3879
30
0.0000
0
VERTEX
70
8
10
21.2136
20
-11.3687
30
0.0000
0
VERTEX
70
8
10
21.3410
20
-11.3495
30
0.0000
0
VERTEX
70
8
10
21.4685
20
-11.3303
30
0.0000
0
VERTEX
70
8
10
21.5081
20
-11.2341
30
0.0000
0
VERTEX
70
8
10
21.5478
20
-11.1379
30
0.0000
0
VERTEX
70
8
10
21.5874
20
-11.0417
30
0.0000
0
VERTEX
70
8
10
21.6270
20
-10.9455
30
0.0000
0
VERTEX
70
8
10
21.6566
20
-10.8573
30
0.0000
0
VERTEX
70
8
10
21.6861
20
-10.7690
30
0.0000
0
VERTEX
70
8
10
21.7157
20
-10.6807
30
0.0000
0
VERTEX
70
8
10
21.7452
20
-10.5925
30
0.0000
0
VERTEX
70
8
10
21.7659
20
-10.5130
30
0.0000
0
VERTEX
70
8
10
21.7867
20
-10.4335
30
0.0000
0
VERTEX
70
8
10
21.8074
20
-10.3541
30
0.0000
0
VERTEX
70
8
10
21.8282
20
-10.2746
30
0.0000
0
VERTEX
70
8
10
21.8547
20
-10.1347
30
0.0000
0
VERTEX
70
8
10
21.8812
20
-9.9949
30
0.0000
0
VERTEX
70
8
10
21.8956
20
-9.8753
30
0.0000
0
VERTEX
70
8
10
21.9100
20
-9.7557
30
0.0000
0
VERTEX
70
8
10
21.9152
20
-9.6573
30
0.0000
0
VERTEX
70
8
10
21.9203
20
-9.5588
30
0.0000
0
VERTEX
70
8
10
21.9192
20
-9.4822
30
0.0000
0
VERTEX
70
8
10
21.9180
20
-9.4055
30
0.0000
0
VERTEX
70
8
10
21.9090
20
-9.2964
30
0.0000
0
VERTEX
70
8
10
21.8992
20
-9.2314
30
0.0000
0
VERTEX
70
8
10
21.8947
20
-9.2100
30
0.0000
0
VERTEX
70
8
10
21.8612
20
-9.0812
30
0.0000
0
VERTEX
70
8
10
21.8277
20
-8.9523
30
0.0000
0
VERTEX
70
8
10
21.9267
20
-8.9218
30
0.0000
0
VERTEX
70
8
10
22.0257
20
-8.8913
30
0.0000
0
VERTEX
70
8
10
22.1247
20
-8.8607
30
0.0000
0
VERTEX
70
8
10
22.2237
20
-8.8302
30
0.0000
0
VERTEX
70
8
10
22.3228
20
-8.7996
30
0.0000
0
VERTEX
70
8
10
22.4218
20
-8.7691
30
0.0000
0
VERTEX
70
8
10
22.5208
20
-8.7385
30
0.0000
0
VERTEX
70
8
10
22.6198
20
-8.7080
30
0.0000
0
VERTEX
70
8
10
22.6647
20
-8.8333
30
0.0000
0
VERTEX
70
8
10
22.7096
20
-8.9586
30
0.0000
0
VERTEX
70
8
10
22.7179
20
-8.9789
30
0.0000
0
VERTEX
70
8
10
22.7465
20
-9.0381
30
0.0000
0
VERTEX
70
8
10
22.8005
20
-9.1333
30
0.0000
0
VERTEX
70
8
10
22.8427
20
-9.1973
30
0.0000
0
VERTEX
70
8
10
22.8849
20
-9.2613
30
0.0000
0
VERTEX
70
8
10
22.9446
20
-9.3397
30
0.0000
0
VERTEX
70
8
10
23.0043
20
-9.4181
30
0.0000
0
VERTEX
70
8
10
23.0836
20
-9.5088
30
0.0000
0
VERTEX
70
8
10
23.1628
20
-9.5995
30
0.0000
0
VERTEX
70
8
10
23.2636
20
-9.7001
30
0.0000
0
VERTEX
70
8
10
23.3643
20
-9.8008
30
0.0000
0
VERTEX
70
8
10
23.4262
20
-9.8547
30
0.0000
0
VERTEX
70
8
10
23.4881
20
-9.9087
30
0.0000
0
VERTEX
70
8
10
23.5500
20
-9.9627
30
0.0000
0
VERTEX
70
8
10
23.6119
20
-10.0167
30
0.0000
0
VERTEX
70
8
10
23.6860
20
-10.0730
30
0.0000
0
VERTEX
70
8
10
23.7601
20
-10.1292
30
0.0000
0
VERTEX
70
8
10
23.8343
20
-10.1855
30
0.0000
0
VERTEX
70
8
10
23.9084
20
-10.2418
30
0.0000
0
VERTEX
70
8
10
23.9953
20
-10.2990
30
0.0000
0
VERTEX
70
8
10
24.0823
20
-10.3561
30
0.0000
0
VERTEX
70
8
10
24.1692
20
-10.4133
30
0.0000
0
VERTEX
70
8
10
24.2561
20
-10.4704
30
0.0000
0
VERTEX
70
8
10
24.3723
20
-10.4145
30
0.0000
0
VERTEX
70
8
10
24.4884
20
-10.3585
30
0.0000
0
VERTEX
70
8
10
24.6046
20
-10.3026
30
0.0000
0
VERTEX
70
8
10
24.7207
20
-10.2467
30
0.0000
0
VERTEX
70
8
10
24.7302
20
-10.1431
30
0.0000
0
VERTEX
70
8
10
24.7397
20
-10.0395
30
0.0000
0
VERTEX
70
8
10
24.7493
20
-9.9359
30
0.0000
0
VERTEX
70
8
10
24.7588
20
-9.8323
30
0.0000
0
VERTEX
70
8
10
24.7610
20
-9.7392
30
0.0000
0
VERTEX
70
8
10
24.7632
20
-9.6462
30
0.0000
0
VERTEX
70
8
10
24.7654
20
-9.5531
30
0.0000
0
VERTEX
70
8
10
24.7676
20
-9.4601
30
0.0000
0
VERTEX
70
8
10
24.7640
20
-9.3780
30
0.0000
0
VERTEX
70
8
10
24.7604
20
-9.2960
30
0.0000
0
VERTEX
70
8
10
24.7568
20
-9.2139
30
0.0000
0
VERTEX
70
8
10
24.7532
20
-9.1319
30
0.0000
0
VERTEX
70
8
10
24.7373
20
-8.9904
30
0.0000
0
VERTEX
70
8
10
24.7215
20
-8.8489
30
0.0000
0
VERTEX
70
8
10
24.7000
20
-8.7304
30
0.0000
0
VERTEX
70
8
10
24.6785
20
-8.6119
30
0.0000
0
VERTEX
70
8
10
24.6544
20
-8.5163
30
0.0000
0
VERTEX
70
8
10
24.6303
20
-8.4208
30
0.0000
0
VERTEX
70
8
10
24.6066
20
-8.3479
30
0.0000
0
VERTEX
70
8
10
24.5829
20
-8.2750
30
0.0000
0
VERTEX
70
8
10
24.5421
20
-8.1733
30
0.0000
0
VERTEX
70
8
10
24.5136
20
-8.1141
30
0.0000
0
VERTEX
70
8
10
24.5030
20
-8.0950
30
0.0000
0
VERTEX
70
8
10
24.4330
20
-7.9818
30
0.0000
0
VERTEX
70
8
10
24.3630
20
-7.8685
30
0.0000
0
VERTEX
70
8
10
24.4486
20
-7.8101
30
0.0000
0
VERTEX
70
8
10
24.5342
20
-7.7518
30
0.0000
0
VERTEX
70
8
10
24.6199
20
-7.6934
30
0.0000
0
VERTEX
70
8
10
24.7055
20
-7.6350
30
0.0000
0
VERTEX
70
8
10
24.7911
20
-7.5767
30
0.0000
0
VERTEX
70
8
10
24.8767
20
-7.5183
30
0.0000
0
VERTEX
70
8
10
24.9623
20
-7.4599
30
0.0000
0
VERTEX
70
8
10
25.0479
20
-7.4015
30
0.0000
0
VERTEX
70
8
10
25.1278
20
-7.5081
30
0.0000
0
VERTEX
70
8
10
25.2076
20
-7.6146
30
0.0000
0
VERTEX
70
8
10
25.2215
20
-7.6315
30
0.0000
0
VERTEX
70
8
10
25.2663
20
-7.6796
30
0.0000
0
VERTEX
70
8
10
25.3460
20
-7.7547
30
0.0000
0
VERTEX
70
8
10
25.4052
20
-7.8034
30
0.0000
0
VERTEX
70
8
10
25.4644
20
-7.8521
30
0.0000
0
VERTEX
70
8
10
25.5445
20
-7.9095
30
0.0000
0
VERTEX
70
8
10
25.6247
20
-7.9668
30
0.0000
0
VERTEX
70
8
10
25.7271
20
-8.0301
30
0.0000
0
VERTEX
70
8
10
25.8296
20
-8.0934
30
0.0000
0
VERTEX
70
8
10
25.9555
20
-8.1599
30
0.0000
0
VERTEX
70
8
10
26.0814
20
-8.2263
30
0.0000
0
VERTEX
70
8
10
26.1565
20
-8.2597
30
0.0000
0
VERTEX
70
8
10
26.2315
20
-8.2930
30
0.0000
0
VERTEX
70
8
10
26.3066
20
-8.3263
30
0.0000
0
VERTEX
70
8
10
26.3817
20
-8.3597
30
0.0000
0
VERTEX
70
8
10
26.4691
20
-8.3916
30
0.0000
0
VERTEX
70
8
10
26.5565
20
-8.4235
30
0.0000
0
VERTEX
70
8
10
26.6439
20
-8.4555
30
0.0000
0
VERTEX
70
8
10
26.7314
20
-8.4874
30
0.0000
0
VERTEX
70
8
10
26.8313
20
-8.5164
30
0.0000
0
VERTEX
70
8
10
26.9312
20
-8.5454
30
0.0000
0
VERTEX
70
8
10
27.0311
20
-8.5744
30
0.0000
0
VERTEX
70
8
10
27.1310
20
-8.6033
30
0.0000
0
VERTEX
70
8
10
27.2255
20
-8.5157
30
0.0000
0
VERTEX
70
8
10
27.3200
20
-8.4280
30
0.0000
0
VERTEX
70
8
10
27.4145
20
-8.3403
30
0.0000
0
VERTEX
70
8
10
27.5090
20
-8.2526
30
0.0000
0
VERTEX
70
8
10
27.4876
20
-8.1508
30
0.0000
0
VERTEX
70
8
10
27.4661
20
-8.0490
30
0.0000
0
VERTEX
70
8
10
27.4447
20
-7.9472
30
0.0000
0
VERTEX
70
8
10
27.4233
20
-7.8454
30
0.0000
0
VERTEX
70
8
10
27.3979
20
-7.7559
30
0.0000
0
VERTEX
70
8
10
27.3726
20
-7.6663
30
0.0000
0
VERTEX
70
8
10
27.3473
20
-7.5767
30
0.0000
0
VERTEX
70
8
10
27.3220
20
-7.4871
30
0.0000
0
VERTEX
70
8
10
27.2944
20
-7.4098
30
0.0000
0
VERTEX
70
8
10
27.2668
20
-7.3324
30
0.0000
0
VERTEX
70
8
10
27.2391
20
-7.2551
30
0.0000
0
VERTEX
70
8
10
27.2115
20
-7.1778
30
0.0000
0
VERTEX
70
8
10
27.1546
20
-7.0473
30
0.0000
0
VERTEX
70
8
10
27.0978
20
-6.9167
30
0.0000
0
VERTEX
70
8
10
27.0423
20
-6.8098
30
0.0000
0
VERTEX
70
8
10
26.9868
20
-6.7029
30
0.0000
0
VERTEX
70
8
10
26.9356
20
-6.6187
30
0.0000
0
VERTEX
70
8
10
26.8844
20
-6.5345
30
0.0000
0
VERTEX
70
8
10
26.8403
20
-6.4718
30
0.0000
0
VERTEX
70
8
10
26.7962
20
-6.4091
30
0.0000
0
VERTEX
70
8
10
26.7272
20
-6.3240
30
0.0000
0
VERTEX
70
8
10
26.6826
20
-6.2758
30
0.0000
0
VERTEX
70
8
10
26.6667
20
-6.2607
30
0.0000
0
VERTEX
70
8
10
26.5665
20
-6.1731
30
0.0000
0
VERTEX
70
8
10
26.4662
20
-6.0855
30
0.0000
0
VERTEX
70
8
10
26.5309
20
-6.0045
30
0.0000
0
VERTEX
70
8
10
26.5955
20
-5.9235
30
0.0000
0
VERTEX
70
8
10
26.6601
20
-5.8425
30
0.0000
0
VERTEX
70
8
10
26.7247
20
-5.7615
30
0.0000
0
VERTEX
70
8
10
26.7893
20
-5.6805
30
0.0000
0
VERTEX
70
8
10
26.8539
20
-5.5995
30
0.0000
0
VERTEX
70
8
10
26.9185
20
-5.5184
30
0.0000
0
VERTEX
70
8
10
26.9831
20
-5.4374
30
0.0000
0
VERTEX
70
8
10
27.0908
20
-5.5157
30
0.0000
0
VERTEX
70
8
10
27.1985
20
-5.5939
30
0.0000
0
VERTEX
70
8
10
27.2168
20
-5.6060
30
0.0000
0
VERTEX
70
8
10
27.2737
20
-5.6388
30
0.0000
0
VERTEX
70
8
10
27.3720
20
-5.6871
30
0.0000
0
VERTEX
70
8
10
27.4429
20
-5.7162
30
0.0000
0
VERTEX
70
8
10
27.5138
20
-5.7452
30
0.0000
0
VERTEX
70
8
10
27.6073
20
-5.7764
30
0.0000
0
VERTEX
70
8
10
27.7008
20
-5.8076
30
0.0000
0
VERTEX
70
8
10
27.8174
20
-5.8379
30
0.0000
0
VERTEX
70
8
10
27.9340
20
-5.8682
30
0.0000
0
VERTEX
70
8
10
28.0739
20
-5.8946
30
0.0000
0
VERTEX
70
8
10
28.2138
20
-5.9209
30
0.0000
0
VERTEX
70
8
10
28.2953
20
-5.9307
30
0.0000
0
VERTEX
70
8
10
28.3769
20
-5.9404
30
0.0000
0
VERTEX
70
8
10
28.4584
20
-5.9501
30
0.0000
0
VERTEX
70
8
10
28.5400
20
-5.9599
30
0.0000
0
VERTEX
70
8
10
28.6329
20
-5.9646
30
0.0000
0
VERTEX
70
8
10
28.7259
20
-5.9693
30
0.0000
0
VERTEX
70
8
10
28.8188
20
-5.9741
30
0.0000
0
VERTEX
70
8
10
28.9118
20
-5.9788
30
0.0000
0
VERTEX
70
8
10
29.0158
20
-5.9771
30
0.0000
0
VERTEX
70
8
10
29.1198
20
-5.9753
30
0.0000
0
VERTEX
70
8
10
29.2239
20
-5.9736
30
0.0000
0
VERTEX
70
8
10
29.3279
20
-5.9718
30
0.0000
0
VERTEX
70
8
10
29.3923
20
-5.8602
30
0.0000
0
VERTEX
70
8
10
29.4568
20
-5.7486
30
0.0000
0
VERTEX
70
8
10
29.5212
20
-5.6369
30
0.0000
0
VERTEX
70
8
10
29.5857
20
-5.5253
30
0.0000
0
VERTEX
70
8
10
29.5352
20
-5.4343
30
0.0000
0
VERTEX
70
8
10
29.4847
20
-5.3434
30
0.0000
0
VERTEX
70
8
10
29.4342
20
-5.2524
30
0.0000
0
VERTEX
70
8
10
29.3837
20
-5.1615
30
0.0000
0
VERTEX
70
8
10
29.3331
20
-5.0833
30
0.0000
0
VERTEX
70
8
10
29.2826
20
-5.0052
30
0.0000
0
VERTEX
70
8
10
29.2320
20
-4.9271
30
0.0000
0
VERTEX
70
8
10
29.1814
20
-4.8489
30
0.0000
0
VERTEX
70
8
10
29.1322
20
-4.7832
30
0.0000
0
VERTEX
70
8
10
29.0830
20
-4.7174
30
0.0000
0
VERTEX
70
8
10
29.0338
20
-4.6516
30
0.0000
0
VERTEX
70
8
10
28.9846
20
-4.5859
30
0.0000
0
VERTEX
70
8
10
28.8918
20
-4.4779
30
0.0000
0
VERTEX
70
8
10
28.7990
20
-4.3700
30
0.0000
0
VERTEX
70
8
10
28.7145
20
-4.2841
30
0.0000
0
VERTEX
70
8
10
28.6299
20
-4.1983
30
0.0000
0
VERTEX
70
8
10
28.5562
20
-4.1329
30
0.0000
0
VERTEX
70
8
10
28.4824
20
-4.0676
30
0.0000
0
VERTEX
70
8
10
28.4218
20
-4.0207
30
0.0000
0
VERTEX
70
8
10
28.3611
20
-3.9738
30
0.0000
0
VERTEX
70
8
10
28.2702
20
-3.9128
30
0.0000
0
VERTEX
70
8
10
28.2133
20
-3.8799
30
0.0000
0
VERTEX
70
8
10
28.1937
20
-3.8701
30
0.0000
0
VERTEX
70
8
10
28.0721
20
-3.8160
30
0.0000
0
VERTEX
70
8
10
27.9505
20
-3.7618
30
0.0000
0
VERTEX
70
8
10
27.9884
20
-3.6654
30
0.0000
0
VERTEX
70
8
10
28.0262
20
-3.5689
30
0.0000
0
VERTEX
70
8
10
28.0641
20
-3.4725
30
0.0000
0
VERTEX
70
8
10
28.1019
20
-3.3760
30
0.0000
0
VERTEX
70
8
10
28.1398
20
-3.2796
30
0.0000
0
VERTEX
70
8
10
28.1776
20
-3.1831
30
0.0000
0
VERTEX
70
8
10
28.2155
20
-3.0866
30
0.0000
0
VERTEX
70
8
10
28.2534
20
-2.9902
30
0.0000
0
VERTEX
70
8
10
28.3793
20
-3.0332
30
0.0000
0
VERTEX
70
8
10
28.5053
20
-3.0762
30
0.0000
0
VERTEX
70
8
10
28.5263
20
-3.0824
30
0.0000
0
VERTEX
70
8
10
28.5904
20
-3.0969
30
0.0000
0
VERTEX
70
8
10
28.6985
20
-3.1141
30
0.0000
0
VERTEX
70
8
10
28.7749
20
-3.1210
30
0.0000
0
VERTEX
70
8
10
28.8512
20
-3.1279
30
0.0000
0
VERTEX
70
8
10
28.9498
20
-3.1301
30
0.0000
0
VERTEX
70
8
10
29.0483
20
-3.1323
30
0.0000
0
VERTEX
70
8
10
29.1686
20
-3.1269
30
0.0000
0
VERTEX
70
8
10
29.2890
20
-3.1215
30
0.0000
0
VERTEX
70
8
10
29.4304
20
-3.1055
30
0.0000
0
VERTEX
70
8
10
29.5719
20
-3.0895
30
0.0000
0
VERTEX
70
8
10
29.6527
20
-3.0747
30
0.0000
0
VERTEX
70
8
10
29.7335
20
-3.0600
30
0.0000
0
VERTEX
70
8
10
29.8143
20
-3.0452
30
0.0000
0
VERTEX
70
8
10
29.8951
20
-3.0305
30
0.0000
0
VERTEX
70
8
10
29.9853
20
-3.0076
30
0.0000
0
VERTEX
70
8
10
30.0755
20
-2.9848
30
0.0000
0
VERTEX
70
8
10
30.1657
20
-2.9619
30
0.0000
0
VERTEX
70
8
10
30.2560
20
-2.9390
30
0.0000
0
VERTEX
70
8
10
30.3548
20
-2.9067
30
0.0000
0
VERTEX
70
8
10
30.4537
20
-2.8744
30
0.0000
0
VERTEX
70
8
10
30.5526
20
-2.8420
30
0.0000
0
VERTEX
70
8
10
30.6515
20
-2.8097
30
0.0000
0
VERTEX
70
8
10
30.6802
20
-2.6840
30
0.0000
0
VERTEX
70
8
10
30.7088
20
-2.5583
30
0.0000
0
VERTEX
70
8
10
30.7375
20
-2.4327
30
0.0000
0
VERTEX
70
8
10
30.7662
20
-2.3070
30
0.0000
0
VERTEX
70
8
10
30.6912
20
-2.2350
30
0.0000
0
VERTEX
70
8
10
30.6161
20
-2.1629
30
0.0000
0
VERTEX
70
8
10
30.5410
20
-2.0909
30
0.0000
0
VERTEX
70
8
10
30.4660
20
-2.0189
30
0.0000
0
VERTEX
70
8
10
30.3946
20
-1.9591
30
0.0000
0
VERTEX
70
8
10
30.3232
20
-1.8994
30
0.0000
0
VERTEX
70
8
10
30.2519
20
-1.8396
30
0.0000
0
VERTEX
70
8
10
30.1805
20
-1.7799
30
0.0000
0
VERTEX
70
8
10
30.1141
20
-1.7315
30
0.0000
0
VERTEX
70
8
10
30.0477
20
-1.6832
30
0.0000
0
VERTEX
70
8
10
29.9813
20
-1.6348
30
0.0000
0
VERTEX
70
8
10
29.9149
20
-1.5865
30
0.0000
0
VERTEX
70
8
10
29.7944
20
-1.5107
30
0.0000
0
VERTEX
70
8
10
29.6739
20
-1.4349
30
0.0000
0
VERTEX
70
8
10
29.5679
20
-1.3778
30
0.0000
0
VERTEX
70
8
10
29.4618
20
-1.3207
30
0.0000
0
VERTEX
70
8
10
29.3721
20
-1.2800
30
0.0000
0
VERTEX
70
8
10
29.2823
20
-1.2392
30
0.0000
0
VERTEX
70
8
10
29.2105
20
-1.2123
30
0.0000
0
VERTEX
70
8
10
29.1388
20
-1.1854
30
0.0000
0
VERTEX
70
8
10
29.0339
20
-1.1539
30
0.0000
0
VERTEX
70
8
10
28.9698
20
-1.1393
30
0.0000
0
VERTEX
70
8
10
28.9482
20
-1.1357
30
0.0000
0
VERTEX
70
8
10
28.8161
20
-1.1198
30
0.0000
0
VERTEX
70
8
10
28.6839
20
-1.1039
30
0.0000
0
VERTEX
70
8
10
28.6916
20
-1.0006
30
0.0000
0
VERTEX
70
8
10
28.6994
20
-0.8972
30
0.0000
0
VERTEX
70
8
10
28.7071
20
-0.7939
30
0.0000
0
VERTEX
70
8
10
28.7149
20
-0.6906
30
0.0000
0
VERTEX
70
8
10
28.7226
20
-0.5872
30
0.0000
0
VERTEX
70
8
10
28.7304
20
-0.4839
30
0.0000
0
VERTEX
70
8
10
28.7381
20
-0.3806
30
0.0000
0
VERTEX
70
8
10
28.7458
20
-0.2772
30
0.0000
0
VERTEX
70
8
10
28.8789
20
-0.2812
30
0.0000
0
VERTEX
70
8
10
29.0120
20
-0.2852
30
0.0000
0
VERTEX
70
8
10
29.0339
20
-0.2849
30
0.0000
0
VERTEX
70
8
10
29.0994
20
-0.2799
30
0.0000
0
VERTEX
70
8
10
29.2078
20
-0.2644
30
0.0000
0
VERTEX
70
8
10
29.2828
20
-0.2485
30
0.0000
0
VERTEX
70
8
10
29.3577
20
-0.2326
30
0.0000
0
VERTEX
70
8
10
29.4526
20
-0.2057
30
0.0000
0
VERTEX
70
8
10
29.5474
20
-0.1788
30
0.0000
0
VERTEX
70
8
10
29.6608
20
-0.1381
30
0.0000
0
VERTEX
70
8
10
29.7741
20
-0.0975
30
0.0000
0
VERTEX
70
8
10
29.9046
20
-0.0405
30
0.0000
0
VERTEX
70
8
10
30.0350
20
0.0165
30
0.0000
0
VERTEX
70
8
10
30.1079
20
0.0544
30
0.0000
0
VERTEX
70
8
10
30.1808
20
0.0923
30
0.0000
0
VERTEX
70
8
10
30.2536
20
0.1302
30
0.0000
0
VERTEX
70
8
10
30.3265
20
0.1681
30
0.0000
0
VERTEX
70
8
10
30.4060
20
0.2166
30
0.0000
0
VERTEX
70
8
10
30.4854
20
0.2650
30
0.0000
0
VERTEX
70
8
10
30.5649
20
0.3135
30
0.0000
0
VERTEX
70
8
10
30.6444
20
0.3619
30
0.0000
0
VERTEX
70
8
10
30.7294
20
0.4220
30
0.0000
0
VERTEX
70
8
10
30.8143
20
0.4820
30
0.0000
0
VERTEX
70
8
10
30.8993
20
0.5420
30
0.0000
0
VERTEX
70
8
10
30.9842
20
0.6021
30
0.0000
0
VERTEX
70
8
10
30.9746
20
0.7306
30
0.0000
0
VERTEX
70
8
10
30.9650
20
0.8592
30
0.0000
0
VERTEX
70
8
10
30.9553
20
0.9877
30
0.0000
0
VERTEX
70
8
10
30.9457
20
1.1163
30
0.0000
0
VERTEX
70
8
10
30.8527
20
1.1630
30
0.0000
0
VERTEX
70
8
10
30.7598
20
1.2097
30
0.0000
0
VERTEX
70
8
10
30.6668
20
1.2564
30
0.0000
0
VERTEX
70
8
10
30.5739
20
1.3031
30
0.0000
0
VERTEX
70
8
10
30.4881
20
1.3392
30
0.0000
0
VERTEX
70
8
10
30.4022
20
1.3752
30
0.0000
0
VERTEX
70
8
10
30.3164
20
1.4113
30
0.0000
0
VERTEX
70
8
10
30.2306
20
1.4474
30
0.0000
0
VERTEX
70
8
10
30.1529
20
1.4740
30
0.0000
0
VERTEX
70
8
10
30.0752
20
1.5006
30
0.0000
0
VERTEX
70
8
10
29.9975
20
1.5272
30
0.0000
0
VERTEX
70
8
10
29.9198
20
1.5538
30
0.0000
0
VERTEX
70
8
10
29.7824
20
1.5907
30
0.0000
0
VERTEX
70
8
10
29.6449
20
1.6277
30
0.0000
0
VERTEX
70
8
10
29.5267
20
1.6510
30
0.0000
0
VERTEX
70
8
10
29.4085
20
1.6743
30
0.0000
0
VERTEX
70
8
10
29.3107
20
1.6867
30
0.0000
0
VERTEX
70
8
10
29.2130
20
1.6992
30
0.0000
0
VERTEX
70
8
10
29.1365
20
1.7038
30
0.0000
0
VERTEX
70
8
10
29.0599
20
1.7083
30
0.0000
0
VERTEX
70
8
10
28.9504
20
1.7075
30
0.0000
0
VERTEX
70
8
10
28.8849
20
1.7026
30
0.0000
0
VERTEX
70
8
10
28.8632
20
1.6997
30
0.0000
0
VERTEX
70
8
10
28.7322
20
1.6759
30
0.0000
0
VERTEX
70
8
10
28.6013
20
1.6522
30
0.0000
0
VERTEX
70
8
10
28.5782
20
1.7532
30
0.0000
0
VERTEX
70
8
10
28.5551
20
1.8542
30
0.0000
0
VERTEX
70
8
10
28.5321
20
1.9552
30
0.0000
0
VERTEX
70
8
10
28.5090
20
2.0563
30
0.0000
0
VERTEX
70
8
10
28.4860
20
2.1573
30
0.0000
0
VERTEX
70
8
10
28.4629
20
2.2583
30
0.0000
0
VERTEX
70
8
10
28.4399
20
2.3593
30
0.0000
0
VERTEX
70
8
10
28.4168
20
2.4603
30
0.0000
0
VERTEX
70
8
10
28.5451
20
2.4958
30
0.0000
0
VERTEX
70
8
10
28.6734
20
2.5312
30
0.0000
0
VERTEX
70
8
10
28.6943
20
2.5379
30
0.0000
0
VERTEX
70
8
10
28.7554
20
2.5620
30
0.0000
0
VERTEX
70
8
10
28.8544
20
2.6087
30
0.0000
0
VERTEX
70
8
10
28.9214
20
2.6460
30
0.0000
0
VERTEX
70
8
10
28.9884
20
2.6834
30
0.0000
0
VERTEX
70
8
10
29.0710
20
2.7370
30
0.0000
0
VERTEX
70
8
10
29.1537
20
2.7907
30
0.0000
0
VERTEX
70
8
10
29.2501
20
2.8630
30
0.0000
0
VERTEX
70
8
10
29.3464
20
2.9352
30
0.0000
0
VERTEX
70
8
10
29.4543
20
3.0281
30
0.0000
0
VERTEX
70
8
10
29.5621
20
3.1210
30
0.0000
0
VERTEX
70
8
10
29.6206
20
3.1787
30
0.0000
0
VERTEX
70
8
10
29.6790
20
3.2364
30
0.0000
0
VERTEX
70
8
10
29.7375
20
3.2941
30
0.0000
0
VERTEX
70
8
10
29.7959
20
3.3518
30
0.0000
0
VERTEX
70
8
10
29.8576
20
3.4215
30
0.0000
0
VERTEX
70
8
10
29.9193
20
3.4913
30
0.0000
0
VERTEX
70
8
10
29.9809
20
3.5610
30
0.0000
0
VERTEX
70
8
10
30.0426
20
3.6307
30
0.0000
0
VERTEX
70
8
10
30.1061
20
3.7131
30
0.0000
0
VERTEX
70
8
10
30.1696
20
3.7955
30
0.0000
0
VERTEX
70
8
10
30.2331
20
3.8779
30
0.0000
0
VERTEX
70
8
10
30.2965
20
3.9604
30
0.0000
0
VERTEX
70
8
10
30.2495
20
4.0804
30
0.0000
0
VERTEX
70
8
10
30.2024
20
4.2004
30
0.0000
0
VERTEX
70
8
10
30.1553
20
4.3204
30
0.0000
0
VERTEX
70
8
10
30.1082
20
4.4404
30
0.0000
0
VERTEX
70
8
10
30.0056
20
4.4576
30
0.0000
0
VERTEX
70
8
10
29.9030
20
4.4748
30
0.0000
0
VERTEX
70
8
10
29.8004
20
4.4921
30
0.0000
0
VERTEX
70
8
10
29.6978
20
4.5093
30
0.0000
0
VERTEX
70
8
10
29.6052
20
4.5185
30
0.0000
0
VERTEX
70
8
10
29.5125
20
4.5276
30
0.0000
0
VERTEX
70
8
10
29.4199
20
4.5368
30
0.0000
0
VERTEX
70
8
10
29.3273
20
4.5460
30
0.0000
0
VERTEX
70
8
10
29.2452
20
4.5485
30
0.0000
0
VERTEX
70
8
10
29.1631
20
4.5510
30
0.0000
0
VERTEX
70
8
10
29.0810
20
4.5536
30
0.0000
0
VERTEX
70
8
10
28.9989
20
4.5561
30
0.0000
0
VERTEX
70
8
10
28.8567
20
4.5508
30
0.0000
0
VERTEX
70
8
10
28.7144
20
4.5456
30
0.0000
0
VERTEX
70
8
10
28.5946
20
4.5330
30
0.0000
0
VERTEX
70
8
10
28.4748
20
4.5205
30
0.0000
0
VERTEX
70
8
10
28.3777
20
4.5036
30
0.0000
0
VERTEX
70
8
10
28.2806
20
4.4867
30
0.0000
0
VERTEX
70
8
10
28.2061
20
4.4685
30
0.0000
0
VERTEX
70
8
10
28.1317
20
4.4503
30
0.0000
0
VERTEX
70
8
10
28.0273
20
4.4172
30
0.0000
0
VERTEX
70
8
10
27.9661
20
4.3932
30
0.0000
0
VERTEX
70
8
10
27.9462
20
4.3840
30
0.0000
0
VERTEX
70
8
10
27.8281
20
4.3227
30
0.0000
0
VERTEX
70
8
10
27.7099
20
4.2614
30
0.0000
0
VERTEX
70
8
10
27.6581
20
4.3511
30
0.0000
0
VERTEX
70
8
10
27.6063
20
4.4409
30
0.0000
0
VERTEX
70
8
10
27.5545
20
4.5306
30
0.0000
0
VERTEX
70
8
10
27.5027
20
4.6204
30
0.0000
0
VERTEX
70
8
10
27.4509
20
4.7101
30
0.0000
0
VERTEX
70
8
10
27.3991
20
4.7998
30
0.0000
0
VERTEX
70
8
10
27.3473
20
4.8896
30
0.0000
0
VERTEX
70
8
10
27.2954
20
4.9793
30
0.0000
0
VERTEX
70
8
10
27.4076
20
5.0510
30
0.0000
0
VERTEX
70
8
10
27.5198
20
5.1226
30
0.0000
0
VERTEX
70
8
10
27.5377
20
5.1352
30
0.0000
0
VERTEX
70
8
10
27.5891
20
5.1762
30
0.0000
0
VERTEX
70
8
10
27.6699
20
5.2501
30
0.0000
0
VERTEX
70
8
10
27.7229
20
5.3055
30
0.0000
0
VERTEX
70
8
10
27.7759
20
5.3609
30
0.0000
0
VERTEX
70
8
10
27.8391
20
5.4365
30
0.0000
0
VERTEX
70
8
10
27.9022
20
5.5122
30
0.0000
0
VERTEX
70
8
10
27.9730
20
5.6096
30
0.0000
0
VERTEX
70
8
10
28.0438
20
5.7071
30
0.0000
0
VERTEX
70
8
10
28.1195
20
5.8277
30
0.0000
0
VERTEX
70
8
10
28.1952
20
5.9483
30
0.0000
0
VERTEX
70
8
10
28.2340
20
6.0206
30
0.0000
0
VERTEX
70
8
10
28.2729
20
6.0930
30
0.0000
0
VERTEX
70
8
10
28.3117
20
6.1653
30
0.0000
0
VERTEX
70
8
10
28.3506
20
6.2377
30
0.0000
0
VERTEX
70
8
10
28.3889
20
6.3225
30
0.0000
0
VERTEX
70
8
10
28.4273
20
6.4073
30
0.0000
0
VERTEX
70
8
10
28.4657
20
6.4921
30
0.0000
0
VERTEX
70
8
10
28.5041
20
6.5769
30
0.0000
0
VERTEX
70
8
10
28.5404
20
6.6744
30
0.0000
0
VERTEX
70
8
10
28.5768
20
6.7718
30
0.0000
0
VERTEX
70
8
10
28.6132
20
6.8693
30
0.0000
0
VERTEX
70
8
10
28.6496
20
6.9667
30
0.0000
0
VERTEX
70
8
10
28.5692
20
7.0675
30
0.0000
0
VERTEX
70
8
10
28.4888
20
7.1683
30
0.0000
0
VERTEX
70
8
10
28.4084
20
7.2691
30
0.0000
0
VERTEX
70
8
10
28.3281
20
7.3699
30
0.0000
0
VERTEX
70
8
10
28.2249
20
7.3561
30
0.0000
0
VERTEX
70
8
10
28.1218
20
7.3424
30
0.0000
0
VERTEX
70
8
10
28.0187
20
7.3286
30
0.0000
0
VERTEX
70
8
10
27.9156
20
7.3148
30
0.0000
0
VERTEX
70
8
10
27.8244
20
7.2963
30
0.0000
0
VERTEX
70
8
10
27.7332
20
7.2777
30
0.0000
0
VERTEX
70
8
10
27.6420
20
7.2592
30
0.0000
0
VERTEX
70
8
10
27.5507
20
7.2406
30
0.0000
0
VERTEX
70
8
10
27.4715
20
7.2189
30
0.0000
0
VERTEX
70
8
10
27.3924
20
7.1971
30
0.0000
0
VERTEX
70
8
10
27.3132
20
7.1753
30
0.0000
0
VERTEX
70
8
10
27.2340
20
7.1535
30
0.0000
0
VERTEX
70
8
10
27.0996
20
7.1066
30
0.0000
0
VERTEX
70
8
10
26.9652
20
7.0596
30
0.0000
0
VERTEX
70
8
10
26.8544
20
7.0123
30
0.0000
0
VERTEX
70
8
10
26.7436
20
6.9650
30
0.0000
0
VERTEX
70
8
10
26.6558
20
6.9202
30
0.0000
0
VERTEX
70
8
10
26.5680
20
6.8755
30
0.0000
0
VERTEX
70
8
10
26.5022
20
6.8361
30
0.0000
0
VERTEX
70
8
10
26.4365
20
6.7968
30
0.0000
0
VERTEX
70
8
10
26.3464
20
6.7344
30
0.0000
0
VERTEX
70
8
10
26.2950
20
6.6935
30
0.0000
0
VERTEX
70
8
10
26.2788
20
6.6788
30
0.0000
0
VERTEX
70
8
10
26.1839
20
6.5854
30
0.0000
0
VERTEX
70
8
10
26.0891
20
6.4920
30
0.0000
0
VERTEX
70
8
10
26.0132
20
6.5625
30
0.0000
0
VERTEX
70
8
10
25.9372
20
6.6330
30
0.0000
0
VERTEX
70
8
10
25.8612
20
6.7034
30
0.0000
0
VERTEX
70
8
10
25.7853
20
6.7739
30
0.0000
0
VERTEX
70
8
10
25.7093
20
6.8444
30
0.0000
0
VERTEX
70
8
10
25.6334
20
6.9149
30
0.0000
0
VERTEX
70
8
10
25.5574
20
6.9854
30
0.0000
0
VERTEX
70
8
10
25.4814
20
7.0558
30
0.0000
0
VERTEX
70
8
10
25.5675
20
7.1574
30
0.0000
0
VERTEX
70
8
10
25.6536
20
7.2589
30
0.0000
0
VERTEX
70
8
10
25.6670
20
7.2763
30
0.0000
0
VERTEX
70
8
10
25.7040
20
7.3306
30
0.0000
0
VERTEX
70
8
10
25.7594
20
7.4250
30
0.0000
0
VERTEX
70
8
10
25.7937
20
7.4935
30
0.0000
0
VERTEX
70
8
10
25.8281
20
7.5621
30
0.0000
0
VERTEX
70
8
10
25.8661
20
7.6530
30
0.0000
0
VERTEX
70
8
10
25.9042
20
7.7439
30
0.0000
0
VERTEX
70
8
10
25.9431
20
7.8579
30
0.0000
0
VERTEX
70
8
10
25.9820
20
7.9719
30
0.0000
0
VERTEX
70
8
10
26.0188
20
8.1094
30
0.0000
0
VERTEX
70
8
10
26.0556
20
8.2469
30
0.0000
0
VERTEX
70
8
10
26.0714
20
8.3275
30
0.0000
0
VERTEX
70
8
10
26.0872
20
8.4081
30
0.0000
0
VERTEX
70
8
10
26.1030
20
8.4887
30
0.0000
0
VERTEX
70
8
10
26.1188
20
8.5693
30
0.0000
0
VERTEX
70
8
10
26.1304
20
8.6617
30
0.0000
0
VERTEX
70
8
10
26.1421
20
8.7540
30
0.0000
0
VERTEX
70
8
10
26.1538
20
8.8463
30
0.0000
0
VERTEX
70
8
10
26.1655
20
8.9387
30
0.0000
0
VERTEX
70
8
10
26.1715
20
9.0425
30
0.0000
0
VERTEX
70
8
10
26.1775
20
9.1464
30
0.0000
0
VERTEX
70
8
10
26.1835
20
9.2503
30
0.0000
0
VERTEX
70
8
10
26.1896
20
9.3541
30
0.0000
0
VERTEX
70
8
10
26.0831
20
9.4267
30
0.0000
0
VERTEX
70
8
10
25.9766
20
9.4994
30
0.0000
0
VERTEX
70
8
10
25.8700
20
9.5720
30
0.0000
0
VERTEX
70
8
10
25.7635
20
9.6446
30
0.0000
0
VERTEX
70
8
10
25.6691
20
9.6010
30
0.0000
0
VERTEX
70
8
10
25.5746
20
9.5575
30
0.0000
0
VERTEX
70
8
10
25.4801
20
9.5139
30
0.0000
0
VERTEX
70
8
10
25.3856
20
9.4704
30
0.0000
0
VERTEX
70
8
10
25.3039
20
9.4258
30
0.0000
0
VERTEX
70
8
10
25.2222
20
9.3812
30
0.0000
0
VERTEX
70
8
10
25.1405
20
9.3366
30
0.0000
0
VERTEX
70
8
10
25.0589
20
9.2919
30
0.0000
0
VERTEX
70
8
10
24.9896
20
9.2478
30
0.0000
0
VERTEX
70
8
10
24.9203
20
9.2037
30
0.0000
0
VERTEX
70
8
10
24.8511
20
9.1595
30
0.0000
0
VERTEX
70
8
10
24.7818
20
9.1154
30
0.0000
0
VERTEX
70
8
10
24.6673
20
9.0309
30
0.0000
0
VERTEX
70
8
10
24.5527
20
8.9464
30
0.0000
0
VERTEX
70
8
10
24.4608
20
8.8685
30
0.0000
0
VERTEX
70
8
10
24.3689
20
8.7907
30
0.0000
0
VERTEX
70
8
10
24.2982
20
8.7220
30
0.0000
0
VERTEX
70
8
10
24.2274
20
8.6534
30
0.0000
0
VERTEX
70
8
10
24.1762
20
8.5964
30
0.0000
0
VERTEX
70
8
10
24.1249
20
8.5394
30
0.0000
0
VERTEX
70
8
10
24.0573
20
8.4533
30
0.0000
0
VERTEX
70
8
10
24.0202
20
8.3990
30
0.0000
0
VERTEX
70
8
10
24.0090
20
8.3802
30
0.0000
0
VERTEX
70
8
10
23.9459
20
8.2630
30
0.0000
0
VERTEX
70
8
10
23.8828
20
8.1458
30
0.0000
0
VERTEX
70
8
10
23.7895
20
8.1907
30
0.0000
0
VERTEX
70
8
10
23.6961
20
8.2357
30
0.0000
0
VERTEX
70
8
10
23.6028
20
8.2806
30
0.0000
0
VERTEX
70
8
10
23.5094
20
8.3256
30
0.0000
0
VERTEX
70
8
10
23.4160
20
8.3706
30
0.0000
0
VERTEX
70
8
10
23.3227
20
8.4155
30
0.0000
0
VERTEX
70
8
10
23.2293
20
8.4605
30
0.0000
0
VERTEX
70
8
10
23.1360
20
8.5054
30
0.0000
0
VERTEX
70
8
10
23.1883
20
8.6278
30
0.0000
0
VERTEX
70
8
10
23.2406
20
8.7502
30
0.0000
0
VERTEX
70
8
10
23.2483
20
8.7707
30
0.0000
0
VERTEX
70
8
10
23.2676
20
8.8335
30
0.0000
0
VERTEX
70
8
10
23.2928
20
8.9401
30
0.0000
0
VERTEX
70
8
10
23.3054
20
9.0157
30
0.0000
0
VERTEX
70
8
10
23.3180
20
9.0913
30
0.0000
0
VERTEX
70
8
10
23.3275
20
9.1894
30
0.0000
0
VERTEX
70
8
10
23.3371
20
9.2875
30
0.0000
0
VERTEX
70
8
10
23.3407
20
9.4079
30
0.0000
0
VERTEX
70
8
10
23.3443
20
9.5283
30
0.0000
0
VERTEX
70
8
10
23.3389
20
9.6706
30
0.0000
0
VERTEX
70
8
10
23.3335
20
9.8128
30
0.0000
0
VERTEX
70
8
10
23.3248
20
9.8945
30
0.0000
0
VERTEX
70
8
10
23.3162
20
9.9762
30
0.0000
0
VERTEX
70
8
10
23.3075
20
10.0578
30
0.0000
0
VERTEX
70
8
10
23.2989
20
10.1395
30
0.0000
0
VERTEX
70
8
10
23.2828
20
10.2312
30
0.0000
0
VERTEX
70
8
10
23.2667
20
10.3229
30
0.0000
0
VERTEX
70
8
10
23.2507
20
10.4146
30
0.0000
0
VERTEX
70
8
10
23.2346
20
10.5062
30
0.0000
0
VERTEX
70
8
10
23.2098
20
10.6073
30
0.0000
0
VERTEX
70
8
10
23.1849
20
10.7083
30
0.0000
0
VERTEX
70
8
10
23.1601
20
10.8093
30
0.0000
0
VERTEX
70
8
10
23.1352
20
10.9103
30
0.0000
0
VERTEX
70
8
10
23.0120
20
10.9483
30
0.0000
0
VERTEX
70
8
10
22.8888
20
10.9863
30
0.0000
0
VERTEX
70
8
10
22.7656
20
11.0243
30
0.0000
0
VERTEX
70
8
10
22.6425
20
11.0623
30
0.0000
0
VERTEX
70
8
10
22.5650
20
10.9929
30
0.0000
0
VERTEX
70
8
10
22.4876
20
10.9234
30
0.0000
0
VERTEX
70
8
10
22.4101
20
10.8539
30
0.0000
0
VERTEX
70
8
10
22.3327
20
10.7845
30
0.0000
0
VERTEX
70
8
10
22.2678
20
10.7177
30
0.0000
0
VERTEX
70
8
10
22.2029
20
10.6510
30
0.0000
0
VERTEX
70
8
10
22.1380
20
10.5843
30
0.0000
0
VERTEX
70
8
10
22.0730
20
10.5176
30
0.0000
0
VERTEX
70
8
10
22.0199
20
10.4550
30
0.0000
0
VERTEX
70
8
10
21.9667
20
10.3924
30
0.0000
0
VERTEX
70
8
10
21.9135
20
10.3298
30
0.0000
0
VERTEX
70
8
10
21.8604
20
10.2672
30
0.0000
0
VERTEX
70
8
10
21.7758
20
10.1527
30
0.0000
0
VERTEX
70
8
10
21.6912
20
10.0382
30
0.0000
0
VERTEX
70
8
10
21.6263
20
9.9367
30
0.0000
0
VERTEX
70
8
10
21.5615
20
9.8352
30
0.0000
0
VERTEX
70
8
10
21.5141
20
9.7488
30
0.0000
0
VERTEX
70
8
10
21.4668
20
9.6624
30
0.0000
0
VERTEX
70
8
10
21.4346
20
9.5928
30
0.0000
0
VERTEX
70
8
10
21.4024
20
9.5232
30
0.0000
0
VERTEX
70
8
10
21.3632
20
9.4210
30
0.0000
0
VERTEX
70
8
10
21.3437
20
9.3582
30
0.0000
0
VERTEX
70
8
10
21.3386
20
9.3369
30
0.0000
0
VERTEX
70
8
10
21.3128
20
9.2063
30
0.0000
0
VERTEX
70
8
10
21.2871
20
9.0757
30
0.0000
0
VERTEX
70
8
10
21.1846
20
9.0912
30
0.0000
0
VERTEX
70
8
10
21.0822
20
9.1066
30
0.0000
0
VERTEX
70
8
10
20.9797
20
9.1221
30
0.0000
0
VERTEX
70
8
10
20.8773
20
9.1375
30
0.0000
0
VERTEX
70
8
10
20.7748
20
9.1529
30
0.0000
0
VERTEX
70
8
10
20.6723
20
9.1684
30
0.0000
0
VERTEX
70
8
10
20.5699
20
9.1838
30
0.0000
0
VERTEX
70
8
10
20.4674
20
9.1993
30
0.0000
0
VERTEX
70
8
10
20.4813
20
9.3317
30
0.0000
0
VERTEX
70
8
10
20.4952
20
9.4640
30
0.0000
0
VERTEX
70
8
10
20.4965
20
9.4859
30
0.0000
0
VERTEX
70
8
10
20.4965
20
9.5516
30
0.0000
0
VERTEX
70
8
10
20.4892
20
9.6609
30
0.0000
0
VERTEX
70
8
10
20.4789
20
9.7368
30
0.0000
0
VERTEX
70
8
10
20.4686
20
9.8128
30
0.0000
0
VERTEX
70
8
10
20.4489
20
9.9094
30
0.0000
0
VERTEX
70
8
10
20.4291
20
10.0059
30
0.0000
0
VERTEX
70
8
10
20.3970
20
10.1220
30
0.0000
0
VERTEX
70
8
10
20.3650
20
10.2381
30
0.0000
0
VERTEX
70
8
10
20.3179
20
10.3725
30
0.0000
0
VERTEX
70
8
10
20.2708
20
10.5068
30
0.0000
0
VERTEX
70
8
10
20.2385
20
10.5823
30
0.0000
0
VERTEX
70
8
10
20.2061
20
10.6578
30
0.0000
0
VERTEX
70
8
10
20.1738
20
10.7333
30
0.0000
0
VERTEX
70
8
10
20.1414
20
10.8088
30
0.0000
0
VERTEX
70
8
10
20.0990
20
10.8917
30
0.0000
0
VERTEX
70
8
10
20.0567
20
10.9745
30
0.0000
0
VERTEX
70
8
10
20.0143
20
11.0574
30
0.0000
0
VERTEX
70
8
10
19.9719
20
11.1403
30
0.0000
0
VERTEX
70
8
10
19.9184
20
11.2295
30
0.0000
0
VERTEX
70
8
10
19.8649
20
11.3187
30
0.0000
0
VERTEX
70
8
10
19.8114
20
11.4079
30
0.0000
0
VERTEX
70
8
10
19.7578
20
11.4971
30
0.0000
0
VERTEX
70
8
10
19.6289
20
11.4971
30
0.0000
0
VERTEX
70
8
10
19.5000
20
11.4971
30
0.0000
0
VERTEX
70
8
10
19.3711
20
11.4971
30
0.0000
0
VERTEX
70
8
10
19.2422
20
11.4971
30
0.0000
0
VERTEX
70
8
10
19.1887
20
11.4079
30
0.0000
0
VERTEX
70
8
10
19.1351
20
11.3187
30
0.0000
0
VERTEX
70
8
10
19.0816
20
11.2295
30
0.0000
0
VERTEX
70
8
10
19.0281
20
11.1403
30
0.0000
0
VERTEX
70
8
10
18.9857
20
11.0574
30
0.0000
0
VERTEX
70
8
10
18.9433
20
10.9745
30
0.0000
0
VERTEX
70
8
10
18.9010
20
10.8917
30
0.0000
0
VERTEX
70
8
10
18.8586
20
10.8088
30
0.0000
0
VERTEX
70
8
10
18.8262
20
10.7333
30
0.0000
0
VERTEX
70
8
10
18.7939
20
10.6578
30
0.0000
0
VERTEX
70
8
10
18.7615
20
10.5823
30
0.0000
0
VERTEX
70
8
10
18.7292
20
10.5068
30
0.0000
0
VERTEX
70
8
10
18.6821
20
10.3725
30
0.0000
0
VERTEX
70
8
10
18.6350
20
10.2381
30
0.0000
0
VERTEX
70
8
10
18.6030
20
10.1220
30
0.0000
0
VERTEX
70
8
10
18.5709
20
10.0059
30
0.0000
0
VERTEX
70
8
10
18.5511
20
9.9094
30
0.0000
0
VERTEX
70
8
10
18.5314
20
9.8128
30
0.0000
0
VERTEX
70
8
10
18.5211
20
9.7368
30
0.0000
0
VERTEX
70
8
10
18.5108
20
9.6609
30
0.0000
0
VERTEX
70
8
10
18.5035
20
9.5516
30
0.0000
0
VERTEX
70
8
10
18.5035
20
9.4859
30
0.0000
0
VERTEX
70
8
10
18.5048
20
9.4640
30
0.0000
0
VERTEX
70
8
10
18.5187
20
9.3317
30
0.0000
0
VERTEX
70
8
10
18.5326
20
9.1993
30
0.0000
0
VERTEX
70
8
10
18.4301
20
9.1838
30
0.0000
0
VERTEX
70
8
10
18.3277
20
9.1684
30
0.0000
0
VERTEX
70
8
10
18.2252
20
9.1529
30
0.0000
0
VERTEX
70
8
10
18.1227
20
9.1375
30
0.0000
0
VERTEX
70
8
10
18.0203
20
9.1221
30
0.0000
0
VERTEX
70
8
10
17.9178
20
9.1066
30
0.0000
0
VERTEX
70
8
10
17.8154
20
9.0912
30
0.0000
0
VERTEX
70
8
10
17.7129
20
9.0757
30
0.0000
0
VERTEX
70
8
10
17.6872
20
9.2063
30
0.0000
0
VERTEX
70
8
10
17.6614
20
9.3369
30
0.0000
0
VERTEX
70
8
10
17.6563
20
9.3582
30
0.0000
0
VERTEX
70
8
10
17.6368
20
9.4210
30
0.0000
0
VERTEX
70
8
10
17.5976
20
9.5232
30
0.0000
0
VERTEX
70
8
10
17.5654
20
9.5928
30
0.0000
0
VERTEX
70
8
10
17.5332
20
9.6624
30
0.0000
0
VERTEX
70
8
10
17.4859
20
9.7488
30
0.0000
0
VERTEX
70
8
10
17.4385
20
9.8352
30
0.0000
0
VERTEX
70
8
10
17.3737
20
9.9367
30
0.0000
0
VERTEX
70
8
10
17.3088
20
10.0382
30
0.0000
0
VERTEX
70
8
10
17.2242
20
10.1527
30
0.0000
0
VERTEX
70
8
10
17.1396
20
10.2672
30
0.0000
0
VERTEX
70
8
10
17.0865
20
10.3298
30
0.0000
0
VERTEX
70
8
10
17.0333
20
10.3924
30
0.0000
0
VERTEX
70
8
10
16.9801
20
10.4550
30
0.0000
0
VERTEX
70
8
10
16.9270
20
10.5176
30
0.0000
0
VERTEX
70
8
10
16.8620
20
10.5843
30
0.0000
0
VERTEX
70
8
10
16.7971
20
10.6510
30
0.0000
0
VERTEX
70
8
10
16.7322
20
10.7177
30
0.0000
0
VERTEX
70
8
10
16.6673
20
10.7844
30
0.0000
0
VERTEX
70
8
10
16.5899
20
10.8539
30
0.0000
0
VERTEX
70
8
10
16.5124
20
10.9234
30
0.0000
0
VERTEX
70
8
10
16.4350
20
10.9928
30
0.0000
0
VERTEX
70
8
10
16.3575
20
11.0623
30
0.0000
0
VERTEX
70
8
10
16.2344
20
11.0243
30
0.0000
0
VERTEX
70
8
10
16.1112
20
10.9863
30
0.0000
0
VERTEX
70
8
10
15.9880
20
10.9483
30
0.0000
0
VERTEX
70
8
10
15.8648
20
10.9103
30
0.0000
0
VERTEX
70
8
10
15.8399
20
10.8093
30
0.0000
0
VERTEX
70
8
10
15.8151
20
10.7083
30
0.0000
0
VERTEX
70
8
10
15.7902
20
10.6073
30
0.0000
0
VERTEX
70
8
10
15.7654
20
10.5063
30
0.0000
0
VERTEX
70
8
10
15.7493
20
10.4146
30
0.0000
0
VERTEX
70
8
10
15.7333
20
10.3229
30
0.0000
0
VERTEX
70
8
10
15.7172
20
10.2312
30
0.0000
0
VERTEX
70
8
10
15.7011
20
10.1395
30
0.0000
0
VERTEX
70
8
10
15.6925
20
10.0578
30
0.0000
0
VERTEX
70
8
10
15.6838
20
9.9762
30
0.0000
0
VERTEX
70
8
10
15.6752
20
9.8945
30
0.0000
0
VERTEX
70
8
10
15.6665
20
9.8128
30
0.0000
0
VERTEX
70
8
10
15.6611
20
9.6706
30
0.0000
0
VERTEX
70
8
10
15.6557
20
9.5283
30
0.0000
0
VERTEX
70
8
10
15.6593
20
9.4079
30
0.0000
0
VERTEX
70
8
10
15.6629
20
9.2875
30
0.0000
0
VERTEX
70
8
10
15.6725
20
9.1894
30
0.0000
0
VERTEX
70
8
10
15.6820
20
9.0913
30
0.0000
0
VERTEX
70
8
10
15.6946
20
9.0157
30
0.0000
0
VERTEX
70
8
10
15.7072
20
8.9401
30
0.0000
0
VERTEX
70
8
10
15.7324
20
8.8335
30
0.0000
0
VERTEX
70
8
10
15.7517
20
8.7707
30
0.0000
0
VERTEX
70
8
10
15.7594
20
8.7502
30
0.0000
0
VERTEX
70
8
10
15.8117
20
8.6278
30
0.0000
0
VERTEX
70
8
10
15.8640
20
8.5054
30
0.0000
0
VERTEX
70
8
10
15.7707
20
8.4605
30
0.0000
0
VERTEX
70
8
10
15.6773
20
8.4155
30
0.0000
0
VERTEX
70
8
10
15.5840
20
8.3706
30
0.0000
0
VERTEX
70
8
10
15.4906
20
8.3256
30
0.0000
0
VERTEX
70
8
10
15.3972
20
8.2806
30
0.0000
0
VERTEX
70
8
10
15.3039
20
8.2357
30
0.0000
0
VERTEX
70
8
10
15.2105
20
8.1907
30
0.0000
0
VERTEX
70
8
10
15.1172
20
8.1458
30
0.0000
0
VERTEX
70
8
10
15.0541
20
8.2630
30
0.0000
0
VERTEX
70
8
10
14.9910
20
8.3802
30
0.0000
0
VERTEX
70
8
10
14.9798
20
8.3990
30
0.0000
0
VERTEX
70
8
10
14.9427
20
8.4533
30
0.0000
0
VERTEX
70
8
10
14.8751
20
8.5394
30
0.0000
0
VERTEX
70
8
10
14.8238
20
8.5964
30
0.0000
0
VERTEX
70
8
10
14.7726
20
8.6534
30
0.0000
0
VERTEX
70
8
10
14.7019
20
8.7220
30
0.0000
0
VERTEX
70
8
10
14.6311
20
8.7907
30
0.0000
0
VERTEX
70
8
10
14.5392
20
8.8685
30
0.0000
0
VERTEX
70
8
10
14.4473
20
8.9464
30
0.0000
0
VERTEX
70
8
10
14.3328
20
9.0309
30
0.0000
0
VERTEX
70
8
10
14.2182
20
9.1154
30
0.0000
0
VERTEX
70
8
10
14.1489
20
9.1595
30
0.0000
0
VERTEX
70
8
10
14.0797
20
9.2036
30
0.0000
0
VERTEX
70
8
10
14.0104
20
9.2478
30
0.0000
0
VERTEX
70
8
10
13.9412
20
9.2919
30
0.0000
0
VERTEX
70
8
10
13.8595
20
9.3366
30
0.0000
0
VERTEX
70
8
10
13.7778
20
9.3812
30
0.0000
0
VERTEX
70
8
10
13.6961
20
9.4258
30
0.0000
0
VERTEX
70
8
10
13.6144
20
9.4704
30
0.0000
0
VERTEX
70
8
10
13.5199
20
9.5139
30
0.0000
0
VERTEX
70
8
10
13.4254
20
9.5575
30
0.0000
0
VERTEX
70
8
10
13.3310
20
9.6010
30
0.0000
0
VERTEX
70
8
10
13.2365
20
9.6446
30
0.0000
0
VERTEX
70
8
10
13.1300
20
9.5720
30
0.0000
0
VERTEX
70
8
10
13.0235
20
9.4994
30
0.0000
0
VERTEX
70
8
10
12.9169
20
9.4267
30
0.0000
0
VERTEX
70
8
10
12.8104
20
9.3541
30
0.0000
0
VERTEX
70
8
10
12.8165
20
9.2503
30
0.0000
0
VERTEX
70
8
10
12.8225
20
9.1464
30
0.0000
0
VERTEX
70
8
10
12.8285
20
9.0426
30
0.0000
0
VERTEX
70
8
10
12.8345
20
8.9387
30
0.0000
0
VERTEX
70
8
10
12.8462
20
8.8464
30
0.0000
0
VERTEX
70
8
10
12.8579
20
8.7540
30
0.0000
0
VERTEX
70
8
10
12.8696
20
8.6617
30
0.0000
0
VERTEX
70
8
10
12.8812
20
8.5693
30
0.0000
0
VERTEX
70
8
10
12.8970
20
8.4887
30
0.0000
0
VERTEX
70
8
10
12.9128
20
8.4081
30
0.0000
0
VERTEX
70
8
10
12.9286
20
8.3275
30
0.0000
0
VERTEX
70
8
10
12.9444
20
8.2469
30
0.0000
0
VERTEX
70
8
10
12.9812
20
8.1094
30
0.0000
0
VERTEX
70
8
10
13.0180
20
7.9719
30
0.0000
0
VERTEX
70
8
10
13.0569
20
7.8579
30
0.0000
0
VERTEX
70
8
10
13.0958
20
7.7439
30
0.0000
0
VERTEX
70
8
10
13.1339
20
7.6530
30
0.0000
0
VERTEX
70
8
10
13.1719
20
7.5621
30
0.0000
0
VERTEX
70
8
10
13.2063
20
7.4935
30
0.0000
0
VERTEX
70
8
10
13.2406
20
7.4250
30
0.0000
0
VERTEX
70
8
10
13.2960
20
7.3306
30
0.0000
0
VERTEX
70
8
10
13.3330
20
7.2763
30
0.0000
0
VERTEX
70
8
10
13.3464
20
7.2589
30
0.0000
0
VERTEX
70
8
10
13.4325
20
7.1574
30
0.0000
0
VERTEX
70
8
10
13.5186
20
7.0558
30
0.0000
0
VERTEX
70
8
10
13.4426
20
6.9854
30
0.0000
0
VERTEX
70
8
10
13.3666
20
6.9149
30
0.0000
0
VERTEX
70
8
10
13.2907
20
6.8444
30
0.0000
0
VERTEX
70
8
10
13.2147
20
6.7739
30
0.0000
0
VERTEX
70
8
10
13.1388
20
6.7034
30
0.0000
0
VERTEX
70
8
10
13.0628
20
6.6330
30
0.0000
0
VERTEX
70
8
10
12.9868
20
6.5625
30
0.0000
0
VERTEX
70
8
10
12.9109
20
6.4920
30
0.0000
0
VERTEX
70
8
10
12.8161
20
6.5854
30
0.0000
0
VERTEX
70
8
10
12.7212
20
6.6788
30
0.0000
0
VERTEX
70
8
10
12.7050
20
6.6935
30
0.0000
0
VERTEX
70
8
10
12.6536
20
6.7344
30
0.0000
0
VERTEX
70
8
10
12.5636
20
6.7968
30
0.0000
0
VERTEX
70
8
10
12.4978
20
6.8361
30
0.0000
0
VERTEX
70
8
10
12.4320
20
6.8755
30
0.0000
0
VERTEX
70
8
10
12.3442
20
6.9202
30
0.0000
0
VERTEX
70
8
10
12.2564
20
6.9650
30
0.0000
0
VERTEX
70
8
10
12.1456
20
7.0123
30
0.0000
0
VERTEX
70
8
10
12.0348
20
7.0596
30
0.0000
0
VERTEX
70
8
10
11.9004
20
7.1066
30
0.0000
0
VERTEX
70
8
10
11.7660
20
7.1535
30
0.0000
0
VERTEX
70
8
10
11.6868
20
7.1753
30
0.0000
0
VERTEX
70
8
10
11.6076
20
7.1971
30
0.0000
0
VERTEX
70
8
10
11.5285
20
7.2189
30
0.0000
0
VERTEX
70
8
10
11.4493
20
7.2406
30
0.0000
0
VERTEX
70
8
10
11.3581
20
7.2592
30
0.0000
0
VERTEX
70
8
10
11.2668
20
7.2777
30
0.0000
0
VERTEX
70
8
10
11.1756
20
7.2963
30
0.0000
0
VERTEX
70
8
10
11.0844
20
7.3148
30
0.0000
0
VERTEX
70
8
10
10.9813
20
7.3286
30
0.0000
0
VERTEX
70
8
10
10.8782
20
7.3424
30
0.0000
0
VERTEX
70
8
10
10.7751
20
7.3561
30
0.0000
0
VERTEX
70
8
10
10.6720
20
7.3699
30
0.0000
0
VERTEX
70
8
10
10.5916
20
7.2691
30
0.0000
0
VERTEX
70
8
10
10.5112
20
7.1683
30
0.0000
0
VERTEX
70
8
10
10.4308
20
7.0675
30
0.0000
0
VERTEX
70
8
10
10.3504
20
6.9668
30
0.0000
0
VERTEX
70
8
10
10.3868
20
6.8693
30
0.0000
0
VERTEX
70
8
10
10.4232
20
6.7718
30
0.0000
0
VERTEX
70
8
10
10.4596
20
6.6744
30
0.0000
0
VERTEX
70
8
10
10.4959
20
6.5769
30
0.0000
0
VERTEX
70
8
10
10.5343
20
6.4921
30
0.0000
0
VERTEX
70
8
10
10.5727
20
6.4073
30
0.0000
0
VERTEX
70
8
10
10.6111
20
6.3225
30
0.0000
0
VERTEX
70
8
10
10.6494
20
6.2377
30
0.0000
0
VERTEX
70
8
10
10.6883
20
6.1653
30
0.0000
0
VERTEX
70
8
10
10.7271
20
6.0930
30
0.0000
0
VERTEX
70
8
10
10.7660
20
6.0206
30
0.0000
0
VERTEX
70
8
10
10.8048
20
5.9483
30
0.0000
0
VERTEX
70
8
10
10.8805
20
5.8277
30
0.0000
0
VERTEX
70
8
10
10.9562
20
5.7071
30
0.0000
0
VERTEX
70
8
10
11.0270
20
5.6096
30
0.0000
0
VERTEX
70
8
10
11.0978
20
5.5122
30
0.0000
0
VERTEX
70
8
10
11.1609
20
5.4365
30
0.0000
0
VERTEX
70
8
10
11.2241
20
5.3609
30
0.0000
0
VERTEX
70
8
10
11.2771
20
5.3055
30
0.0000
0
VERTEX
70
8
10
11.3301
20
5.2501
30
0.0000
0
VERTEX
70
8
10
11.4109
20
5.1762
30
0.0000
0
VERTEX
70
8
10
11.4623
20
5.1352
30
0.0000
0
VERTEX
70
8
10
11.4802
20
5.1226
30
0.0000
0
VERTEX
70
8
10
11.5924
20
5.0510
30
0.0000
0
VERTEX
70
8
10
11.7046
20
4.9793
30
0.0000
0
VERTEX
70
8
10
11.6527
20
4.8896
30
0.0000
0
VERTEX
70
8
10
11.6009
20
4.7998
30
0.0000
0
VERTEX
70
8
10
11.5491
20
4.7101
30
0.0000
0
VERTEX
70
8
10
11.4973
20
4.6204
30
0.0000
0
VERTEX
70
8
10
11.4455
20
4.5306
30
0.0000
0
VERTEX
70
8
10
11.3937
20
4.4409
30
0.0000
0
VERTEX
70
8
10
11.3419
20
4.3511
30
0.0000
0
VERTEX
70
8
10
11.2901
20
4.2614
30
0.0000
0
VERTEX
70
8
10
11.1719
20
4.3227
30
0.0000
0
VERTEX
70
8
10
11.0538
20
4.3840
30
0.0000
0
VERTEX
70
8
10
11.0339
20
4.3932
30
0.0000
0
VERTEX
70
8
10
10.9727
20
4.4172
30
0.0000
0
VERTEX
70
8
10
10.8683
20
4.4503
30
0.0000
0
VERTEX
70
8
10
10.7939
20
4.4685
30
0.0000
0
VERTEX
70
8
10
10.7194
20
4.4867
30
0.0000
0
VERTEX
70
8
10
10.6223
20
4.5036
30
0.0000
0
VERTEX
70
8
10
10.5252
20
4.5205
30
0.0000
0
VERTEX
70
8
10
10.4054
20
4.5330
30
0.0000
0
VERTEX
70
8
10
10.2856
20
4.5456
30
0.0000
0
VERTEX
70
8
10
10.1433
20
4.5508
30
0.0000
0
VERTEX
70
8
10
10.0011
20
4.5561
30
0.0000
0
VERTEX
70
8
10
9.9190
20
4.5536
30
0.0000
0
VERTEX
70
8
10
9.8369
20
4.5510
30
0.0000
0
VERTEX
70
8
10
9.7548
20
4.5485
30
0.0000
0
VERTEX
70
8
10
9.6727
20
4.5460
30
0.0000
0
VERTEX
70
8
10
9.5801
20
4.5368
30
0.0000
0
VERTEX
70
8
10
9.4875
20
4.5276
30
0.0000
0
VERTEX
70
8
10
9.3948
20
4.5185
30
0.0000
0
VERTEX
70
8
10
9.3022
20
4.5093
30
0.0000
0
VERTEX
70
8
10
9.1996
20
4.4921
30
0.0000
0
VERTEX
70
8
10
9.0970
20
4.4748
30
0.0000
0
VERTEX
70
8
10
8.9944
20
4.4576
30
0.0000
0
VERTEX
70
8
10
8.8918
20
4.4404
30
0.0000
0
VERTEX
70
8
10
8.8447
20
4.3204
30
0.0000
0
VERTEX
70
8
10
8.7976
20
4.2004
30
0.0000
0
VERTEX
70
8
10
8.7505
20
4.0804
30
0.0000
0
VERTEX
70
8
10
8.7034
20
3.9604
30
0.0000
0
VERTEX
70
8
10
8.7669
20
3.8780
30
0.0000
0
VERTEX
70
8
10
8.8304
20
3.7955
30
0.0000
0
VERTEX
70
8
10
8.8939
20
3.7131
30
0.0000
0
VERTEX
70
8
10
8.9574
20
3.6307
30
0.0000
0
VERTEX
70
8
10
9.0191
20
3.5610
30
0.0000
0
VERTEX
70
8
10
9.0807
20
3.4913
30
0.0000
0
VERTEX
70
8
10
9.1424
20
3.4215
30
0.0000
0
VERTEX
70
8
10
9.2041
20
3.3518
30
0.0000
0
VERTEX
70
8
10
9.2625
20
3.2941
30
0.0000
0
VERTEX
70
8
10
9.3210
20
3.2364
30
0.0000
0
VERTEX
70
8
10
9.3794
20
3.1787
30
0.0000
0
VERTEX
70
8
10
9.4379
20
3.1211
30
0.0000
0
VERTEX
70
8
10
9.5457
20
3.0281
30
0.0000
0
VERTEX
70
8
10
9.6536
20
2.9352
30
0.0000
0
VERTEX
70
8
10
9.7499
20
2.8630
30
0.0000
0
VERTEX
70
8
10
9.8463
20
2.7907
30
0.0000
0
VERTEX
70
8
10
9.9290
20
2.7370
30
0.0000
0
VERTEX
70
8
10
10.0116
20
2.6834
30
0.0000
0
VERTEX
70
8
10
10.0786
20
2.6460
30
0.0000
0
VERTEX
70
8
10
10.1456
20
2.6087
30
0.0000
0
VERTEX
70
8
10
10.2446
20
2.5620
30
0.0000
0
VERTEX
70
8
10
10.3057
20
2.5379
30
0.0000
0
VERTEX
70
8
10
10.3266
20
2.5312
30
0.0000
0
VERTEX
70
8
10
10.4549
20
2.4958
30
0.0000
0
VERTEX
70
8
10
10.5832
20
2.4603
30
0.0000
0
VERTEX
70
8
10
10.5601
20
2.3593
30
0.0000
0
VERTEX
70
8
10
10.5371
20
2.2583
30
0.0000
0
VERTEX
70
8
10
10.5140
20
2.1573
30
0.0000
0
VERTEX
70
8
10
10.4910
20
2.0563
30
0.0000
0
VERTEX
70
8
10
10.4679
20
1.9552
30
0.0000
0
VERTEX
70
8
10
10.4449
20
1.8542
30
0.0000
0
VERTEX
70
8
10
10.4218
20
1.7532
30
0.0000
0
VERTEX
70
8
10
10.3987
20
1.6522
30
0.0000
0
VERTEX
70
8
10
10.2678
20
1.6759
30
0.0000
0
VERTEX
70
8
10
10.1368
20
1.6997
30
0.0000
0
VERTEX
70
8
10
10.1151
20
1.7026
30
0.0000
0
VERTEX
70
8
10
10.0496
20
1.7075
30
0.0000
0
VERTEX
70
8
10
9.9401
20
1.7083
30
0.0000
0
VERTEX
70
8
10
9.8635
20
1.7038
30
0.0000
0
VERTEX
70
8
10
9.7870
20
1.6992
30
0.0000
0
VERTEX
70
8
10
9.6893
20
1.6867
30
0.0000
0
VERTEX
70
8
10
9.5915
20
1.6743
30
0.0000
0
VERTEX
70
8
10
9.4733
20
1.6510
30
0.0000
0
VERTEX
70
8
10
9.3551
20
1.6277
30
0.0000
0
VERTEX
70
8
10
9.2177
20
1.5907
30
0.0000
0
VERTEX
70
8
10
9.0802
20
1.5538
30
0.0000
0
VERTEX
70
8
10
9.0025
20
1.5272
30
0.0000
0
VERTEX
70
8
10
8.9248
20
1.5006
30
0.0000
0
VERTEX
70
8
10
8.8471
20
1.4740
30
0.0000
0
VERTEX
70
8
10
8.7694
20
1.4474
30
0.0000
0
VERTEX
70
8
10
8.6836
20
1.4113
30
0.0000
0
VERTEX
70
8
10
8.5978
20
1.3752
30
0.0000
0
VERTEX
70
8
10
8.5119
20
1.3392
30
0.0000
0
VERTEX
70
8
10
8.4261
20
1.3031
30
0.0000
0
VERTEX
70
8
10
8.3332
20
1.2564
30
0.0000
0
VERTEX
70
8
10
8.2402
20
1.2097
30
0.0000
0
VERTEX
70
8
10
8.1473
20
1.1630
30
0.0000
0
VERTEX
70
8
10
8.0543
20
1.1163
30
0.0000
0
VERTEX
70
8
10
8.0447
20
0.9877
30
0.0000
0
VERTEX
70
8
10
8.0350
20
0.8592
30
0.0000
0
VERTEX
70
8
10
8.0254
20
0.7306
30
0.0000
0
VERTEX
70
8
10
8.0158
20
0.6021
30
0.0000
0
VERTEX
70
8
10
8.1007
20
0.5420
30
0.0000
0
VERTEX
70
8
10
8.1857
20
0.4820
30
0.0000
0
VERTEX
70
8
10
8.2706
20
0.4220
30
0.0000
0
VERTEX
70
8
10
8.3556
20
0.3619
30
0.0000
0
VERTEX
70
8
10
8.4351
20
0.3135
30
0.0000
0
VERTEX
70
8
10
8.5146
20
0.2650
30
0.0000
0
VERTEX
70
8
10
8.5940
20
0.2166
30
0.0000
0
VERTEX
70
8
10
8.6735
20
0.1681
30
0.0000
0
VERTEX
70
8
10
8.7464
20
0.1302
30
0.0000
0
VERTEX
70
8
10
8.8192
20
0.0923
30
0.0000
0
VERTEX
70
8
10
8.8921
20
0.0544
30
0.0000
0
VERTEX
70
8
10
8.9650
20
0.0165
30
0.0000
0
VERTEX
70
8
10
9.0954
20
-0.0405
30
0.0000
0
VERTEX
70
8
10
9.2259
20
-0.0975
30
0.0000
0
VERTEX
70
8
10
9.3392
20
-0.1381
30
0.0000
0
VERTEX
70
8
10
9.4526
20
-0.1788
30
0.0000
0
VERTEX
70
8
10
9.5474
20
-0.2057
30
0.0000
0
VERTEX
70
8
10
9.6423
20
-0.2326
30
0.0000
0
VERTEX
70
8
10
9.7172
20
-0.2485
30
0.0000
0
VERTEX
70
8
10
9.7922
20
-0.2644
30
0.0000
0
VERTEX
70
8
10
9.9006
20
-0.2799
30
0.0000
0
VERTEX
70
8
10
9.9661
20
-0.2849
30
0.0000
0
VERTEX
70
8
10
9.9880
20
-0.2852
30
0.0000
0
VERTEX
70
8
10
10.1211
20
-0.2812
30
0.0000
0
VERTEX
70
8
10
10.2542
20
-0.2772
30
0.0000
0
VERTEX
70
8
10
10.2619
20
-0.3806
30
0.0000
0
VERTEX
70
8
10
10.2696
20
-0.4839
30
0.0000
0
VERTEX
70
8
10
10.2774
20
-0.5872
30
0.0000
0
VERTEX
70
8
10
10.2851
20
-0.6906
30
0.0000
0
VERTEX
70
8
10
10.2929
20
-0.7939
30
0.0000
0
VERTEX
70
8
10
10.3006
20
-0.8972
30
0.0000
0
VERTEX
70
8
10
10.3084
20
-1.0006
30
0.0000
0
VERTEX
70
8
10
10.3161
20
-1.1039
30
0.0000
0
VERTEX
70
8
10
10.1839
20
-1.1198
30
0.0000
0
VERTEX
70
8
10
10.0518
20
-1.1357
30
0.0000
0
VERTEX
70
8
10
10.0302
20
-1.1393
30
0.0000
0
VERTEX
70
8
10
9.9661
20
-1.1539
30
0.0000
0
VERTEX
70
8
10
9.8612
20
-1.1854
30
0.0000
0
VERTEX
70
8
10
9.7895
20
-1.2123
30
0.0000
0
VERTEX
70
8
10
9.7177
20
-1.2392
30
0.0000
0
VERTEX
70
8
10
9.6280
20
-1.2800
30
0.0000
0
VERTEX
70
8
10
9.5382
20
-1.3207
30
0.0000
0
VERTEX
70
8
10
9.4321
20
-1.3778
30
0.0000
0
VERTEX
70
8
10
9.3261
20
-1.4349
30
0.0000
0
VERTEX
70
8
10
9.2056
20
-1.5107
30
0.0000
0
VERTEX
70
8
10
9.0851
20
-1.5865
30
0.0000
0
VERTEX
70
8
10
9.0187
20
-1.6348
30
0.0000
0
VERTEX
70
8
10
8.9523
20
-1.6832
30
0.0000
0
VERTEX
70
8
10
8.8859
20
-1.7315
30
0.0000
0
VERTEX
70
8
10
8.8195
20
-1.7799
30
0.0000
0
VERTEX
70
8
10
8.7481
20
-1.8396
30
0.0000
0
VERTEX
70
8
10
8.6768
20
-1.8994
30
0.0000
0
VERTEX
70
8
10
8.6054
20
-1.9591
30
0.0000
0
VERTEX
70
8
10
8.5340
20
-2.0189
30
0.0000
0
VERTEX
70
8
10
8.4590
20
-2.0909
30
0.0000
0
VERTEX
70
8
10
8.3839
20
-2.1629
30
0.0000
0
VERTEX
70
8
10
8.3088
20
-2.2350
30
0.0000
0
VERTEX
70
8
10
8.2338
20
-2.3070
30
0.0000
0
VERTEX
70
8
10
8.2625
20
-2.4327
30
0.0000
0
VERTEX
70
8
10
8.2911
20
-2.5583
30
0.0000
0
VERTEX
70
8
10
8.3198
20
-2.6840
30
0.0000
0
VERTEX
70
8
10
8.3485
20
-2.8097
30
0.0000
0
VERTEX
70
8
10
8.4474
20
-2.8420
30
0.0000
0
VERTEX
70
8
10
8.5463
20
-2.8744
30
0.0000
0
VERTEX
70
8
10
8.6452
20
-2.9067
30
0.0000
0
VERTEX
70
8
10
8.7440
20
-2.9390
30
0.0000
0
VERTEX
70
8
10
8.8343
20
-2.9619
30
0.0000
0
VERTEX
70
8
10
8.9245
20
-2.9848
30
0.0000
0
VERTEX
70
8
10
9.0147
20
-3.0076
30
0.0000
0
VERTEX
70
8
10
9.1049
20
-3.0305
30
0.0000
0
VERTEX
70
8
10
9.1857
20
-3.0452
30
0.0000
0
VERTEX
70
8
10
9.2665
20
-3.0600
30
0.0000
0
VERTEX
70
8
10
9.3473
20
-3.0747
30
0.0000
0
VERTEX
70
8
10
9.4281
20
-3.0895
30
0.0000
0
VERTEX
70
8
10
9.5696
20
-3.1055
30
0.0000
0
VERTEX
70
8
10
9.7110
20
-3.1215
30
0.0000
0
VERTEX
70
8
10
9.8314
20
-3.1269
30
0.0000
0
VERTEX
70
8
10
9.9517
20
-3.1323
30
0.0000
0
VERTEX
70
8
10
10.0502
20
-3.1301
30
0.0000
0
VERTEX
70
8
10
10.1488
20
-3.1279
30
0.0000
0
VERTEX
70
8
10
10.2251
20
-3.1210
30
0.0000
0
VERTEX
70
8
10
10.3015
20
-3.1141
30
0.0000
0
VERTEX
70
8
10
10.4096
20
-3.0969
30
0.0000
0
VERTEX
70
8
10
10.4737
20
-3.0824
30
0.0000
0
VERTEX
70
8
10
10.4947
20
-3.0762
30
0.0000
0
VERTEX
70
8
10
10.6207
20
-3.0332
30
0.0000
0
VERTEX
70
8
10
10.7466
20
-2.9902
30
0.0000
0
VERTEX
70
8
10
10.7845
20
-3.0866
30
0.0000
0
VERTEX
70
8
10
10.8224
20
-3.1831
30
0.0000
0
VERTEX
70
8
10
10.8602
20
-3.2796
30
0.0000
0
VERTEX
70
8
10
10.8981
20
-3.3760
30
0.0000
0
VERTEX
70
8
10
10.9359
20
-3.4725
30
0.0000
0
VERTEX
70
8
10
10.9738
20
-3.5689
30
0.0000
0
VERTEX
70
8
10
11.0116
20
-3.6654
30
0.0000
0
VERTEX
70
8
10
11.0495
20
-3.7618
30
0.0000
0
VERTEX
70
8
10
10.9279
20
-3.8160
30
0.0000
0
VERTEX
70
8
10
10.8063
20
-3.8701
30
0.0000
0
VERTEX
70
8
10
10.7867
20
-3.8799
30
0.0000
0
VERTEX
70
8
10
10.7298
20
-3.9128
30
0.0000
0
VERTEX
70
8
10
10.6389
20
-3.9738
30
0.0000
0
VERTEX
70
8
10
10.5782
20
-4.0207
30
0.0000
0
VERTEX
70
8
10
10.5176
20
-4.0676
30
0.0000
0
VERTEX
70
8
10
10.4438
20
-4.1329
30
0.0000
0
VERTEX
70
8
10
10.3701
20
-4.1983
30
0.0000
0
VERTEX
70
8
10
10.2856
20
-4.2841
30
0.0000
0
VERTEX
70
8
10
10.2010
20
-4.3700
30
0.0000
0
VERTEX
70
8
10
10.1082
20
-4.4779
30
0.0000
0
VERTEX
70
8
10
10.0154
20
-4.5859
30
0.0000
0
VERTEX
70
8
10
9.9662
20
-4.6516
30
0.0000
0
VERTEX
70
8
10
9.9170
20
-4.7174
30
0.0000
0
VERTEX
70
8
10
9.8678
20
-4.7832
30
0.0000
0
VERTEX
70
8
10
9.8186
20
-4.8489
30
0.0000
0
VERTEX
70
8
10
9.7680
20
-4.9270
30
0.0000
0
VERTEX
70
8
10
9.7174
20
-5.0052
30
0.0000
0
VERTEX
70
8
10
9.6669
20
-5.0833
30
0.0000
0
VERTEX
70
8
10
9.6163
20
-5.1614
30
0.0000
0
VERTEX
70
8
10
9.5658
20
-5.2524
30
0.0000
0
VERTEX
70
8
10
9.5153
20
-5.3434
30
0.0000
0
VERTEX
70
8
10
9.4648
20
-5.4343
30
0.0000
0
VERTEX
70
8
10
9.4143
20
-5.5253
30
0.0000
0
VERTEX
70
8
10
9.4788
20
-5.6369
30
0.0000
0
VERTEX
70
8
10
9.5432
20
-5.7486
30
0.0000
0
VERTEX
70
8
10
9.6077
20
-5.8602
30
0.0000
0
VERTEX
70
8
10
9.6721
20
-5.9718
30
0.0000
0
VERTEX
70
8
10
9.7761
20
-5.9736
30
0.0000
0
VERTEX
70
8
10
9.8802
20
-5.9753
30
0.0000
0
VERTEX
70
8
10
9.9842
20
-5.9771
30
0.0000
0
VERTEX
70
8
10
10.0882
20
-5.9788
30
0.0000
0
VERTEX
70
8
10
10.1811
20
-5.9741
30
0.0000
0
VERTEX
70
8
10
10.2741
20
-5.9693
30
0.0000
0
VERTEX
70
8
10
10.3671
20
-5.9646
30
0.0000
0
VERTEX
70
8
10
10.4600
20
-5.9599
30
0.0000
0
VERTEX
70
8
10
10.5416
20
-5.9501
30
0.0000
0
VERTEX
70
8
10
10.6231
20
-5.9404
30
0.0000
0
VERTEX
70
8
10
10.7047
20
-5.9307
30
0.0000
0
VERTEX
70
8
10
10.7862
20
-5.9209
30
0.0000
0
VERTEX
70
8
10
10.9261
20
-5.8946
30
0.0000
0
VERTEX
70
8
10
11.0660
20
-5.8682
30
0.0000
0
VERTEX
70
8
10
11.1826
20
-5.8379
30
0.0000
0
VERTEX
70
8
10
11.2992
20
-5.8076
30
0.0000
0
VERTEX
70
8
10
11.3927
20
-5.7764
30
0.0000
0
VERTEX
70
8
10
11.4862
20
-5.7453
30
0.0000
0
VERTEX
70
8
10
11.5571
20
-5.7162
30
0.0000
0
VERTEX
70
8
10
11.6280
20
-5.6871
30
0.0000
0
VERTEX
70
8
10
11.7263
20
-5.6388
30
0.0000
0
VERTEX
70
8
10
11.7832
20
-5.6060
30
0.0000
0
VERTEX
70
8
10
11.8015
20
-5.5939
30
0.0000
0
VERTEX
70
8
10
11.9092
20
-5.5157
30
0.0000
0
VERTEX
70
8
10
12.0169
20
-5.4374
30
0.0000
0
VERTEX
70
8
10
12.0815
20
-5.5184
30
0.0000
0
VERTEX
70
8
10
12.1461
20
-5.5995
30
0.0000
0
VERTEX
70
8
10
12.2107
20
-5.6805
30
0.0000
0
VERTEX
70
8
10
12.2753
20
-5.7615
30
0.0000
0
VERTEX
70
8
10
12.3399
20
-5.8425
30
0.0000
0
VERTEX
70
8
10
12.4045
20
-5.9235
30
0.0000
0
VERTEX
70
8
10
12.4691
20
-6.0045
30
0.0000
0
VERTEX
70
8
10
12.5338
20
-6.0855
30
0.0000
0
VERTEX
70
8
10
12.4335
20
-6.1731
30
0.0000
0
VERTEX
70
8
10
12.3333
20
-6.2607
30
0.0000
0
VERTEX
70
8
10
12.3174
20
-6.2758
30
0.0000
0
VERTEX
70
8
10
12.2728
20
-6.3240
30
0.0000
0
VERTEX
70
8
10
12.2038
20
-6.4091
30
0.0000
0
VERTEX
70
8
10
12.1597
20
-6.4718
30
0.0000
0
VERTEX
70
8
10
12.1156
20
-6.5345
30
0.0000
0
VERTEX
70
8
10
12.0644
20
-6.6187
30
0.0000
0
VERTEX
70
8
10
12.0132
20
-6.7029
30
0.0000
0
VERTEX
70
8
10
11.9577
20
-6.8098
30
0.0000
0
VERTEX
70
8
10
11.9022
20
-6.9167
30
0.0000
0
VERTEX
70
8
10
11.8454
20
-7.0473
30
0.0000
0
VERTEX
70
8
10
11.7885
20
-7.1778
30
0.0000
0
VERTEX
70
8
10
11.7609
20
-7.2551
30
0.0000
0
VERTEX
70
8
10
11.7332
20
-7.3324
30
0.0000
0
VERTEX
70
8
10
11.7056
20
-7.4098
30
0.0000
0
VERTEX
70
8
10
11.6780
20
-7.4871
30
0.0000
0
VERTEX
70
8
10
11.6527
20
-7.5767
30
0.0000
0
VERTEX
70
8
10
11.6274
20
-7.6663
30
0.0000
0
VERTEX
70
8
10
11.6021
20
-7.7558
30
0.0000
0
VERTEX
70
8
10
11.5767
20
-7.8454
30
0.0000
0
VERTEX
70
8
10
11.5553
20
-7.9472
30
0.0000
0
VERTEX
70
8
10
11.5339
20
-8.0490
30
0.0000
0
VERTEX
70
8
10
11.5124
20
-8.1508
30
0.0000
0
VERTEX
70
8
10
11.4910
20
-8.2526
30
0.0000
0
VERTEX
70
8
10
11.5855
20
-8.3403
30
0.0000
0
VERTEX
70
8
10
11.6800
20
-8.4280
30
0.0000
0
VERTEX
70
8
10
11.7745
20
-8.5157
30
0.0000
0
VERTEX
70
8
10
11.8690
20
-8.6033
30
0.0000
0
VERTEX
70
8
10
11.9689
20
-8.5744
30
0.0000
0
VERTEX
70
8
10
12.0688
20
-8.5454
30
0.0000
0
VERTEX
70
8
10
12.1687
20
-8.5164
30
0.0000
0
VERTEX
70
8
10
12.2686
20
-8.4874
30
0.0000
0
VERTEX
70
8
10
12.3561
20
-8.4555
30
0.0000
0
VERTEX
70
8
10
12.4435
20
-8.4235
30
0.0000
0
VERTEX
70
8
10
12.5309
20
-8.3916
30
0.0000
0
VERTEX
70
8
10
12.6183
20
-8.3597
30
0.0000
0
VERTEX
70
8
10
12.6934
20
-8.3263
30
0.0000
0
VERTEX
70
8
10
12.7685
20
-8.2930
30
0.0000
0
VERTEX
70
8
10
12.8435
20
-8.2597
30
0.0000
0
VERTEX
70
8
10
12.9186
20
-8.2263
30
0.0000
0
VERTEX
70
8
10
13.0445
20
-8.1599
30
0.0000
0
VERTEX
70
8
10
13.1704
20
-8.0934
30
0.0000
0
VERTEX
70
8
10
13.2729
20
-8.0301
30
0.0000
0
VERTEX
70
8
10
13.3753
20
-7.9668
30
0.0000
0
VERTEX
70
8
10
13.4555
20
-7.9095
30
0.0000
0
VERTEX
70
8
10
13.5356
20
-7.8521
30
0.0000
0
VERTEX
70
8
10
13.5948
20
-7.8034
30
0.0000
0
VERTEX
70
8
10
13.6540
20
-7.7547
30
0.0000
0
VERTEX
70
8
10
13.7337
20
-7.6796
30
0.0000
0
VERTEX
70
8
10
13.7785
20
-7.6315
30
0.0000
0
VERTEX
70
8
10
13.7924
20
-7.6146
30
0.0000
0
VERTEX
70
8
10
13.8722
20
-7.5081
30
0.0000
0
VERTEX
70
8
10
13.9521
20
-7.4015
30
0.0000
0
VERTEX
70
8
10
14.0377
20
-7.4599
30
0.0000
0
VERTEX
70
8
10
14.1233
20
-7.5183
30
0.0000
0
VERTEX
70
8
10
14.2089
20
-7.5767
30
0.0000
0
VERTEX
70
8
10
14.2945
20
-7.6350
30
0.0000
0
VERTEX
70
8
10
14.3801
20
-7.6934
30
0.0000
0
VERTEX
70
8
10
14.4658
20
-7.7518
30
0.0000
0
VERTEX
70
8
10
14.5514
20
-7.8101
30
0.0000
0
VERTEX
70
8
10
14.6370
20
-7.8685
30
0.0000
0
VERTEX
70
8
10
14.5670
20
-7.9818
30
0.0000
0
VERTEX
70
8
10
14.4970
20
-8.0950
30
0.0000
0
VERTEX
70
8
10
14.4864
20
-8.1141
30
0.0000
0
VERTEX
70
8
10
14.4579
20
-8.1733
30
0.0000
0
VERTEX
70
8
10
14.4171
20
-8.2750
30
0.0000
0
VERTEX
70
8
10
14.3934
20
-8.3479
30
0.0000
0
VERTEX
70
8
10
14.3697
20
-8.4208
30
0.0000
0
VERTEX
70
8
10
14.3456
20
-8.5163
30
0.0000
0
VERTEX
70
8
10
14.3215
20
-8.6119
30
0.0000
0
VERTEX
70
8
10
14.3000
20
-8.7304
30
0.0000
0
VERTEX
70
8
10
14.2785
20
-8.8489
30
0.0000
0
VERTEX
70
8
10
14.2627
20
-8.9904
30
0.0000
0
VERTEX
70
8
10
14.2468
20
-9.1319
30
0.0000
0
VERTEX
70
8
10
14.2432
20
-9.2139
30
0.0000
0
VERTEX
70
8
10
14.2396
20
-9.2960
30
0.0000
0
VERTEX
70
8
10
14.2360
20
-9.3780
30
0.0000
0
VERTEX
70
8
10
14.2324
20
-9.4601
30
0.0000
0
VERTEX
70
8
10
14.2346
20
-9.5531
30
0.0000
0
VERTEX
70
8
10
14.2368
20
-9.6462
30
0.0000
0
VERTEX
70
8
10
14.2390
20
-9.7392
30
0.0000
0
VERTEX
70
8
10
14.2412
20
-9.8323
30
0.0000
0
VERTEX
70
8
10
14.2507
20
-9.9359
30
0.0000
0
VERTEX
70
8
10
14.2603
20
-10.0395
30
0.0000
0
VERTEX
70
8
10
14.2698
20
-10.1431
30
0.0000
0
VERTEX
70
8
10
14.2793
20
-10.2467
30
0.0000
0
VERTEX
70
8
10
14.3954
20
-10.3026
30
0.0000
0
VERTEX
70
8
10
14.5116
20
-10.3585
30
0.0000
0
VERTEX
70
8
10
14.6277
20
-10.4145
30
0.0000
0
VERTEX
70
8
10
14.7439
20
-10.4704
30
0.0000
0
VERTEX
70
8
10
14.8308
20
-10.4133
30
0.0000
0
VERTEX
70
8
10
14.9177
20
-10.3561
30
0.0000
0
VERTEX
70
8
10
15.0047
20
-10.2990
30
0.0000
0
VERTEX
70
8
10
15.0916
20
-10.2418
30
0.0000
0
VERTEX
70
8
10
15.1657
20
-10.1855
30
0.0000
0
VERTEX
70
8
10
15.2399
20
-10.1292
30
0.0000
0
VERTEX
70
8
10
15.3140
20
-10.0730
30
0.0000
0
VERTEX
70
8
10
15.3881
20
-10.0167
30
0.0000
0
VERTEX
70
8
10
15.4500
20
-9.9627
30
0.0000
0
VERTEX
70
8
10
15.5119
20
-9.9087
30
0.0000
0
VERTEX
70
8
10
15.5738
20
-9.8547
30
0.0000
0
VERTEX
70
8
10
15.6357
20
-9.8008
30
0.0000
0
VERTEX
70
8
10
15.7364
20
-9.7001
30
0.0000
0
VERTEX
70
8
10
15.8372
20
-9.5995
30
0.0000
0
VERTEX
70
8
10
15.9164
20
-9.5088
30
0.0000
0
VERTEX
70
8
10
15.9957
20
-9.4181
30
0.0000
0
VERTEX
70
8
10
16.0554
20
-9.3397
30
0.0000
0
VERTEX
70
8
10
16.1151
20
-9.2613
30
0.0000
0
VERTEX
70
8
10
16.1573
20
-9.1973
30
0.0000
0
VERTEX
70
8
10
16.1995
20
-9.1333
30
0.0000
0
VERTEX
70
8
10
16.2535
20
-9.0381
30
0.0000
0
VERTEX
70
8
10
16.2821
20
-8.9789
30
0.0000
0
VERTEX
70
8
10
16.2904
20
-8.9586
30
0.0000
0
VERTEX
70
8
10
16.3353
20
-8.8333
30
0.0000
0
VERTEX
70
8
10
16.3802
20
-8.7080
30
0.0000
0
VERTEX
70
8
10
16.4792
20
-8.7385
30
0.0000
0
VERTEX
70
8
10
16.5782
20
-8.7691
30
0.0000
0
VERTEX
70
8
10
16.6772
20
-8.7996
30
0.0000
0
VERTEX
70
8
10
16.7763
20
-8.8302
30
0.0000
0
VERTEX
70
8
10
16.8753
20
-8.8607
30
0.0000
0
VERTEX
70
8
10
16.9743
20
-8.8913
30
0.0000
0
VERTEX
70
8
10
17.0733
20
-8.9218
30
0.0000
0
VERTEX
70
8
10
17.1723
20
-8.9523
30
0.0000
0
VERTEX
70
8
10
17.1388
20
-9.0812
30
0.0000
0
VERTEX
70
8
10
17.1053
20
-9.2100
30
0.0000
0
VERTEX
70
8
10
17.1008
20
-9.2314
30
0.0000
0
VERTEX
70
8
10
17.0910
20
-9.2964
30
0.0000
0
VERTEX
70
8
10
17.0820
20
-9.4055
30
0.0000
0
VERTEX
70
8
10
17.0808
20
-9.4822
30
0.0000
0
VERTEX
70
8
10
17.0797
20
-9.5588
30
0.0000
0
VERTEX
70
8
10
17.0848
20
-9.6573
30
0.0000
0
VERTEX
70
8
10
17.0900
20
-9.7557
30
0.0000
0
VERTEX
70
8
10
17.1044
20
-9.8753
30
0.0000
0
VERTEX
70
8
10
17.1188
20
-9.9949
30
0.0000
0
VERTEX
70
8
10
17.1453
20
-10.1347
30
0.0000
0
VERTEX
70
8
10
17.1718
20
-10.2746
30
0.0000
0
VERTEX
70
8
10
17.1926
20
-10.3541
30
0.0000
0
VERTEX
70
8
10
17.2133
20
-10.4335
30
0.0000
0
VERTEX
70
8
10
17.2341
20
-10.5130
30
0.0000
0
VERTEX
70
8
10
17.2548
20
-10.5925
30
0.0000
0
VERTEX
70
8
10
17.2843
20
-10.6807
30
0.0000
0
VERTEX
70
8
10
17.3139
20
-10.7690
30
0.0000
0
VERTEX
70
8
10
17.3434
20
-10.8573
30
0.0000
0
VERTEX
70
8
10
17.3730
20
-10.9455
30
0.0000
0
VERTEX
70
8
10
17.4126
20
-11.0417
30
0.0000
0
VERTEX
70
8
10
17.4522
20
-11.1379
30
0.0000
0
VERTEX
70
8
10
17.4919
20
-11.2341
30
0.0000
0
VERTEX
70
8
10
17.5315
20
-11.3303
30
0.0000
0
VERTEX
70
8
10
17.6590
20
-11.3495
30
0.0000
0
VERTEX
70
8
10
17.7864
20
-11.3687
30
0.0000
0
VERTEX
70
8
10
17.9139
20
-11.3879
30
0.0000
0
VERTEX
70
8
10
18.0414
20
-11.4071
30
0.0000
0
VERTEX
70
8
10
18.1076
20
-11.3269
30
0.0000
0
VERTEX
70
8
10
18.1738
20
-11.2467
30
0.0000
0
VERTEX
70
8
10
18.2400
20
-11.1664
30
0.0000
0
VERTEX
70
8
10
18.3063
20
-11.0862
30
0.0000
0
VERTEX
70
8
10
18.3605
20
-11.0106
30
0.0000
0
VERTEX
70
8
10
18.4148
20
-10.9349
30
0.0000
0
VERTEX
70
8
10
18.4690
20
-10.8593
30
0.0000
0
VERTEX
70
8
10
18.5233
20
-10.7837
30
0.0000
0
VERTEX
70
8
10
18.5665
20
-10.7138
30
0.0000
0
VERTEX
70
8
10
18.6098
20
-10.6440
30
0.0000
0
VERTEX
70
8
10
18.6530
20
-10.5742
30
0.0000
0
VERTEX
70
8
10
18.6962
20
-10.5044
30
0.0000
0
VERTEX
70
8
10
18.7628
20
-10.3785
30
0.0000
0
VERTEX
70
8
10
18.8294
20
-10.2527
30
0.0000
0
VERTEX
70
8
10
18.8784
20
-10.1427
30
0.0000
0
VERTEX
70
8
10
18.9274
20
-10.0326
30
0.0000
0
VERTEX
70
8
10
18.9614
20
-9.9401
30
0.0000
0
VERTEX
70
8
10
18.9953
20
-9.8476
30
0.0000
0
VERTEX
70
8
10
19.0168
20
-9.7740
30
0.0000
0
VERTEX
70
8
10
19.0382
20
-9.7004
30
0.0000
0
VERTEX
70
8
10
19.0618
20
-9.5935
30
0.0000
0
VERTEX
70
8
10
19.0716
20
-9.5285
30
0.0000
0
VERTEX
70
8
10
19.0736
20
-9.5067
30
0.0000
0
VERTEX
70
8
10
19.0795
20
-9.3737
30
0.0000
0
VERTEX
70
8
10
19.0855
20
-9.2407
30
0.0000
0
VERTEX
70
8
10
19.1891
20
-9.2407
30
0.0000
0
VERTEX
70
8
10
19.2928
20
-9.2407
30
0.0000
0
VERTEX
70
8
10
19.3964
20
-9.2407
30
0.0000
0
VERTEX
70
8
10
19.5000
20
-9.2407
30
0.0000
0
VERTEX
70
8
10
19.6036
20
-9.2407
30
0.0000
0
VERTEX
70
8
10
19.7072
20
-9.2407
30
0.0000
0
VERTEX
70
8
10
19.8109
20
-9.2407
30
0.0000
0
VERTEX
70
8
10
19.9145
20
-9.2407
30
0.0000
0
SEQEND
0
POINT
8
Gear
62
0
10
0.0000
20
0.0000
30
0.0000
0
CIRCLE
8
Gear
62
1
10
0.0000
20
0.0000
30
0.0000
40
30.0000
0
CIRCLE
8
Gear
62
4
10
0.0000
20
0.0000
30
0.0000
40
28.9474
0
CIRCLE
8
Gear
62
5
10
0.0000
20
0.0000
30
0.0000
40
31.3158
0
CIRCLE
8
Gear
62
6
10
0.0000
20
0.0000
30
0.0000
40
27.1892
0
POLYLINE
8
Gear
62
3
70
8
66
1
0
VERTEX
70
8
10
28.8755
20
2.6101
30
0.0000
0
VERTEX
70
8
10
28.8755
20
2.6101
30
0.0000
0
VERTEX
70
8
10
29.1537
20
2.7907
30
0.0000
0
VERTEX
70
8
10
29.1537
20
2.7907
30
0.0000
0
VERTEX
70
8
10
29.1537
20
2.7907
30
0.0000
0
VERTEX
70
8
10
29.2035
20
2.8227
30
0.0000
0
VERTEX
70
8
10
29.2475
20
2.8538
30
0.0000
0
VERTEX
70
8
10
29.3465
20
2.9224
30
0.0000
0
VERTEX
70
8
10
29.5210
20
3.0428
30
0.0000
0
VERTEX
70
8
10
29.6659
20
3.1497
30
0.0000
0
VERTEX
70
8
10
29.8080
20
3.2514
30
0.0000
0
VERTEX
70
8
10
29.9589
20
3.3688
30
0.0000
0
VERTEX
70
8
10
30.0245
20
3.4183
30
0.0000
0
VERTEX
70
8
10
30.1854
20
3.5332
30
0.0000
0
VERTEX
70
8
10
30.3024
20
3.6098
30
0.0000
0
VERTEX
70
8
10
30.4226
20
3.6921
30
0.0000
0
VERTEX
70
8
10
30.5428
20
3.7744
30
0.0000
0
VERTEX
70
8
10
30.6044
20
3.8184
30
0.0000
0
VERTEX
70
8
10
30.6660
20
3.8625
30
0.0000
0
VERTEX
70
8
10
30.7276
20
3.9065
30
0.0000
0
VERTEX
70
8
10
30.7892
20
3.9506
30
0.0000
0
VERTEX
70
8
10
30.8521
20
3.9976
30
0.0000
0
VERTEX
70
8
10
30.9151
20
4.0446
30
0.0000
0
VERTEX
70
8
10
30.9781
20
4.0917
30
0.0000
0
VERTEX
70
8
10
31.0411
20
4.1387
30
0.0000
0
VERTEX
70
8
10
31.0298
20
4.2200
30
0.0000
0
VERTEX
70
8
10
31.0185
20
4.3013
30
0.0000
0
VERTEX
70
8
10
31.0073
20
4.3826
30
0.0000
0
VERTEX
70
8
10
30.9960
20
4.4638
30
0.0000
0
VERTEX
70
8
10
30.9226
20
4.4920
30
0.0000
0
VERTEX
70
8
10
30.8492
20
4.5201
30
0.0000
0
VERTEX
70
8
10
30.7758
20
4.5482
30
0.0000
0
VERTEX
70
8
10
30.7024
20
4.5763
30
0.0000
0
VERTEX
70
8
10
30.6311
20
4.6020
30
0.0000
0
VERTEX
70
8
10
30.5599
20
4.6276
30
0.0000
0
VERTEX
70
8
10
30.4886
20
4.6532
30
0.0000
0
VERTEX
70
8
10
30.4174
20
4.6789
30
0.0000
0
VERTEX
70
8
10
30.2793
20
4.7253
30
0.0000
0
VERTEX
70
8
10
30.1413
20
4.7718
30
0.0000
0
VERTEX
70
8
10
30.0078
20
4.8137
30
0.0000
0
VERTEX
70
8
10
29.9185
20
4.8433
30
0.0000
0
VERTEX
70
8
10
29.8217
20
4.8805
30
0.0000
0
VERTEX
70
8
10
29.6440
20
4.9510
30
0.0000
0
VERTEX
70
8
10
29.5378
20
4.9937
30
0.0000
0
VERTEX
70
8
10
29.5378
20
4.9937
30
0.0000
0
VERTEX
70
8
10
29.5378
20
4.9937
30
0.0000
0
VERTEX
70
8
10
29.5378
20
4.9937
30
0.0000
0
VERTEX
70
8
10
29.3683
20
5.0546
30
0.0000
0
VERTEX
70
8
10
28.7189
20
5.2766
30
0.0000
0
VERTEX
70
8
10
28.6247
20
5.3057
30
0.0000
0
VERTEX
70
8
10
28.5633
20
5.3259
30
0.0000
0
VERTEX
70
8
10
28.4961
20
5.3455
30
0.0000
0
VERTEX
70
8
10
28.4223
20
5.3660
30
0.0000
0
VERTEX
70
8
10
28.4223
20
5.3660
30
0.0000
0
VERTEX
70
8
10
28.4433
20
5.3693
30
0.0000
0
VERTEX
70
8
10
28.4257
20
5.4592
30
0.0000
0
VERTEX
70
8
10
28.4082
20
5.5491
30
0.0000
0
VERTEX
70
8
10
28.3906
20
5.6389
30
0.0000
0
VERTEX
70
8
10
28.3731
20
5.7288
30
0.0000
0
VERTEX
70
8
10
28.4131
20
5.7708
30
0.0000
0
VERTEX
70
8
10
28.4131
20
5.7708
30
0.0000
0
VERTEX
70
8
10
28.5172
20
5.8560
30
0.0000
0
VERTEX
70
8
10
28.6697
20
5.9809
30
0.0000
0
VERTEX
70
8
10
28.7157
20
6.0182
30
0.0000
0
VERTEX
70
8
10
28.7560
20
6.0539
30
0.0000
0
VERTEX
70
8
10
28.7560
20
6.0539
30
0.0000
0
VERTEX
70
8
10
28.7560
20
6.0539
30
0.0000
0
VERTEX
70
8
10
28.8469
20
6.1330
30
0.0000
0
VERTEX
70
8
10
29.0071
20
6.2719
30
0.0000
0
VERTEX
70
8
10
29.1394
20
6.3941
30
0.0000
0
VERTEX
70
8
10
29.2694
20
6.5108
30
0.0000
0
VERTEX
70
8
10
29.4065
20
6.6441
30
0.0000
0
VERTEX
70
8
10
29.4662
20
6.7005
30
0.0000
0
VERTEX
70
8
10
29.6135
20
6.8324
30
0.0000
0
VERTEX
70
8
10
29.7214
20
6.9214
30
0.0000
0
VERTEX
70
8
10
29.8318
20
7.0164
30
0.0000
0
VERTEX
70
8
10
29.9422
20
7.1114
30
0.0000
0
VERTEX
70
8
10
29.9986
20
7.1620
30
0.0000
0
VERTEX
70
8
10
30.0550
20
7.2125
30
0.0000
0
VERTEX
70
8
10
30.1113
20
7.2631
30
0.0000
0
VERTEX
70
8
10
30.1677
20
7.3136
30
0.0000
0
VERTEX
70
8
10
30.2251
20
7.3673
30
0.0000
0
VERTEX
70
8
10
30.2825
20
7.4210
30
0.0000
0
VERTEX
70
8
10
30.3400
20
7.4747
30
0.0000
0
VERTEX
70
8
10
30.3974
20
7.5284
30
0.0000
0
VERTEX
70
8
10
30.3773
20
7.6079
30
0.0000
0
VERTEX
70
8
10
30.3571
20
7.6875
30
0.0000
0
VERTEX
70
8
10
30.3370
20
7.7670
30
0.0000
0
VERTEX
70
8
10
30.3168
20
7.8466
30
0.0000
0
VERTEX
70
8
10
30.2408
20
7.8664
30
0.0000
0
VERTEX
70
8
10
30.1647
20
7.8863
30
0.0000
0
VERTEX
70
8
10
30.0887
20
7.9062
30
0.0000
0
VERTEX
70
8
10
30.0126
20
7.9261
30
0.0000
0
VERTEX
70
8
10
29.9390
20
7.9437
30
0.0000
0
VERTEX
70
8
10
29.8653
20
7.9613
30
0.0000
0
VERTEX
70
8
10
29.7917
20
7.9790
30
0.0000
0
VERTEX
70
8
10
29.7181
20
7.9966
30
0.0000
0
VERTEX
70
8
10
29.5757
20
8.0276
30
0.0000
0
VERTEX
70
8
10
29.4334
20
8.0586
30
0.0000
0
VERTEX
70
8
10
29.2961
20
8.0856
30
0.0000
0
VERTEX
70
8
10
29.2042
20
8.1052
30
0.0000
0
VERTEX
70
8
10
29.1039
20
8.1315
30
0.0000
0
VERTEX
70
8
10
28.9194
20
8.1820
30
0.0000
0
VERTEX
70
8
10
28.8092
20
8.2128
30
0.0000
0
VERTEX
70
8
10
28.8092
20
8.2128
30
0.0000
0
VERTEX
70
8
10
28.8092
20
8.2128
30
0.0000
0
VERTEX
70
8
10
28.8092
20
8.2128
30
0.0000
0
VERTEX
70
8
10
28.6340
20
8.2547
30
0.0000
0
VERTEX
70
8
10
27.9641
20
8.4039
30
0.0000
0
VERTEX
70
8
10
27.8673
20
8.4225
30
0.0000
0
VERTEX
70
8
10
27.8041
20
8.4358
30
0.0000
0
VERTEX
70
8
10
27.7351
20
8.4479
30
0.0000
0
VERTEX
70
8
10
27.6595
20
8.4601
30
0.0000
0
VERTEX
70
8
10
27.6595
20
8.4601
30
0.0000
0
VERTEX
70
8
10
27.6800
20
8.4657
30
0.0000
0
VERTEX
70
8
10
27.6526
20
8.5531
30
0.0000
0
VERTEX
70
8
10
27.6253
20
8.6405
30
0.0000
0
VERTEX
70
8
10
27.5980
20
8.7279
30
0.0000
0
VERTEX
70
8
10
27.5706
20
8.8153
30
0.0000
0
VERTEX
70
8
10
27.6058
20
8.8614
30
0.0000
0
VERTEX
70
8
10
27.6058
20
8.8614
30
0.0000
0
VERTEX
70
8
10
27.6058
20
8.8614
30
0.0000
0
VERTEX
70
8
10
27.8378
20
9.0985
30
0.0000
0
VERTEX
70
8
10
27.8378
20
9.0985
30
0.0000
0
VERTEX
70
8
10
27.8378
20
9.0985
30
0.0000
0
VERTEX
70
8
10
27.8794
20
9.1407
30
0.0000
0
VERTEX
70
8
10
27.9155
20
9.1806
30
0.0000
0
VERTEX
70
8
10
27.9972
20
9.2692
30
0.0000
0
VERTEX
70
8
10
28.1411
20
9.4248
30
0.0000
0
VERTEX
70
8
10
28.2591
20
9.5609
30
0.0000
0
VERTEX
70
8
10
28.3755
20
9.6911
30
0.0000
0
VERTEX
70
8
10
28.4971
20
9.8387
30
0.0000
0
VERTEX
70
8
10
28.5503
20
9.9013
30
0.0000
0
VERTEX
70
8
10
28.6821
20
10.0486
30
0.0000
0
VERTEX
70
8
10
28.7796
20
10.1490
30
0.0000
0
VERTEX
70
8
10
28.8789
20
10.2556
30
0.0000
0
VERTEX
70
8
10
28.9782
20
10.3621
30
0.0000
0
VERTEX
70
8
10
29.0286
20
10.4186
30
0.0000
0
VERTEX
70
8
10
29.0791
20
10.4750
30
0.0000
0
VERTEX
70
8
10
29.1296
20
10.5315
30
0.0000
0
VERTEX
70
8
10
29.1800
20
10.5880
30
0.0000
0
VERTEX
70
8
10
29.2312
20
10.6476
30
0.0000
0
VERTEX
70
8
10
29.2824
20
10.7073
30
0.0000
0
VERTEX
70
8
10
29.3335
20
10.7670
30
0.0000
0
VERTEX
70
8
10
29.3847
20
10.8266
30
0.0000
0
VERTEX
70
8
10
29.3560
20
10.9035
30
0.0000
0
VERTEX
70
8
10
29.3272
20
10.9803
30
0.0000
0
VERTEX
70
8
10
29.2984
20
11.0572
30
0.0000
0
VERTEX
70
8
10
29.2696
20
11.1340
30
0.0000
0
VERTEX
70
8
10
29.1919
20
11.1454
30
0.0000
0
VERTEX
70
8
10
29.1141
20
11.1568
30
0.0000
0
VERTEX
70
8
10
29.0363
20
11.1682
30
0.0000
0
VERTEX
70
8
10
28.9585
20
11.1796
30
0.0000
0
VERTEX
70
8
10
28.8834
20
11.1890
30
0.0000
0
VERTEX
70
8
10
28.8083
20
11.1985
30
0.0000
0
VERTEX
70
8
10
28.7331
20
11.2079
30
0.0000
0
VERTEX
70
8
10
28.6580
20
11.2173
30
0.0000
0
VERTEX
70
8
10
28.5131
20
11.2325
30
0.0000
0
VERTEX
70
8
10
28.3683
20
11.2476
30
0.0000
0
VERTEX
70
8
10
28.2289
20
11.2593
30
0.0000
0
VERTEX
70
8
10
28.1353
20
11.2687
30
0.0000
0
VERTEX
70
8
10
28.0327
20
11.2838
30
0.0000
0
VERTEX
70
8
10
27.8438
20
11.3137
30
0.0000
0
VERTEX
70
8
10
27.7309
20
11.3322
30
0.0000
0
VERTEX
70
8
10
27.7309
20
11.3322
30
0.0000
0
VERTEX
70
8
10
27.7309
20
11.3322
30
0.0000
0
VERTEX
70
8
10
27.7309
20
11.3322
30
0.0000
0
VERTEX
70
8
10
27.5521
20
11.3546
30
0.0000
0
VERTEX
70
8
10
26.8699
20
11.4291
30
0.0000
0
VERTEX
70
8
10
26.7716
20
11.4370
30
0.0000
0
VERTEX
70
8
10
26.7073
20
11.4433
30
0.0000
0
VERTEX
70
8
10
26.6375
20
11.4477
30
0.0000
0
VERTEX
70
8
10
26.5609
20
11.4515
30
0.0000
0
VERTEX
70
8
10
26.5609
20
11.4515
30
0.0000
0
VERTEX
70
8
10
26.5807
20
11.4594
30
0.0000
0
VERTEX
70
8
10
26.5439
20
11.5432
30
0.0000
0
VERTEX
70
8
10
26.5071
20
11.6271
30
0.0000
0
VERTEX
70
8
10
26.4703
20
11.7109
30
0.0000
0
VERTEX
70
8
10
26.4335
20
11.7948
30
0.0000
0
VERTEX
70
8
10
26.4634
20
11.8445
30
0.0000
0
VERTEX
70
8
10
26.4634
20
11.8445
30
0.0000
0
VERTEX
70
8
10
26.4634
20
11.8445
30
0.0000
0
VERTEX
70
8
10
26.6679
20
12.1057
30
0.0000
0
VERTEX
70
8
10
26.6679
20
12.1057
30
0.0000
0
VERTEX
70
8
10
26.6679
20
12.1057
30
0.0000
0
VERTEX
70
8
10
26.7046
20
12.1521
30
0.0000
0
VERTEX
70
8
10
26.7362
20
12.1958
30
0.0000
0
VERTEX
70
8
10
26.8076
20
12.2928
30
0.0000
0
VERTEX
70
8
10
26.9335
20
12.4634
30
0.0000
0
VERTEX
70
8
10
27.0359
20
12.6116
30
0.0000
0
VERTEX
70
8
10
27.1372
20
12.7538
30
0.0000
0
VERTEX
70
8
10
27.2418
20
12.9139
30
0.0000
0
VERTEX
70
8
10
27.2878
20
12.9820
30
0.0000
0
VERTEX
70
8
10
27.4026
20
13.1429
30
0.0000
0
VERTEX
70
8
10
27.4884
20
13.2534
30
0.0000
0
VERTEX
70
8
10
27.5754
20
13.3702
30
0.0000
0
VERTEX
70
8
10
27.6624
20
13.4871
30
0.0000
0
VERTEX
70
8
10
27.7063
20
13.5488
30
0.0000
0
VERTEX
70
8
10
27.7503
20
13.6104
30
0.0000
0
VERTEX
70
8
10
27.7942
20
13.6721
30
0.0000
0
VERTEX
70
8
10
27.8382
20
13.7337
30
0.0000
0
VERTEX
70
8
10
27.8825
20
13.7987
30
0.0000
0
VERTEX
70
8
10
27.9268
20
13.8636
30
0.0000
0
VERTEX
70
8
10
27.9711
20
13.9286
30
0.0000
0
VERTEX
70
8
10
28.0154
20
13.9935
30
0.0000
0
VERTEX
70
8
10
27.9783
20
14.0667
30
0.0000
0
VERTEX
70
8
10
27.9413
20
14.1399
30
0.0000
0
VERTEX
70
8
10
27.9042
20
14.2131
30
0.0000
0
VERTEX
70
8
10
27.8672
20
14.2864
30
0.0000
0
VERTEX
70
8
10
27.7886
20
14.2891
30
0.0000
0
VERTEX
70
8
10
27.7100
20
14.2919
30
0.0000
0
VERTEX
70
8
10
27.6315
20
14.2947
30
0.0000
0
VERTEX
70
8
10
27.5529
20
14.2974
30
0.0000
0
VERTEX
70
8
10
27.4772
20
14.2985
30
0.0000
0
VERTEX
70
8
10
27.4015
20
14.2996
30
0.0000
0
VERTEX
70
8
10
27.3258
20
14.3007
30
0.0000
0
VERTEX
70
8
10
27.2501
20
14.3019
30
0.0000
0
VERTEX
70
8
10
27.1044
20
14.3010
30
0.0000
0
VERTEX
70
8
10
26.9587
20
14.3001
30
0.0000
0
VERTEX
70
8
10
26.8189
20
14.2964
30
0.0000
0
VERTEX
70
8
10
26.7249
20
14.2954
30
0.0000
0
VERTEX
70
8
10
26.6212
20
14.2991
30
0.0000
0
VERTEX
70
8
10
26.4302
20
14.3081
30
0.0000
0
VERTEX
70
8
10
26.3159
20
14.3141
30
0.0000
0
VERTEX
70
8
10
26.3159
20
14.3141
30
0.0000
0
VERTEX
70
8
10
26.3159
20
14.3141
30
0.0000
0
VERTEX
70
8
10
26.3159
20
14.3141
30
0.0000
0
VERTEX
70
8
10
26.1358
20
14.3166
30
0.0000
0
VERTEX
70
8
10
25.4495
20
14.3157
30
0.0000
0
VERTEX
70
8
10
25.3510
20
14.3127
30
0.0000
0
VERTEX
70
8
10
25.2864
20
14.3118
30
0.0000
0
VERTEX
70
8
10
25.2165
20
14.3086
30
0.0000
0
VERTEX
70
8
10
25.1399
20
14.3039
30
0.0000
0
VERTEX
70
8
10
25.1399
20
14.3039
30
0.0000
0
VERTEX
70
8
10
25.1587
20
14.3139
30
0.0000
0
VERTEX
70
8
10
25.1129
20
14.3932
30
0.0000
0
VERTEX
70
8
10
25.0672
20
14.4725
30
0.0000
0
VERTEX
70
8
10
25.0214
20
14.5518
30
0.0000
0
VERTEX
70
8
10
24.9756
20
14.6311
30
0.0000
0
VERTEX
70
8
10
24.9998
20
14.6838
30
0.0000
0
VERTEX
70
8
10
24.9998
20
14.6838
30
0.0000
0
VERTEX
70
8
10
24.9998
20
14.6838
30
0.0000
0
VERTEX
70
8
10
25.1743
20
14.9659
30
0.0000
0
VERTEX
70
8
10
25.1743
20
14.9659
30
0.0000
0
VERTEX
70
8
10
25.1743
20
14.9659
30
0.0000
0
VERTEX
70
8
10
25.2057
20
15.0161
30
0.0000
0
VERTEX
70
8
10
25.2322
20
15.0630
30
0.0000
0
VERTEX
70
8
10
25.2925
20
15.1673
30
0.0000
0
VERTEX
70
8
10
25.3989
20
15.3507
30
0.0000
0
VERTEX
70
8
10
25.4844
20
15.5092
30
0.0000
0
VERTEX
70
8
10
25.5695
20
15.6617
30
0.0000
0
VERTEX
70
8
10
25.6559
20
15.8324
30
0.0000
0
VERTEX
70
8
10
25.6940
20
15.9051
30
0.0000
0
VERTEX
70
8
10
25.7905
20
16.0776
30
0.0000
0
VERTEX
70
8
10
25.8636
20
16.1969
30
0.0000
0
VERTEX
70
8
10
25.9372
20
16.3226
30
0.0000
0
VERTEX
70
8
10
26.0108
20
16.4483
30
0.0000
0
VERTEX
70
8
10
26.0477
20
16.5144
30
0.0000
0
VERTEX
70
8
10
26.0846
20
16.5806
30
0.0000
0
VERTEX
70
8
10
26.1215
20
16.6467
30
0.0000
0
VERTEX
70
8
10
26.1584
20
16.7128
30
0.0000
0
VERTEX
70
8
10
26.1953
20
16.7822
30
0.0000
0
VERTEX
70
8
10
26.2322
20
16.8516
30
0.0000
0
VERTEX
70
8
10
26.2690
20
16.9211
30
0.0000
0
VERTEX
70
8
10
26.3059
20
16.9905
30
0.0000
0
VERTEX
70
8
10
26.2610
20
17.0592
30
0.0000
0
VERTEX
70
8
10
26.2162
20
17.1279
30
0.0000
0
VERTEX
70
8
10
26.1713
20
17.1966
30
0.0000
0
VERTEX
70
8
10
26.1264
20
17.2653
30
0.0000
0
VERTEX
70
8
10
26.0480
20
17.2594
30
0.0000
0
VERTEX
70
8
10
25.9696
20
17.2535
30
0.0000
0
VERTEX
70
8
10
25.8913
20
17.2476
30
0.0000
0
VERTEX
70
8
10
25.8129
20
17.2417
30
0.0000
0
VERTEX
70
8
10
25.7375
20
17.2345
30
0.0000
0
VERTEX
70
8
10
25.6621
20
17.2272
30
0.0000
0
VERTEX
70
8
10
25.5867
20
17.2200
30
0.0000
0
VERTEX
70
8
10
25.5114
20
17.2128
30
0.0000
0
VERTEX
70
8
10
25.3667
20
17.1959
30
0.0000
0
VERTEX
70
8
10
25.2220
20
17.1790
30
0.0000
0
VERTEX
70
8
10
25.0834
20
17.1599
30
0.0000
0
VERTEX
70
8
10
24.9901
20
17.1486
30
0.0000
0
VERTEX
70
8
10
24.8866
20
17.1409
30
0.0000
0
VERTEX
70
8
10
24.6958
20
17.1288
30
0.0000
0
VERTEX
70
8
10
24.5815
20
17.1221
30
0.0000
0
VERTEX
70
8
10
24.5815
20
17.1221
30
0.0000
0
VERTEX
70
8
10
24.5815
20
17.1221
30
0.0000
0
VERTEX
70
8
10
24.5815
20
17.1221
30
0.0000
0
VERTEX
70
8
10
24.4023
20
17.1049
30
0.0000
0
VERTEX
70
8
10
23.7202
20
17.0284
30
0.0000
0
VERTEX
70
8
10
23.6226
20
17.0146
30
0.0000
0
VERTEX
70
8
10
23.5585
20
17.0067
30
0.0000
0
VERTEX
70
8
10
23.4893
20
16.9957
30
0.0000
0
VERTEX
70
8
10
23.4138
20
16.9827
30
0.0000
0
VERTEX
70
8
10
23.4138
20
16.9827
30
0.0000
0
VERTEX
70
8
10
23.4314
20
16.9947
30
0.0000
0
VERTEX
70
8
10
23.3771
20
17.0685
30
0.0000
0
VERTEX
70
8
10
23.3229
20
17.1423
30
0.0000
0
VERTEX
70
8
10
23.2687
20
17.2161
30
0.0000
0
VERTEX
70
8
10
23.2145
20
17.2898
30
0.0000
0
VERTEX
70
8
10
23.2327
20
17.3449
30
0.0000
0
VERTEX
70
8
10
23.2327
20
17.3449
30
0.0000
0
VERTEX
70
8
10
23.2327
20
17.3449
30
0.0000
0
VERTEX
70
8
10
23.3752
20
17.6444
30
0.0000
0
VERTEX
70
8
10
23.3752
20
17.6444
30
0.0000
0
VERTEX
70
8
10
23.3752
20
17.6444
30
0.0000
0
VERTEX
70
8
10
23.4008
20
17.6978
30
0.0000
0
VERTEX
70
8
10
23.4220
20
17.7473
30
0.0000
0
VERTEX
70
8
10
23.4705
20
17.8576
30
0.0000
0
VERTEX
70
8
10
23.5561
20
18.0516
30
0.0000
0
VERTEX
70
8
10
23.6236
20
18.2186
30
0.0000
0
VERTEX
70
8
10
23.6914
20
18.3795
30
0.0000
0
VERTEX
70
8
10
23.7585
20
18.5586
30
0.0000
0
VERTEX
70
8
10
23.7884
20
18.6351
30
0.0000
0
VERTEX
70
8
10
23.8653
20
18.8172
30
0.0000
0
VERTEX
70
8
10
23.9249
20
18.9438
30
0.0000
0
VERTEX
70
8
10
23.9842
20
19.0768
30
0.0000
0
VERTEX
70
8
10
24.0435
20
19.2099
30
0.0000
0
VERTEX
70
8
10
24.0729
20
19.2797
30
0.0000
0
VERTEX
70
8
10
24.1023
20
19.3495
30
0.0000
0
VERTEX
70
8
10
24.1317
20
19.4192
30
0.0000
0
VERTEX
70
8
10
24.1611
20
19.4890
30
0.0000
0
VERTEX
70
8
10
24.1901
20
19.5621
30
0.0000
0
VERTEX
70
8
10
24.2191
20
19.6351
30
0.0000
0
VERTEX
70
8
10
24.2481
20
19.7082
30
0.0000
0
VERTEX
70
8
10
24.2772
20
19.7812
30
0.0000
0
VERTEX
70
8
10
24.2250
20
19.8446
30
0.0000
0
VERTEX
70
8
10
24.1728
20
19.9079
30
0.0000
0
VERTEX
70
8
10
24.1207
20
19.9713
30
0.0000
0
VERTEX
70
8
10
24.0685
20
20.0346
30
0.0000
0
VERTEX
70
8
10
23.9913
20
20.0201
30
0.0000
0
VERTEX
70
8
10
23.9140
20
20.0056
30
0.0000
0
VERTEX
70
8
10
23.8367
20
19.9912
30
0.0000
0
VERTEX
70
8
10
23.7595
20
19.9767
30
0.0000
0
VERTEX
70
8
10
23.6853
20
19.9612
30
0.0000
0
VERTEX
70
8
10
23.6112
20
19.9457
30
0.0000
0
VERTEX
70
8
10
23.5371
20
19.9302
30
0.0000
0
VERTEX
70
8
10
23.4630
20
19.9148
30
0.0000
0
VERTEX
70
8
10
23.3210
20
19.8821
30
0.0000
0
VERTEX
70
8
10
23.1791
20
19.8494
30
0.0000
0
VERTEX
70
8
10
23.0434
20
19.8151
30
0.0000
0
VERTEX
70
8
10
22.9519
20
19.7936
30
0.0000
0
VERTEX
70
8
10
22.8499
20
19.7746
30
0.0000
0
VERTEX
70
8
10
22.6616
20
19.7416
30
0.0000
0
VERTEX
70
8
10
22.5488
20
19.7224
30
0.0000
0
VERTEX
70
8
10
22.5488
20
19.7224
30
0.0000
0
VERTEX
70
8
10
22.5488
20
19.7224
30
0.0000
0
VERTEX
70
8
10
22.5488
20
19.7224
30
0.0000
0
VERTEX
70
8
10
22.3725
20
19.6855
30
0.0000
0
VERTEX
70
8
10
21.7030
20
19.5345
30
0.0000
0
VERTEX
70
8
10
21.6075
20
19.5100
30
0.0000
0
VERTEX
70
8
10
21.5446
20
19.4951
30
0.0000
0
VERTEX
70
8
10
21.4771
20
19.4766
30
0.0000
0
VERTEX
70
8
10
21.4035
20
19.4554
30
0.0000
0
VERTEX
70
8
10
21.4035
20
19.4554
30
0.0000
0
VERTEX
70
8
10
21.4196
20
19.4692
30
0.0000
0
VERTEX
70
8
10
21.3576
20
19.5366
30
0.0000
0
VERTEX
70
8
10
21.2956
20
19.6040
30
0.0000
0
VERTEX
70
8
10
21.2336
20
19.6713
30
0.0000
0
VERTEX
70
8
10
21.1715
20
19.7387
30
0.0000
0
VERTEX
70
8
10
21.1836
20
19.7954
30
0.0000
0
VERTEX
70
8
10
21.1836
20
19.7954
30
0.0000
0
VERTEX
70
8
10
21.1836
20
19.7954
30
0.0000
0
VERTEX
70
8
10
21.2923
20
20.1088
30
0.0000
0
VERTEX
70
8
10
21.2923
20
20.1088
30
0.0000
0
VERTEX
70
8
10
21.2923
20
20.1088
30
0.0000
0
VERTEX
70
8
10
21.3119
20
20.1647
30
0.0000
0
VERTEX
70
8
10
21.3275
20
20.2162
30
0.0000
0
VERTEX
70
8
10
21.3636
20
20.3312
30
0.0000
0
VERTEX
70
8
10
21.4273
20
20.5334
30
0.0000
0
VERTEX
70
8
10
21.4760
20
20.7068
30
0.0000
0
VERTEX
70
8
10
21.5257
20
20.8742
30
0.0000
0
VERTEX
70
8
10
21.5727
20
21.0596
30
0.0000
0
VERTEX
70
8
10
21.5940
20
21.1389
30
0.0000
0
VERTEX
70
8
10
21.6504
20
21.3284
30
0.0000
0
VERTEX
70
8
10
21.6957
20
21.4608
30
0.0000
0
VERTEX
70
8
10
21.7400
20
21.5995
30
0.0000
0
VERTEX
70
8
10
21.7843
20
21.7383
30
0.0000
0
VERTEX
70
8
10
21.8059
20
21.8109
30
0.0000
0
VERTEX
70
8
10
21.8274
20
21.8835
30
0.0000
0
VERTEX
70
8
10
21.8489
20
21.9561
30
0.0000
0
VERTEX
70
8
10
21.8705
20
22.0286
30
0.0000
0
VERTEX
70
8
10
21.8913
20
22.1044
30
0.0000
0
VERTEX
70
8
10
21.9121
20
22.1802
30
0.0000
0
VERTEX
70
8
10
21.9329
20
22.2561
30
0.0000
0
VERTEX
70
8
10
21.9537
20
22.3319
30
0.0000
0
VERTEX
70
8
10
21.8949
20
22.3891
30
0.0000
0
VERTEX
70
8
10
21.8361
20
22.4463
30
0.0000
0
VERTEX
70
8
10
21.7773
20
22.5035
30
0.0000
0
VERTEX
70
8
10
21.7185
20
22.5607
30
0.0000
0
VERTEX
70
8
10
21.6433
20
22.5378
30
0.0000
0
VERTEX
70
8
10
21.5681
20
22.5150
30
0.0000
0
VERTEX
70
8
10
21.4929
20
22.4921
30
0.0000
0
VERTEX
70
8
10
21.4177
20
22.4692
30
0.0000
0
VERTEX
70
8
10
21.3457
20
22.4456
30
0.0000
0
VERTEX
70
8
10
21.2737
20
22.4221
30
0.0000
0
VERTEX
70
8
10
21.2018
20
22.3986
30
0.0000
0
VERTEX
70
8
10
21.1298
20
22.3750
30
0.0000
0
VERTEX
70
8
10
20.9923
20
22.3269
30
0.0000
0
VERTEX
70
8
10
20.8548
20
22.2788
30
0.0000
0
VERTEX
70
8
10
20.7238
20
22.2298
30
0.0000
0
VERTEX
70
8
10
20.6351
20
22.1984
30
0.0000
0
VERTEX
70
8
10
20.5359
20
22.1683
30
0.0000
0
VERTEX
70
8
10
20.3523
20
22.1147
30
0.0000
0
VERTEX
70
8
10
20.2423
20
22.0832
30
0.0000
0
VERTEX
70
8
10
20.2423
20
22.0832
30
0.0000
0
VERTEX
70
8
10
20.2423
20
22.0832
30
0.0000
0
VERTEX
70
8
10
20.2423
20
22.0832
30
0.0000
0
VERTEX
70
8
10
20.0711
20
22.0272
30
0.0000
0
VERTEX
70
8
10
19.4223
20
21.8035
30
0.0000
0
VERTEX
70
8
10
19.3301
20
21.7686
30
0.0000
0
VERTEX
70
8
10
19.2692
20
21.7469
30
0.0000
0
VERTEX
70
8
10
19.2042
20
21.7210
30
0.0000
0
VERTEX
70
8
10
19.1333
20
21.6918
30
0.0000
0
VERTEX
70
8
10
19.1333
20
21.6918
30
0.0000
0
VERTEX
70
8
10
19.1478
20
21.7074
30
0.0000
0
VERTEX
70
8
10
19.0788
20
21.7675
30
0.0000
0
VERTEX
70
8
10
19.0097
20
21.8277
30
0.0000
0
VERTEX
70
8
10
18.9407
20
21.8878
30
0.0000
0
VERTEX
70
8
10
18.8716
20
21.9479
30
0.0000
0
VERTEX
70
8
10
18.8774
20
22.0056
30
0.0000
0
VERTEX
70
8
10
18.8774
20
22.0056
30
0.0000
0
VERTEX
70
8
10
18.8774
20
22.0056
30
0.0000
0
VERTEX
70
8
10
18.9509
20
22.3291
30
0.0000
0
VERTEX
70
8
10
18.9509
20
22.3291
30
0.0000
0
VERTEX
70
8
10
18.9509
20
22.3291
30
0.0000
0
VERTEX
70
8
10
18.9643
20
22.3868
30
0.0000
0
VERTEX
70
8
10
18.9741
20
22.4397
30
0.0000
0
VERTEX
70
8
10
18.9973
20
22.5579
30
0.0000
0
VERTEX
70
8
10
19.0384
20
22.7659
30
0.0000
0
VERTEX
70
8
10
19.0677
20
22.9436
30
0.0000
0
VERTEX
70
8
10
19.0987
20
23.1155
30
0.0000
0
VERTEX
70
8
10
19.1250
20
23.3050
30
0.0000
0
VERTEX
70
8
10
19.1375
20
23.3861
30
0.0000
0
VERTEX
70
8
10
19.1727
20
23.5807
30
0.0000
0
VERTEX
70
8
10
19.2031
20
23.7172
30
0.0000
0
VERTEX
70
8
10
19.2319
20
23.8600
30
0.0000
0
VERTEX
70
8
10
19.2607
20
24.0028
30
0.0000
0
VERTEX
70
8
10
19.2741
20
24.0773
30
0.0000
0
VERTEX
70
8
10
19.2876
20
24.1518
30
0.0000
0
VERTEX
70
8
10
19.3010
20
24.2264
30
0.0000
0
VERTEX
70
8
10
19.3144
20
24.3009
30
0.0000
0
VERTEX
70
8
10
19.3268
20
24.3785
30
0.0000
0
VERTEX
70
8
10
19.3391
20
24.4561
30
0.0000
0
VERTEX
70
8
10
19.3515
20
24.5338
30
0.0000
0
VERTEX
70
8
10
19.3638
20
24.6114
30
0.0000
0
VERTEX
70
8
10
19.2990
20
24.6618
30
0.0000
0
VERTEX
70
8
10
19.2343
20
24.7122
30
0.0000
0
VERTEX
70
8
10
19.1695
20
24.7626
30
0.0000
0
VERTEX
70
8
10
19.1048
20
24.8130
30
0.0000
0
VERTEX
70
8
10
19.0326
20
24.7820
30
0.0000
0
VERTEX
70
8
10
18.9603
20
24.7510
30
0.0000
0
VERTEX
70
8
10
18.8881
20
24.7199
30
0.0000
0
VERTEX
70
8
10
18.8159
20
24.6889
30
0.0000
0
VERTEX
70
8
10
18.7469
20
24.6576
30
0.0000
0
VERTEX
70
8
10
18.6780
20
24.6263
30
0.0000
0
VERTEX
70
8
10
18.6091
20
24.5950
30
0.0000
0
VERTEX
70
8
10
18.5401
20
24.5637
30
0.0000
0
VERTEX
70
8
10
18.4088
20
24.5007
30
0.0000
0
VERTEX
70
8
10
18.2774
20
24.4378
30
0.0000
0
VERTEX
70
8
10
18.1525
20
24.3747
30
0.0000
0
VERTEX
70
8
10
18.0679
20
24.3337
30
0.0000
0
VERTEX
70
8
10
17.9726
20
24.2928
30
0.0000
0
VERTEX
70
8
10
17.7960
20
24.2194
30
0.0000
0
VERTEX
70
8
10
17.6901
20
24.1760
30
0.0000
0
VERTEX
70
8
10
17.6901
20
24.1760
30
0.0000
0
VERTEX
70
8
10
17.6901
20
24.1760
30
0.0000
0
VERTEX
70
8
10
17.6901
20
24.1760
30
0.0000
0
VERTEX
70
8
10
17.5261
20
24.1015
30
0.0000
0
VERTEX
70
8
10
16.9058
20
23.8077
30
0.0000
0
VERTEX
70
8
10
16.8180
20
23.7630
30
0.0000
0
VERTEX
70
8
10
16.7599
20
23.7346
30
0.0000
0
VERTEX
70
8
10
16.6981
20
23.7018
30
0.0000
0
VERTEX
70
8
10
16.6309
20
23.6650
30
0.0000
0
VERTEX
70
8
10
16.6309
20
23.6650
30
0.0000
0
VERTEX
70
8
10
16.6436
20
23.6821
30
0.0000
0
VERTEX
70
8
10
16.5684
20
23.7342
30
0.0000
0
VERTEX
70
8
10
16.4931
20
23.7864
30
0.0000
0
VERTEX
70
8
10
16.4179
20
23.8386
30
0.0000
0
VERTEX
70
8
10
16.3426
20
23.8908
30
0.0000
0
VERTEX
70
8
10
16.3420
20
23.9487
30
0.0000
0
VERTEX
70
8
10
16.3420
20
23.9487
30
0.0000
0
VERTEX
70
8
10
16.3420
20
23.9487
30
0.0000
0
VERTEX
70
8
10
16.3795
20
24.2783
30
0.0000
0
VERTEX
70
8
10
16.3795
20
24.2783
30
0.0000
0
VERTEX
70
8
10
16.3795
20
24.2783
30
0.0000
0
VERTEX
70
8
10
16.3865
20
24.3371
30
0.0000
0
VERTEX
70
8
10
16.3904
20
24.3909
30
0.0000
0
VERTEX
70
8
10
16.4005
20
24.5109
30
0.0000
0
VERTEX
70
8
10
16.4184
20
24.7221
30
0.0000
0
VERTEX
70
8
10
16.4280
20
24.9020
30
0.0000
0
VERTEX
70
8
10
16.4399
20
25.0763
30
0.0000
0
VERTEX
70
8
10
16.4452
20
25.2674
30
0.0000
0
VERTEX
70
8
10
16.4487
20
25.3495
30
0.0000
0
VERTEX
70
8
10
16.4622
20
25.5467
30
0.0000
0
VERTEX
70
8
10
16.4775
20
25.6858
30
0.0000
0
VERTEX
70
8
10
16.4904
20
25.8309
30
0.0000
0
VERTEX
70
8
10
16.5033
20
25.9760
30
0.0000
0
VERTEX
70
8
10
16.5084
20
26.0515
30
0.0000
0
VERTEX
70
8
10
16.5136
20
26.1270
30
0.0000
0
VERTEX
70
8
10
16.5187
20
26.2026
30
0.0000
0
VERTEX
70
8
10
16.5239
20
26.2781
30
0.0000
0
VERTEX
70
8
10
16.5276
20
26.3567
30
0.0000
0
VERTEX
70
8
10
16.5314
20
26.4352
30
0.0000
0
VERTEX
70
8
10
16.5351
20
26.5137
30
0.0000
0
VERTEX
70
8
10
16.5388
20
26.5922
30
0.0000
0
VERTEX
70
8
10
16.4689
20
26.6352
30
0.0000
0
VERTEX
70
8
10
16.3990
20
26.6782
30
0.0000
0
VERTEX
70
8
10
16.3291
20
26.7211
30
0.0000
0
VERTEX
70
8
10
16.2592
20
26.7641
30
0.0000
0
VERTEX
70
8
10
16.1908
20
26.7253
30
0.0000
0
VERTEX
70
8
10
16.1224
20
26.6865
30
0.0000
0
VERTEX
70
8
10
16.0541
20
26.6478
30
0.0000
0
VERTEX
70
8
10
15.9857
20
26.6090
30
0.0000
0
VERTEX
70
8
10
15.9206
20
26.5703
30
0.0000
0
VERTEX
70
8
10
15.8555
20
26.5316
30
0.0000
0
VERTEX
70
8
10
15.7905
20
26.4929
30
0.0000
0
VERTEX
70
8
10
15.7254
20
26.4542
30
0.0000
0
VERTEX
70
8
10
15.6017
20
26.3771
30
0.0000
0
VERTEX
70
8
10
15.4781
20
26.3001
30
0.0000
0
VERTEX
70
8
10
15.3609
20
26.2237
30
0.0000
0
VERTEX
70
8
10
15.2813
20
26.1736
30
0.0000
0
VERTEX
70
8
10
15.1911
20
26.1225
30
0.0000
0
VERTEX
70
8
10
15.0236
20
26.0301
30
0.0000
0
VERTEX
70
8
10
14.9232
20
25.9753
30
0.0000
0
VERTEX
70
8
10
14.9232
20
25.9753
30
0.0000
0
VERTEX
70
8
10
14.9232
20
25.9753
30
0.0000
0
VERTEX
70
8
10
14.9232
20
25.9753
30
0.0000
0
VERTEX
70
8
10
14.7684
20
25.8832
30
0.0000
0
VERTEX
70
8
10
14.1842
20
25.5230
30
0.0000
0
VERTEX
70
8
10
14.1018
20
25.4689
30
0.0000
0
VERTEX
70
8
10
14.0472
20
25.4343
30
0.0000
0
VERTEX
70
8
10
13.9894
20
25.3949
30
0.0000
0
VERTEX
70
8
10
13.9266
20
25.3509
30
0.0000
0
VERTEX
70
8
10
13.9266
20
25.3509
30
0.0000
0
VERTEX
70
8
10
13.9374
20
25.3693
30
0.0000
0
VERTEX
70
8
10
13.8569
20
25.4128
30
0.0000
0
VERTEX
70
8
10
13.7763
20
25.4564
30
0.0000
0
VERTEX
70
8
10
13.6958
20
25.5000
30
0.0000
0
VERTEX
70
8
10
13.6153
20
25.5436
30
0.0000
0
VERTEX
70
8
10
13.6083
20
25.6011
30
0.0000
0
VERTEX
70
8
10
13.6083
20
25.6011
30
0.0000
0
VERTEX
70
8
10
13.6083
20
25.6011
30
0.0000
0
VERTEX
70
8
10
13.6093
20
25.9328
30
0.0000
0
VERTEX
70
8
10
13.6093
20
25.9328
30
0.0000
0
VERTEX
70
8
10
13.6093
20
25.9328
30
0.0000
0
VERTEX
70
8
10
13.6097
20
25.9921
30
0.0000
0
VERTEX
70
8
10
13.6078
20
26.0459
30
0.0000
0
VERTEX
70
8
10
13.6045
20
26.1663
30
0.0000
0
VERTEX
70
8
10
13.5991
20
26.3783
30
0.0000
0
VERTEX
70
8
10
13.5889
20
26.5581
30
0.0000
0
VERTEX
70
8
10
13.5815
20
26.7326
30
0.0000
0
VERTEX
70
8
10
13.5658
20
26.9232
30
0.0000
0
VERTEX
70
8
10
13.5602
20
27.0051
30
0.0000
0
VERTEX
70
8
10
13.5520
20
27.2026
30
0.0000
0
VERTEX
70
8
10
13.5518
20
27.3425
30
0.0000
0
VERTEX
70
8
10
13.5487
20
27.4882
30
0.0000
0
VERTEX
70
8
10
13.5456
20
27.6338
30
0.0000
0
VERTEX
70
8
10
13.5424
20
27.7094
30
0.0000
0
VERTEX
70
8
10
13.5392
20
27.7851
30
0.0000
0
VERTEX
70
8
10
13.5360
20
27.8608
30
0.0000
0
VERTEX
70
8
10
13.5328
20
27.9364
30
0.0000
0
VERTEX
70
8
10
13.5279
20
28.0149
30
0.0000
0
VERTEX
70
8
10
13.5229
20
28.0933
30
0.0000
0
VERTEX
70
8
10
13.5180
20
28.1718
30
0.0000
0
VERTEX
70
8
10
13.5131
20
28.2502
30
0.0000
0
VERTEX
70
8
10
13.4389
20
28.2852
30
0.0000
0
VERTEX
70
8
10
13.3647
20
28.3203
30
0.0000
0
VERTEX
70
8
10
13.2905
20
28.3553
30
0.0000
0
VERTEX
70
8
10
13.2162
20
28.3903
30
0.0000
0
VERTEX
70
8
10
13.1526
20
28.3442
30
0.0000
0
VERTEX
70
8
10
13.0889
20
28.2982
30
0.0000
0
VERTEX
70
8
10
13.0252
20
28.2521
30
0.0000
0
VERTEX
70
8
10
12.9615
20
28.2060
30
0.0000
0
VERTEX
70
8
10
12.9010
20
28.1604
30
0.0000
0
VERTEX
70
8
10
12.8406
20
28.1148
30
0.0000
0
VERTEX
70
8
10
12.7802
20
28.0691
30
0.0000
0
VERTEX
70
8
10
12.7198
20
28.0235
30
0.0000
0
VERTEX
70
8
10
12.6053
20
27.9334
30
0.0000
0
VERTEX
70
8
10
12.4909
20
27.8432
30
0.0000
0
VERTEX
70
8
10
12.3829
20
27.7544
30
0.0000
0
VERTEX
70
8
10
12.3093
20
27.6958
30
0.0000
0
VERTEX
70
8
10
12.2252
20
27.6351
30
0.0000
0
VERTEX
70
8
10
12.0689
20
27.5248
30
0.0000
0
VERTEX
70
8
10
11.9751
20
27.4594
30
0.0000
0
VERTEX
70
8
10
11.9751
20
27.4594
30
0.0000
0
VERTEX
70
8
10
11.9751
20
27.4594
30
0.0000
0
VERTEX
70
8
10
11.9751
20
27.4594
30
0.0000
0
VERTEX
70
8
10
11.8314
20
27.3508
30
0.0000
0
VERTEX
70
8
10
11.2904
20
26.9285
30
0.0000
0
VERTEX
70
8
10
11.2145
20
26.8656
30
0.0000
0
VERTEX
70
8
10
11.1640
20
26.8253
30
0.0000
0
VERTEX
70
8
10
11.1108
20
26.7797
30
0.0000
0
VERTEX
70
8
10
11.0533
20
26.7291
30
0.0000
0
VERTEX
70
8
10
11.0533
20
26.7291
30
0.0000
0
VERTEX
70
8
10
11.0620
20
26.7485
30
0.0000
0
VERTEX
70
8
10
10.9771
20
26.7830
30
0.0000
0
VERTEX
70
8
10
10.8923
20
26.8174
30
0.0000
0
VERTEX
70
8
10
10.8075
20
26.8519
30
0.0000
0
VERTEX
70
8
10
10.7226
20
26.8863
30
0.0000
0
VERTEX
70
8
10
10.7094
20
26.9428
30
0.0000
0
VERTEX
70
8
10
10.7094
20
26.9428
30
0.0000
0
VERTEX
70
8
10
10.7094
20
26.9428
30
0.0000
0
VERTEX
70
8
10
10.6739
20
27.2726
30
0.0000
0
VERTEX
70
8
10
10.6739
20
27.2726
30
0.0000
0
VERTEX
70
8
10
10.6739
20
27.2726
30
0.0000
0
VERTEX
70
8
10
10.6678
20
27.3315
30
0.0000
0
VERTEX
70
8
10
10.6599
20
27.3848
30
0.0000
0
VERTEX
70
8
10
10.6434
20
27.5041
30
0.0000
0
VERTEX
70
8
10
10.6148
20
27.7142
30
0.0000
0
VERTEX
70
8
10
10.5848
20
27.8918
30
0.0000
0
VERTEX
70
8
10
10.5583
20
28.0644
30
0.0000
0
VERTEX
70
8
10
10.5216
20
28.2521
30
0.0000
0
VERTEX
70
8
10
10.5071
20
28.3330
30
0.0000
0
VERTEX
70
8
10
10.4772
20
28.5284
30
0.0000
0
VERTEX
70
8
10
10.4617
20
28.6674
30
0.0000
0
VERTEX
70
8
10
10.4425
20
28.8118
30
0.0000
0
VERTEX
70
8
10
10.4234
20
28.9562
30
0.0000
0
VERTEX
70
8
10
10.4119
20
29.0310
30
0.0000
0
VERTEX
70
8
10
10.4004
20
29.1059
30
0.0000
0
VERTEX
70
8
10
10.3889
20
29.1807
30
0.0000
0
VERTEX
70
8
10
10.3774
20
29.2556
30
0.0000
0
VERTEX
70
8
10
10.3639
20
29.3330
30
0.0000
0
VERTEX
70
8
10
10.3504
20
29.4104
30
0.0000
0
VERTEX
70
8
10
10.3368
20
29.4879
30
0.0000
0
VERTEX
70
8
10
10.3233
20
29.5653
30
0.0000
0
VERTEX
70
8
10
10.2457
20
29.5920
30
0.0000
0
VERTEX
70
8
10
10.1681
20
29.6186
30
0.0000
0
VERTEX
70
8
10
10.0905
20
29.6452
30
0.0000
0
VERTEX
70
8
10
10.0129
20
29.6719
30
0.0000
0
VERTEX
70
8
10
9.9546
20
29.6191
30
0.0000
0
VERTEX
70
8
10
9.8964
20
29.5663
30
0.0000
0
VERTEX
70
8
10
9.8381
20
29.5135
30
0.0000
0
VERTEX
70
8
10
9.7799
20
29.4607
30
0.0000
0
VERTEX
70
8
10
9.7249
20
29.4087
30
0.0000
0
VERTEX
70
8
10
9.6698
20
29.3567
30
0.0000
0
VERTEX
70
8
10
9.6148
20
29.3047
30
0.0000
0
VERTEX
70
8
10
9.5597
20
29.2527
30
0.0000
0
VERTEX
70
8
10
9.4559
20
29.1505
30
0.0000
0
VERTEX
70
8
10
9.3521
20
29.0483
30
0.0000
0
VERTEX
70
8
10
9.2545
20
28.9481
30
0.0000
0
VERTEX
70
8
10
9.1878
20
28.8818
30
0.0000
0
VERTEX
70
8
10
9.1109
20
28.8123
30
0.0000
0
VERTEX
70
8
10
8.9677
20
28.6855
30
0.0000
0
VERTEX
70
8
10
8.8816
20
28.6101
30
0.0000
0
VERTEX
70
8
10
8.8816
20
28.6101
30
0.0000
0
VERTEX
70
8
10
8.8816
20
28.6101
30
0.0000
0
VERTEX
70
8
10
8.8816
20
28.6101
30
0.0000
0
VERTEX
70
8
10
8.7508
20
28.4863
30
0.0000
0
VERTEX
70
8
10
8.2595
20
28.0071
30
0.0000
0
VERTEX
70
8
10
8.1910
20
27.9362
30
0.0000
0
VERTEX
70
8
10
8.1452
20
27.8906
30
0.0000
0
VERTEX
70
8
10
8.0974
20
27.8395
30
0.0000
0
VERTEX
70
8
10
8.0458
20
27.7828
30
0.0000
0
VERTEX
70
8
10
8.0458
20
27.7828
30
0.0000
0
VERTEX
70
8
10
8.0523
20
27.8031
30
0.0000
0
VERTEX
70
8
10
7.9642
20
27.8280
30
0.0000
0
VERTEX
70
8
10
7.8761
20
27.8529
30
0.0000
0
VERTEX
70
8
10
7.7879
20
27.8778
30
0.0000
0
VERTEX
70
8
10
7.6998
20
27.9027
30
0.0000
0
VERTEX
70
8
10
7.6804
20
27.9574
30
0.0000
0
VERTEX
70
8
10
7.6804
20
27.9574
30
0.0000
0
VERTEX
70
8
10
7.6804
20
27.9574
30
0.0000
0
VERTEX
70
8
10
7.6089
20
28.2813
30
0.0000
0
VERTEX
70
8
10
7.6089
20
28.2813
30
0.0000
0
VERTEX
70
8
10
7.6089
20
28.2813
30
0.0000
0
VERTEX
70
8
10
7.5963
20
28.3392
30
0.0000
0
VERTEX
70
8
10
7.5827
20
28.3913
30
0.0000
0
VERTEX
70
8
10
7.5532
20
28.5080
30
0.0000
0
VERTEX
70
8
10
7.5015
20
28.7137
30
0.0000
0
VERTEX
70
8
10
7.4522
20
28.8869
30
0.0000
0
VERTEX
70
8
10
7.4069
20
29.0556
30
0.0000
0
VERTEX
70
8
10
7.3498
20
29.2381
30
0.0000
0
VERTEX
70
8
10
7.3265
20
29.3169
30
0.0000
0
VERTEX
70
8
10
7.2753
20
29.5078
30
0.0000
0
VERTEX
70
8
10
7.2445
20
29.6443
30
0.0000
0
VERTEX
70
8
10
7.2096
20
29.7857
30
0.0000
0
VERTEX
70
8
10
7.1747
20
29.9271
30
0.0000
0
VERTEX
70
8
10
7.1551
20
30.0002
30
0.0000
0
VERTEX
70
8
10
7.1354
20
30.0734
30
0.0000
0
VERTEX
70
8
10
7.1157
20
30.1465
30
0.0000
0
VERTEX
70
8
10
7.0961
20
30.2196
30
0.0000
0
VERTEX
70
8
10
7.0741
20
30.2951
30
0.0000
0
VERTEX
70
8
10
7.0522
20
30.3706
30
0.0000
0
VERTEX
70
8
10
7.0302
20
30.4460
30
0.0000
0
VERTEX
70
8
10
7.0082
20
30.5215
30
0.0000
0
VERTEX
70
8
10
6.9281
20
30.5395
30
0.0000
0
VERTEX
70
8
10
6.8481
20
30.5574
30
0.0000
0
VERTEX
70
8
10
6.7680
20
30.5754
30
0.0000
0
VERTEX
70
8
10
6.6879
20
30.5933
30
0.0000
0
VERTEX
70
8
10
6.6359
20
30.5344
30
0.0000
0
VERTEX
70
8
10
6.5838
20
30.4755
30
0.0000
0
VERTEX
70
8
10
6.5317
20
30.4167
30
0.0000
0
VERTEX
70
8
10
6.4796
20
30.3578
30
0.0000
0
VERTEX
70
8
10
6.4306
20
30.3000
30
0.0000
0
VERTEX
70
8
10
6.3817
20
30.2423
30
0.0000
0
VERTEX
70
8
10
6.3327
20
30.1846
30
0.0000
0
VERTEX
70
8
10
6.2837
20
30.1268
30
0.0000
0
VERTEX
70
8
10
6.1918
20
30.0138
30
0.0000
0
VERTEX
70
8
10
6.0998
20
29.9008
30
0.0000
0
VERTEX
70
8
10
6.0138
20
29.7905
30
0.0000
0
VERTEX
70
8
10
5.9548
20
29.7173
30
0.0000
0
VERTEX
70
8
10
5.8860
20
29.6397
30
0.0000
0
VERTEX
70
8
10
5.7577
20
29.4979
30
0.0000
0
VERTEX
70
8
10
5.6804
20
29.4135
30
0.0000
0
VERTEX
70
8
10
5.6804
20
29.4135
30
0.0000
0
VERTEX
70
8
10
5.6804
20
29.4135
30
0.0000
0
VERTEX
70
8
10
5.6804
20
29.4135
30
0.0000
0
VERTEX
70
8
10
5.5639
20
29.2761
30
0.0000
0
VERTEX
70
8
10
5.1283
20
28.7457
30
0.0000
0
VERTEX
70
8
10
5.0680
20
28.6678
30
0.0000
0
VERTEX
70
8
10
5.0276
20
28.6173
30
0.0000
0
VERTEX
70
8
10
4.9857
20
28.5613
30
0.0000
0
VERTEX
70
8
10
4.9406
20
28.4993
30
0.0000
0
VERTEX
70
8
10
4.9406
20
28.4993
30
0.0000
0
VERTEX
70
8
10
4.9448
20
28.5201
30
0.0000
0
VERTEX
70
8
10
4.8545
20
28.5352
30
0.0000
0
VERTEX
70
8
10
4.7642
20
28.5503
30
0.0000
0
VERTEX
70
8
10
4.6739
20
28.5654
30
0.0000
0
VERTEX
70
8
10
4.5836
20
28.5804
30
0.0000
0
VERTEX
70
8
10
4.5583
20
28.6326
30
0.0000
0
VERTEX
70
8
10
4.5583
20
28.6326
30
0.0000
0
VERTEX
70
8
10
4.5583
20
28.6326
30
0.0000
0
VERTEX
70
8
10
4.4515
20
28.9467
30
0.0000
0
VERTEX
70
8
10
4.4515
20
28.9467
30
0.0000
0
VERTEX
70
8
10
4.4515
20
28.9467
30
0.0000
0
VERTEX
70
8
10
4.4327
20
29.0028
30
0.0000
0
VERTEX
70
8
10
4.4134
20
29.0531
30
0.0000
0
VERTEX
70
8
10
4.3712
20
29.1659
30
0.0000
0
VERTEX
70
8
10
4.2973
20
29.3646
30
0.0000
0
VERTEX
70
8
10
4.2292
20
29.5314
30
0.0000
0
VERTEX
70
8
10
4.1656
20
29.6940
30
0.0000
0
VERTEX
70
8
10
4.0888
20
29.8692
30
0.0000
0
VERTEX
70
8
10
4.0569
20
29.9449
30
0.0000
0
VERTEX
70
8
10
3.9850
20
30.1290
30
0.0000
0
VERTEX
70
8
10
3.9395
20
30.2613
30
0.0000
0
VERTEX
70
8
10
3.8892
20
30.3980
30
0.0000
0
VERTEX
70
8
10
3.8389
20
30.5348
30
0.0000
0
VERTEX
70
8
10
3.8114
20
30.6053
30
0.0000
0
VERTEX
70
8
10
3.7838
20
30.6758
30
0.0000
0
VERTEX
70
8
10
3.7562
20
30.7463
30
0.0000
0
VERTEX
70
8
10
3.7286
20
30.8168
30
0.0000
0
VERTEX
70
8
10
3.6985
20
30.8894
30
0.0000
0
VERTEX
70
8
10
3.6683
20
30.9620
30
0.0000
0
VERTEX
70
8
10
3.6382
20
31.0346
30
0.0000
0
VERTEX
70
8
10
3.6081
20
31.1072
30
0.0000
0
VERTEX
70
8
10
3.5265
20
31.1163
30
0.0000
0
VERTEX
70
8
10
3.4450
20
31.1253
30
0.0000
0
VERTEX
70
8
10
3.3634
20
31.1343
30
0.0000
0
VERTEX
70
8
10
3.2818
20
31.1433
30
0.0000
0
VERTEX
70
8
10
3.2365
20
31.0791
30
0.0000
0
VERTEX
70
8
10
3.1913
20
31.0148
30
0.0000
0
VERTEX
70
8
10
3.1460
20
30.9506
30
0.0000
0
VERTEX
70
8
10
3.1007
20
30.8863
30
0.0000
0
VERTEX
70
8
10
3.0584
20
30.8236
30
0.0000
0
VERTEX
70
8
10
3.0160
20
30.7608
30
0.0000
0
VERTEX
70
8
10
2.9737
20
30.6980
30
0.0000
0
VERTEX
70
8
10
2.9313
20
30.6352
30
0.0000
0
VERTEX
70
8
10
2.8524
20
30.5128
30
0.0000
0
VERTEX
70
8
10
2.7735
20
30.3904
30
0.0000
0
VERTEX
70
8
10
2.7001
20
30.2713
30
0.0000
0
VERTEX
70
8
10
2.6495
20
30.1920
30
0.0000
0
VERTEX
70
8
10
2.5897
20
30.1073
30
0.0000
0
VERTEX
70
8
10
2.4777
20
29.9522
30
0.0000
0
VERTEX
70
8
10
2.4102
20
29.8598
30
0.0000
0
VERTEX
70
8
10
2.4102
20
29.8598
30
0.0000
0
VERTEX
70
8
10
2.4102
20
29.8598
30
0.0000
0
VERTEX
70
8
10
2.4102
20
29.8598
30
0.0000
0
VERTEX
70
8
10
2.3095
20
29.7105
30
0.0000
0
VERTEX
70
8
10
1.9349
20
29.1354
30
0.0000
0
VERTEX
70
8
10
1.8836
20
29.0513
30
0.0000
0
VERTEX
70
8
10
1.8489
20
28.9967
30
0.0000
0
VERTEX
70
8
10
1.8135
20
28.9364
30
0.0000
0
VERTEX
70
8
10
1.7755
20
28.8698
30
0.0000
0
VERTEX
70
8
10
1.7755
20
28.8698
30
0.0000
0
VERTEX
70
8
10
1.7774
20
28.8910
30
0.0000
0
VERTEX
70
8
10
1.6859
20
28.8961
30
0.0000
0
VERTEX
70
8
10
1.5945
20
28.9011
30
0.0000
0
VERTEX
70
8
10
1.5031
20
28.9061
30
0.0000
0
VERTEX
70
8
10
1.4117
20
28.9112
30
0.0000
0
VERTEX
70
8
10
1.3808
20
28.9603
30
0.0000
0
VERTEX
70
8
10
1.3808
20
28.9603
30
0.0000
0
VERTEX
70
8
10
1.3808
20
28.9603
30
0.0000
0
VERTEX
70
8
10
1.2401
20
29.2607
30
0.0000
0
VERTEX
70
8
10
1.2401
20
29.2607
30
0.0000
0
VERTEX
70
8
10
1.2401
20
29.2607
30
0.0000
0
VERTEX
70
8
10
1.2152
20
29.3144
30
0.0000
0
VERTEX
70
8
10
1.1905
20
29.3623
30
0.0000
0
VERTEX
70
8
10
1.1362
20
29.4698
30
0.0000
0
VERTEX
70
8
10
1.0408
20
29.6591
30
0.0000
0
VERTEX
70
8
10
0.9549
20
29.8174
30
0.0000
0
VERTEX
70
8
10
0.8737
20
29.9721
30
0.0000
0
VERTEX
70
8
10
0.7781
20
30.1377
30
0.0000
0
VERTEX
70
8
10
0.7381
20
30.2094
30
0.0000
0
VERTEX
70
8
10
0.6464
20
30.3846
30
0.0000
0
VERTEX
70
8
10
0.5866
20
30.5110
30
0.0000
0
VERTEX
70
8
10
0.5216
20
30.6414
30
0.0000
0
VERTEX
70
8
10
0.4566
20
30.7717
30
0.0000
0
VERTEX
70
8
10
0.4214
20
30.8388
30
0.0000
0
VERTEX
70
8
10
0.3862
20
30.9059
30
0.0000
0
VERTEX
70
8
10
0.3511
20
30.9729
30
0.0000
0
VERTEX
70
8
10
0.3159
20
31.0400
30
0.0000
0
VERTEX
70
8
10
0.2779
20
31.1088
30
0.0000
0
VERTEX
70
8
10
0.2400
20
31.1777
30
0.0000
0
VERTEX
70
8
10
0.2021
20
31.2465
30
0.0000
0
VERTEX
70
8
10
0.1641
20
31.3153
30
0.0000
0
VERTEX
70
8
10
0.0821
20
31.3153
30
0.0000
0
VERTEX
70
8
10
0.0000
20
31.3154
30
0.0000
0
VERTEX
70
8
10
-0.0821
20
31.3154
30
0.0000
0
VERTEX
70
8
10
-0.1641
20
31.3154
30
0.0000
0
VERTEX
70
8
10
-0.2021
20
31.2465
30
0.0000
0
VERTEX
70
8
10
-0.2400
20
31.1777
30
0.0000
0
VERTEX
70
8
10
-0.2779
20
31.1088
30
0.0000
0
VERTEX
70
8
10
-0.3159
20
31.0400
30
0.0000
0
VERTEX
70
8
10
-0.3510
20
30.9729
30
0.0000
0
VERTEX
70
8
10
-0.3862
20
30.9059
30
0.0000
0
VERTEX
70
8
10
-0.4214
20
30.8388
30
0.0000
0
VERTEX
70
8
10
-0.4566
20
30.7718
30
0.0000
0
VERTEX
70
8
10
-0.5216
20
30.6414
30
0.0000
0
VERTEX
70
8
10
-0.5866
20
30.5110
30
0.0000
0
VERTEX
70
8
10
-0.6464
20
30.3846
30
0.0000
0
VERTEX
70
8
10
-0.6879
20
30.3002
30
0.0000
0
VERTEX
70
8
10
-0.7381
20
30.2094
30
0.0000
0
VERTEX
70
8
10
-0.8323
20
30.0430
30
0.0000
0
VERTEX
70
8
10
-0.8893
20
29.9438
30
0.0000
0
VERTEX
70
8
10
-0.8893
20
29.9438
30
0.0000
0
VERTEX
70
8
10
-0.8893
20
29.9438
30
0.0000
0
VERTEX
70
8
10
-0.8893
20
29.9438
30
0.0000
0
VERTEX
70
8
10
-0.9729
20
29.7842
30
0.0000
0
VERTEX
70
8
10
-1.2819
20
29.1714
30
0.0000
0
VERTEX
70
8
10
-1.3237
20
29.0822
30
0.0000
0
VERTEX
70
8
10
-1.3522
20
29.0241
30
0.0000
0
VERTEX
70
8
10
-1.3808
20
28.9603
30
0.0000
0
VERTEX
70
8
10
-1.4112
20
28.8899
30
0.0000
0
VERTEX
70
8
10
-1.4112
20
28.8899
30
0.0000
0
VERTEX
70
8
10
-1.4117
20
28.9112
30
0.0000
0
VERTEX
70
8
10
-1.5031
20
28.9061
30
0.0000
0
VERTEX
70
8
10
-1.5945
20
28.9011
30
0.0000
0
VERTEX
70
8
10
-1.6859
20
28.8961
30
0.0000
0
VERTEX
70
8
10
-1.7774
20
28.8910
30
0.0000
0
VERTEX
70
8
10
-1.8135
20
28.9364
30
0.0000
0
VERTEX
70
8
10
-1.8135
20
28.9364
30
0.0000
0
VERTEX
70
8
10
-1.8135
20
28.9364
30
0.0000
0
VERTEX
70
8
10
-1.9863
20
29.2195
30
0.0000
0
VERTEX
70
8
10
-1.9863
20
29.2195
30
0.0000
0
VERTEX
70
8
10
-1.9863
20
29.2195
30
0.0000
0
VERTEX
70
8
10
-2.0170
20
29.2702
30
0.0000
0
VERTEX
70
8
10
-2.0468
20
29.3150
30
0.0000
0
VERTEX
70
8
10
-2.1126
20
29.4159
30
0.0000
0
VERTEX
70
8
10
-2.2282
20
29.5936
30
0.0000
0
VERTEX
70
8
10
-2.3311
20
29.7415
30
0.0000
0
VERTEX
70
8
10
-2.4288
20
29.8863
30
0.0000
0
VERTEX
70
8
10
-2.5420
20
30.0404
30
0.0000
0
VERTEX
70
8
10
-2.5897
20
30.1073
30
0.0000
0
VERTEX
70
8
10
-2.7001
20
30.2713
30
0.0000
0
VERTEX
70
8
10
-2.7735
20
30.3904
30
0.0000
0
VERTEX
70
8
10
-2.8524
20
30.5128
30
0.0000
0
VERTEX
70
8
10
-2.9313
20
30.6352
30
0.0000
0
VERTEX
70
8
10
-2.9737
20
30.6980
30
0.0000
0
VERTEX
70
8
10
-3.0160
20
30.7608
30
0.0000
0
VERTEX
70
8
10
-3.0584
20
30.8235
30
0.0000
0
VERTEX
70
8
10
-3.1007
20
30.8863
30
0.0000
0
VERTEX
70
8
10
-3.1460
20
30.9506
30
0.0000
0
VERTEX
70
8
10
-3.1913
20
31.0148
30
0.0000
0
VERTEX
70
8
10
-3.2365
20
31.0791
30
0.0000
0
VERTEX
70
8
10
-3.2818
20
31.1433
30
0.0000
0
VERTEX
70
8
10
-3.3634
20
31.1343
30
0.0000
0
VERTEX
70
8
10
-3.4449
20
31.1253
30
0.0000
0
VERTEX
70
8
10
-3.5265
20
31.1163
30
0.0000
0
VERTEX
70
8
10
-3.6081
20
31.1072
30
0.0000
0
VERTEX
70
8
10
-3.6382
20
31.0346
30
0.0000
0
VERTEX
70
8
10
-3.6683
20
30.9620
30
0.0000
0
VERTEX
70
8
10
-3.6985
20
30.8894
30
0.0000
0
VERTEX
70
8
10
-3.7286
20
30.8168
30
0.0000
0
VERTEX
70
8
10
-3.7562
20
30.7463
30
0.0000
0
VERTEX
70
8
10
-3.7838
20
30.6758
30
0.0000
0
VERTEX
70
8
10
-3.8114
20
30.6053
30
0.0000
0
VERTEX
70
8
10
-3.8389
20
30.5348
30
0.0000
0
VERTEX
70
8
10
-3.8892
20
30.3980
30
0.0000
0
VERTEX
70
8
10
-3.9395
20
30.2613
30
0.0000
0
VERTEX
70
8
10
-3.9850
20
30.1291
30
0.0000
0
VERTEX
70
8
10
-4.0170
20
30.0406
30
0.0000
0
VERTEX
70
8
10
-4.0569
20
29.9449
30
0.0000
0
VERTEX
70
8
10
-4.1323
20
29.7691
30
0.0000
0
VERTEX
70
8
10
-4.1779
20
29.6642
30
0.0000
0
VERTEX
70
8
10
-4.1779
20
29.6642
30
0.0000
0
VERTEX
70
8
10
-4.1779
20
29.6642
30
0.0000
0
VERTEX
70
8
10
-4.1779
20
29.6642
30
0.0000
0
VERTEX
70
8
10
-4.2435
20
29.4964
30
0.0000
0
VERTEX
70
8
10
-4.4832
20
28.8534
30
0.0000
0
VERTEX
70
8
10
-4.5150
20
28.7600
30
0.0000
0
VERTEX
70
8
10
-4.5369
20
28.6992
30
0.0000
0
VERTEX
70
8
10
-4.5583
20
28.6326
30
0.0000
0
VERTEX
70
8
10
-4.5808
20
28.5593
30
0.0000
0
VERTEX
70
8
10
-4.5808
20
28.5593
30
0.0000
0
VERTEX
70
8
10
-4.5836
20
28.5804
30
0.0000
0
VERTEX
70
8
10
-4.6739
20
28.5654
30
0.0000
0
VERTEX
70
8
10
-4.7642
20
28.5503
30
0.0000
0
VERTEX
70
8
10
-4.8545
20
28.5352
30
0.0000
0
VERTEX
70
8
10
-4.9448
20
28.5201
30
0.0000
0
VERTEX
70
8
10
-4.9857
20
28.5613
30
0.0000
0
VERTEX
70
8
10
-4.9857
20
28.5613
30
0.0000
0
VERTEX
70
8
10
-4.9857
20
28.5613
30
0.0000
0
VERTEX
70
8
10
-5.1886
20
28.8237
30
0.0000
0
VERTEX
70
8
10
-5.1886
20
28.8237
30
0.0000
0
VERTEX
70
8
10
-5.1886
20
28.8237
30
0.0000
0
VERTEX
70
8
10
-5.2247
20
28.8707
30
0.0000
0
VERTEX
70
8
10
-5.2593
20
28.9119
30
0.0000
0
VERTEX
70
8
10
-5.3358
20
29.0050
30
0.0000
0
VERTEX
70
8
10
-5.4702
20
29.1689
30
0.0000
0
VERTEX
70
8
10
-5.5888
20
29.3045
30
0.0000
0
VERTEX
70
8
10
-5.7018
20
29.4377
30
0.0000
0
VERTEX
70
8
10
-5.8313
20
29.5784
30
0.0000
0
VERTEX
70
8
10
-5.8860
20
29.6397
30
0.0000
0
VERTEX
70
8
10
-6.0138
20
29.7905
30
0.0000
0
VERTEX
70
8
10
-6.0998
20
29.9008
30
0.0000
0
VERTEX
70
8
10
-6.1917
20
30.0138
30
0.0000
0
VERTEX
70
8
10
-6.2837
20
30.1268
30
0.0000
0
VERTEX
70
8
10
-6.3327
20
30.1845
30
0.0000
0
VERTEX
70
8
10
-6.3816
20
30.2423
30
0.0000
0
VERTEX
70
8
10
-6.4306
20
30.3000
30
0.0000
0
VERTEX
70
8
10
-6.4796
20
30.3578
30
0.0000
0
VERTEX
70
8
10
-6.5317
20
30.4166
30
0.0000
0
VERTEX
70
8
10
-6.5838
20
30.4755
30
0.0000
0
VERTEX
70
8
10
-6.6359
20
30.5344
30
0.0000
0
VERTEX
70
8
10
-6.6879
20
30.5933
30
0.0000
0
VERTEX
70
8
10
-6.7680
20
30.5753
30
0.0000
0
VERTEX
70
8
10
-6.8481
20
30.5574
30
0.0000
0
VERTEX
70
8
10
-6.9281
20
30.5395
30
0.0000
0
VERTEX
70
8
10
-7.0082
20
30.5215
30
0.0000
0
VERTEX
70
8
10
-7.0302
20
30.4461
30
0.0000
0
VERTEX
70
8
10
-7.0522
20
30.3706
30
0.0000
0
VERTEX
70
8
10
-7.0741
20
30.2951
30
0.0000
0
VERTEX
70
8
10
-7.0961
20
30.2196
30
0.0000
0
VERTEX
70
8
10
-7.1157
20
30.1465
30
0.0000
0
VERTEX
70
8
10
-7.1354
20
30.0734
30
0.0000
0
VERTEX
70
8
10
-7.1551
20
30.0003
30
0.0000
0
VERTEX
70
8
10
-7.1747
20
29.9271
30
0.0000
0
VERTEX
70
8
10
-7.2096
20
29.7857
30
0.0000
0
VERTEX
70
8
10
-7.2445
20
29.6443
30
0.0000
0
VERTEX
70
8
10
-7.2753
20
29.5078
30
0.0000
0
VERTEX
70
8
10
-7.2974
20
29.4164
30
0.0000
0
VERTEX
70
8
10
-7.3265
20
29.3169
30
0.0000
0
VERTEX
70
8
10
-7.3820
20
29.1339
30
0.0000
0
VERTEX
70
8
10
-7.4159
20
29.0245
30
0.0000
0
VERTEX
70
8
10
-7.4159
20
29.0245
30
0.0000
0
VERTEX
70
8
10
-7.4159
20
29.0245
30
0.0000
0
VERTEX
70
8
10
-7.4159
20
29.0245
30
0.0000
0
VERTEX
70
8
10
-7.4626
20
28.8506
30
0.0000
0
VERTEX
70
8
10
-7.6301
20
28.1850
30
0.0000
0
VERTEX
70
8
10
-7.6514
20
28.0888
30
0.0000
0
VERTEX
70
8
10
-7.6665
20
28.0260
30
0.0000
0
VERTEX
70
8
10
-7.6804
20
27.9574
30
0.0000
0
VERTEX
70
8
10
-7.6948
20
27.8821
30
0.0000
0
VERTEX
70
8
10
-7.6948
20
27.8821
30
0.0000
0
VERTEX
70
8
10
-7.6998
20
27.9027
30
0.0000
0
VERTEX
70
8
10
-7.7879
20
27.8778
30
0.0000
0
VERTEX
70
8
10
-7.8760
20
27.8529
30
0.0000
0
VERTEX
70
8
10
-7.9642
20
27.8280
30
0.0000
0
VERTEX
70
8
10
-8.0523
20
27.8031
30
0.0000
0
VERTEX
70
8
10
-8.0974
20
27.8395
30
0.0000
0
VERTEX
70
8
10
-8.0974
20
27.8395
30
0.0000
0
VERTEX
70
8
10
-8.0974
20
27.8395
30
0.0000
0
VERTEX
70
8
10
-8.3280
20
28.0779
30
0.0000
0
VERTEX
70
8
10
-8.3280
20
28.0779
30
0.0000
0
VERTEX
70
8
10
-8.3280
20
28.0779
30
0.0000
0
VERTEX
70
8
10
-8.3690
20
28.1207
30
0.0000
0
VERTEX
70
8
10
-8.4079
20
28.1579
30
0.0000
0
VERTEX
70
8
10
-8.4942
20
28.2419
30
0.0000
0
VERTEX
70
8
10
-8.6459
20
28.3901
30
0.0000
0
VERTEX
70
8
10
-8.7786
20
28.5119
30
0.0000
0
VERTEX
70
8
10
-8.9056
20
28.6318
30
0.0000
0
VERTEX
70
8
10
-9.0498
20
28.7574
30
0.0000
0
VERTEX
70
8
10
-9.1109
20
28.8123
30
0.0000
0
VERTEX
70
8
10
-9.2545
20
28.9481
30
0.0000
0
VERTEX
70
8
10
-9.3521
20
29.0483
30
0.0000
0
VERTEX
70
8
10
-9.4559
20
29.1505
30
0.0000
0
VERTEX
70
8
10
-9.5597
20
29.2527
30
0.0000
0
VERTEX
70
8
10
-9.6148
20
29.3047
30
0.0000
0
VERTEX
70
8
10
-9.6698
20
29.3567
30
0.0000
0
VERTEX
70
8
10
-9.7249
20
29.4087
30
0.0000
0
VERTEX
70
8
10
-9.7799
20
29.4607
30
0.0000
0
VERTEX
70
8
10
-9.8381
20
29.5135
30
0.0000
0
VERTEX
70
8
10
-9.8964
20
29.5663
30
0.0000
0
VERTEX
70
8
10
-9.9546
20
29.6191
30
0.0000
0
VERTEX
70
8
10
-10.0129
20
29.6719
30
0.0000
0
VERTEX
70
8
10
-10.0905
20
29.6452
30
0.0000
0
VERTEX
70
8
10
-10.1681
20
29.6186
30
0.0000
0
VERTEX
70
8
10
-10.2457
20
29.5920
30
0.0000
0
VERTEX
70
8
10
-10.3233
20
29.5653
30
0.0000
0
VERTEX
70
8
10
-10.3368
20
29.4879
30
0.0000
0
VERTEX
70
8
10
-10.3504
20
29.4105
30
0.0000
0
VERTEX
70
8
10
-10.3639
20
29.3330
30
0.0000
0
VERTEX
70
8
10
-10.3774
20
29.2556
30
0.0000
0
VERTEX
70
8
10
-10.3889
20
29.1807
30
0.0000
0
VERTEX
70
8
10
-10.4004
20
29.1059
30
0.0000
0
VERTEX
70
8
10
-10.4119
20
29.0311
30
0.0000
0
VERTEX
70
8
10
-10.4234
20
28.9562
30
0.0000
0
VERTEX
70
8
10
-10.4425
20
28.8118
30
0.0000
0
VERTEX
70
8
10
-10.4617
20
28.6674
30
0.0000
0
VERTEX
70
8
10
-10.4772
20
28.5284
30
0.0000
0
VERTEX
70
8
10
-10.4891
20
28.4351
30
0.0000
0
VERTEX
70
8
10
-10.5071
20
28.3330
30
0.0000
0
VERTEX
70
8
10
-10.5422
20
28.1450
30
0.0000
0
VERTEX
70
8
10
-10.5638
20
28.0326
30
0.0000
0
VERTEX
70
8
10
-10.5638
20
28.0326
30
0.0000
0
VERTEX
70
8
10
-10.5638
20
28.0326
30
0.0000
0
VERTEX
70
8
10
-10.5638
20
28.0326
30
0.0000
0
VERTEX
70
8
10
-10.5911
20
27.8546
30
0.0000
0
VERTEX
70
8
10
-10.6844
20
27.1746
30
0.0000
0
VERTEX
70
8
10
-10.6950
20
27.0766
30
0.0000
0
VERTEX
70
8
10
-10.7030
20
27.0125
30
0.0000
0
VERTEX
70
8
10
-10.7094
20
26.9428
30
0.0000
0
VERTEX
70
8
10
-10.7153
20
26.8664
30
0.0000
0
VERTEX
70
8
10
-10.7153
20
26.8664
30
0.0000
0
VERTEX
70
8
10
-10.7226
20
26.8863
30
0.0000
0
VERTEX
70
8
10
-10.8075
20
26.8519
30
0.0000
0
VERTEX
70
8
10
-10.8923
20
26.8174
30
0.0000
0
VERTEX
70
8
10
-10.9771
20
26.7830
30
0.0000
0
VERTEX
70
8
10
-11.0620
20
26.7485
30
0.0000
0
VERTEX
70
8
10
-11.1108
20
26.7797
30
0.0000
0
VERTEX
70
8
10
-11.1108
20
26.7797
30
0.0000
0
VERTEX
70
8
10
-11.1108
20
26.7797
30
0.0000
0
VERTEX
70
8
10
-11.3662
20
26.9914
30
0.0000
0
VERTEX
70
8
10
-11.3662
20
26.9914
30
0.0000
0
VERTEX
70
8
10
-11.3662
20
26.9914
30
0.0000
0
VERTEX
70
8
10
-11.4117
20
27.0293
30
0.0000
0
VERTEX
70
8
10
-11.4545
20
27.0621
30
0.0000
0
VERTEX
70
8
10
-11.5495
20
27.1361
30
0.0000
0
VERTEX
70
8
10
-11.7165
20
27.2667
30
0.0000
0
VERTEX
70
8
10
-11.8618
20
27.3731
30
0.0000
0
VERTEX
70
8
10
-12.0012
20
27.4783
30
0.0000
0
VERTEX
70
8
10
-12.1584
20
27.5873
30
0.0000
0
VERTEX
70
8
10
-12.2252
20
27.6351
30
0.0000
0
VERTEX
70
8
10
-12.3829
20
27.7544
30
0.0000
0
VERTEX
70
8
10
-12.4909
20
27.8432
30
0.0000
0
VERTEX
70
8
10
-12.6053
20
27.9333
30
0.0000
0
VERTEX
70
8
10
-12.7198
20
28.0235
30
0.0000
0
VERTEX
70
8
10
-12.7802
20
28.0691
30
0.0000
0
VERTEX
70
8
10
-12.8406
20
28.1148
30
0.0000
0
VERTEX
70
8
10
-12.9010
20
28.1604
30
0.0000
0
VERTEX
70
8
10
-12.9615
20
28.2060
30
0.0000
0
VERTEX
70
8
10
-13.0252
20
28.2521
30
0.0000
0
VERTEX
70
8
10
-13.0888
20
28.2982
30
0.0000
0
VERTEX
70
8
10
-13.1525
20
28.3442
30
0.0000
0
VERTEX
70
8
10
-13.2162
20
28.3903
30
0.0000
0
VERTEX
70
8
10
-13.2904
20
28.3553
30
0.0000
0
VERTEX
70
8
10
-13.3647
20
28.3203
30
0.0000
0
VERTEX
70
8
10
-13.4389
20
28.2852
30
0.0000
0
VERTEX
70
8
10
-13.5131
20
28.2502
30
0.0000
0
VERTEX
70
8
10
-13.5180
20
28.1718
30
0.0000
0
VERTEX
70
8
10
-13.5229
20
28.0933
30
0.0000
0
VERTEX
70
8
10
-13.5279
20
28.0149
30
0.0000
0
VERTEX
70
8
10
-13.5328
20
27.9364
30
0.0000
0
VERTEX
70
8
10
-13.5360
20
27.8608
30
0.0000
0
VERTEX
70
8
10
-13.5392
20
27.7851
30
0.0000
0
VERTEX
70
8
10
-13.5424
20
27.7095
30
0.0000
0
VERTEX
70
8
10
-13.5456
20
27.6338
30
0.0000
0
VERTEX
70
8
10
-13.5487
20
27.4882
30
0.0000
0
VERTEX
70
8
10
-13.5518
20
27.3425
30
0.0000
0
VERTEX
70
8
10
-13.5520
20
27.2026
30
0.0000
0
VERTEX
70
8
10
-13.5536
20
27.1086
30
0.0000
0
VERTEX
70
8
10
-13.5602
20
27.0051
30
0.0000
0
VERTEX
70
8
10
-13.5744
20
26.8144
30
0.0000
0
VERTEX
70
8
10
-13.5835
20
26.7003
30
0.0000
0
VERTEX
70
8
10
-13.5835
20
26.7003
30
0.0000
0
VERTEX
70
8
10
-13.5835
20
26.7003
30
0.0000
0
VERTEX
70
8
10
-13.5835
20
26.7003
30
0.0000
0
VERTEX
70
8
10
-13.5910
20
26.5204
30
0.0000
0
VERTEX
70
8
10
-13.6090
20
25.8343
30
0.0000
0
VERTEX
70
8
10
-13.6087
20
25.7357
30
0.0000
0
VERTEX
70
8
10
-13.6097
20
25.6711
30
0.0000
0
VERTEX
70
8
10
-13.6083
20
25.6011
30
0.0000
0
VERTEX
70
8
10
-13.6058
20
25.5245
30
0.0000
0
VERTEX
70
8
10
-13.6058
20
25.5245
30
0.0000
0
VERTEX
70
8
10
-13.6153
20
25.5436
30
0.0000
0
VERTEX
70
8
10
-13.6958
20
25.5000
30
0.0000
0
VERTEX
70
8
10
-13.7763
20
25.4564
30
0.0000
0
VERTEX
70
8
10
-13.8569
20
25.4128
30
0.0000
0
VERTEX
70
8
10
-13.9374
20
25.3693
30
0.0000
0
VERTEX
70
8
10
-13.9894
20
25.3949
30
0.0000
0
VERTEX
70
8
10
-13.9894
20
25.3949
30
0.0000
0
VERTEX
70
8
10
-13.9894
20
25.3949
30
0.0000
0
VERTEX
70
8
10
-14.2665
20
25.5772
30
0.0000
0
VERTEX
70
8
10
-14.2665
20
25.5772
30
0.0000
0
VERTEX
70
8
10
-14.2665
20
25.5772
30
0.0000
0
VERTEX
70
8
10
-14.3159
20
25.6099
30
0.0000
0
VERTEX
70
8
10
-14.3620
20
25.6377
30
0.0000
0
VERTEX
70
8
10
-14.4646
20
25.7009
30
0.0000
0
VERTEX
70
8
10
-14.6450
20
25.8123
30
0.0000
0
VERTEX
70
8
10
-14.8011
20
25.9021
30
0.0000
0
VERTEX
70
8
10
-14.9513
20
25.9913
30
0.0000
0
VERTEX
70
8
10
-15.1194
20
26.0824
30
0.0000
0
VERTEX
70
8
10
-15.1911
20
26.1225
30
0.0000
0
VERTEX
70
8
10
-15.3609
20
26.2237
30
0.0000
0
VERTEX
70
8
10
-15.4781
20
26.3001
30
0.0000
0
VERTEX
70
8
10
-15.6017
20
26.3771
30
0.0000
0
VERTEX
70
8
10
-15.7254
20
26.4541
30
0.0000
0
VERTEX
70
8
10
-15.7904
20
26.4929
30
0.0000
0
VERTEX
70
8
10
-15.8555
20
26.5316
30
0.0000
0
VERTEX
70
8
10
-15.9206
20
26.5703
30
0.0000
0
VERTEX
70
8
10
-15.9857
20
26.6090
30
0.0000
0
VERTEX
70
8
10
-16.0541
20
26.6478
30
0.0000
0
VERTEX
70
8
10
-16.1224
20
26.6865
30
0.0000
0
VERTEX
70
8
10
-16.1908
20
26.7253
30
0.0000
0
VERTEX
70
8
10
-16.2592
20
26.7641
30
0.0000
0
VERTEX
70
8
10
-16.3291
20
26.7211
30
0.0000
0
VERTEX
70
8
10
-16.3990
20
26.6782
30
0.0000
0
VERTEX
70
8
10
-16.4689
20
26.6352
30
0.0000
0
VERTEX
70
8
10
-16.5388
20
26.5922
30
0.0000
0
VERTEX
70
8
10
-16.5351
20
26.5137
30
0.0000
0
VERTEX
70
8
10
-16.5314
20
26.4352
30
0.0000
0
VERTEX
70
8
10
-16.5276
20
26.3567
30
0.0000
0
VERTEX
70
8
10
-16.5239
20
26.2781
30
0.0000
0
VERTEX
70
8
10
-16.5187
20
26.2026
30
0.0000
0
VERTEX
70
8
10
-16.5136
20
26.1271
30
0.0000
0
VERTEX
70
8
10
-16.5084
20
26.0515
30
0.0000
0
VERTEX
70
8
10
-16.5033
20
25.9760
30
0.0000
0
VERTEX
70
8
10
-16.4904
20
25.8309
30
0.0000
0
VERTEX
70
8
10
-16.4775
20
25.6858
30
0.0000
0
VERTEX
70
8
10
-16.4622
20
25.5467
30
0.0000
0
VERTEX
70
8
10
-16.4535
20
25.4531
30
0.0000
0
VERTEX
70
8
10
-16.4487
20
25.3495
30
0.0000
0
VERTEX
70
8
10
-16.4418
20
25.1584
30
0.0000
0
VERTEX
70
8
10
-16.4383
20
25.0440
30
0.0000
0
VERTEX
70
8
10
-16.4383
20
25.0440
30
0.0000
0
VERTEX
70
8
10
-16.4383
20
25.0440
30
0.0000
0
VERTEX
70
8
10
-16.4383
20
25.0440
30
0.0000
0
VERTEX
70
8
10
-16.4260
20
24.8643
30
0.0000
0
VERTEX
70
8
10
-16.3684
20
24.1804
30
0.0000
0
VERTEX
70
8
10
-16.3573
20
24.0825
30
0.0000
0
VERTEX
70
8
10
-16.3511
20
24.0181
30
0.0000
0
VERTEX
70
8
10
-16.3420
20
23.9487
30
0.0000
0
VERTEX
70
8
10
-16.3311
20
23.8729
30
0.0000
0
VERTEX
70
8
10
-16.3311
20
23.8729
30
0.0000
0
VERTEX
70
8
10
-16.3426
20
23.8908
30
0.0000
0
VERTEX
70
8
10
-16.4179
20
23.8386
30
0.0000
0
VERTEX
70
8
10
-16.4931
20
23.7864
30
0.0000
0
VERTEX
70
8
10
-16.5684
20
23.7342
30
0.0000
0
VERTEX
70
8
10
-16.6436
20
23.6821
30
0.0000
0
VERTEX
70
8
10
-16.6981
20
23.7018
30
0.0000
0
VERTEX
70
8
10
-16.6981
20
23.7018
30
0.0000
0
VERTEX
70
8
10
-16.6981
20
23.7018
30
0.0000
0
VERTEX
70
8
10
-16.9936
20
23.8525
30
0.0000
0
VERTEX
70
8
10
-16.9936
20
23.8525
30
0.0000
0
VERTEX
70
8
10
-16.9936
20
23.8525
30
0.0000
0
VERTEX
70
8
10
-17.0463
20
23.8796
30
0.0000
0
VERTEX
70
8
10
-17.0952
20
23.9022
30
0.0000
0
VERTEX
70
8
10
-17.2041
20
23.9536
30
0.0000
0
VERTEX
70
8
10
-17.3957
20
24.0445
30
0.0000
0
VERTEX
70
8
10
-17.5607
20
24.1166
30
0.0000
0
VERTEX
70
8
10
-17.7198
20
24.1888
30
0.0000
0
VERTEX
70
8
10
-17.8969
20
24.2608
30
0.0000
0
VERTEX
70
8
10
-17.9726
20
24.2928
30
0.0000
0
VERTEX
70
8
10
-18.1525
20
24.3747
30
0.0000
0
VERTEX
70
8
10
-18.2774
20
24.4378
30
0.0000
0
VERTEX
70
8
10
-18.4087
20
24.5007
30
0.0000
0
VERTEX
70
8
10
-18.5401
20
24.5637
30
0.0000
0
VERTEX
70
8
10
-18.6090
20
24.5950
30
0.0000
0
VERTEX
70
8
10
-18.6780
20
24.6263
30
0.0000
0
VERTEX
70
8
10
-18.7469
20
24.6576
30
0.0000
0
VERTEX
70
8
10
-18.8159
20
24.6889
30
0.0000
0
VERTEX
70
8
10
-18.8881
20
24.7199
30
0.0000
0
VERTEX
70
8
10
-18.9603
20
24.7510
30
0.0000
0
VERTEX
70
8
10
-19.0325
20
24.7820
30
0.0000
0
VERTEX
70
8
10
-19.1048
20
24.8130
30
0.0000
0
VERTEX
70
8
10
-19.1695
20
24.7626
30
0.0000
0
VERTEX
70
8
10
-19.2343
20
24.7122
30
0.0000
0
VERTEX
70
8
10
-19.2990
20
24.6618
30
0.0000
0
VERTEX
70
8
10
-19.3638
20
24.6114
30
0.0000
0
VERTEX
70
8
10
-19.3515
20
24.5338
30
0.0000
0
VERTEX
70
8
10
-19.3391
20
24.4562
30
0.0000
0
VERTEX
70
8
10
-19.3268
20
24.3785
30
0.0000
0
VERTEX
70
8
10
-19.3144
20
24.3009
30
0.0000
0
VERTEX
70
8
10
-19.3010
20
24.2264
30
0.0000
0
VERTEX
70
8
10
-19.2876
20
24.1519
30
0.0000
0
VERTEX
70
8
10
-19.2741
20
24.0773
30
0.0000
0
VERTEX
70
8
10
-19.2607
20
24.0028
30
0.0000
0
VERTEX
70
8
10
-19.2319
20
23.8600
30
0.0000
0
VERTEX
70
8
10
-19.2031
20
23.7172
30
0.0000
0
VERTEX
70
8
10
-19.1727
20
23.5807
30
0.0000
0
VERTEX
70
8
10
-19.1537
20
23.4886
30
0.0000
0
VERTEX
70
8
10
-19.1375
20
23.3861
30
0.0000
0
VERTEX
70
8
10
-19.1096
20
23.1969
30
0.0000
0
VERTEX
70
8
10
-19.0936
20
23.0836
30
0.0000
0
VERTEX
70
8
10
-19.0936
20
23.0836
30
0.0000
0
VERTEX
70
8
10
-19.0936
20
23.0836
30
0.0000
0
VERTEX
70
8
10
-19.0936
20
23.0836
30
0.0000
0
VERTEX
70
8
10
-19.0616
20
22.9064
30
0.0000
0
VERTEX
70
8
10
-18.9291
20
22.2330
30
0.0000
0
VERTEX
70
8
10
-18.9073
20
22.1369
30
0.0000
0
VERTEX
70
8
10
-18.8940
20
22.0736
30
0.0000
0
VERTEX
70
8
10
-18.8774
20
22.0056
30
0.0000
0
VERTEX
70
8
10
-18.8582
20
21.9314
30
0.0000
0
VERTEX
70
8
10
-18.8582
20
21.9314
30
0.0000
0
VERTEX
70
8
10
-18.8716
20
21.9479
30
0.0000
0
VERTEX
70
8
10
-18.9407
20
21.8878
30
0.0000
0
VERTEX
70
8
10
-19.0097
20
21.8277
30
0.0000
0
VERTEX
70
8
10
-19.0788
20
21.7675
30
0.0000
0
VERTEX
70
8
10
-19.1478
20
21.7074
30
0.0000
0
VERTEX
70
8
10
-19.2042
20
21.7210
30
0.0000
0
VERTEX
70
8
10
-19.2042
20
21.7210
30
0.0000
0
VERTEX
70
8
10
-19.2042
20
21.7210
30
0.0000
0
VERTEX
70
8
10
-19.5145
20
21.8383
30
0.0000
0
VERTEX
70
8
10
-19.5145
20
21.8383
30
0.0000
0
VERTEX
70
8
10
-19.5145
20
21.8383
30
0.0000
0
VERTEX
70
8
10
-19.5698
20
21.8594
30
0.0000
0
VERTEX
70
8
10
-19.6209
20
21.8765
30
0.0000
0
VERTEX
70
8
10
-19.7348
20
21.9157
30
0.0000
0
VERTEX
70
8
10
-19.9352
20
21.9849
30
0.0000
0
VERTEX
70
8
10
-20.1072
20
22.0384
30
0.0000
0
VERTEX
70
8
10
-20.2732
20
22.0927
30
0.0000
0
VERTEX
70
8
10
-20.4572
20
22.1448
30
0.0000
0
VERTEX
70
8
10
-20.5359
20
22.1683
30
0.0000
0
VERTEX
70
8
10
-20.7237
20
22.2298
30
0.0000
0
VERTEX
70
8
10
-20.8548
20
22.2788
30
0.0000
0
VERTEX
70
8
10
-20.9923
20
22.3269
30
0.0000
0
VERTEX
70
8
10
-21.1298
20
22.3750
30
0.0000
0
VERTEX
70
8
10
-21.2017
20
22.3986
30
0.0000
0
VERTEX
70
8
10
-21.2737
20
22.4221
30
0.0000
0
VERTEX
70
8
10
-21.3457
20
22.4456
30
0.0000
0
VERTEX
70
8
10
-21.4177
20
22.4692
30
0.0000
0
VERTEX
70
8
10
-21.4929
20
22.4921
30
0.0000
0
VERTEX
70
8
10
-21.5681
20
22.5150
30
0.0000
0
VERTEX
70
8
10
-21.6433
20
22.5378
30
0.0000
0
VERTEX
70
8
10
-21.7185
20
22.5607
30
0.0000
0
VERTEX
70
8
10
-21.7773
20
22.5035
30
0.0000
0
VERTEX
70
8
10
-21.8361
20
22.4463
30
0.0000
0
VERTEX
70
8
10
-21.8949
20
22.3891
30
0.0000
0
VERTEX
70
8
10
-21.9537
20
22.3319
30
0.0000
0
VERTEX
70
8
10
-21.9329
20
22.2561
30
0.0000
0
VERTEX
70
8
10
-21.9121
20
22.1803
30
0.0000
0
VERTEX
70
8
10
-21.8913
20
22.1045
30
0.0000
0
VERTEX
70
8
10
-21.8705
20
22.0287
30
0.0000
0
VERTEX
70
8
10
-21.8489
20
21.9561
30
0.0000
0
VERTEX
70
8
10
-21.8274
20
21.8835
30
0.0000
0
VERTEX
70
8
10
-21.8059
20
21.8109
30
0.0000
0
VERTEX
70
8
10
-21.7843
20
21.7383
30
0.0000
0
VERTEX
70
8
10
-21.7400
20
21.5995
30
0.0000
0
VERTEX
70
8
10
-21.6957
20
21.4608
30
0.0000
0
VERTEX
70
8
10
-21.6504
20
21.3284
30
0.0000
0
VERTEX
70
8
10
-21.6214
20
21.2390
30
0.0000
0
VERTEX
70
8
10
-21.5940
20
21.1389
30
0.0000
0
VERTEX
70
8
10
-21.5455
20
20.9539
30
0.0000
0
VERTEX
70
8
10
-21.5171
20
20.8431
30
0.0000
0
VERTEX
70
8
10
-21.5171
20
20.8431
30
0.0000
0
VERTEX
70
8
10
-21.5171
20
20.8431
30
0.0000
0
VERTEX
70
8
10
-21.5171
20
20.8431
30
0.0000
0
VERTEX
70
8
10
-21.4658
20
20.6704
30
0.0000
0
VERTEX
70
8
10
-21.2600
20
20.0157
30
0.0000
0
VERTEX
70
8
10
-21.2277
20
19.9226
30
0.0000
0
VERTEX
70
8
10
-21.2076
20
19.8611
30
0.0000
0
VERTEX
70
8
10
-21.1836
20
19.7954
30
0.0000
0
VERTEX
70
8
10
-21.1564
20
19.7237
30
0.0000
0
VERTEX
70
8
10
-21.1564
20
19.7237
30
0.0000
0
VERTEX
70
8
10
-21.1715
20
19.7387
30
0.0000
0
VERTEX
70
8
10
-21.2336
20
19.6713
30
0.0000
0
VERTEX
70
8
10
-21.2956
20
19.6040
30
0.0000
0
VERTEX
70
8
10
-21.3576
20
19.5366
30
0.0000
0
VERTEX
70
8
10
-21.4196
20
19.4692
30
0.0000
0
VERTEX
70
8
10
-21.4771
20
19.4766
30
0.0000
0
VERTEX
70
8
10
-21.4771
20
19.4766
30
0.0000
0
VERTEX
70
8
10
-21.4771
20
19.4766
30
0.0000
0
VERTEX
70
8
10
-21.7984
20
19.5590
30
0.0000
0
VERTEX
70
8
10
-21.7984
20
19.5590
30
0.0000
0
VERTEX
70
8
10
-21.7984
20
19.5590
30
0.0000
0
VERTEX
70
8
10
-21.8557
20
19.5739
30
0.0000
0
VERTEX
70
8
10
-21.9084
20
19.5853
30
0.0000
0
VERTEX
70
8
10
-22.0259
20
19.6117
30
0.0000
0
VERTEX
70
8
10
-22.2327
20
19.6585
30
0.0000
0
VERTEX
70
8
10
-22.4095
20
19.6927
30
0.0000
0
VERTEX
70
8
10
-22.5805
20
19.7284
30
0.0000
0
VERTEX
70
8
10
-22.7691
20
19.7599
30
0.0000
0
VERTEX
70
8
10
-22.8499
20
19.7746
30
0.0000
0
VERTEX
70
8
10
-23.0434
20
19.8151
30
0.0000
0
VERTEX
70
8
10
-23.1791
20
19.8494
30
0.0000
0
VERTEX
70
8
10
-23.3210
20
19.8821
30
0.0000
0
VERTEX
70
8
10
-23.4630
20
19.9148
30
0.0000
0
VERTEX
70
8
10
-23.5371
20
19.9302
30
0.0000
0
VERTEX
70
8
10
-23.6112
20
19.9457
30
0.0000
0
VERTEX
70
8
10
-23.6853
20
19.9612
30
0.0000
0
VERTEX
70
8
10
-23.7595
20
19.9767
30
0.0000
0
VERTEX
70
8
10
-23.8367
20
19.9912
30
0.0000
0
VERTEX
70
8
10
-23.9140
20
20.0056
30
0.0000
0
VERTEX
70
8
10
-23.9912
20
20.0201
30
0.0000
0
VERTEX
70
8
10
-24.0685
20
20.0346
30
0.0000
0
VERTEX
70
8
10
-24.1207
20
19.9713
30
0.0000
0
VERTEX
70
8
10
-24.1728
20
19.9079
30
0.0000
0
VERTEX
70
8
10
-24.2250
20
19.8446
30
0.0000
0
VERTEX
70
8
10
-24.2772
20
19.7812
30
0.0000
0
VERTEX
70
8
10
-24.2482
20
19.7082
30
0.0000
0
VERTEX
70
8
10
-24.2191
20
19.6351
30
0.0000
0
VERTEX
70
8
10
-24.1901
20
19.5621
30
0.0000
0
VERTEX
70
8
10
-24.1611
20
19.4890
30
0.0000
0
VERTEX
70
8
10
-24.1317
20
19.4192
30
0.0000
0
VERTEX
70
8
10
-24.1023
20
19.3495
30
0.0000
0
VERTEX
70
8
10
-24.0729
20
19.2797
30
0.0000
0
VERTEX
70
8
10
-24.0435
20
19.2099
30
0.0000
0
VERTEX
70
8
10
-23.9842
20
19.0769
30
0.0000
0
VERTEX
70
8
10
-23.9249
20
18.9438
30
0.0000
0
VERTEX
70
8
10
-23.8653
20
18.8172
30
0.0000
0
VERTEX
70
8
10
-23.8266
20
18.7315
30
0.0000
0
VERTEX
70
8
10
-23.7884
20
18.6351
30
0.0000
0
VERTEX
70
8
10
-23.7198
20
18.4566
30
0.0000
0
VERTEX
70
8
10
-23.6794
20
18.3495
30
0.0000
0
VERTEX
70
8
10
-23.6794
20
18.3495
30
0.0000
0
VERTEX
70
8
10
-23.6794
20
18.3495
30
0.0000
0
VERTEX
70
8
10
-23.6794
20
18.3495
30
0.0000
0
VERTEX
70
8
10
-23.6094
20
18.1836
30
0.0000
0
VERTEX
70
8
10
-23.3329
20
17.5554
30
0.0000
0
VERTEX
70
8
10
-23.2905
20
17.4664
30
0.0000
0
VERTEX
70
8
10
-23.2638
20
17.4076
30
0.0000
0
VERTEX
70
8
10
-23.2327
20
17.3449
30
0.0000
0
VERTEX
70
8
10
-23.1978
20
17.2767
30
0.0000
0
VERTEX
70
8
10
-23.1978
20
17.2767
30
0.0000
0
VERTEX
70
8
10
-23.2145
20
17.2898
30
0.0000
0
VERTEX
70
8
10
-23.2687
20
17.2161
30
0.0000
0
VERTEX
70
8
10
-23.3229
20
17.1423
30
0.0000
0
VERTEX
70
8
10
-23.3771
20
17.0685
30
0.0000
0
VERTEX
70
8
10
-23.4314
20
16.9947
30
0.0000
0
VERTEX
70
8
10
-23.4893
20
16.9957
30
0.0000
0
VERTEX
70
8
10
-23.4893
20
16.9957
30
0.0000
0
VERTEX
70
8
10
-23.4893
20
16.9957
30
0.0000
0
VERTEX
70
8
10
-23.8178
20
17.0423
30
0.0000
0
VERTEX
70
8
10
-23.8178
20
17.0423
30
0.0000
0
VERTEX
70
8
10
-23.8178
20
17.0423
30
0.0000
0
VERTEX
70
8
10
-23.8764
20
17.0508
30
0.0000
0
VERTEX
70
8
10
-23.9300
20
17.0563
30
0.0000
0
VERTEX
70
8
10
-24.0497
20
17.0696
30
0.0000
0
VERTEX
70
8
10
-24.2604
20
17.0934
30
0.0000
0
VERTEX
70
8
10
-24.4399
20
17.1079
30
0.0000
0
VERTEX
70
8
10
-24.6137
20
17.1246
30
0.0000
0
VERTEX
70
8
10
-24.8047
20
17.1352
30
0.0000
0
VERTEX
70
8
10
-24.8866
20
17.1409
30
0.0000
0
VERTEX
70
8
10
-25.0834
20
17.1599
30
0.0000
0
VERTEX
70
8
10
-25.2220
20
17.1790
30
0.0000
0
VERTEX
70
8
10
-25.3667
20
17.1959
30
0.0000
0
VERTEX
70
8
10
-25.5114
20
17.2128
30
0.0000
0
VERTEX
70
8
10
-25.5867
20
17.2200
30
0.0000
0
VERTEX
70
8
10
-25.6621
20
17.2272
30
0.0000
0
VERTEX
70
8
10
-25.7375
20
17.2345
30
0.0000
0
VERTEX
70
8
10
-25.8129
20
17.2417
30
0.0000
0
VERTEX
70
8
10
-25.8912
20
17.2476
30
0.0000
0
VERTEX
70
8
10
-25.9696
20
17.2535
30
0.0000
0
VERTEX
70
8
10
-26.0480
20
17.2594
30
0.0000
0
VERTEX
70
8
10
-26.1264
20
17.2653
30
0.0000
0
VERTEX
70
8
10
-26.1713
20
17.1966
30
0.0000
0
VERTEX
70
8
10
-26.2162
20
17.1279
30
0.0000
0
VERTEX
70
8
10
-26.2610
20
17.0592
30
0.0000
0
VERTEX
70
8
10
-26.3059
20
16.9905
30
0.0000
0
VERTEX
70
8
10
-26.2690
20
16.9211
30
0.0000
0
VERTEX
70
8
10
-26.2322
20
16.8517
30
0.0000
0
VERTEX
70
8
10
-26.1953
20
16.7822
30
0.0000
0
VERTEX
70
8
10
-26.1584
20
16.7128
30
0.0000
0
VERTEX
70
8
10
-26.1215
20
16.6467
30
0.0000
0
VERTEX
70
8
10
-26.0846
20
16.5806
30
0.0000
0
VERTEX
70
8
10
-26.0477
20
16.5145
30
0.0000
0
VERTEX
70
8
10
-26.0108
20
16.4483
30
0.0000
0
VERTEX
70
8
10
-25.9372
20
16.3226
30
0.0000
0
VERTEX
70
8
10
-25.8636
20
16.1969
30
0.0000
0
VERTEX
70
8
10
-25.7905
20
16.0777
30
0.0000
0
VERTEX
70
8
10
-25.7426
20
15.9967
30
0.0000
0
VERTEX
70
8
10
-25.6940
20
15.9051
30
0.0000
0
VERTEX
70
8
10
-25.6063
20
15.7352
30
0.0000
0
VERTEX
70
8
10
-25.5543
20
15.6332
30
0.0000
0
VERTEX
70
8
10
-25.5543
20
15.6332
30
0.0000
0
VERTEX
70
8
10
-25.5543
20
15.6332
30
0.0000
0
VERTEX
70
8
10
-25.5543
20
15.6332
30
0.0000
0
VERTEX
70
8
10
-25.4665
20
15.4760
30
0.0000
0
VERTEX
70
8
10
-25.1225
20
14.8821
30
0.0000
0
VERTEX
70
8
10
-25.0706
20
14.7983
30
0.0000
0
VERTEX
70
8
10
-25.0376
20
14.7427
30
0.0000
0
VERTEX
70
8
10
-24.9998
20
14.6838
30
0.0000
0
VERTEX
70
8
10
-24.9575
20
14.6199
30
0.0000
0
VERTEX
70
8
10
-24.9575
20
14.6199
30
0.0000
0
VERTEX
70
8
10
-24.9756
20
14.6311
30
0.0000
0
VERTEX
70
8
10
-25.0214
20
14.5518
30
0.0000
0
VERTEX
70
8
10
-25.0672
20
14.4725
30
0.0000
0
VERTEX
70
8
10
-25.1129
20
14.3932
30
0.0000
0
VERTEX
70
8
10
-25.1587
20
14.3139
30
0.0000
0
VERTEX
70
8
10
-25.2165
20
14.3086
30
0.0000
0
VERTEX
70
8
10
-25.2165
20
14.3086
30
0.0000
0
VERTEX
70
8
10
-25.2165
20
14.3086
30
0.0000
0
VERTEX
70
8
10
-25.5480
20
14.3187
30
0.0000
0
VERTEX
70
8
10
-25.5480
20
14.3187
30
0.0000
0
VERTEX
70
8
10
-25.5480
20
14.3187
30
0.0000
0
VERTEX
70
8
10
-25.6072
20
14.3207
30
0.0000
0
VERTEX
70
8
10
-25.6611
20
14.3203
30
0.0000
0
VERTEX
70
8
10
-25.7815
20
14.3203
30
0.0000
0
VERTEX
70
8
10
-25.9935
20
14.3208
30
0.0000
0
VERTEX
70
8
10
-26.1736
20
14.3155
30
0.0000
0
VERTEX
70
8
10
-26.3482
20
14.3129
30
0.0000
0
VERTEX
70
8
10
-26.5392
20
14.3025
30
0.0000
0
VERTEX
70
8
10
-26.6212
20
14.2991
30
0.0000
0
VERTEX
70
8
10
-26.8189
20
14.2964
30
0.0000
0
VERTEX
70
8
10
-26.9587
20
14.3001
30
0.0000
0
VERTEX
70
8
10
-27.1044
20
14.3010
30
0.0000
0
VERTEX
70
8
10
-27.2501
20
14.3019
30
0.0000
0
VERTEX
70
8
10
-27.3258
20
14.3007
30
0.0000
0
VERTEX
70
8
10
-27.4015
20
14.2996
30
0.0000
0
VERTEX
70
8
10
-27.4772
20
14.2985
30
0.0000
0
VERTEX
70
8
10
-27.5529
20
14.2974
30
0.0000
0
VERTEX
70
8
10
-27.6315
20
14.2947
30
0.0000
0
VERTEX
70
8
10
-27.7100
20
14.2919
30
0.0000
0
VERTEX
70
8
10
-27.7886
20
14.2891
30
0.0000
0
VERTEX
70
8
10
-27.8671
20
14.2864
30
0.0000
0
VERTEX
70
8
10
-27.9042
20
14.2131
30
0.0000
0
VERTEX
70
8
10
-27.9413
20
14.1399
30
0.0000
0
VERTEX
70
8
10
-27.9783
20
14.0667
30
0.0000
0
VERTEX
70
8
10
-28.0154
20
13.9935
30
0.0000
0
VERTEX
70
8
10
-27.9711
20
13.9286
30
0.0000
0
VERTEX
70
8
10
-27.9268
20
13.8636
30
0.0000
0
VERTEX
70
8
10
-27.8825
20
13.7987
30
0.0000
0
VERTEX
70
8
10
-27.8382
20
13.7337
30
0.0000
0
VERTEX
70
8
10
-27.7942
20
13.6721
30
0.0000
0
VERTEX
70
8
10
-27.7503
20
13.6104
30
0.0000
0
VERTEX
70
8
10
-27.7063
20
13.5488
30
0.0000
0
VERTEX
70
8
10
-27.6624
20
13.4871
30
0.0000
0
VERTEX
70
8
10
-27.5754
20
13.3702
30
0.0000
0
VERTEX
70
8
10
-27.4884
20
13.2534
30
0.0000
0
VERTEX
70
8
10
-27.4026
20
13.1429
30
0.0000
0
VERTEX
70
8
10
-27.3461
20
13.0677
30
0.0000
0
VERTEX
70
8
10
-27.2878
20
12.9820
30
0.0000
0
VERTEX
70
8
10
-27.1818
20
12.8228
30
0.0000
0
VERTEX
70
8
10
-27.1190
20
12.7272
30
0.0000
0
VERTEX
70
8
10
-27.1190
20
12.7272
30
0.0000
0
VERTEX
70
8
10
-27.1190
20
12.7272
30
0.0000
0
VERTEX
70
8
10
-27.1190
20
12.7272
30
0.0000
0
VERTEX
70
8
10
-27.0144
20
12.5805
30
0.0000
0
VERTEX
70
8
10
-26.6072
20
12.0281
30
0.0000
0
VERTEX
70
8
10
-26.5464
20
11.9505
30
0.0000
0
VERTEX
70
8
10
-26.5075
20
11.8989
30
0.0000
0
VERTEX
70
8
10
-26.4634
20
11.8445
30
0.0000
0
VERTEX
70
8
10
-26.4144
20
11.7856
30
0.0000
0
VERTEX
70
8
10
-26.4144
20
11.7856
30
0.0000
0
VERTEX
70
8
10
-26.4335
20
11.7948
30
0.0000
0
VERTEX
70
8
10
-26.4703
20
11.7110
30
0.0000
0
VERTEX
70
8
10
-26.5071
20
11.6271
30
0.0000
0
VERTEX
70
8
10
-26.5439
20
11.5432
30
0.0000
0
VERTEX
70
8
10
-26.5807
20
11.4594
30
0.0000
0
VERTEX
70
8
10
-26.6375
20
11.4477
30
0.0000
0
VERTEX
70
8
10
-26.6375
20
11.4477
30
0.0000
0
VERTEX
70
8
10
-26.6375
20
11.4477
30
0.0000
0
VERTEX
70
8
10
-26.9681
20
11.4213
30
0.0000
0
VERTEX
70
8
10
-26.9681
20
11.4213
30
0.0000
0
VERTEX
70
8
10
-26.9681
20
11.4213
30
0.0000
0
VERTEX
70
8
10
-27.0272
20
11.4168
30
0.0000
0
VERTEX
70
8
10
-27.0807
20
11.4104
30
0.0000
0
VERTEX
70
8
10
-27.2004
20
11.3973
30
0.0000
0
VERTEX
70
8
10
-27.4112
20
11.3744
30
0.0000
0
VERTEX
70
8
10
-27.5895
20
11.3493
30
0.0000
0
VERTEX
70
8
10
-27.7628
20
11.3275
30
0.0000
0
VERTEX
70
8
10
-27.9515
20
11.2961
30
0.0000
0
VERTEX
70
8
10
-28.0327
20
11.2838
30
0.0000
0
VERTEX
70
8
10
-28.2288
20
11.2593
30
0.0000
0
VERTEX
70
8
10
-28.3682
20
11.2476
30
0.0000
0
VERTEX
70
8
10
-28.5131
20
11.2325
30
0.0000
0
VERTEX
70
8
10
-28.6580
20
11.2173
30
0.0000
0
VERTEX
70
8
10
-28.7331
20
11.2079
30
0.0000
0
VERTEX
70
8
10
-28.8083
20
11.1985
30
0.0000
0
VERTEX
70
8
10
-28.8834
20
11.1890
30
0.0000
0
VERTEX
70
8
10
-28.9585
20
11.1796
30
0.0000
0
VERTEX
70
8
10
-29.0363
20
11.1682
30
0.0000
0
VERTEX
70
8
10
-29.1141
20
11.1568
30
0.0000
0
VERTEX
70
8
10
-29.1919
20
11.1454
30
0.0000
0
VERTEX
70
8
10
-29.2696
20
11.1340
30
0.0000
0
VERTEX
70
8
10
-29.2984
20
11.0572
30
0.0000
0
VERTEX
70
8
10
-29.3272
20
10.9803
30
0.0000
0
VERTEX
70
8
10
-29.3560
20
10.9035
30
0.0000
0
VERTEX
70
8
10
-29.3847
20
10.8267
30
0.0000
0
VERTEX
70
8
10
-29.3336
20
10.7670
30
0.0000
0
VERTEX
70
8
10
-29.2824
20
10.7073
30
0.0000
0
VERTEX
70
8
10
-29.2312
20
10.6476
30
0.0000
0
VERTEX
70
8
10
-29.1800
20
10.5880
30
0.0000
0
VERTEX
70
8
10
-29.1296
20
10.5315
30
0.0000
0
VERTEX
70
8
10
-29.0791
20
10.4751
30
0.0000
0
VERTEX
70
8
10
-29.0287
20
10.4186
30
0.0000
0
VERTEX
70
8
10
-28.9782
20
10.3622
30
0.0000
0
VERTEX
70
8
10
-28.8789
20
10.2556
30
0.0000
0
VERTEX
70
8
10
-28.7796
20
10.1490
30
0.0000
0
VERTEX
70
8
10
-28.6821
20
10.0486
30
0.0000
0
VERTEX
70
8
10
-28.6177
20
9.9801
30
0.0000
0
VERTEX
70
8
10
-28.5503
20
9.9013
30
0.0000
0
VERTEX
70
8
10
-28.4275
20
9.7547
30
0.0000
0
VERTEX
70
8
10
-28.3545
20
9.6666
30
0.0000
0
VERTEX
70
8
10
-28.3545
20
9.6666
30
0.0000
0
VERTEX
70
8
10
-28.3545
20
9.6666
30
0.0000
0
VERTEX
70
8
10
-28.3545
20
9.6666
30
0.0000
0
VERTEX
70
8
10
-28.2344
20
9.5324
30
0.0000
0
VERTEX
70
8
10
-27.7689
20
9.0281
30
0.0000
0
VERTEX
70
8
10
-27.6999
20
8.9576
30
0.0000
0
VERTEX
70
8
10
-27.6556
20
8.9106
30
0.0000
0
VERTEX
70
8
10
-27.6058
20
8.8614
30
0.0000
0
VERTEX
70
8
10
-27.5506
20
8.8083
30
0.0000
0
VERTEX
70
8
10
-27.5506
20
8.8083
30
0.0000
0
VERTEX
70
8
10
-27.5706
20
8.8153
30
0.0000
0
VERTEX
70
8
10
-27.5980
20
8.7279
30
0.0000
0
VERTEX
70
8
10
-27.6253
20
8.6405
30
0.0000
0
VERTEX
70
8
10
-27.6526
20
8.5531
30
0.0000
0
VERTEX
70
8
10
-27.6800
20
8.4657
30
0.0000
0
VERTEX
70
8
10
-27.7351
20
8.4479
30
0.0000
0
VERTEX
70
8
10
-27.7351
20
8.4479
30
0.0000
0
VERTEX
70
8
10
-27.7351
20
8.4479
30
0.0000
0
VERTEX
70
8
10
-28.0609
20
8.3853
30
0.0000
0
VERTEX
70
8
10
-28.0609
20
8.3853
30
0.0000
0
VERTEX
70
8
10
-28.0609
20
8.3853
30
0.0000
0
VERTEX
70
8
10
-28.1191
20
8.3743
30
0.0000
0
VERTEX
70
8
10
-28.1715
20
8.3621
30
0.0000
0
VERTEX
70
8
10
-28.2891
20
8.3358
30
0.0000
0
VERTEX
70
8
10
-28.4961
20
8.2899
30
0.0000
0
VERTEX
70
8
10
-28.6706
20
8.2454
30
0.0000
0
VERTEX
70
8
10
-28.8405
20
8.2047
30
0.0000
0
VERTEX
70
8
10
-29.0245
20
8.1527
30
0.0000
0
VERTEX
70
8
10
-29.1038
20
8.1315
30
0.0000
0
VERTEX
70
8
10
-29.2961
20
8.0856
30
0.0000
0
VERTEX
70
8
10
-29.4334
20
8.0586
30
0.0000
0
VERTEX
70
8
10
-29.5757
20
8.0276
30
0.0000
0
VERTEX
70
8
10
-29.7181
20
7.9966
30
0.0000
0
VERTEX
70
8
10
-29.7917
20
7.9790
30
0.0000
0
VERTEX
70
8
10
-29.8653
20
7.9613
30
0.0000
0
VERTEX
70
8
10
-29.9390
20
7.9437
30
0.0000
0
VERTEX
70
8
10
-30.0126
20
7.9261
30
0.0000
0
VERTEX
70
8
10
-30.0887
20
7.9062
30
0.0000
0
VERTEX
70
8
10
-30.1647
20
7.8863
30
0.0000
0
VERTEX
70
8
10
-30.2408
20
7.8664
30
0.0000
0
VERTEX
70
8
10
-30.3168
20
7.8466
30
0.0000
0
VERTEX
70
8
10
-30.3370
20
7.7670
30
0.0000
0
VERTEX
70
8
10
-30.3571
20
7.6875
30
0.0000
0
VERTEX
70
8
10
-30.3773
20
7.6079
30
0.0000
0
VERTEX
70
8
10
-30.3974
20
7.5284
30
0.0000
0
VERTEX
70
8
10
-30.3400
20
7.4747
30
0.0000
0
VERTEX
70
8
10
-30.2826
20
7.4210
30
0.0000
0
VERTEX
70
8
10
-30.2251
20
7.3673
30
0.0000
0
VERTEX
70
8
10
-30.1677
20
7.3137
30
0.0000
0
VERTEX
70
8
10
-30.1113
20
7.2631
30
0.0000
0
VERTEX
70
8
10
-30.0550
20
7.2125
30
0.0000
0
VERTEX
70
8
10
-29.9986
20
7.1620
30
0.0000
0
VERTEX
70
8
10
-29.9422
20
7.1114
30
0.0000
0
VERTEX
70
8
10
-29.8318
20
7.0164
30
0.0000
0
VERTEX
70
8
10
-29.7214
20
6.9214
30
0.0000
0
VERTEX
70
8
10
-29.6135
20
6.8324
30
0.0000
0
VERTEX
70
8
10
-29.5419
20
6.7714
30
0.0000
0
VERTEX
70
8
10
-29.4662
20
6.7005
30
0.0000
0
VERTEX
70
8
10
-29.3280
20
6.5683
30
0.0000
0
VERTEX
70
8
10
-29.2458
20
6.4887
30
0.0000
0
VERTEX
70
8
10
-29.2458
20
6.4887
30
0.0000
0
VERTEX
70
8
10
-29.2458
20
6.4887
30
0.0000
0
VERTEX
70
8
10
-29.2458
20
6.4887
30
0.0000
0
VERTEX
70
8
10
-29.1117
20
6.3685
30
0.0000
0
VERTEX
70
8
10
-28.5935
20
5.9185
30
0.0000
0
VERTEX
70
8
10
-28.5172
20
5.8560
30
0.0000
0
VERTEX
70
8
10
-28.4679
20
5.8142
30
0.0000
0
VERTEX
70
8
10
-28.4131
20
5.7708
30
0.0000
0
VERTEX
70
8
10
-28.3523
20
5.7240
30
0.0000
0
VERTEX
70
8
10
-28.3523
20
5.7240
30
0.0000
0
VERTEX
70
8
10
-28.3731
20
5.7288
30
0.0000
0
VERTEX
70
8
10
-28.3906
20
5.6389
30
0.0000
0
VERTEX
70
8
10
-28.4082
20
5.5491
30
0.0000
0
VERTEX
70
8
10
-28.4257
20
5.4592
30
0.0000
0
VERTEX
70
8
10
-28.4433
20
5.3693
30
0.0000
0
VERTEX
70
8
10
-28.4961
20
5.3455
30
0.0000
0
VERTEX
70
8
10
-28.4961
20
5.3455
30
0.0000
0
VERTEX
70
8
10
-28.4961
20
5.3455
30
0.0000
0
VERTEX
70
8
10
-28.8130
20
5.2474
30
0.0000
0
VERTEX
70
8
10
-28.8130
20
5.2474
30
0.0000
0
VERTEX
70
8
10
-28.8130
20
5.2474
30
0.0000
0
VERTEX
70
8
10
-28.8697
20
5.2302
30
0.0000
0
VERTEX
70
8
10
-28.9205
20
5.2122
30
0.0000
0
VERTEX
70
8
10
-29.0344
20
5.1732
30
0.0000
0
VERTEX
70
8
10
-29.2351
20
5.1048
30
0.0000
0
VERTEX
70
8
10
-29.4036
20
5.0413
30
0.0000
0
VERTEX
70
8
10
-29.5680
20
4.9822
30
0.0000
0
VERTEX
70
8
10
-29.7452
20
4.9103
30
0.0000
0
VERTEX
70
8
10
-29.8217
20
4.8805
30
0.0000
0
VERTEX
70
8
10
-30.0078
20
4.8137
30
0.0000
0
VERTEX
70
8
10
-30.1413
20
4.7718
30
0.0000
0
VERTEX
70
8
10
-30.2793
20
4.7253
30
0.0000
0
VERTEX
70
8
10
-30.4174
20
4.6789
30
0.0000
0
VERTEX
70
8
10
-30.4886
20
4.6532
30
0.0000
0
VERTEX
70
8
10
-30.5599
20
4.6276
30
0.0000
0
VERTEX
70
8
10
-30.6311
20
4.6020
30
0.0000
0
VERTEX
70
8
10
-30.7024
20
4.5763
30
0.0000
0
VERTEX
70
8
10
-30.7758
20
4.5482
30
0.0000
0
VERTEX
70
8
10
-30.8492
20
4.5201
30
0.0000
0
VERTEX
70
8
10
-30.9226
20
4.4920
30
0.0000
0
VERTEX
70
8
10
-30.9960
20
4.4638
30
0.0000
0
VERTEX
70
8
10
-31.0073
20
4.3826
30
0.0000
0
VERTEX
70
8
10
-31.0185
20
4.3013
30
0.0000
0
VERTEX
70
8
10
-31.0298
20
4.2200
30
0.0000
0
VERTEX
70
8
10
-31.0411
20
4.1387
30
0.0000
0
VERTEX
70
8
10
-30.9781
20
4.0917
30
0.0000
0
VERTEX
70
8
10
-30.9151
20
4.0446
30
0.0000
0
VERTEX
70
8
10
-30.8522
20
3.9976
30
0.0000
0
VERTEX
70
8
10
-30.7892
20
3.9506
30
0.0000
0
VERTEX
70
8
10
-30.7276
20
3.9065
30
0.0000
0
VERTEX
70
8
10
-30.6660
20
3.8625
30
0.0000
0
VERTEX
70
8
10
-30.6044
20
3.8184
30
0.0000
0
VERTEX
70
8
10
-30.5428
20
3.7744
30
0.0000
0
VERTEX
70
8
10
-30.4226
20
3.6921
30
0.0000
0
VERTEX
70
8
10
-30.3024
20
3.6098
30
0.0000
0
VERTEX
70
8
10
-30.1854
20
3.5332
30
0.0000
0
VERTEX
70
8
10
-30.1075
20
3.4804
30
0.0000
0
VERTEX
70
8
10
-30.0245
20
3.4183
30
0.0000
0
VERTEX
70
8
10
-29.8726
20
3.3021
30
0.0000
0
VERTEX
70
8
10
-29.7821
20
3.2320
30
0.0000
0
VERTEX
70
8
10
-29.7821
20
3.2320
30
0.0000
0
VERTEX
70
8
10
-29.7821
20
3.2320
30
0.0000
0
VERTEX
70
8
10
-29.7821
20
3.2320
30
0.0000
0
VERTEX
70
8
10
-29.6356
20
3.1273
30
0.0000
0
VERTEX
70
8
10
-29.0710
20
2.7370
30
0.0000
0
VERTEX
70
8
10
-28.9884
20
2.6834
30
0.0000
0
VERTEX
70
8
10
-28.9348
20
2.6472
30
0.0000
0
VERTEX
70
8
10
-28.8755
20
2.6101
30
0.0000
0
VERTEX
70
8
10
-28.8099
20
2.5703
30
0.0000
0
VERTEX
70
8
10
-28.8099
20
2.5703
30
0.0000
0
VERTEX
70
8
10
-28.8311
20
2.5728
30
0.0000
0
VERTEX
70
8
10
-28.8386
20
2.4815
30
0.0000
0
VERTEX
70
8
10
-28.8462
20
2.3903
30
0.0000
0
VERTEX
70
8
10
-28.8538
20
2.2990
30
0.0000
0
VERTEX
70
8
10
-28.8613
20
2.2078
30
0.0000
0
VERTEX
70
8
10
-28.9112
20
2.1783
30
0.0000
0
VERTEX
70
8
10
-28.9112
20
2.1783
30
0.0000
0
VERTEX
70
8
10
-28.9112
20
2.1783
30
0.0000
0
VERTEX
70
8
10
-29.2154
20
2.0459
30
0.0000
0
VERTEX
70
8
10
-29.2154
20
2.0459
30
0.0000
0
VERTEX
70
8
10
-29.2154
20
2.0459
30
0.0000
0
VERTEX
70
8
10
-29.2698
20
2.0225
30
0.0000
0
VERTEX
70
8
10
-29.3183
20
1.9991
30
0.0000
0
VERTEX
70
8
10
-29.4273
20
1.9478
30
0.0000
0
VERTEX
70
8
10
-29.6192
20
1.8577
30
0.0000
0
VERTEX
70
8
10
-29.7798
20
1.7761
30
0.0000
0
VERTEX
70
8
10
-29.9366
20
1.6992
30
0.0000
0
VERTEX
70
8
10
-30.1048
20
1.6082
30
0.0000
0
VERTEX
70
8
10
-30.1776
20
1.5702
30
0.0000
0
VERTEX
70
8
10
-30.3552
20
1.4834
30
0.0000
0
VERTEX
70
8
10
-30.4833
20
1.4270
30
0.0000
0
VERTEX
70
8
10
-30.6154
20
1.3657
30
0.0000
0
VERTEX
70
8
10
-30.7475
20
1.3043
30
0.0000
0
VERTEX
70
8
10
-30.8155
20
1.2710
30
0.0000
0
VERTEX
70
8
10
-30.8835
20
1.2377
30
0.0000
0
VERTEX
70
8
10
-30.9515
20
1.2044
30
0.0000
0
VERTEX
70
8
10
-31.0195
20
1.1710
30
0.0000
0
VERTEX
70
8
10
-31.0893
20
1.1350
30
0.0000
0
VERTEX
70
8
10
-31.1592
20
1.0990
30
0.0000
0
VERTEX
70
8
10
-31.2291
20
1.0630
30
0.0000
0
VERTEX
70
8
10
-31.2989
20
1.0269
30
0.0000
0
VERTEX
70
8
10
-31.3012
20
0.9449
30
0.0000
0
VERTEX
70
8
10
-31.3035
20
0.8629
30
0.0000
0
VERTEX
70
8
10
-31.3057
20
0.7809
30
0.0000
0
VERTEX
70
8
10
-31.3080
20
0.6988
30
0.0000
0
VERTEX
70
8
10
-31.2402
20
0.6590
30
0.0000
0
VERTEX
70
8
10
-31.1724
20
0.6192
30
0.0000
0
VERTEX
70
8
10
-31.1047
20
0.5794
30
0.0000
0
VERTEX
70
8
10
-31.0369
20
0.5395
30
0.0000
0
VERTEX
70
8
10
-30.9708
20
0.5025
30
0.0000
0
VERTEX
70
8
10
-30.9048
20
0.4655
30
0.0000
0
VERTEX
70
8
10
-30.8387
20
0.4285
30
0.0000
0
VERTEX
70
8
10
-30.7727
20
0.3915
30
0.0000
0
VERTEX
70
8
10
-30.6441
20
0.3229
30
0.0000
0
VERTEX
70
8
10
-30.5156
20
0.2544
30
0.0000
0
VERTEX
70
8
10
-30.3908
20
0.1911
30
0.0000
0
VERTEX
70
8
10
-30.3077
20
0.1472
30
0.0000
0
VERTEX
70
8
10
-30.2183
20
0.0946
30
0.0000
0
VERTEX
70
8
10
-30.0546
20
-0.0042
30
0.0000
0
VERTEX
70
8
10
-29.9569
20
-0.0638
30
0.0000
0
VERTEX
70
8
10
-29.9569
20
-0.0638
30
0.0000
0
VERTEX
70
8
10
-29.9569
20
-0.0638
30
0.0000
0
VERTEX
70
8
10
-29.9569
20
-0.0638
30
0.0000
0
VERTEX
70
8
10
-29.7997
20
-0.1518
30
0.0000
0
VERTEX
70
8
10
-29.1957
20
-0.4776
30
0.0000
0
VERTEX
70
8
10
-29.1076
20
-0.5219
30
0.0000
0
VERTEX
70
8
10
-29.0504
20
-0.5519
30
0.0000
0
VERTEX
70
8
10
-28.9873
20
-0.5823
30
0.0000
0
VERTEX
70
8
10
-28.9178
20
-0.6147
30
0.0000
0
VERTEX
70
8
10
-28.9178
20
-0.6147
30
0.0000
0
VERTEX
70
8
10
-28.9391
20
-0.6145
30
0.0000
0
VERTEX
70
8
10
-28.9366
20
-0.7060
30
0.0000
0
VERTEX
70
8
10
-28.9341
20
-0.7976
30
0.0000
0
VERTEX
70
8
10
-28.9315
20
-0.8891
30
0.0000
0
VERTEX
70
8
10
-28.9290
20
-0.9806
30
0.0000
0
VERTEX
70
8
10
-28.9754
20
-1.0154
30
0.0000
0
VERTEX
70
8
10
-28.9754
20
-1.0154
30
0.0000
0
VERTEX
70
8
10
-28.9754
20
-1.0154
30
0.0000
0
VERTEX
70
8
10
-29.2631
20
-1.1804
30
0.0000
0
VERTEX
70
8
10
-29.2631
20
-1.1804
30
0.0000
0
VERTEX
70
8
10
-29.2631
20
-1.1804
30
0.0000
0
VERTEX
70
8
10
-29.3147
20
-1.2097
30
0.0000
0
VERTEX
70
8
10
-29.3603
20
-1.2383
30
0.0000
0
VERTEX
70
8
10
-29.4629
20
-1.3013
30
0.0000
0
VERTEX
70
8
10
-29.6438
20
-1.4119
30
0.0000
0
VERTEX
70
8
10
-29.7944
20
-1.5107
30
0.0000
0
VERTEX
70
8
10
-29.9418
20
-1.6044
30
0.0000
0
VERTEX
70
8
10
-30.0990
20
-1.7133
30
0.0000
0
VERTEX
70
8
10
-30.1672
20
-1.7591
30
0.0000
0
VERTEX
70
8
10
-30.3342
20
-1.8650
30
0.0000
0
VERTEX
70
8
10
-30.4552
20
-1.9350
30
0.0000
0
VERTEX
70
8
10
-30.5798
20
-2.0106
30
0.0000
0
VERTEX
70
8
10
-30.7043
20
-2.0861
30
0.0000
0
VERTEX
70
8
10
-30.7683
20
-2.1267
30
0.0000
0
VERTEX
70
8
10
-30.8322
20
-2.1673
30
0.0000
0
VERTEX
70
8
10
-30.8961
20
-2.2079
30
0.0000
0
VERTEX
70
8
10
-30.9600
20
-2.2485
30
0.0000
0
VERTEX
70
8
10
-31.0255
20
-2.2920
30
0.0000
0
VERTEX
70
8
10
-31.0910
20
-2.3355
30
0.0000
0
VERTEX
70
8
10
-31.1565
20
-2.3789
30
0.0000
0
VERTEX
70
8
10
-31.2219
20
-2.4224
30
0.0000
0
VERTEX
70
8
10
-31.2152
20
-2.5042
30
0.0000
0
VERTEX
70
8
10
-31.2084
20
-2.5860
30
0.0000
0
VERTEX
70
8
10
-31.2016
20
-2.6678
30
0.0000
0
VERTEX
70
8
10
-31.1948
20
-2.7496
30
0.0000
0
VERTEX
70
8
10
-31.1231
20
-2.7817
30
0.0000
0
VERTEX
70
8
10
-31.0514
20
-2.8138
30
0.0000
0
VERTEX
70
8
10
-30.9796
20
-2.8459
30
0.0000
0
VERTEX
70
8
10
-30.9079
20
-2.8781
30
0.0000
0
VERTEX
70
8
10
-30.8381
20
-2.9076
30
0.0000
0
VERTEX
70
8
10
-30.7684
20
-2.9371
30
0.0000
0
VERTEX
70
8
10
-30.6987
20
-2.9666
30
0.0000
0
VERTEX
70
8
10
-30.6290
20
-2.9961
30
0.0000
0
VERTEX
70
8
10
-30.4937
20
-3.0501
30
0.0000
0
VERTEX
70
8
10
-30.3584
20
-3.1041
30
0.0000
0
VERTEX
70
8
10
-30.2274
20
-3.1533
30
0.0000
0
VERTEX
70
8
10
-30.1399
20
-3.1878
30
0.0000
0
VERTEX
70
8
10
-30.0453
20
-3.2303
30
0.0000
0
VERTEX
70
8
10
-29.8717
20
-3.3104
30
0.0000
0
VERTEX
70
8
10
-29.7680
20
-3.3590
30
0.0000
0
VERTEX
70
8
10
-29.7680
20
-3.3590
30
0.0000
0
VERTEX
70
8
10
-29.7680
20
-3.3590
30
0.0000
0
VERTEX
70
8
10
-29.7680
20
-3.3590
30
0.0000
0
VERTEX
70
8
10
-29.6022
20
-3.4291
30
0.0000
0
VERTEX
70
8
10
-28.9659
20
-3.6865
30
0.0000
0
VERTEX
70
8
10
-28.8735
20
-3.7208
30
0.0000
0
VERTEX
70
8
10
-28.8133
20
-3.7443
30
0.0000
0
VERTEX
70
8
10
-28.7473
20
-3.7676
30
0.0000
0
VERTEX
70
8
10
-28.6747
20
-3.7921
30
0.0000
0
VERTEX
70
8
10
-28.6747
20
-3.7921
30
0.0000
0
VERTEX
70
8
10
-28.6959
20
-3.7943
30
0.0000
0
VERTEX
70
8
10
-28.6833
20
-3.8850
30
0.0000
0
VERTEX
70
8
10
-28.6707
20
-3.9757
30
0.0000
0
VERTEX
70
8
10
-28.6581
20
-4.0664
30
0.0000
0
VERTEX
70
8
10
-28.6456
20
-4.1571
30
0.0000
0
VERTEX
70
8
10
-28.6878
20
-4.1968
30
0.0000
0
VERTEX
70
8
10
-28.6878
20
-4.1968
30
0.0000
0
VERTEX
70
8
10
-28.6878
20
-4.1968
30
0.0000
0
VERTEX
70
8
10
-28.9557
20
-4.3925
30
0.0000
0
VERTEX
70
8
10
-28.9557
20
-4.3925
30
0.0000
0
VERTEX
70
8
10
-28.9557
20
-4.3925
30
0.0000
0
VERTEX
70
8
10
-29.0037
20
-4.4272
30
0.0000
0
VERTEX
70
8
10
-29.0459
20
-4.4606
30
0.0000
0
VERTEX
70
8
10
-29.1410
20
-4.5346
30
0.0000
0
VERTEX
70
8
10
-29.3086
20
-4.6644
30
0.0000
0
VERTEX
70
8
10
-29.4474
20
-4.7792
30
0.0000
0
VERTEX
70
8
10
-29.5836
20
-4.8885
30
0.0000
0
VERTEX
70
8
10
-29.7279
20
-5.0140
30
0.0000
0
VERTEX
70
8
10
-29.7906
20
-5.0671
30
0.0000
0
VERTEX
70
8
10
-29.9449
20
-5.1906
30
0.0000
0
VERTEX
70
8
10
-30.0575
20
-5.2736
30
0.0000
0
VERTEX
70
8
10
-30.1730
20
-5.3624
30
0.0000
0
VERTEX
70
8
10
-30.2885
20
-5.4512
30
0.0000
0
VERTEX
70
8
10
-30.3476
20
-5.4985
30
0.0000
0
VERTEX
70
8
10
-30.4066
20
-5.5459
30
0.0000
0
VERTEX
70
8
10
-30.4657
20
-5.5933
30
0.0000
0
VERTEX
70
8
10
-30.5248
20
-5.6407
30
0.0000
0
VERTEX
70
8
10
-30.5851
20
-5.6911
30
0.0000
0
VERTEX
70
8
10
-30.6454
20
-5.7415
30
0.0000
0
VERTEX
70
8
10
-30.7057
20
-5.7920
30
0.0000
0
VERTEX
70
8
10
-30.7660
20
-5.8424
30
0.0000
0
VERTEX
70
8
10
-30.7502
20
-5.9229
30
0.0000
0
VERTEX
70
8
10
-30.7345
20
-6.0035
30
0.0000
0
VERTEX
70
8
10
-30.7188
20
-6.0840
30
0.0000
0
VERTEX
70
8
10
-30.7030
20
-6.1646
30
0.0000
0
VERTEX
70
8
10
-30.6282
20
-6.1886
30
0.0000
0
VERTEX
70
8
10
-30.5534
20
-6.2126
30
0.0000
0
VERTEX
70
8
10
-30.4785
20
-6.2367
30
0.0000
0
VERTEX
70
8
10
-30.4037
20
-6.2607
30
0.0000
0
VERTEX
70
8
10
-30.3311
20
-6.2824
30
0.0000
0
VERTEX
70
8
10
-30.2586
20
-6.3040
30
0.0000
0
VERTEX
70
8
10
-30.1860
20
-6.3257
30
0.0000
0
VERTEX
70
8
10
-30.1135
20
-6.3474
30
0.0000
0
VERTEX
70
8
10
-29.9731
20
-6.3862
30
0.0000
0
VERTEX
70
8
10
-29.8326
20
-6.4250
30
0.0000
0
VERTEX
70
8
10
-29.6971
20
-6.4594
30
0.0000
0
VERTEX
70
8
10
-29.6063
20
-6.4841
30
0.0000
0
VERTEX
70
8
10
-29.5076
20
-6.5159
30
0.0000
0
VERTEX
70
8
10
-29.3262
20
-6.5765
30
0.0000
0
VERTEX
70
8
10
-29.2179
20
-6.6133
30
0.0000
0
VERTEX
70
8
10
-29.2179
20
-6.6133
30
0.0000
0
VERTEX
70
8
10
-29.2179
20
-6.6133
30
0.0000
0
VERTEX
70
8
10
-29.2179
20
-6.6133
30
0.0000
0
VERTEX
70
8
10
-29.0453
20
-6.6648
30
0.0000
0
VERTEX
70
8
10
-28.3846
20
-6.8506
30
0.0000
0
VERTEX
70
8
10
-28.2890
20
-6.8745
30
0.0000
0
VERTEX
70
8
10
-28.2266
20
-6.8913
30
0.0000
0
VERTEX
70
8
10
-28.1584
20
-6.9072
30
0.0000
0
VERTEX
70
8
10
-28.0835
20
-6.9236
30
0.0000
0
VERTEX
70
8
10
-28.0835
20
-6.9236
30
0.0000
0
VERTEX
70
8
10
-28.1043
20
-6.9281
30
0.0000
0
VERTEX
70
8
10
-28.0818
20
-7.0168
30
0.0000
0
VERTEX
70
8
10
-28.0593
20
-7.1056
30
0.0000
0
VERTEX
70
8
10
-28.0369
20
-7.1944
30
0.0000
0
VERTEX
70
8
10
-28.0144
20
-7.2831
30
0.0000
0
VERTEX
70
8
10
-28.0520
20
-7.3272
30
0.0000
0
VERTEX
70
8
10
-28.0520
20
-7.3272
30
0.0000
0
VERTEX
70
8
10
-28.0520
20
-7.3272
30
0.0000
0
VERTEX
70
8
10
-28.2967
20
-7.5512
30
0.0000
0
VERTEX
70
8
10
-28.2967
20
-7.5512
30
0.0000
0
VERTEX
70
8
10
-28.2967
20
-7.5512
30
0.0000
0
VERTEX
70
8
10
-28.3406
20
-7.5910
30
0.0000
0
VERTEX
70
8
10
-28.3789
20
-7.6289
30
0.0000
0
VERTEX
70
8
10
-28.4653
20
-7.7128
30
0.0000
0
VERTEX
70
8
10
-28.6175
20
-7.8603
30
0.0000
0
VERTEX
70
8
10
-28.7429
20
-7.9896
30
0.0000
0
VERTEX
70
8
10
-28.8663
20
-8.1133
30
0.0000
0
VERTEX
70
8
10
-28.9959
20
-8.2539
30
0.0000
0
VERTEX
70
8
10
-29.0524
20
-8.3135
30
0.0000
0
VERTEX
70
8
10
-29.1921
20
-8.4533
30
0.0000
0
VERTEX
70
8
10
-29.2950
20
-8.5482
30
0.0000
0
VERTEX
70
8
10
-29.4000
20
-8.6491
30
0.0000
0
VERTEX
70
8
10
-29.5050
20
-8.7501
30
0.0000
0
VERTEX
70
8
10
-29.5585
20
-8.8037
30
0.0000
0
VERTEX
70
8
10
-29.6120
20
-8.8572
30
0.0000
0
VERTEX
70
8
10
-29.6655
20
-8.9108
30
0.0000
0
VERTEX
70
8
10
-29.7190
20
-8.9644
30
0.0000
0
VERTEX
70
8
10
-29.7734
20
-9.0212
30
0.0000
0
VERTEX
70
8
10
-29.8278
20
-9.0779
30
0.0000
0
VERTEX
70
8
10
-29.8821
20
-9.1347
30
0.0000
0
VERTEX
70
8
10
-29.9365
20
-9.1915
30
0.0000
0
VERTEX
70
8
10
-29.9120
20
-9.2698
30
0.0000
0
VERTEX
70
8
10
-29.8875
20
-9.3481
30
0.0000
0
VERTEX
70
8
10
-29.8630
20
-9.4264
30
0.0000
0
VERTEX
70
8
10
-29.8385
20
-9.5047
30
0.0000
0
VERTEX
70
8
10
-29.7615
20
-9.5204
30
0.0000
0
VERTEX
70
8
10
-29.6845
20
-9.5360
30
0.0000
0
VERTEX
70
8
10
-29.6075
20
-9.5517
30
0.0000
0
VERTEX
70
8
10
-29.5304
20
-9.5674
30
0.0000
0
VERTEX
70
8
10
-29.4559
20
-9.5809
30
0.0000
0
VERTEX
70
8
10
-29.3814
20
-9.5945
30
0.0000
0
VERTEX
70
8
10
-29.3069
20
-9.6080
30
0.0000
0
VERTEX
70
8
10
-29.2324
20
-9.6216
30
0.0000
0
VERTEX
70
8
10
-29.0886
20
-9.6447
30
0.0000
0
VERTEX
70
8
10
-28.9448
20
-9.6678
30
0.0000
0
VERTEX
70
8
10
-28.8062
20
-9.6872
30
0.0000
0
VERTEX
70
8
10
-28.7133
20
-9.7016
30
0.0000
0
VERTEX
70
8
10
-28.6117
20
-9.7224
30
0.0000
0
VERTEX
70
8
10
-28.4248
20
-9.7627
30
0.0000
0
VERTEX
70
8
10
-28.3130
20
-9.7874
30
0.0000
0
VERTEX
70
8
10
-28.3130
20
-9.7874
30
0.0000
0
VERTEX
70
8
10
-28.3130
20
-9.7874
30
0.0000
0
VERTEX
70
8
10
-28.3130
20
-9.7874
30
0.0000
0
VERTEX
70
8
10
-28.1358
20
-9.8196
30
0.0000
0
VERTEX
70
8
10
-27.4587
20
-9.9316
30
0.0000
0
VERTEX
70
8
10
-27.3610
20
-9.9448
30
0.0000
0
VERTEX
70
8
10
-27.2971
20
-9.9546
30
0.0000
0
VERTEX
70
8
10
-27.2276
20
-9.9629
30
0.0000
0
VERTEX
70
8
10
-27.1514
20
-9.9710
30
0.0000
0
VERTEX
70
8
10
-27.1514
20
-9.9710
30
0.0000
0
VERTEX
70
8
10
-27.1716
20
-9.9777
30
0.0000
0
VERTEX
70
8
10
-27.1395
20
-10.0635
30
0.0000
0
VERTEX
70
8
10
-27.1074
20
-10.1492
30
0.0000
0
VERTEX
70
8
10
-27.0753
20
-10.2350
30
0.0000
0
VERTEX
70
8
10
-27.0432
20
-10.3207
30
0.0000
0
VERTEX
70
8
10
-27.0757
20
-10.3687
30
0.0000
0
VERTEX
70
8
10
-27.0757
20
-10.3687
30
0.0000
0
VERTEX
70
8
10
-27.0757
20
-10.3687
30
0.0000
0
VERTEX
70
8
10
-27.2943
20
-10.6182
30
0.0000
0
VERTEX
70
8
10
-27.2943
20
-10.6182
30
0.0000
0
VERTEX
70
8
10
-27.2943
20
-10.6182
30
0.0000
0
VERTEX
70
8
10
-27.3335
20
-10.6626
30
0.0000
0
VERTEX
70
8
10
-27.3674
20
-10.7045
30
0.0000
0
VERTEX
70
8
10
-27.4440
20
-10.7974
30
0.0000
0
VERTEX
70
8
10
-27.5792
20
-10.9608
30
0.0000
0
VERTEX
70
8
10
-27.6895
20
-11.1031
30
0.0000
0
VERTEX
70
8
10
-27.7986
20
-11.2395
30
0.0000
0
VERTEX
70
8
10
-27.9119
20
-11.3936
30
0.0000
0
VERTEX
70
8
10
-27.9615
20
-11.4591
30
0.0000
0
VERTEX
70
8
10
-28.0850
20
-11.6134
30
0.0000
0
VERTEX
70
8
10
-28.1768
20
-11.7190
30
0.0000
0
VERTEX
70
8
10
-28.2701
20
-11.8309
30
0.0000
0
VERTEX
70
8
10
-28.3633
20
-11.9428
30
0.0000
0
VERTEX
70
8
10
-28.4106
20
-12.0019
30
0.0000
0
VERTEX
70
8
10
-28.4579
20
-12.0610
30
0.0000
0
VERTEX
70
8
10
-28.5052
20
-12.1202
30
0.0000
0
VERTEX
70
8
10
-28.5525
20
-12.1793
30
0.0000
0
VERTEX
70
8
10
-28.6003
20
-12.2417
30
0.0000
0
VERTEX
70
8
10
-28.6481
20
-12.3041
30
0.0000
0
VERTEX
70
8
10
-28.6959
20
-12.3665
30
0.0000
0
VERTEX
70
8
10
-28.7437
20
-12.4289
30
0.0000
0
VERTEX
70
8
10
-28.7107
20
-12.5041
30
0.0000
0
VERTEX
70
8
10
-28.6778
20
-12.5792
30
0.0000
0
VERTEX
70
8
10
-28.6448
20
-12.6544
30
0.0000
0
VERTEX
70
8
10
-28.6118
20
-12.7295
30
0.0000
0
VERTEX
70
8
10
-28.5336
20
-12.7366
30
0.0000
0
VERTEX
70
8
10
-28.4553
20
-12.7437
30
0.0000
0
VERTEX
70
8
10
-28.3770
20
-12.7508
30
0.0000
0
VERTEX
70
8
10
-28.2987
20
-12.7579
30
0.0000
0
VERTEX
70
8
10
-28.2232
20
-12.7632
30
0.0000
0
VERTEX
70
8
10
-28.1476
20
-12.7684
30
0.0000
0
VERTEX
70
8
10
-28.0721
20
-12.7737
30
0.0000
0
VERTEX
70
8
10
-27.9966
20
-12.7790
30
0.0000
0
VERTEX
70
8
10
-27.8511
20
-12.7861
30
0.0000
0
VERTEX
70
8
10
-27.7056
20
-12.7933
30
0.0000
0
VERTEX
70
8
10
-27.5657
20
-12.7973
30
0.0000
0
VERTEX
70
8
10
-27.4718
20
-12.8015
30
0.0000
0
VERTEX
70
8
10
-27.3685
20
-12.8109
30
0.0000
0
VERTEX
70
8
10
-27.1783
20
-12.8304
30
0.0000
0
VERTEX
70
8
10
-27.0645
20
-12.8426
30
0.0000
0
VERTEX
70
8
10
-27.0645
20
-12.8426
30
0.0000
0
VERTEX
70
8
10
-27.0645
20
-12.8426
30
0.0000
0
VERTEX
70
8
10
-27.0645
20
-12.8426
30
0.0000
0
VERTEX
70
8
10
-26.8848
20
-12.8551
30
0.0000
0
VERTEX
70
8
10
-26.1995
20
-12.8920
30
0.0000
0
VERTEX
70
8
10
-26.1009
20
-12.8944
30
0.0000
0
VERTEX
70
8
10
-26.0364
20
-12.8971
30
0.0000
0
VERTEX
70
8
10
-25.9664
20
-12.8977
30
0.0000
0
VERTEX
70
8
10
-25.8897
20
-12.8973
30
0.0000
0
VERTEX
70
8
10
-25.8897
20
-12.8973
30
0.0000
0
VERTEX
70
8
10
-25.9090
20
-12.9063
30
0.0000
0
VERTEX
70
8
10
-25.8677
20
-12.9880
30
0.0000
0
VERTEX
70
8
10
-25.8263
20
-13.0697
30
0.0000
0
VERTEX
70
8
10
-25.7850
20
-13.1514
30
0.0000
0
VERTEX
70
8
10
-25.7437
20
-13.2331
30
0.0000
0
VERTEX
70
8
10
-25.7707
20
-13.2843
30
0.0000
0
VERTEX
70
8
10
-25.7707
20
-13.2843
30
0.0000
0
VERTEX
70
8
10
-25.7707
20
-13.2843
30
0.0000
0
VERTEX
70
8
10
-25.9606
20
-13.5564
30
0.0000
0
VERTEX
70
8
10
-25.9606
20
-13.5564
30
0.0000
0
VERTEX
70
8
10
-25.9606
20
-13.5564
30
0.0000
0
VERTEX
70
8
10
-25.9947
20
-13.6048
30
0.0000
0
VERTEX
70
8
10
-26.0237
20
-13.6501
30
0.0000
0
VERTEX
70
8
10
-26.0897
20
-13.7509
30
0.0000
0
VERTEX
70
8
10
-26.2060
20
-13.9282
30
0.0000
0
VERTEX
70
8
10
-26.3001
20
-14.0818
30
0.0000
0
VERTEX
70
8
10
-26.3934
20
-14.2294
30
0.0000
0
VERTEX
70
8
10
-26.4891
20
-14.3950
30
0.0000
0
VERTEX
70
8
10
-26.5312
20
-14.4655
30
0.0000
0
VERTEX
70
8
10
-26.6370
20
-14.6325
30
0.0000
0
VERTEX
70
8
10
-26.7166
20
-14.7475
30
0.0000
0
VERTEX
70
8
10
-26.7970
20
-14.8690
30
0.0000
0
VERTEX
70
8
10
-26.8774
20
-14.9905
30
0.0000
0
VERTEX
70
8
10
-26.9179
20
-15.0545
30
0.0000
0
VERTEX
70
8
10
-26.9584
20
-15.1184
30
0.0000
0
VERTEX
70
8
10
-26.9989
20
-15.1824
30
0.0000
0
VERTEX
70
8
10
-27.0393
20
-15.2464
30
0.0000
0
VERTEX
70
8
10
-27.0800
20
-15.3137
30
0.0000
0
VERTEX
70
8
10
-27.1206
20
-15.3810
30
0.0000
0
VERTEX
70
8
10
-27.1613
20
-15.4483
30
0.0000
0
VERTEX
70
8
10
-27.2019
20
-15.5155
30
0.0000
0
VERTEX
70
8
10
-27.1609
20
-15.5866
30
0.0000
0
VERTEX
70
8
10
-27.1199
20
-15.6577
30
0.0000
0
VERTEX
70
8
10
-27.0789
20
-15.7287
30
0.0000
0
VERTEX
70
8
10
-27.0378
20
-15.7998
30
0.0000
0
VERTEX
70
8
10
-26.9593
20
-15.7982
30
0.0000
0
VERTEX
70
8
10
-26.8807
20
-15.7967
30
0.0000
0
VERTEX
70
8
10
-26.8021
20
-15.7951
30
0.0000
0
VERTEX
70
8
10
-26.7235
20
-15.7935
30
0.0000
0
VERTEX
70
8
10
-26.6478
20
-15.7905
30
0.0000
0
VERTEX
70
8
10
-26.5722
20
-15.7874
30
0.0000
0
VERTEX
70
8
10
-26.4965
20
-15.7843
30
0.0000
0
VERTEX
70
8
10
-26.4208
20
-15.7813
30
0.0000
0
VERTEX
70
8
10
-26.2754
20
-15.7724
30
0.0000
0
VERTEX
70
8
10
-26.1301
20
-15.7635
30
0.0000
0
VERTEX
70
8
10
-25.9906
20
-15.7521
30
0.0000
0
VERTEX
70
8
10
-25.8968
20
-15.7459
30
0.0000
0
VERTEX
70
8
10
-25.7931
20
-15.7439
30
0.0000
0
VERTEX
70
8
10
-25.6019
20
-15.7423
30
0.0000
0
VERTEX
70
8
10
-25.4874
20
-15.7420
30
0.0000
0
VERTEX
70
8
10
-25.4874
20
-15.7420
30
0.0000
0
VERTEX
70
8
10
-25.4874
20
-15.7420
30
0.0000
0
VERTEX
70
8
10
-25.4874
20
-15.7420
30
0.0000
0
VERTEX
70
8
10
-25.3075
20
-15.7347
30
0.0000
0
VERTEX
70
8
10
-24.6222
20
-15.6959
30
0.0000
0
VERTEX
70
8
10
-24.5240
20
-15.6875
30
0.0000
0
VERTEX
70
8
10
-24.4596
20
-15.6831
30
0.0000
0
VERTEX
70
8
10
-24.3899
20
-15.6759
30
0.0000
0
VERTEX
70
8
10
-24.3138
20
-15.6671
30
0.0000
0
VERTEX
70
8
10
-24.3138
20
-15.6671
30
0.0000
0
VERTEX
70
8
10
-24.3320
20
-15.6781
30
0.0000
0
VERTEX
70
8
10
-24.2819
20
-15.7548
30
0.0000
0
VERTEX
70
8
10
-24.2318
20
-15.8314
30
0.0000
0
VERTEX
70
8
10
-24.1817
20
-15.9081
30
0.0000
0
VERTEX
70
8
10
-24.1317
20
-15.9848
30
0.0000
0
VERTEX
70
8
10
-24.1529
20
-16.0387
30
0.0000
0
VERTEX
70
8
10
-24.1529
20
-16.0387
30
0.0000
0
VERTEX
70
8
10
-24.1529
20
-16.0387
30
0.0000
0
VERTEX
70
8
10
-24.3117
20
-16.3300
30
0.0000
0
VERTEX
70
8
10
-24.3117
20
-16.3300
30
0.0000
0
VERTEX
70
8
10
-24.3117
20
-16.3300
30
0.0000
0
VERTEX
70
8
10
-24.3402
20
-16.3818
30
0.0000
0
VERTEX
70
8
10
-24.3641
20
-16.4301
30
0.0000
0
VERTEX
70
8
10
-24.4186
20
-16.5376
30
0.0000
0
VERTEX
70
8
10
-24.5147
20
-16.7265
30
0.0000
0
VERTEX
70
8
10
-24.5913
20
-16.8895
30
0.0000
0
VERTEX
70
8
10
-24.6679
20
-17.0465
30
0.0000
0
VERTEX
70
8
10
-24.7447
20
-17.2216
30
0.0000
0
VERTEX
70
8
10
-24.7788
20
-17.2964
30
0.0000
0
VERTEX
70
8
10
-24.8656
20
-17.4740
30
0.0000
0
VERTEX
70
8
10
-24.9321
20
-17.5971
30
0.0000
0
VERTEX
70
8
10
-24.9986
20
-17.7266
30
0.0000
0
VERTEX
70
8
10
-25.0652
20
-17.8562
30
0.0000
0
VERTEX
70
8
10
-25.0984
20
-17.9243
30
0.0000
0
VERTEX
70
8
10
-25.1316
20
-17.9923
30
0.0000
0
VERTEX
70
8
10
-25.1648
20
-18.0604
30
0.0000
0
VERTEX
70
8
10
-25.1980
20
-18.1284
30
0.0000
0
VERTEX
70
8
10
-25.2310
20
-18.1998
30
0.0000
0
VERTEX
70
8
10
-25.2640
20
-18.2711
30
0.0000
0
VERTEX
70
8
10
-25.2970
20
-18.3425
30
0.0000
0
VERTEX
70
8
10
-25.3300
20
-18.4138
30
0.0000
0
VERTEX
70
8
10
-25.2814
20
-18.4799
30
0.0000
0
VERTEX
70
8
10
-25.2328
20
-18.5461
30
0.0000
0
VERTEX
70
8
10
-25.1842
20
-18.6122
30
0.0000
0
VERTEX
70
8
10
-25.1356
20
-18.6783
30
0.0000
0
VERTEX
70
8
10
-25.0577
20
-18.6681
30
0.0000
0
VERTEX
70
8
10
-24.9797
20
-18.6579
30
0.0000
0
VERTEX
70
8
10
-24.9018
20
-18.6477
30
0.0000
0
VERTEX
70
8
10
-24.8239
20
-18.6375
30
0.0000
0
VERTEX
70
8
10
-24.7490
20
-18.6261
30
0.0000
0
VERTEX
70
8
10
-24.6741
20
-18.6147
30
0.0000
0
VERTEX
70
8
10
-24.5993
20
-18.6034
30
0.0000
0
VERTEX
70
8
10
-24.5244
20
-18.5920
30
0.0000
0
VERTEX
70
8
10
-24.3809
20
-18.5672
30
0.0000
0
VERTEX
70
8
10
-24.2373
20
-18.5423
30
0.0000
0
VERTEX
70
8
10
-24.1000
20
-18.5156
30
0.0000
0
VERTEX
70
8
10
-24.0074
20
-18.4992
30
0.0000
0
VERTEX
70
8
10
-23.9046
20
-18.4858
30
0.0000
0
VERTEX
70
8
10
-23.7147
20
-18.4632
30
0.0000
0
VERTEX
70
8
10
-23.6010
20
-18.4503
30
0.0000
0
VERTEX
70
8
10
-23.6010
20
-18.4503
30
0.0000
0
VERTEX
70
8
10
-23.6010
20
-18.4503
30
0.0000
0
VERTEX
70
8
10
-23.6010
20
-18.4503
30
0.0000
0
VERTEX
70
8
10
-23.4229
20
-18.4232
30
0.0000
0
VERTEX
70
8
10
-22.7461
20
-18.3093
30
0.0000
0
VERTEX
70
8
10
-22.6494
20
-18.2901
30
0.0000
0
VERTEX
70
8
10
-22.5858
20
-18.2786
30
0.0000
0
VERTEX
70
8
10
-22.5174
20
-18.2639
30
0.0000
0
VERTEX
70
8
10
-22.4427
20
-18.2468
30
0.0000
0
VERTEX
70
8
10
-22.4427
20
-18.2468
30
0.0000
0
VERTEX
70
8
10
-22.4596
20
-18.2597
30
0.0000
0
VERTEX
70
8
10
-22.4014
20
-18.3304
30
0.0000
0
VERTEX
70
8
10
-22.3432
20
-18.4011
30
0.0000
0
VERTEX
70
8
10
-22.2850
20
-18.4717
30
0.0000
0
VERTEX
70
8
10
-22.2267
20
-18.5424
30
0.0000
0
VERTEX
70
8
10
-22.2420
20
-18.5984
30
0.0000
0
VERTEX
70
8
10
-22.2420
20
-18.5984
30
0.0000
0
VERTEX
70
8
10
-22.2420
20
-18.5984
30
0.0000
0
VERTEX
70
8
10
-22.3677
20
-18.9053
30
0.0000
0
VERTEX
70
8
10
-22.3677
20
-18.9053
30
0.0000
0
VERTEX
70
8
10
-22.3677
20
-18.9053
30
0.0000
0
VERTEX
70
8
10
-22.3904
20
-18.9600
30
0.0000
0
VERTEX
70
8
10
-22.4088
20
-19.0106
30
0.0000
0
VERTEX
70
8
10
-22.4511
20
-19.1234
30
0.0000
0
VERTEX
70
8
10
-22.5259
20
-19.3218
30
0.0000
0
VERTEX
70
8
10
-22.5841
20
-19.4923
30
0.0000
0
VERTEX
70
8
10
-22.6429
20
-19.6567
30
0.0000
0
VERTEX
70
8
10
-22.7000
20
-19.8392
30
0.0000
0
VERTEX
70
8
10
-22.7257
20
-19.9173
30
0.0000
0
VERTEX
70
8
10
-22.7924
20
-20.1033
30
0.0000
0
VERTEX
70
8
10
-22.8450
20
-20.2330
30
0.0000
0
VERTEX
70
8
10
-22.8968
20
-20.3691
30
0.0000
0
VERTEX
70
8
10
-22.9487
20
-20.5052
30
0.0000
0
VERTEX
70
8
10
-22.9743
20
-20.5765
30
0.0000
0
VERTEX
70
8
10
-22.9998
20
-20.6478
30
0.0000
0
VERTEX
70
8
10
-23.0253
20
-20.7191
30
0.0000
0
VERTEX
70
8
10
-23.0508
20
-20.7904
30
0.0000
0
VERTEX
70
8
10
-23.0757
20
-20.8649
30
0.0000
0
VERTEX
70
8
10
-23.1007
20
-20.9395
30
0.0000
0
VERTEX
70
8
10
-23.1256
20
-21.0140
30
0.0000
0
VERTEX
70
8
10
-23.1506
20
-21.0886
30
0.0000
0
VERTEX
70
8
10
-23.0950
20
-21.1489
30
0.0000
0
VERTEX
70
8
10
-23.0395
20
-21.2093
30
0.0000
0
VERTEX
70
8
10
-22.9839
20
-21.2697
30
0.0000
0
VERTEX
70
8
10
-22.9283
20
-21.3301
30
0.0000
0
VERTEX
70
8
10
-22.8520
20
-21.3113
30
0.0000
0
VERTEX
70
8
10
-22.7756
20
-21.2926
30
0.0000
0
VERTEX
70
8
10
-22.6993
20
-21.2739
30
0.0000
0
VERTEX
70
8
10
-22.6229
20
-21.2552
30
0.0000
0
VERTEX
70
8
10
-22.5498
20
-21.2357
30
0.0000
0
VERTEX
70
8
10
-22.4766
20
-21.2161
30
0.0000
0
VERTEX
70
8
10
-22.4035
20
-21.1966
30
0.0000
0
VERTEX
70
8
10
-22.3303
20
-21.1771
30
0.0000
0
VERTEX
70
8
10
-22.1904
20
-21.1366
30
0.0000
0
VERTEX
70
8
10
-22.0504
20
-21.0961
30
0.0000
0
VERTEX
70
8
10
-21.9169
20
-21.0545
30
0.0000
0
VERTEX
70
8
10
-21.8267
20
-21.0279
30
0.0000
0
VERTEX
70
8
10
-21.7259
20
-21.0033
30
0.0000
0
VERTEX
70
8
10
-21.5397
20
-20.9600
30
0.0000
0
VERTEX
70
8
10
-21.4281
20
-20.9346
30
0.0000
0
VERTEX
70
8
10
-21.4281
20
-20.9346
30
0.0000
0
VERTEX
70
8
10
-21.4281
20
-20.9346
30
0.0000
0
VERTEX
70
8
10
-21.4281
20
-20.9346
30
0.0000
0
VERTEX
70
8
10
-21.2541
20
-20.8881
30
0.0000
0
VERTEX
70
8
10
-20.5939
20
-20.7004
30
0.0000
0
VERTEX
70
8
10
-20.4999
20
-20.6707
30
0.0000
0
VERTEX
70
8
10
-20.4380
20
-20.6523
30
0.0000
0
VERTEX
70
8
10
-20.3716
20
-20.6301
30
0.0000
0
VERTEX
70
8
10
-20.2992
20
-20.6049
30
0.0000
0
VERTEX
70
8
10
-20.2992
20
-20.6049
30
0.0000
0
VERTEX
70
8
10
-20.3146
20
-20.6196
30
0.0000
0
VERTEX
70
8
10
-20.2489
20
-20.6835
30
0.0000
0
VERTEX
70
8
10
-20.1833
20
-20.7473
30
0.0000
0
VERTEX
70
8
10
-20.1177
20
-20.8112
30
0.0000
0
VERTEX
70
8
10
-20.0520
20
-20.8750
30
0.0000
0
VERTEX
70
8
10
-20.0610
20
-20.9323
30
0.0000
0
VERTEX
70
8
10
-20.0610
20
-20.9323
30
0.0000
0
VERTEX
70
8
10
-20.0610
20
-20.9323
30
0.0000
0
VERTEX
70
8
10
-20.1522
20
-21.2512
30
0.0000
0
VERTEX
70
8
10
-20.1522
20
-21.2512
30
0.0000
0
VERTEX
70
8
10
-20.1522
20
-21.2512
30
0.0000
0
VERTEX
70
8
10
-20.1687
20
-21.3081
30
0.0000
0
VERTEX
70
8
10
-20.1815
20
-21.3604
30
0.0000
0
VERTEX
70
8
10
-20.2111
20
-21.4772
30
0.0000
0
VERTEX
70
8
10
-20.2636
20
-21.6826
30
0.0000
0
VERTEX
70
8
10
-20.3027
20
-21.8584
30
0.0000
0
VERTEX
70
8
10
-20.3431
20
-22.0283
30
0.0000
0
VERTEX
70
8
10
-20.3798
20
-22.2160
30
0.0000
0
VERTEX
70
8
10
-20.3967
20
-22.2964
30
0.0000
0
VERTEX
70
8
10
-20.4426
20
-22.4887
30
0.0000
0
VERTEX
70
8
10
-20.4805
20
-22.6233
30
0.0000
0
VERTEX
70
8
10
-20.5171
20
-22.7643
30
0.0000
0
VERTEX
70
8
10
-20.5537
20
-22.9053
30
0.0000
0
VERTEX
70
8
10
-20.5712
20
-22.9790
30
0.0000
0
VERTEX
70
8
10
-20.5887
20
-23.0527
30
0.0000
0
VERTEX
70
8
10
-20.6063
20
-23.1263
30
0.0000
0
VERTEX
70
8
10
-20.6238
20
-23.2000
30
0.0000
0
VERTEX
70
8
10
-20.6404
20
-23.2768
30
0.0000
0
VERTEX
70
8
10
-20.6570
20
-23.3537
30
0.0000
0
VERTEX
70
8
10
-20.6736
20
-23.4305
30
0.0000
0
VERTEX
70
8
10
-20.6902
20
-23.5073
30
0.0000
0
VERTEX
70
8
10
-20.6283
20
-23.5612
30
0.0000
0
VERTEX
70
8
10
-20.5664
20
-23.6151
30
0.0000
0
VERTEX
70
8
10
-20.5045
20
-23.6690
30
0.0000
0
VERTEX
70
8
10
-20.4427
20
-23.7229
30
0.0000
0
VERTEX
70
8
10
-20.3688
20
-23.6959
30
0.0000
0
VERTEX
70
8
10
-20.2950
20
-23.6689
30
0.0000
0
VERTEX
70
8
10
-20.2212
20
-23.6419
30
0.0000
0
VERTEX
70
8
10
-20.1474
20
-23.6149
30
0.0000
0
VERTEX
70
8
10
-20.0768
20
-23.5874
30
0.0000
0
VERTEX
70
8
10
-20.0062
20
-23.5600
30
0.0000
0
VERTEX
70
8
10
-19.9357
20
-23.5325
30
0.0000
0
VERTEX
70
8
10
-19.8651
20
-23.5050
30
0.0000
0
VERTEX
70
8
10
-19.7305
20
-23.4494
30
0.0000
0
VERTEX
70
8
10
-19.5959
20
-23.3938
30
0.0000
0
VERTEX
70
8
10
-19.4677
20
-23.3377
30
0.0000
0
VERTEX
70
8
10
-19.3809
20
-23.3014
30
0.0000
0
VERTEX
70
8
10
-19.2835
20
-23.2659
30
0.0000
0
VERTEX
70
8
10
-19.1032
20
-23.2023
30
0.0000
0
VERTEX
70
8
10
-18.9950
20
-23.1648
30
0.0000
0
VERTEX
70
8
10
-18.9950
20
-23.1648
30
0.0000
0
VERTEX
70
8
10
-18.9950
20
-23.1648
30
0.0000
0
VERTEX
70
8
10
-18.9950
20
-23.1648
30
0.0000
0
VERTEX
70
8
10
-18.8272
20
-23.0994
30
0.0000
0
VERTEX
70
8
10
-18.1917
20
-22.8403
30
0.0000
0
VERTEX
70
8
10
-18.1015
20
-22.8004
30
0.0000
0
VERTEX
70
8
10
-18.0420
20
-22.7753
30
0.0000
0
VERTEX
70
8
10
-17.9785
20
-22.7460
30
0.0000
0
VERTEX
70
8
10
-17.9093
20
-22.7129
30
0.0000
0
VERTEX
70
8
10
-17.9093
20
-22.7129
30
0.0000
0
VERTEX
70
8
10
-17.9229
20
-22.7292
30
0.0000
0
VERTEX
70
8
10
-17.8507
20
-22.7855
30
0.0000
0
VERTEX
70
8
10
-17.7784
20
-22.8417
30
0.0000
0
VERTEX
70
8
10
-17.7062
20
-22.8980
30
0.0000
0
VERTEX
70
8
10
-17.6339
20
-22.9542
30
0.0000
0
VERTEX
70
8
10
-17.6365
20
-23.0121
30
0.0000
0
VERTEX
70
8
10
-17.6365
20
-23.0121
30
0.0000
0
VERTEX
70
8
10
-17.6365
20
-23.0121
30
0.0000
0
VERTEX
70
8
10
-17.6921
20
-23.3391
30
0.0000
0
VERTEX
70
8
10
-17.6921
20
-23.3391
30
0.0000
0
VERTEX
70
8
10
-17.6921
20
-23.3391
30
0.0000
0
VERTEX
70
8
10
-17.7023
20
-23.3975
30
0.0000
0
VERTEX
70
8
10
-17.7092
20
-23.4509
30
0.0000
0
VERTEX
70
8
10
-17.7258
20
-23.5702
30
0.0000
0
VERTEX
70
8
10
-17.7554
20
-23.7801
30
0.0000
0
VERTEX
70
8
10
-17.7749
20
-23.9592
30
0.0000
0
VERTEX
70
8
10
-17.7963
20
-24.1325
30
0.0000
0
VERTEX
70
8
10
-17.8121
20
-24.3231
30
0.0000
0
VERTEX
70
8
10
-17.8201
20
-24.4049
30
0.0000
0
VERTEX
70
8
10
-17.8446
20
-24.6010
30
0.0000
0
VERTEX
70
8
10
-17.8674
20
-24.7391
30
0.0000
0
VERTEX
70
8
10
-17.8883
20
-24.8832
30
0.0000
0
VERTEX
70
8
10
-17.9092
20
-25.0274
30
0.0000
0
VERTEX
70
8
10
-17.9185
20
-25.1025
30
0.0000
0
VERTEX
70
8
10
-17.9278
20
-25.1777
30
0.0000
0
VERTEX
70
8
10
-17.9371
20
-25.2528
30
0.0000
0
VERTEX
70
8
10
-17.9464
20
-25.3280
30
0.0000
0
VERTEX
70
8
10
-17.9545
20
-25.4062
30
0.0000
0
VERTEX
70
8
10
-17.9625
20
-25.4844
30
0.0000
0
VERTEX
70
8
10
-17.9706
20
-25.5625
30
0.0000
0
VERTEX
70
8
10
-17.9786
20
-25.6407
30
0.0000
0
VERTEX
70
8
10
-17.9112
20
-25.6875
30
0.0000
0
VERTEX
70
8
10
-17.8437
20
-25.7343
30
0.0000
0
VERTEX
70
8
10
-17.7763
20
-25.7810
30
0.0000
0
VERTEX
70
8
10
-17.7089
20
-25.8278
30
0.0000
0
VERTEX
70
8
10
-17.6385
20
-25.7928
30
0.0000
0
VERTEX
70
8
10
-17.5681
20
-25.7579
30
0.0000
0
VERTEX
70
8
10
-17.4977
20
-25.7229
30
0.0000
0
VERTEX
70
8
10
-17.4273
20
-25.6880
30
0.0000
0
VERTEX
70
8
10
-17.3601
20
-25.6529
30
0.0000
0
VERTEX
70
8
10
-17.2930
20
-25.6178
30
0.0000
0
VERTEX
70
8
10
-17.2259
20
-25.5828
30
0.0000
0
VERTEX
70
8
10
-17.1588
20
-25.5477
30
0.0000
0
VERTEX
70
8
10
-17.0311
20
-25.4776
30
0.0000
0
VERTEX
70
8
10
-16.9034
20
-25.4075
30
0.0000
0
VERTEX
70
8
10
-16.7822
20
-25.3377
30
0.0000
0
VERTEX
70
8
10
-16.7000
20
-25.2920
30
0.0000
0
VERTEX
70
8
10
-16.6070
20
-25.2460
30
0.0000
0
VERTEX
70
8
10
-16.4348
20
-25.1630
30
0.0000
0
VERTEX
70
8
10
-16.3314
20
-25.1138
30
0.0000
0
VERTEX
70
8
10
-16.3314
20
-25.1138
30
0.0000
0
VERTEX
70
8
10
-16.3314
20
-25.1138
30
0.0000
0
VERTEX
70
8
10
-16.3314
20
-25.1138
30
0.0000
0
VERTEX
70
8
10
-16.1718
20
-25.0304
30
0.0000
0
VERTEX
70
8
10
-15.5687
20
-24.7029
30
0.0000
0
VERTEX
70
8
10
-15.4834
20
-24.6534
30
0.0000
0
VERTEX
70
8
10
-15.4270
20
-24.6219
30
0.0000
0
VERTEX
70
8
10
-15.3671
20
-24.5857
30
0.0000
0
VERTEX
70
8
10
-15.3020
20
-24.5452
30
0.0000
0
VERTEX
70
8
10
-15.3020
20
-24.5452
30
0.0000
0
VERTEX
70
8
10
-15.3138
20
-24.5630
30
0.0000
0
VERTEX
70
8
10
-15.2358
20
-24.6109
30
0.0000
0
VERTEX
70
8
10
-15.1577
20
-24.6589
30
0.0000
0
VERTEX
70
8
10
-15.0797
20
-24.7068
30
0.0000
0
VERTEX
70
8
10
-15.0017
20
-24.7548
30
0.0000
0
VERTEX
70
8
10
-14.9979
20
-24.8126
30
0.0000
0
VERTEX
70
8
10
-14.9979
20
-24.8126
30
0.0000
0
VERTEX
70
8
10
-14.9979
20
-24.8126
30
0.0000
0
VERTEX
70
8
10
-15.0172
20
-25.1438
30
0.0000
0
VERTEX
70
8
10
-15.0172
20
-25.1438
30
0.0000
0
VERTEX
70
8
10
-15.0172
20
-25.1438
30
0.0000
0
VERTEX
70
8
10
-15.0209
20
-25.2029
30
0.0000
0
VERTEX
70
8
10
-15.0219
20
-25.2567
30
0.0000
0
VERTEX
70
8
10
-15.0253
20
-25.3771
30
0.0000
0
VERTEX
70
8
10
-15.0316
20
-25.5891
30
0.0000
0
VERTEX
70
8
10
-15.0313
20
-25.7692
30
0.0000
0
VERTEX
70
8
10
-15.0335
20
-25.9438
30
0.0000
0
VERTEX
70
8
10
-15.0283
20
-26.1350
30
0.0000
0
VERTEX
70
8
10
-15.0272
20
-26.2171
30
0.0000
0
VERTEX
70
8
10
-15.0299
20
-26.4148
30
0.0000
0
VERTEX
70
8
10
-15.0375
20
-26.5545
30
0.0000
0
VERTEX
70
8
10
-15.0424
20
-26.7001
30
0.0000
0
VERTEX
70
8
10
-15.0473
20
-26.8456
30
0.0000
0
VERTEX
70
8
10
-15.0483
20
-26.9214
30
0.0000
0
VERTEX
70
8
10
-15.0492
20
-26.9971
30
0.0000
0
VERTEX
70
8
10
-15.0502
20
-27.0728
30
0.0000
0
VERTEX
70
8
10
-15.0512
20
-27.1485
30
0.0000
0
VERTEX
70
8
10
-15.0506
20
-27.2271
30
0.0000
0
VERTEX
70
8
10
-15.0500
20
-27.3057
30
0.0000
0
VERTEX
70
8
10
-15.0494
20
-27.3843
30
0.0000
0
VERTEX
70
8
10
-15.0488
20
-27.4629
30
0.0000
0
VERTEX
70
8
10
-14.9766
20
-27.5020
30
0.0000
0
VERTEX
70
8
10
-14.9045
20
-27.5410
30
0.0000
0
VERTEX
70
8
10
-14.8323
20
-27.5801
30
0.0000
0
VERTEX
70
8
10
-14.7601
20
-27.6191
30
0.0000
0
VERTEX
70
8
10
-14.6940
20
-27.5767
30
0.0000
0
VERTEX
70
8
10
-14.6279
20
-27.5342
30
0.0000
0
VERTEX
70
8
10
-14.5617
20
-27.4917
30
0.0000
0
VERTEX
70
8
10
-14.4956
20
-27.4492
30
0.0000
0
VERTEX
70
8
10
-14.4327
20
-27.4070
30
0.0000
0
VERTEX
70
8
10
-14.3699
20
-27.3647
30
0.0000
0
VERTEX
70
8
10
-14.3070
20
-27.3225
30
0.0000
0
VERTEX
70
8
10
-14.2442
20
-27.2803
30
0.0000
0
VERTEX
70
8
10
-14.1250
20
-27.1965
30
0.0000
0
VERTEX
70
8
10
-14.0058
20
-27.1128
30
0.0000
0
VERTEX
70
8
10
-13.8930
20
-27.0301
30
0.0000
0
VERTEX
70
8
10
-13.8163
20
-26.9757
30
0.0000
0
VERTEX
70
8
10
-13.7290
20
-26.9197
30
0.0000
0
VERTEX
70
8
10
-13.5669
20
-26.8182
30
0.0000
0
VERTEX
70
8
10
-13.4696
20
-26.7580
30
0.0000
0
VERTEX
70
8
10
-13.4696
20
-26.7580
30
0.0000
0
VERTEX
70
8
10
-13.4696
20
-26.7580
30
0.0000
0
VERTEX
70
8
10
-13.4696
20
-26.7580
30
0.0000
0
VERTEX
70
8
10
-13.3201
20
-26.6575
30
0.0000
0
VERTEX
70
8
10
-12.7566
20
-26.2656
30
0.0000
0
VERTEX
70
8
10
-12.6774
20
-26.2070
30
0.0000
0
VERTEX
70
8
10
-12.6248
20
-26.1695
30
0.0000
0
VERTEX
70
8
10
-12.5692
20
-26.1270
30
0.0000
0
VERTEX
70
8
10
-12.5089
20
-26.0796
30
0.0000
0
VERTEX
70
8
10
-12.5089
20
-26.0796
30
0.0000
0
VERTEX
70
8
10
-12.5187
20
-26.0985
30
0.0000
0
VERTEX
70
8
10
-12.4359
20
-26.1376
30
0.0000
0
VERTEX
70
8
10
-12.3531
20
-26.1767
30
0.0000
0
VERTEX
70
8
10
-12.2703
20
-26.2157
30
0.0000
0
VERTEX
70
8
10
-12.1875
20
-26.2548
30
0.0000
0
VERTEX
70
8
10
-12.1773
20
-26.3119
30
0.0000
0
VERTEX
70
8
10
-12.1773
20
-26.3119
30
0.0000
0
VERTEX
70
8
10
-12.1773
20
-26.3119
30
0.0000
0
VERTEX
70
8
10
-12.1600
20
-26.6432
30
0.0000
0
VERTEX
70
8
10
-12.1600
20
-26.6432
30
0.0000
0
VERTEX
70
8
10
-12.1600
20
-26.6432
30
0.0000
0
VERTEX
70
8
10
-12.1572
20
-26.7023
30
0.0000
0
VERTEX
70
8
10
-12.1523
20
-26.7560
30
0.0000
0
VERTEX
70
8
10
-12.1424
20
-26.8760
30
0.0000
0
VERTEX
70
8
10
-12.1254
20
-27.0873
30
0.0000
0
VERTEX
70
8
10
-12.1052
20
-27.2663
30
0.0000
0
VERTEX
70
8
10
-12.0882
20
-27.4402
30
0.0000
0
VERTEX
70
8
10
-12.0620
20
-27.6296
30
0.0000
0
VERTEX
70
8
10
-12.0519
20
-27.7111
30
0.0000
0
VERTEX
70
8
10
-12.0329
20
-27.9079
30
0.0000
0
VERTEX
70
8
10
-12.0250
20
-28.0475
30
0.0000
0
VERTEX
70
8
10
-12.0139
20
-28.1928
30
0.0000
0
VERTEX
70
8
10
-12.0027
20
-28.3380
30
0.0000
0
VERTEX
70
8
10
-11.9954
20
-28.4134
30
0.0000
0
VERTEX
70
8
10
-11.9880
20
-28.4888
30
0.0000
0
VERTEX
70
8
10
-11.9806
20
-28.5641
30
0.0000
0
VERTEX
70
8
10
-11.9733
20
-28.6395
30
0.0000
0
VERTEX
70
8
10
-11.9640
20
-28.7175
30
0.0000
0
VERTEX
70
8
10
-11.9548
20
-28.7956
30
0.0000
0
VERTEX
70
8
10
-11.9456
20
-28.8737
30
0.0000
0
VERTEX
70
8
10
-11.9363
20
-28.9517
30
0.0000
0
VERTEX
70
8
10
-11.8603
20
-28.9826
30
0.0000
0
VERTEX
70
8
10
-11.7843
20
-29.0135
30
0.0000
0
VERTEX
70
8
10
-11.7082
20
-29.0444
30
0.0000
0
VERTEX
70
8
10
-11.6322
20
-29.0753
30
0.0000
0
VERTEX
70
8
10
-11.5712
20
-29.0257
30
0.0000
0
VERTEX
70
8
10
-11.5101
20
-28.9762
30
0.0000
0
VERTEX
70
8
10
-11.4490
20
-28.9267
30
0.0000
0
VERTEX
70
8
10
-11.3880
20
-28.8772
30
0.0000
0
VERTEX
70
8
10
-11.3302
20
-28.8283
30
0.0000
0
VERTEX
70
8
10
-11.2723
20
-28.7794
30
0.0000
0
VERTEX
70
8
10
-11.2145
20
-28.7306
30
0.0000
0
VERTEX
70
8
10
-11.1567
20
-28.6817
30
0.0000
0
VERTEX
70
8
10
-11.0474
20
-28.5853
30
0.0000
0
VERTEX
70
8
10
-10.9381
20
-28.4890
30
0.0000
0
VERTEX
70
8
10
-10.8351
20
-28.3944
30
0.0000
0
VERTEX
70
8
10
-10.7649
20
-28.3319
30
0.0000
0
VERTEX
70
8
10
-10.6843
20
-28.2666
30
0.0000
0
VERTEX
70
8
10
-10.5343
20
-28.1479
30
0.0000
0
VERTEX
70
8
10
-10.4442
20
-28.0773
30
0.0000
0
VERTEX
70
8
10
-10.4442
20
-28.0773
30
0.0000
0
VERTEX
70
8
10
-10.4442
20
-28.0773
30
0.0000
0
VERTEX
70
8
10
-10.4442
20
-28.0773
30
0.0000
0
VERTEX
70
8
10
-10.3067
20
-27.9610
30
0.0000
0
VERTEX
70
8
10
-9.7898
20
-27.5096
30
0.0000
0
VERTEX
70
8
10
-9.7175
20
-27.4426
30
0.0000
0
VERTEX
70
8
10
-9.6693
20
-27.3995
30
0.0000
0
VERTEX
70
8
10
-9.6187
20
-27.3511
30
0.0000
0
VERTEX
70
8
10
-9.5640
20
-27.2974
30
0.0000
0
VERTEX
70
8
10
-9.5640
20
-27.2974
30
0.0000
0
VERTEX
70
8
10
-9.5717
20
-27.3173
30
0.0000
0
VERTEX
70
8
10
-9.4851
20
-27.3470
30
0.0000
0
VERTEX
70
8
10
-9.3984
20
-27.3767
30
0.0000
0
VERTEX
70
8
10
-9.3118
20
-27.4065
30
0.0000
0
VERTEX
70
8
10
-9.2252
20
-27.4362
30
0.0000
0
VERTEX
70
8
10
-9.2089
20
-27.4918
30
0.0000
0
VERTEX
70
8
10
-9.2089
20
-27.4918
30
0.0000
0
VERTEX
70
8
10
-9.2089
20
-27.4918
30
0.0000
0
VERTEX
70
8
10
-9.1553
20
-27.8192
30
0.0000
0
VERTEX
70
8
10
-9.1553
20
-27.8192
30
0.0000
0
VERTEX
70
8
10
-9.1553
20
-27.8192
30
0.0000
0
VERTEX
70
8
10
-9.1459
20
-27.8777
30
0.0000
0
VERTEX
70
8
10
-9.1352
20
-27.9304
30
0.0000
0
VERTEX
70
8
10
-9.1121
20
-28.0487
30
0.0000
0
VERTEX
70
8
10
-9.0719
20
-28.2568
30
0.0000
0
VERTEX
70
8
10
-9.0322
20
-28.4325
30
0.0000
0
VERTEX
70
8
10
-8.9962
20
-28.6034
30
0.0000
0
VERTEX
70
8
10
-8.9493
20
-28.7888
30
0.0000
0
VERTEX
70
8
10
-8.9303
20
-28.8687
30
0.0000
0
VERTEX
70
8
10
-8.8897
20
-29.0622
30
0.0000
0
VERTEX
70
8
10
-8.8666
20
-29.2002
30
0.0000
0
VERTEX
70
8
10
-8.8395
20
-29.3433
30
0.0000
0
VERTEX
70
8
10
-8.8124
20
-29.4864
30
0.0000
0
VERTEX
70
8
10
-8.7968
20
-29.5605
30
0.0000
0
VERTEX
70
8
10
-8.7812
20
-29.6346
30
0.0000
0
VERTEX
70
8
10
-8.7656
20
-29.7087
30
0.0000
0
VERTEX
70
8
10
-8.7500
20
-29.7828
30
0.0000
0
VERTEX
70
8
10
-8.7323
20
-29.8594
30
0.0000
0
VERTEX
70
8
10
-8.7145
20
-29.9360
30
0.0000
0
VERTEX
70
8
10
-8.6967
20
-30.0125
30
0.0000
0
VERTEX
70
8
10
-8.6789
20
-30.0891
30
0.0000
0
VERTEX
70
8
10
-8.6000
20
-30.1114
30
0.0000
0
VERTEX
70
8
10
-8.5210
20
-30.1338
30
0.0000
0
VERTEX
70
8
10
-8.4421
20
-30.1561
30
0.0000
0
VERTEX
70
8
10
-8.3631
20
-30.1784
30
0.0000
0
VERTEX
70
8
10
-8.3079
20
-30.1225
30
0.0000
0
VERTEX
70
8
10
-8.2526
20
-30.0666
30
0.0000
0
VERTEX
70
8
10
-8.1974
20
-30.0107
30
0.0000
0
VERTEX
70
8
10
-8.1421
20
-29.9547
30
0.0000
0
VERTEX
70
8
10
-8.0900
20
-29.8998
30
0.0000
0
VERTEX
70
8
10
-8.0379
20
-29.8448
30
0.0000
0
VERTEX
70
8
10
-7.9859
20
-29.7899
30
0.0000
0
VERTEX
70
8
10
-7.9338
20
-29.7349
30
0.0000
0
VERTEX
70
8
10
-7.8357
20
-29.6272
30
0.0000
0
VERTEX
70
8
10
-7.7377
20
-29.5194
30
0.0000
0
VERTEX
70
8
10
-7.6458
20
-29.4140
30
0.0000
0
VERTEX
70
8
10
-7.5828
20
-29.3441
30
0.0000
0
VERTEX
70
8
10
-7.5098
20
-29.2704
30
0.0000
0
VERTEX
70
8
10
-7.3739
20
-29.1359
30
0.0000
0
VERTEX
70
8
10
-7.2921
20
-29.0559
30
0.0000
0
VERTEX
70
8
10
-7.2921
20
-29.0559
30
0.0000
0
VERTEX
70
8
10
-7.2921
20
-29.0559
30
0.0000
0
VERTEX
70
8
10
-7.2921
20
-29.0559
30
0.0000
0
VERTEX
70
8
10
-7.1682
20
-28.9251
30
0.0000
0
VERTEX
70
8
10
-6.7041
20
-28.4195
30
0.0000
0
VERTEX
70
8
10
-6.6396
20
-28.3450
30
0.0000
0
VERTEX
70
8
10
-6.5964
20
-28.2969
30
0.0000
0
VERTEX
70
8
10
-6.5515
20
-28.2433
30
0.0000
0
VERTEX
70
8
10
-6.5031
20
-28.1839
30
0.0000
0
VERTEX
70
8
10
-6.5031
20
-28.1839
30
0.0000
0
VERTEX
70
8
10
-6.5084
20
-28.2044
30
0.0000
0
VERTEX
70
8
10
-6.4191
20
-28.2245
30
0.0000
0
VERTEX
70
8
10
-6.3297
20
-28.2445
30
0.0000
0
VERTEX
70
8
10
-6.2404
20
-28.2645
30
0.0000
0
VERTEX
70
8
10
-6.1510
20
-28.2845
30
0.0000
0
VERTEX
70
8
10
-6.1287
20
-28.3380
30
0.0000
0
VERTEX
70
8
10
-6.1287
20
-28.3380
30
0.0000
0
VERTEX
70
8
10
-6.1287
20
-28.3380
30
0.0000
0
VERTEX
70
8
10
-6.0394
20
-28.6575
30
0.0000
0
VERTEX
70
8
10
-6.0394
20
-28.6575
30
0.0000
0
VERTEX
70
8
10
-6.0394
20
-28.6575
30
0.0000
0
VERTEX
70
8
10
-6.0237
20
-28.7146
30
0.0000
0
VERTEX
70
8
10
-6.0071
20
-28.7659
30
0.0000
0
VERTEX
70
8
10
-5.9712
20
-28.8808
30
0.0000
0
VERTEX
70
8
10
-5.9084
20
-29.0833
30
0.0000
0
VERTEX
70
8
10
-5.8496
20
-29.2536
30
0.0000
0
VERTEX
70
8
10
-5.7950
20
-29.4195
30
0.0000
0
VERTEX
70
8
10
-5.7280
20
-29.5986
30
0.0000
0
VERTEX
70
8
10
-5.7003
20
-29.6759
30
0.0000
0
VERTEX
70
8
10
-5.6387
20
-29.8638
30
0.0000
0
VERTEX
70
8
10
-5.6005
20
-29.9983
30
0.0000
0
VERTEX
70
8
10
-5.5579
20
-30.1376
30
0.0000
0
VERTEX
70
8
10
-5.5152
20
-30.2769
30
0.0000
0
VERTEX
70
8
10
-5.4916
20
-30.3488
30
0.0000
0
VERTEX
70
8
10
-5.4679
20
-30.4208
30
0.0000
0
VERTEX
70
8
10
-5.4442
20
-30.4927
30
0.0000
0
VERTEX
70
8
10
-5.4206
20
-30.5646
30
0.0000
0
VERTEX
70
8
10
-5.3945
20
-30.6388
30
0.0000
0
VERTEX
70
8
10
-5.3684
20
-30.7129
30
0.0000
0
VERTEX
70
8
10
-5.3423
20
-30.7871
30
0.0000
0
VERTEX
70
8
10
-5.3162
20
-30.8612
30
0.0000
0
VERTEX
70
8
10
-5.2353
20
-30.8747
30
0.0000
0
VERTEX
70
8
10
-5.1543
20
-30.8883
30
0.0000
0
VERTEX
70
8
10
-5.0734
20
-30.9018
30
0.0000
0
VERTEX
70
8
10
-4.9925
20
-30.9153
30
0.0000
0
VERTEX
70
8
10
-4.9437
20
-30.8536
30
0.0000
0
VERTEX
70
8
10
-4.8950
20
-30.7919
30
0.0000
0
VERTEX
70
8
10
-4.8462
20
-30.7303
30
0.0000
0
VERTEX
70
8
10
-4.7974
20
-30.6686
30
0.0000
0
VERTEX
70
8
10
-4.7517
20
-30.6083
30
0.0000
0
VERTEX
70
8
10
-4.7060
20
-30.5479
30
0.0000
0
VERTEX
70
8
10
-4.6603
20
-30.4876
30
0.0000
0
VERTEX
70
8
10
-4.6145
20
-30.4272
30
0.0000
0
VERTEX
70
8
10
-4.5290
20
-30.3093
30
0.0000
0
VERTEX
70
8
10
-4.4434
20
-30.1914
30
0.0000
0
VERTEX
70
8
10
-4.3636
20
-30.0766
30
0.0000
0
VERTEX
70
8
10
-4.3087
20
-30.0002
30
0.0000
0
VERTEX
70
8
10
-4.2443
20
-29.9189
30
0.0000
0
VERTEX
70
8
10
-4.1239
20
-29.7703
30
0.0000
0
VERTEX
70
8
10
-4.0514
20
-29.6817
30
0.0000
0
VERTEX
70
8
10
-4.0514
20
-29.6817
30
0.0000
0
VERTEX
70
8
10
-4.0514
20
-29.6817
30
0.0000
0
VERTEX
70
8
10
-4.0514
20
-29.6817
30
0.0000
0
VERTEX
70
8
10
-3.9427
20
-29.5381
30
0.0000
0
VERTEX
70
8
10
-3.5370
20
-28.9846
30
0.0000
0
VERTEX
70
8
10
-3.4811
20
-28.9034
30
0.0000
0
VERTEX
70
8
10
-3.4435
20
-28.8508
30
0.0000
0
VERTEX
70
8
10
-3.4047
20
-28.7926
30
0.0000
0
VERTEX
70
8
10
-3.3631
20
-28.7282
30
0.0000
0
VERTEX
70
8
10
-3.3631
20
-28.7282
30
0.0000
0
VERTEX
70
8
10
-3.3662
20
-28.7492
30
0.0000
0
VERTEX
70
8
10
-3.2752
20
-28.7593
30
0.0000
0
VERTEX
70
8
10
-3.1842
20
-28.7694
30
0.0000
0
VERTEX
70
8
10
-3.0932
20
-28.7795
30
0.0000
0
VERTEX
70
8
10
-3.0022
20
-28.7895
30
0.0000
0
VERTEX
70
8
10
-2.9741
20
-28.8402
30
0.0000
0
VERTEX
70
8
10
-2.9741
20
-28.8402
30
0.0000
0
VERTEX
70
8
10
-2.9741
20
-28.8402
30
0.0000
0
VERTEX
70
8
10
-2.8501
20
-29.1479
30
0.0000
0
VERTEX
70
8
10
-2.8501
20
-29.1479
30
0.0000
0
VERTEX
70
8
10
-2.8501
20
-29.1479
30
0.0000
0
VERTEX
70
8
10
-2.8283
20
-29.2030
30
0.0000
0
VERTEX
70
8
10
-2.8062
20
-29.2521
30
0.0000
0
VERTEX
70
8
10
-2.7579
20
-29.3624
30
0.0000
0
VERTEX
70
8
10
-2.6731
20
-29.5568
30
0.0000
0
VERTEX
70
8
10
-2.5960
20
-29.7195
30
0.0000
0
VERTEX
70
8
10
-2.5235
20
-29.8784
30
0.0000
0
VERTEX
70
8
10
-2.4371
20
-30.0491
30
0.0000
0
VERTEX
70
8
10
-2.4011
20
-30.1229
30
0.0000
0
VERTEX
70
8
10
-2.3192
20
-30.3028
30
0.0000
0
VERTEX
70
8
10
-2.2665
20
-30.4324
30
0.0000
0
VERTEX
70
8
10
-2.2087
20
-30.5661
30
0.0000
0
VERTEX
70
8
10
-2.1510
20
-30.6999
30
0.0000
0
VERTEX
70
8
10
-2.1196
20
-30.7688
30
0.0000
0
VERTEX
70
8
10
-2.0882
20
-30.8377
30
0.0000
0
VERTEX
70
8
10
-2.0567
20
-30.9065
30
0.0000
0
VERTEX
70
8
10
-2.0253
20
-30.9754
30
0.0000
0
VERTEX
70
8
10
-1.9912
20
-31.0463
30
0.0000
0
VERTEX
70
8
10
-1.9571
20
-31.1171
30
0.0000
0
VERTEX
70
8
10
-1.9231
20
-31.1879
30
0.0000
0
VERTEX
70
8
10
-1.8890
20
-31.2588
30
0.0000
0
VERTEX
70
8
10
-1.8070
20
-31.2633
30
0.0000
0
VERTEX
70
8
10
-1.7251
20
-31.2678
30
0.0000
0
VERTEX
70
8
10
-1.6432
20
-31.2723
30
0.0000
0
VERTEX
70
8
10
-1.5612
20
-31.2768
30
0.0000
0
VERTEX
70
8
10
-1.5196
20
-31.2102
30
0.0000
0
VERTEX
70
8
10
-1.4779
20
-31.1435
30
0.0000
0
VERTEX
70
8
10
-1.4362
20
-31.0769
30
0.0000
0
VERTEX
70
8
10
-1.3945
20
-31.0102
30
0.0000
0
VERTEX
70
8
10
-1.3557
20
-30.9452
30
0.0000
0
VERTEX
70
8
10
-1.3169
20
-30.8802
30
0.0000
0
VERTEX
70
8
10
-1.2781
20
-30.8152
30
0.0000
0
VERTEX
70
8
10
-1.2393
20
-30.7502
30
0.0000
0
VERTEX
70
8
10
-1.1672
20
-30.6236
30
0.0000
0
VERTEX
70
8
10
-1.0951
20
-30.4970
30
0.0000
0
VERTEX
70
8
10
-1.0284
20
-30.3740
30
0.0000
0
VERTEX
70
8
10
-0.9823
20
-30.2921
30
0.0000
0
VERTEX
70
8
10
-0.9272
20
-30.2042
30
0.0000
0
VERTEX
70
8
10
-0.8239
20
-30.0433
30
0.0000
0
VERTEX
70
8
10
-0.7616
20
-29.9473
30
0.0000
0
VERTEX
70
8
10
-0.7616
20
-29.9473
30
0.0000
0
VERTEX
70
8
10
-0.7616
20
-29.9473
30
0.0000
0
VERTEX
70
8
10
-0.7616
20
-29.9473
30
0.0000
0
VERTEX
70
8
10
-0.6693
20
-29.7926
30
0.0000
0
VERTEX
70
8
10
-0.3270
20
-29.1977
30
0.0000
0
VERTEX
70
8
10
-0.2804
20
-29.1109
30
0.0000
0
VERTEX
70
8
10
-0.2488
20
-29.0546
30
0.0000
0
VERTEX
70
8
10
-0.2167
20
-28.9924
30
0.0000
0
VERTEX
70
8
10
-0.1824
20
-28.9238
30
0.0000
0
VERTEX
70
8
10
-0.1824
20
-28.9238
30
0.0000
0
VERTEX
70
8
10
-0.1831
20
-28.9451
30
0.0000
0
VERTEX
70
8
10
-0.0916
20
-28.9451
30
0.0000
0
VERTEX
70
8
10
-0.0000
20
-28.9451
30
0.0000
0
VERTEX
70
8
10
0.0916
20
-28.9451
30
0.0000
0
VERTEX
70
8
10
0.1831
20
-28.9451
30
0.0000
0
VERTEX
70
8
10
0.2167
20
-28.9924
30
0.0000
0
VERTEX
70
8
10
0.2167
20
-28.9924
30
0.0000
0
VERTEX
70
8
10
0.2167
20
-28.9924
30
0.0000
0
VERTEX
70
8
10
0.3737
20
-29.2846
30
0.0000
0
VERTEX
70
8
10
0.3737
20
-29.2846
30
0.0000
0
VERTEX
70
8
10
0.3737
20
-29.2846
30
0.0000
0
VERTEX
70
8
10
0.4015
20
-29.3369
30
0.0000
0
VERTEX
70
8
10
0.4288
20
-29.3833
30
0.0000
0
VERTEX
70
8
10
0.4890
20
-29.4876
30
0.0000
0
VERTEX
70
8
10
0.5946
20
-29.6715
30
0.0000
0
VERTEX
70
8
10
0.6892
20
-29.8247
30
0.0000
0
VERTEX
70
8
10
0.7787
20
-29.9747
30
0.0000
0
VERTEX
70
8
10
0.8833
20
-30.1348
30
0.0000
0
VERTEX
70
8
10
0.9272
20
-30.2042
30
0.0000
0
VERTEX
70
8
10
1.0284
20
-30.3740
30
0.0000
0
VERTEX
70
8
10
1.0951
20
-30.4970
30
0.0000
0
VERTEX
70
8
10
1.1672
20
-30.6236
30
0.0000
0
VERTEX
70
8
10
1.2393
20
-30.7502
30
0.0000
0
VERTEX
70
8
10
1.2781
20
-30.8152
30
0.0000
0
VERTEX
70
8
10
1.3169
20
-30.8802
30
0.0000
0
VERTEX
70
8
10
1.3557
20
-30.9452
30
0.0000
0
VERTEX
70
8
10
1.3945
20
-31.0102
30
0.0000
0
VERTEX
70
8
10
1.4362
20
-31.0769
30
0.0000
0
VERTEX
70
8
10
1.4779
20
-31.1435
30
0.0000
0
VERTEX
70
8
10
1.5195
20
-31.2102
30
0.0000
0
VERTEX
70
8
10
1.5612
20
-31.2768
30
0.0000
0
VERTEX
70
8
10
1.6432
20
-31.2723
30
0.0000
0
VERTEX
70
8
10
1.7251
20
-31.2678
30
0.0000
0
VERTEX
70
8
10
1.8070
20
-31.2633
30
0.0000
0
VERTEX
70
8
10
1.8890
20
-31.2588
30
0.0000
0
VERTEX
70
8
10
1.9230
20
-31.1879
30
0.0000
0
VERTEX
70
8
10
1.9571
20
-31.1171
30
0.0000
0
VERTEX
70
8
10
1.9912
20
-31.0463
30
0.0000
0
VERTEX
70
8
10
2.0253
20
-30.9754
30
0.0000
0
VERTEX
70
8
10
2.0567
20
-30.9066
30
0.0000
0
VERTEX
70
8
10
2.0882
20
-30.8377
30
0.0000
0
VERTEX
70
8
10
2.1196
20
-30.7688
30
0.0000
0
VERTEX
70
8
10
2.1510
20
-30.6999
30
0.0000
0
VERTEX
70
8
10
2.2087
20
-30.5661
30
0.0000
0
VERTEX
70
8
10
2.2664
20
-30.4324
30
0.0000
0
VERTEX
70
8
10
2.3192
20
-30.3028
30
0.0000
0
VERTEX
70
8
10
2.3561
20
-30.2163
30
0.0000
0
VERTEX
70
8
10
2.4011
20
-30.1229
30
0.0000
0
VERTEX
70
8
10
2.4861
20
-29.9516
30
0.0000
0
VERTEX
70
8
10
2.5374
20
-29.8493
30
0.0000
0
VERTEX
70
8
10
2.5374
20
-29.8493
30
0.0000
0
VERTEX
70
8
10
2.5374
20
-29.8493
30
0.0000
0
VERTEX
70
8
10
2.5374
20
-29.8493
30
0.0000
0
VERTEX
70
8
10
2.6121
20
-29.6854
30
0.0000
0
VERTEX
70
8
10
2.8870
20
-29.0565
30
0.0000
0
VERTEX
70
8
10
2.9238
20
-28.9651
30
0.0000
0
VERTEX
70
8
10
2.9490
20
-28.9056
30
0.0000
0
VERTEX
70
8
10
2.9741
20
-28.8402
30
0.0000
0
VERTEX
70
8
10
3.0006
20
-28.7683
30
0.0000
0
VERTEX
70
8
10
3.0006
20
-28.7683
30
0.0000
0
VERTEX
70
8
10
3.0022
20
-28.7895
30
0.0000
0
VERTEX
70
8
10
3.0932
20
-28.7795
30
0.0000
0
VERTEX
70
8
10
3.1842
20
-28.7694
30
0.0000
0
VERTEX
70
8
10
3.2752
20
-28.7593
30
0.0000
0
VERTEX
70
8
10
3.3662
20
-28.7492
30
0.0000
0
VERTEX
70
8
10
3.4047
20
-28.7926
30
0.0000
0
VERTEX
70
8
10
3.4047
20
-28.7926
30
0.0000
0
VERTEX
70
8
10
3.4047
20
-28.7926
30
0.0000
0
VERTEX
70
8
10
3.5929
20
-29.0657
30
0.0000
0
VERTEX
70
8
10
3.5929
20
-29.0657
30
0.0000
0
VERTEX
70
8
10
3.5929
20
-29.0657
30
0.0000
0
VERTEX
70
8
10
3.6263
20
-29.1146
30
0.0000
0
VERTEX
70
8
10
3.6586
20
-29.1578
30
0.0000
0
VERTEX
70
8
10
3.7299
20
-29.2549
30
0.0000
0
VERTEX
70
8
10
3.8551
20
-29.4260
30
0.0000
0
VERTEX
70
8
10
3.9659
20
-29.5679
30
0.0000
0
VERTEX
70
8
10
4.0715
20
-29.7071
30
0.0000
0
VERTEX
70
8
10
4.1930
20
-29.8547
30
0.0000
0
VERTEX
70
8
10
4.2443
20
-29.9189
30
0.0000
0
VERTEX
70
8
10
4.3636
20
-30.0765
30
0.0000
0
VERTEX
70
8
10
4.4434
20
-30.1914
30
0.0000
0
VERTEX
70
8
10
4.5290
20
-30.3093
30
0.0000
0
VERTEX
70
8
10
4.6145
20
-30.4272
30
0.0000
0
VERTEX
70
8
10
4.6602
20
-30.4876
30
0.0000
0
VERTEX
70
8
10
4.7060
20
-30.5479
30
0.0000
0
VERTEX
70
8
10
4.7517
20
-30.6083
30
0.0000
0
VERTEX
70
8
10
4.7974
20
-30.6686
30
0.0000
0
VERTEX
70
8
10
4.8462
20
-30.7303
30
0.0000
0
VERTEX
70
8
10
4.8949
20
-30.7919
30
0.0000
0
VERTEX
70
8
10
4.9437
20
-30.8536
30
0.0000
0
VERTEX
70
8
10
4.9925
20
-30.9153
30
0.0000
0
VERTEX
70
8
10
5.0734
20
-30.9018
30
0.0000
0
VERTEX
70
8
10
5.1543
20
-30.8883
30
0.0000
0
VERTEX
70
8
10
5.2353
20
-30.8747
30
0.0000
0
VERTEX
70
8
10
5.3162
20
-30.8612
30
0.0000
0
VERTEX
70
8
10
5.3423
20
-30.7871
30
0.0000
0
VERTEX
70
8
10
5.3684
20
-30.7129
30
0.0000
0
VERTEX
70
8
10
5.3945
20
-30.6388
30
0.0000
0
VERTEX
70
8
10
5.4206
20
-30.5646
30
0.0000
0
VERTEX
70
8
10
5.4442
20
-30.4927
30
0.0000
0
VERTEX
70
8
10
5.4679
20
-30.4208
30
0.0000
0
VERTEX
70
8
10
5.4915
20
-30.3489
30
0.0000
0
VERTEX
70
8
10
5.5152
20
-30.2769
30
0.0000
0
VERTEX
70
8
10
5.5579
20
-30.1376
30
0.0000
0
VERTEX
70
8
10
5.6005
20
-29.9984
30
0.0000
0
VERTEX
70
8
10
5.6387
20
-29.8638
30
0.0000
0
VERTEX
70
8
10
5.6658
20
-29.7737
30
0.0000
0
VERTEX
70
8
10
5.7003
20
-29.6759
30
0.0000
0
VERTEX
70
8
10
5.7659
20
-29.4963
30
0.0000
0
VERTEX
70
8
10
5.8057
20
-29.3890
30
0.0000
0
VERTEX
70
8
10
5.8057
20
-29.3890
30
0.0000
0
VERTEX
70
8
10
5.8057
20
-29.3890
30
0.0000
0
VERTEX
70
8
10
5.8057
20
-29.3890
30
0.0000
0
VERTEX
70
8
10
5.8619
20
-29.2179
30
0.0000
0
VERTEX
70
8
10
6.0659
20
-28.5626
30
0.0000
0
VERTEX
70
8
10
6.0924
20
-28.4677
30
0.0000
0
VERTEX
70
8
10
6.1109
20
-28.4057
30
0.0000
0
VERTEX
70
8
10
6.1287
20
-28.3380
30
0.0000
0
VERTEX
70
8
10
6.1471
20
-28.2636
30
0.0000
0
VERTEX
70
8
10
6.1471
20
-28.2636
30
0.0000
0
VERTEX
70
8
10
6.1510
20
-28.2845
30
0.0000
0
VERTEX
70
8
10
6.2404
20
-28.2645
30
0.0000
0
VERTEX
70
8
10
6.3297
20
-28.2445
30
0.0000
0
VERTEX
70
8
10
6.4191
20
-28.2245
30
0.0000
0
VERTEX
70
8
10
6.5084
20
-28.2044
30
0.0000
0
VERTEX
70
8
10
6.5515
20
-28.2433
30
0.0000
0
VERTEX
70
8
10
6.5515
20
-28.2433
30
0.0000
0
VERTEX
70
8
10
6.5515
20
-28.2433
30
0.0000
0
VERTEX
70
8
10
6.7686
20
-28.4941
30
0.0000
0
VERTEX
70
8
10
6.7686
20
-28.4941
30
0.0000
0
VERTEX
70
8
10
6.7686
20
-28.4941
30
0.0000
0
VERTEX
70
8
10
6.8072
20
-28.5390
30
0.0000
0
VERTEX
70
8
10
6.8440
20
-28.5783
30
0.0000
0
VERTEX
70
8
10
6.9255
20
-28.6670
30
0.0000
0
VERTEX
70
8
10
7.0688
20
-28.8233
30
0.0000
0
VERTEX
70
8
10
7.1946
20
-28.9522
30
0.0000
0
VERTEX
70
8
10
7.3148
20
-29.0789
30
0.0000
0
VERTEX
70
8
10
7.4518
20
-29.2123
30
0.0000
0
VERTEX
70
8
10
7.5098
20
-29.2704
30
0.0000
0
VERTEX
70
8
10
7.6458
20
-29.4140
30
0.0000
0
VERTEX
70
8
10
7.7377
20
-29.5194
30
0.0000
0
VERTEX
70
8
10
7.8357
20
-29.6271
30
0.0000
0
VERTEX
70
8
10
7.9338
20
-29.7349
30
0.0000
0
VERTEX
70
8
10
7.9858
20
-29.7899
30
0.0000
0
VERTEX
70
8
10
8.0379
20
-29.8448
30
0.0000
0
VERTEX
70
8
10
8.0900
20
-29.8998
30
0.0000
0
VERTEX
70
8
10
8.1421
20
-29.9547
30
0.0000
0
VERTEX
70
8
10
8.1974
20
-30.0106
30
0.0000
0
VERTEX
70
8
10
8.2526
20
-30.0666
30
0.0000
0
VERTEX
70
8
10
8.3078
20
-30.1225
30
0.0000
0
VERTEX
70
8
10
8.3631
20
-30.1784
30
0.0000
0
VERTEX
70
8
10
8.4421
20
-30.1561
30
0.0000
0
VERTEX
70
8
10
8.5210
20
-30.1338
30
0.0000
0
VERTEX
70
8
10
8.6000
20
-30.1114
30
0.0000
0
VERTEX
70
8
10
8.6789
20
-30.0891
30
0.0000
0
VERTEX
70
8
10
8.6967
20
-30.0125
30
0.0000
0
VERTEX
70
8
10
8.7145
20
-29.9360
30
0.0000
0
VERTEX
70
8
10
8.7323
20
-29.8594
30
0.0000
0
VERTEX
70
8
10
8.7500
20
-29.7828
30
0.0000
0
VERTEX
70
8
10
8.7656
20
-29.7087
30
0.0000
0
VERTEX
70
8
10
8.7812
20
-29.6346
30
0.0000
0
VERTEX
70
8
10
8.7968
20
-29.5605
30
0.0000
0
VERTEX
70
8
10
8.8124
20
-29.4864
30
0.0000
0
VERTEX
70
8
10
8.8395
20
-29.3433
30
0.0000
0
VERTEX
70
8
10
8.8666
20
-29.2002
30
0.0000
0
VERTEX
70
8
10
8.8897
20
-29.0622
30
0.0000
0
VERTEX
70
8
10
8.9068
20
-28.9697
30
0.0000
0
VERTEX
70
8
10
8.9303
20
-28.8687
30
0.0000
0
VERTEX
70
8
10
8.9757
20
-28.6830
30
0.0000
0
VERTEX
70
8
10
9.0035
20
-28.5719
30
0.0000
0
VERTEX
70
8
10
9.0035
20
-28.5719
30
0.0000
0
VERTEX
70
8
10
9.0035
20
-28.5719
30
0.0000
0
VERTEX
70
8
10
9.0035
20
-28.5719
30
0.0000
0
VERTEX
70
8
10
9.0406
20
-28.3957
30
0.0000
0
VERTEX
70
8
10
9.1712
20
-27.7219
30
0.0000
0
VERTEX
70
8
10
9.1871
20
-27.6247
30
0.0000
0
VERTEX
70
8
10
9.1987
20
-27.5611
30
0.0000
0
VERTEX
70
8
10
9.2089
20
-27.4918
30
0.0000
0
VERTEX
70
8
10
9.2190
20
-27.4158
30
0.0000
0
VERTEX
70
8
10
9.2190
20
-27.4158
30
0.0000
0
VERTEX
70
8
10
9.2252
20
-27.4362
30
0.0000
0
VERTEX
70
8
10
9.3118
20
-27.4065
30
0.0000
0
VERTEX
70
8
10
9.3984
20
-27.3767
30
0.0000
0
VERTEX
70
8
10
9.4850
20
-27.3470
30
0.0000
0
VERTEX
70
8
10
9.5717
20
-27.3173
30
0.0000
0
VERTEX
70
8
10
9.6187
20
-27.3511
30
0.0000
0
VERTEX
70
8
10
9.6187
20
-27.3511
30
0.0000
0
VERTEX
70
8
10
9.6187
20
-27.3511
30
0.0000
0
VERTEX
70
8
10
9.8621
20
-27.5765
30
0.0000
0
VERTEX
70
8
10
9.8621
20
-27.5765
30
0.0000
0
VERTEX
70
8
10
9.8621
20
-27.5765
30
0.0000
0
VERTEX
70
8
10
9.9054
20
-27.6169
30
0.0000
0
VERTEX
70
8
10
9.9463
20
-27.6520
30
0.0000
0
VERTEX
70
8
10
10.0371
20
-27.7311
30
0.0000
0
VERTEX
70
8
10
10.1967
20
-27.8707
30
0.0000
0
VERTEX
70
8
10
10.3359
20
-27.9850
30
0.0000
0
VERTEX
70
8
10
10.4693
20
-28.0977
30
0.0000
0
VERTEX
70
8
10
10.6202
20
-28.2152
30
0.0000
0
VERTEX
70
8
10
10.6843
20
-28.2666
30
0.0000
0
VERTEX
70
8
10
10.8351
20
-28.3944
30
0.0000
0
VERTEX
70
8
10
10.9381
20
-28.4890
30
0.0000
0
VERTEX
70
8
10
11.0474
20
-28.5853
30
0.0000
0
VERTEX
70
8
10
11.1567
20
-28.6817
30
0.0000
0
VERTEX
70
8
10
11.2145
20
-28.7305
30
0.0000
0
VERTEX
70
8
10
11.2723
20
-28.7794
30
0.0000
0
VERTEX
70
8
10
11.3301
20
-28.8283
30
0.0000
0
VERTEX
70
8
10
11.3880
20
-28.8772
30
0.0000
0
VERTEX
70
8
10
11.4490
20
-28.9267
30
0.0000
0
VERTEX
70
8
10
11.5101
20
-28.9762
30
0.0000
0
VERTEX
70
8
10
11.5711
20
-29.0257
30
0.0000
0
VERTEX
70
8
10
11.6322
20
-29.0752
30
0.0000
0
VERTEX
70
8
10
11.7082
20
-29.0444
30
0.0000
0
VERTEX
70
8
10
11.7843
20
-29.0135
30
0.0000
0
VERTEX
70
8
10
11.8603
20
-28.9826
30
0.0000
0
VERTEX
70
8
10
11.9363
20
-28.9517
30
0.0000
0
VERTEX
70
8
10
11.9456
20
-28.8737
30
0.0000
0
VERTEX
70
8
10
11.9548
20
-28.7956
30
0.0000
0
VERTEX
70
8
10
11.9640
20
-28.7176
30
0.0000
0
VERTEX
70
8
10
11.9733
20
-28.6395
30
0.0000
0
VERTEX
70
8
10
11.9806
20
-28.5641
30
0.0000
0
VERTEX
70
8
10
11.9880
20
-28.4888
30
0.0000
0
VERTEX
70
8
10
11.9954
20
-28.4134
30
0.0000
0
VERTEX
70
8
10
12.0027
20
-28.3380
30
0.0000
0
VERTEX
70
8
10
12.0139
20
-28.1928
30
0.0000
0
VERTEX
70
8
10
12.0250
20
-28.0476
30
0.0000
0
VERTEX
70
8
10
12.0329
20
-27.9079
30
0.0000
0
VERTEX
70
8
10
12.0396
20
-27.8141
30
0.0000
0
VERTEX
70
8
10
12.0519
20
-27.7111
30
0.0000
0
VERTEX
70
8
10
12.0766
20
-27.5215
30
0.0000
0
VERTEX
70
8
10
12.0920
20
-27.4081
30
0.0000
0
VERTEX
70
8
10
12.0920
20
-27.4081
30
0.0000
0
VERTEX
70
8
10
12.0920
20
-27.4081
30
0.0000
0
VERTEX
70
8
10
12.0920
20
-27.4081
30
0.0000
0
VERTEX
70
8
10
12.1095
20
-27.2288
30
0.0000
0
VERTEX
70
8
10
12.1652
20
-26.5448
30
0.0000
0
VERTEX
70
8
10
12.1703
20
-26.4463
30
0.0000
0
VERTEX
70
8
10
12.1748
20
-26.3819
30
0.0000
0
VERTEX
70
8
10
12.1773
20
-26.3119
30
0.0000
0
VERTEX
70
8
10
12.1791
20
-26.2353
30
0.0000
0
VERTEX
70
8
10
12.1791
20
-26.2353
30
0.0000
0
VERTEX
70
8
10
12.1874
20
-26.2548
30
0.0000
0
VERTEX
70
8
10
12.2703
20
-26.2157
30
0.0000
0
VERTEX
70
8
10
12.3531
20
-26.1767
30
0.0000
0
VERTEX
70
8
10
12.4359
20
-26.1376
30
0.0000
0
VERTEX
70
8
10
12.5187
20
-26.0985
30
0.0000
0
VERTEX
70
8
10
12.5692
20
-26.1270
30
0.0000
0
VERTEX
70
8
10
12.5692
20
-26.1270
30
0.0000
0
VERTEX
70
8
10
12.5692
20
-26.1270
30
0.0000
0
VERTEX
70
8
10
12.8359
20
-26.3242
30
0.0000
0
VERTEX
70
8
10
12.8359
20
-26.3242
30
0.0000
0
VERTEX
70
8
10
12.8359
20
-26.3242
30
0.0000
0
VERTEX
70
8
10
12.8834
20
-26.3597
30
0.0000
0
VERTEX
70
8
10
12.9279
20
-26.3900
30
0.0000
0
VERTEX
70
8
10
13.0268
20
-26.4587
30
0.0000
0
VERTEX
70
8
10
13.2008
20
-26.5798
30
0.0000
0
VERTEX
70
8
10
13.3517
20
-26.6781
30
0.0000
0
VERTEX
70
8
10
13.4967
20
-26.7755
30
0.0000
0
VERTEX
70
8
10
13.6596
20
-26.8757
30
0.0000
0
VERTEX
70
8
10
13.7290
20
-26.9197
30
0.0000
0
VERTEX
70
8
10
13.8930
20
-27.0301
30
0.0000
0
VERTEX
70
8
10
14.0058
20
-27.1128
30
0.0000
0
VERTEX
70
8
10
14.1250
20
-27.1965
30
0.0000
0
VERTEX
70
8
10
14.2442
20
-27.2802
30
0.0000
0
VERTEX
70
8
10
14.3070
20
-27.3225
30
0.0000
0
VERTEX
70
8
10
14.3699
20
-27.3647
30
0.0000
0
VERTEX
70
8
10
14.4327
20
-27.4069
30
0.0000
0
VERTEX
70
8
10
14.4956
20
-27.4492
30
0.0000
0
VERTEX
70
8
10
14.5617
20
-27.4917
30
0.0000
0
VERTEX
70
8
10
14.6279
20
-27.5342
30
0.0000
0
VERTEX
70
8
10
14.6940
20
-27.5766
30
0.0000
0
VERTEX
70
8
10
14.7601
20
-27.6191
30
0.0000
0
VERTEX
70
8
10
14.8323
20
-27.5801
30
0.0000
0
VERTEX
70
8
10
14.9045
20
-27.5410
30
0.0000
0
VERTEX
70
8
10
14.9766
20
-27.5020
30
0.0000
0
VERTEX
70
8
10
15.0488
20
-27.4629
30
0.0000
0
VERTEX
70
8
10
15.0494
20
-27.3843
30
0.0000
0
VERTEX
70
8
10
15.0500
20
-27.3057
30
0.0000
0
VERTEX
70
8
10
15.0506
20
-27.2271
30
0.0000
0
VERTEX
70
8
10
15.0512
20
-27.1485
30
0.0000
0
VERTEX
70
8
10
15.0502
20
-27.0728
30
0.0000
0
VERTEX
70
8
10
15.0492
20
-26.9971
30
0.0000
0
VERTEX
70
8
10
15.0483
20
-26.9214
30
0.0000
0
VERTEX
70
8
10
15.0473
20
-26.8457
30
0.0000
0
VERTEX
70
8
10
15.0424
20
-26.7001
30
0.0000
0
VERTEX
70
8
10
15.0375
20
-26.5545
30
0.0000
0
VERTEX
70
8
10
15.0299
20
-26.4148
30
0.0000
0
VERTEX
70
8
10
15.0263
20
-26.3208
30
0.0000
0
VERTEX
70
8
10
15.0272
20
-26.2171
30
0.0000
0
VERTEX
70
8
10
15.0309
20
-26.0259
30
0.0000
0
VERTEX
70
8
10
15.0337
20
-25.9115
30
0.0000
0
VERTEX
70
8
10
15.0337
20
-25.9115
30
0.0000
0
VERTEX
70
8
10
15.0337
20
-25.9115
30
0.0000
0
VERTEX
70
8
10
15.0337
20
-25.9115
30
0.0000
0
VERTEX
70
8
10
15.0313
20
-25.7314
30
0.0000
0
VERTEX
70
8
10
15.0115
20
-25.0454
30
0.0000
0
VERTEX
70
8
10
15.0058
20
-24.9470
30
0.0000
0
VERTEX
70
8
10
15.0032
20
-24.8824
30
0.0000
0
VERTEX
70
8
10
14.9979
20
-24.8126
30
0.0000
0
VERTEX
70
8
10
14.9912
20
-24.7363
30
0.0000
0
VERTEX
70
8
10
14.9912
20
-24.7363
30
0.0000
0
VERTEX
70
8
10
15.0017
20
-24.7548
30
0.0000
0
VERTEX
70
8
10
15.0797
20
-24.7068
30
0.0000
0
VERTEX
70
8
10
15.1577
20
-24.6589
30
0.0000
0
VERTEX
70
8
10
15.2357
20
-24.6109
30
0.0000
0
VERTEX
70
8
10
15.3138
20
-24.5630
30
0.0000
0
VERTEX
70
8
10
15.3671
20
-24.5857
30
0.0000
0
VERTEX
70
8
10
15.3671
20
-24.5857
30
0.0000
0
VERTEX
70
8
10
15.3671
20
-24.5857
30
0.0000
0
VERTEX
70
8
10
15.6539
20
-24.7524
30
0.0000
0
VERTEX
70
8
10
15.6539
20
-24.7524
30
0.0000
0
VERTEX
70
8
10
15.6539
20
-24.7524
30
0.0000
0
VERTEX
70
8
10
15.7049
20
-24.7824
30
0.0000
0
VERTEX
70
8
10
15.7525
20
-24.8076
30
0.0000
0
VERTEX
70
8
10
15.8584
20
-24.8650
30
0.0000
0
VERTEX
70
8
10
16.0447
20
-24.9663
30
0.0000
0
VERTEX
70
8
10
16.2055
20
-25.0474
30
0.0000
0
VERTEX
70
8
10
16.3604
20
-25.1282
30
0.0000
0
VERTEX
70
8
10
16.5333
20
-25.2099
30
0.0000
0
VERTEX
70
8
10
16.6070
20
-25.2460
30
0.0000
0
VERTEX
70
8
10
16.7822
20
-25.3377
30
0.0000
0
VERTEX
70
8
10
16.9034
20
-25.4075
30
0.0000
0
VERTEX
70
8
10
17.0311
20
-25.4776
30
0.0000
0
VERTEX
70
8
10
17.1588
20
-25.5477
30
0.0000
0
VERTEX
70
8
10
17.2259
20
-25.5828
30
0.0000
0
VERTEX
70
8
10
17.2930
20
-25.6178
30
0.0000
0
VERTEX
70
8
10
17.3601
20
-25.6529
30
0.0000
0
VERTEX
70
8
10
17.4272
20
-25.6879
30
0.0000
0
VERTEX
70
8
10
17.4976
20
-25.7229
30
0.0000
0
VERTEX
70
8
10
17.5681
20
-25.7579
30
0.0000
0
VERTEX
70
8
10
17.6385
20
-25.7928
30
0.0000
0
VERTEX
70
8
10
17.7089
20
-25.8278
30
0.0000
0
VERTEX
70
8
10
17.7763
20
-25.7810
30
0.0000
0
VERTEX
70
8
10
17.8437
20
-25.7343
30
0.0000
0
VERTEX
70
8
10
17.9112
20
-25.6875
30
0.0000
0
VERTEX
70
8
10
17.9786
20
-25.6408
30
0.0000
0
VERTEX
70
8
10
17.9706
20
-25.5626
30
0.0000
0
VERTEX
70
8
10
17.9625
20
-25.4844
30
0.0000
0
VERTEX
70
8
10
17.9545
20
-25.4062
30
0.0000
0
VERTEX
70
8
10
17.9464
20
-25.3280
30
0.0000
0
VERTEX
70
8
10
17.9371
20
-25.2528
30
0.0000
0
VERTEX
70
8
10
17.9278
20
-25.1777
30
0.0000
0
VERTEX
70
8
10
17.9185
20
-25.1025
30
0.0000
0
VERTEX
70
8
10
17.9092
20
-25.0274
30
0.0000
0
VERTEX
70
8
10
17.8883
20
-24.8832
30
0.0000
0
VERTEX
70
8
10
17.8674
20
-24.7391
30
0.0000
0
VERTEX
70
8
10
17.8446
20
-24.6011
30
0.0000
0
VERTEX
70
8
10
17.8306
20
-24.5080
30
0.0000
0
VERTEX
70
8
10
17.8201
20
-24.4049
30
0.0000
0
VERTEX
70
8
10
17.8027
20
-24.2144
30
0.0000
0
VERTEX
70
8
10
17.7930
20
-24.1004
30
0.0000
0
VERTEX
70
8
10
17.7930
20
-24.1004
30
0.0000
0
VERTEX
70
8
10
17.7930
20
-24.1004
30
0.0000
0
VERTEX
70
8
10
17.7930
20
-24.1004
30
0.0000
0
VERTEX
70
8
10
17.7708
20
-23.9217
30
0.0000
0
VERTEX
70
8
10
17.6756
20
-23.2420
30
0.0000
0
VERTEX
70
8
10
17.6591
20
-23.1448
30
0.0000
0
VERTEX
70
8
10
17.6494
20
-23.0809
30
0.0000
0
VERTEX
70
8
10
17.6365
20
-23.0121
30
0.0000
0
VERTEX
70
8
10
17.6214
20
-22.9370
30
0.0000
0
VERTEX
70
8
10
17.6214
20
-22.9370
30
0.0000
0
VERTEX
70
8
10
17.6339
20
-22.9542
30
0.0000
0
VERTEX
70
8
10
17.7062
20
-22.8980
30
0.0000
0
VERTEX
70
8
10
17.7784
20
-22.8417
30
0.0000
0
VERTEX
70
8
10
17.8507
20
-22.7855
30
0.0000
0
VERTEX
70
8
10
17.9229
20
-22.7292
30
0.0000
0
VERTEX
70
8
10
17.9785
20
-22.7460
30
0.0000
0
VERTEX
70
8
10
17.9785
20
-22.7460
30
0.0000
0
VERTEX
70
8
10
17.9785
20
-22.7460
30
0.0000
0
VERTEX
70
8
10
18.2818
20
-22.8801
30
0.0000
0
VERTEX
70
8
10
18.2818
20
-22.8801
30
0.0000
0
VERTEX
70
8
10
18.2818
20
-22.8801
30
0.0000
0
VERTEX
70
8
10
18.3359
20
-22.9043
30
0.0000
0
VERTEX
70
8
10
18.3860
20
-22.9241
30
0.0000
0
VERTEX
70
8
10
18.4975
20
-22.9695
30
0.0000
0
VERTEX
70
8
10
18.6938
20
-23.0497
30
0.0000
0
VERTEX
70
8
10
18.8626
20
-23.1126
30
0.0000
0
VERTEX
70
8
10
19.0254
20
-23.1759
30
0.0000
0
VERTEX
70
8
10
19.2062
20
-23.2381
30
0.0000
0
VERTEX
70
8
10
19.2835
20
-23.2659
30
0.0000
0
VERTEX
70
8
10
19.4677
20
-23.3377
30
0.0000
0
VERTEX
70
8
10
19.5958
20
-23.3938
30
0.0000
0
VERTEX
70
8
10
19.7305
20
-23.4494
30
0.0000
0
VERTEX
70
8
10
19.8651
20
-23.5050
30
0.0000
0
VERTEX
70
8
10
19.9357
20
-23.5325
30
0.0000
0
VERTEX
70
8
10
20.0062
20
-23.5600
30
0.0000
0
VERTEX
70
8
10
20.0768
20
-23.5874
30
0.0000
0
VERTEX
70
8
10
20.1474
20
-23.6149
30
0.0000
0
VERTEX
70
8
10
20.2212
20
-23.6419
30
0.0000
0
VERTEX
70
8
10
20.2950
20
-23.6689
30
0.0000
0
VERTEX
70
8
10
20.3688
20
-23.6959
30
0.0000
0
VERTEX
70
8
10
20.4427
20
-23.7229
30
0.0000
0
VERTEX
70
8
10
20.5045
20
-23.6690
30
0.0000
0
VERTEX
70
8
10
20.5664
20
-23.6151
30
0.0000
0
VERTEX
70
8
10
20.6283
20
-23.5612
30
0.0000
0
VERTEX
70
8
10
20.6902
20
-23.5073
30
0.0000
0
VERTEX
70
8
10
20.6736
20
-23.4305
30
0.0000
0
VERTEX
70
8
10
20.6570
20
-23.3537
30
0.0000
0
VERTEX
70
8
10
20.6404
20
-23.2768
30
0.0000
0
VERTEX
70
8
10
20.6238
20
-23.2000
30
0.0000
0
VERTEX
70
8
10
20.6063
20
-23.1263
30
0.0000
0
VERTEX
70
8
10
20.5887
20
-23.0527
30
0.0000
0
VERTEX
70
8
10
20.5712
20
-22.9790
30
0.0000
0
VERTEX
70
8
10
20.5537
20
-22.9053
30
0.0000
0
VERTEX
70
8
10
20.5171
20
-22.7643
30
0.0000
0
VERTEX
70
8
10
20.4805
20
-22.6234
30
0.0000
0
VERTEX
70
8
10
20.4426
20
-22.4887
30
0.0000
0
VERTEX
70
8
10
20.4185
20
-22.3978
30
0.0000
0
VERTEX
70
8
10
20.3967
20
-22.2964
30
0.0000
0
VERTEX
70
8
10
20.3585
20
-22.1090
30
0.0000
0
VERTEX
70
8
10
20.3362
20
-21.9968
30
0.0000
0
VERTEX
70
8
10
20.3362
20
-21.9968
30
0.0000
0
VERTEX
70
8
10
20.3362
20
-21.9968
30
0.0000
0
VERTEX
70
8
10
20.3362
20
-21.9968
30
0.0000
0
VERTEX
70
8
10
20.2945
20
-21.8216
30
0.0000
0
VERTEX
70
8
10
20.1251
20
-21.1565
30
0.0000
0
VERTEX
70
8
10
20.0980
20
-21.0617
30
0.0000
0
VERTEX
70
8
10
20.0813
20
-20.9993
30
0.0000
0
VERTEX
70
8
10
20.0610
20
-20.9323
30
0.0000
0
VERTEX
70
8
10
20.0377
20
-20.8593
30
0.0000
0
VERTEX
70
8
10
20.0377
20
-20.8593
30
0.0000
0
VERTEX
70
8
10
20.0520
20
-20.8750
30
0.0000
0
VERTEX
70
8
10
20.1177
20
-20.8112
30
0.0000
0
VERTEX
70
8
10
20.1833
20
-20.7473
30
0.0000
0
VERTEX
70
8
10
20.2489
20
-20.6835
30
0.0000
0
VERTEX
70
8
10
20.3146
20
-20.6196
30
0.0000
0
VERTEX
70
8
10
20.3716
20
-20.6301
30
0.0000
0
VERTEX
70
8
10
20.3716
20
-20.6301
30
0.0000
0
VERTEX
70
8
10
20.3716
20
-20.6301
30
0.0000
0
VERTEX
70
8
10
20.6879
20
-20.7301
30
0.0000
0
VERTEX
70
8
10
20.6879
20
-20.7301
30
0.0000
0
VERTEX
70
8
10
20.6879
20
-20.7301
30
0.0000
0
VERTEX
70
8
10
20.7443
20
-20.7482
30
0.0000
0
VERTEX
70
8
10
20.7962
20
-20.7624
30
0.0000
0
VERTEX
70
8
10
20.9121
20
-20.7952
30
0.0000
0
VERTEX
70
8
10
21.1160
20
-20.8534
30
0.0000
0
VERTEX
70
8
10
21.2907
20
-20.8973
30
0.0000
0
VERTEX
70
8
10
21.4594
20
-20.9423
30
0.0000
0
VERTEX
70
8
10
21.6460
20
-20.9842
30
0.0000
0
VERTEX
70
8
10
21.7259
20
-21.0033
30
0.0000
0
VERTEX
70
8
10
21.9169
20
-21.0545
30
0.0000
0
VERTEX
70
8
10
22.0504
20
-21.0961
30
0.0000
0
VERTEX
70
8
10
22.1904
20
-21.1366
30
0.0000
0
VERTEX
70
8
10
22.3303
20
-21.1771
30
0.0000
0
VERTEX
70
8
10
22.4034
20
-21.1966
30
0.0000
0
VERTEX
70
8
10
22.4766
20
-21.2161
30
0.0000
0
VERTEX
70
8
10
22.5497
20
-21.2357
30
0.0000
0
VERTEX
70
8
10
22.6229
20
-21.2552
30
0.0000
0
VERTEX
70
8
10
22.6993
20
-21.2739
30
0.0000
0
VERTEX
70
8
10
22.7756
20
-21.2926
30
0.0000
0
VERTEX
70
8
10
22.8519
20
-21.3113
30
0.0000
0
VERTEX
70
8
10
22.9283
20
-21.3301
30
0.0000
0
VERTEX
70
8
10
22.9839
20
-21.2697
30
0.0000
0
VERTEX
70
8
10
23.0395
20
-21.2093
30
0.0000
0
VERTEX
70
8
10
23.0950
20
-21.1489
30
0.0000
0
VERTEX
70
8
10
23.1506
20
-21.0886
30
0.0000
0
VERTEX
70
8
10
23.1257
20
-21.0140
30
0.0000
0
VERTEX
70
8
10
23.1007
20
-20.9395
30
0.0000
0
VERTEX
70
8
10
23.0757
20
-20.8650
30
0.0000
0
VERTEX
70
8
10
23.0508
20
-20.7904
30
0.0000
0
VERTEX
70
8
10
23.0253
20
-20.7191
30
0.0000
0
VERTEX
70
8
10
22.9998
20
-20.6478
30
0.0000
0
VERTEX
70
8
10
22.9743
20
-20.5765
30
0.0000
0
VERTEX
70
8
10
22.9487
20
-20.5052
30
0.0000
0
VERTEX
70
8
10
22.8969
20
-20.3691
30
0.0000
0
VERTEX
70
8
10
22.8450
20
-20.2330
30
0.0000
0
VERTEX
70
8
10
22.7924
20
-20.1034
30
0.0000
0
VERTEX
70
8
10
22.7585
20
-20.0156
30
0.0000
0
VERTEX
70
8
10
22.7257
20
-19.9173
30
0.0000
0
VERTEX
70
8
10
22.6671
20
-19.7352
30
0.0000
0
VERTEX
70
8
10
22.6326
20
-19.6261
30
0.0000
0
VERTEX
70
8
10
22.6326
20
-19.6261
30
0.0000
0
VERTEX
70
8
10
22.6326
20
-19.6261
30
0.0000
0
VERTEX
70
8
10
22.6326
20
-19.6261
30
0.0000
0
VERTEX
70
8
10
22.5719
20
-19.4565
30
0.0000
0
VERTEX
70
8
10
22.3303
20
-18.8141
30
0.0000
0
VERTEX
70
8
10
22.2930
20
-18.7229
30
0.0000
0
VERTEX
70
8
10
22.2695
20
-18.6627
30
0.0000
0
VERTEX
70
8
10
22.2420
20
-18.5984
30
0.0000
0
VERTEX
70
8
10
22.2108
20
-18.5283
30
0.0000
0
VERTEX
70
8
10
22.2108
20
-18.5283
30
0.0000
0
VERTEX
70
8
10
22.2267
20
-18.5424
30
0.0000
0
VERTEX
70
8
10
22.2850
20
-18.4717
30
0.0000
0
VERTEX
70
8
10
22.3432
20
-18.4011
30
0.0000
0
VERTEX
70
8
10
22.4014
20
-18.3304
30
0.0000
0
VERTEX
70
8
10
22.4596
20
-18.2597
30
0.0000
0
VERTEX
70
8
10
22.5174
20
-18.2639
30
0.0000
0
VERTEX
70
8
10
22.5174
20
-18.2639
30
0.0000
0
VERTEX
70
8
10
22.5174
20
-18.2639
30
0.0000
0
VERTEX
70
8
10
22.8428
20
-18.3285
30
0.0000
0
VERTEX
70
8
10
22.8428
20
-18.3285
30
0.0000
0
VERTEX
70
8
10
22.8428
20
-18.3285
30
0.0000
0
VERTEX
70
8
10
22.9008
20
-18.3402
30
0.0000
0
VERTEX
70
8
10
22.9540
20
-18.3486
30
0.0000
0
VERTEX
70
8
10
23.0728
20
-18.3685
30
0.0000
0
VERTEX
70
8
10
23.2819
20
-18.4039
30
0.0000
0
VERTEX
70
8
10
23.4603
20
-18.4283
30
0.0000
0
VERTEX
70
8
10
23.6330
20
-18.4545
30
0.0000
0
VERTEX
70
8
10
23.8231
20
-18.4756
30
0.0000
0
VERTEX
70
8
10
23.9046
20
-18.4858
30
0.0000
0
VERTEX
70
8
10
24.1000
20
-18.5156
30
0.0000
0
VERTEX
70
8
10
24.2373
20
-18.5423
30
0.0000
0
VERTEX
70
8
10
24.3809
20
-18.5672
30
0.0000
0
VERTEX
70
8
10
24.5244
20
-18.5920
30
0.0000
0
VERTEX
70
8
10
24.5993
20
-18.6034
30
0.0000
0
VERTEX
70
8
10
24.6741
20
-18.6147
30
0.0000
0
VERTEX
70
8
10
24.7490
20
-18.6261
30
0.0000
0
VERTEX
70
8
10
24.8238
20
-18.6375
30
0.0000
0
VERTEX
70
8
10
24.9018
20
-18.6477
30
0.0000
0
VERTEX
70
8
10
24.9797
20
-18.6579
30
0.0000
0
VERTEX
70
8
10
25.0577
20
-18.6681
30
0.0000
0
VERTEX
70
8
10
25.1356
20
-18.6783
30
0.0000
0
VERTEX
70
8
10
25.1842
20
-18.6122
30
0.0000
0
VERTEX
70
8
10
25.2328
20
-18.5461
30
0.0000
0
VERTEX
70
8
10
25.2814
20
-18.4799
30
0.0000
0
VERTEX
70
8
10
25.3300
20
-18.4138
30
0.0000
0
VERTEX
70
8
10
25.2970
20
-18.3425
30
0.0000
0
VERTEX
70
8
10
25.2640
20
-18.2711
30
0.0000
0
VERTEX
70
8
10
25.2310
20
-18.1998
30
0.0000
0
VERTEX
70
8
10
25.1980
20
-18.1285
30
0.0000
0
VERTEX
70
8
10
25.1648
20
-18.0604
30
0.0000
0
VERTEX
70
8
10
25.1316
20
-17.9923
30
0.0000
0
VERTEX
70
8
10
25.0984
20
-17.9243
30
0.0000
0
VERTEX
70
8
10
25.0652
20
-17.8562
30
0.0000
0
VERTEX
70
8
10
24.9987
20
-17.7267
30
0.0000
0
VERTEX
70
8
10
24.9321
20
-17.5971
30
0.0000
0
VERTEX
70
8
10
24.8656
20
-17.4740
30
0.0000
0
VERTEX
70
8
10
24.8223
20
-17.3905
30
0.0000
0
VERTEX
70
8
10
24.7788
20
-17.2964
30
0.0000
0
VERTEX
70
8
10
24.7006
20
-17.1219
30
0.0000
0
VERTEX
70
8
10
24.6543
20
-17.0172
30
0.0000
0
VERTEX
70
8
10
24.6543
20
-17.0172
30
0.0000
0
VERTEX
70
8
10
24.6543
20
-17.0172
30
0.0000
0
VERTEX
70
8
10
24.6543
20
-17.0172
30
0.0000
0
VERTEX
70
8
10
24.5753
20
-16.8554
30
0.0000
0
VERTEX
70
8
10
24.2645
20
-16.2434
30
0.0000
0
VERTEX
70
8
10
24.2174
20
-16.1569
30
0.0000
0
VERTEX
70
8
10
24.1874
20
-16.0996
30
0.0000
0
VERTEX
70
8
10
24.1529
20
-16.0387
30
0.0000
0
VERTEX
70
8
10
24.1143
20
-15.9725
30
0.0000
0
VERTEX
70
8
10
24.1143
20
-15.9725
30
0.0000
0
VERTEX
70
8
10
24.1317
20
-15.9848
30
0.0000
0
VERTEX
70
8
10
24.1817
20
-15.9081
30
0.0000
0
VERTEX
70
8
10
24.2318
20
-15.8314
30
0.0000
0
VERTEX
70
8
10
24.2819
20
-15.7548
30
0.0000
0
VERTEX
70
8
10
24.3320
20
-15.6781
30
0.0000
0
VERTEX
70
8
10
24.3899
20
-15.6759
30
0.0000
0
VERTEX
70
8
10
24.3899
20
-15.6759
30
0.0000
0
VERTEX
70
8
10
24.3899
20
-15.6759
30
0.0000
0
VERTEX
70
8
10
24.7204
20
-15.7043
30
0.0000
0
VERTEX
70
8
10
24.7204
20
-15.7043
30
0.0000
0
VERTEX
70
8
10
24.7204
20
-15.7043
30
0.0000
0
VERTEX
70
8
10
24.7794
20
-15.7096
30
0.0000
0
VERTEX
70
8
10
24.8332
20
-15.7121
30
0.0000
0
VERTEX
70
8
10
24.9535
20
-15.7188
30
0.0000
0
VERTEX
70
8
10
25.1652
20
-15.7310
30
0.0000
0
VERTEX
70
8
10
25.3452
20
-15.7356
30
0.0000
0
VERTEX
70
8
10
25.5197
20
-15.7427
30
0.0000
0
VERTEX
70
8
10
25.7110
20
-15.7427
30
0.0000
0
VERTEX
70
8
10
25.7931
20
-15.7439
30
0.0000
0
VERTEX
70
8
10
25.9906
20
-15.7521
30
0.0000
0
VERTEX
70
8
10
26.1300
20
-15.7635
30
0.0000
0
VERTEX
70
8
10
26.2754
20
-15.7724
30
0.0000
0
VERTEX
70
8
10
26.4208
20
-15.7813
30
0.0000
0
VERTEX
70
8
10
26.4965
20
-15.7843
30
0.0000
0
VERTEX
70
8
10
26.5721
20
-15.7874
30
0.0000
0
VERTEX
70
8
10
26.6478
20
-15.7905
30
0.0000
0
VERTEX
70
8
10
26.7235
20
-15.7935
30
0.0000
0
VERTEX
70
8
10
26.8021
20
-15.7951
30
0.0000
0
VERTEX
70
8
10
26.8806
20
-15.7967
30
0.0000
0
VERTEX
70
8
10
26.9592
20
-15.7982
30
0.0000
0
VERTEX
70
8
10
27.0378
20
-15.7998
30
0.0000
0
VERTEX
70
8
10
27.0789
20
-15.7287
30
0.0000
0
VERTEX
70
8
10
27.1199
20
-15.6577
30
0.0000
0
VERTEX
70
8
10
27.1609
20
-15.5866
30
0.0000
0
VERTEX
70
8
10
27.2020
20
-15.5156
30
0.0000
0
VERTEX
70
8
10
27.1613
20
-15.4483
30
0.0000
0
VERTEX
70
8
10
27.1207
20
-15.3810
30
0.0000
0
VERTEX
70
8
10
27.0800
20
-15.3137
30
0.0000
0
VERTEX
70
8
10
27.0393
20
-15.2464
30
0.0000
0
VERTEX
70
8
10
26.9989
20
-15.1824
30
0.0000
0
VERTEX
70
8
10
26.9584
20
-15.1185
30
0.0000
0
VERTEX
70
8
10
26.9179
20
-15.0545
30
0.0000
0
VERTEX
70
8
10
26.8774
20
-14.9905
30
0.0000
0
VERTEX
70
8
10
26.7970
20
-14.8690
30
0.0000
0
VERTEX
70
8
10
26.7166
20
-14.7475
30
0.0000
0
VERTEX
70
8
10
26.6370
20
-14.6325
30
0.0000
0
VERTEX
70
8
10
26.5847
20
-14.5543
30
0.0000
0
VERTEX
70
8
10
26.5312
20
-14.4655
30
0.0000
0
VERTEX
70
8
10
26.4342
20
-14.3007
30
0.0000
0
VERTEX
70
8
10
26.3767
20
-14.2018
30
0.0000
0
VERTEX
70
8
10
26.3767
20
-14.2018
30
0.0000
0
VERTEX
70
8
10
26.3767
20
-14.2018
30
0.0000
0
VERTEX
70
8
10
26.3767
20
-14.2018
30
0.0000
0
VERTEX
70
8
10
26.2803
20
-14.0496
30
0.0000
0
VERTEX
70
8
10
25.9042
20
-13.4755
30
0.0000
0
VERTEX
70
8
10
25.8478
20
-13.3947
30
0.0000
0
VERTEX
70
8
10
25.8117
20
-13.3411
30
0.0000
0
VERTEX
70
8
10
25.7707
20
-13.2843
30
0.0000
0
VERTEX
70
8
10
25.7250
20
-13.2228
30
0.0000
0
VERTEX
70
8
10
25.7250
20
-13.2228
30
0.0000
0
VERTEX
70
8
10
25.7437
20
-13.2331
30
0.0000
0
VERTEX
70
8
10
25.7850
20
-13.1514
30
0.0000
0
VERTEX
70
8
10
25.8263
20
-13.0697
30
0.0000
0
VERTEX
70
8
10
25.8677
20
-12.9880
30
0.0000
0
VERTEX
70
8
10
25.9090
20
-12.9063
30
0.0000
0
VERTEX
70
8
10
25.9664
20
-12.8977
30
0.0000
0
VERTEX
70
8
10
25.9664
20
-12.8977
30
0.0000
0
VERTEX
70
8
10
25.9664
20
-12.8977
30
0.0000
0
VERTEX
70
8
10
26.2980
20
-12.8896
30
0.0000
0
VERTEX
70
8
10
26.2980
20
-12.8896
30
0.0000
0
VERTEX
70
8
10
26.2980
20
-12.8896
30
0.0000
0
VERTEX
70
8
10
26.3572
20
-12.8884
30
0.0000
0
VERTEX
70
8
10
26.4110
20
-12.8849
30
0.0000
0
VERTEX
70
8
10
26.5312
20
-12.8784
30
0.0000
0
VERTEX
70
8
10
26.7430
20
-12.8671
30
0.0000
0
VERTEX
70
8
10
26.9224
20
-12.8519
30
0.0000
0
VERTEX
70
8
10
27.0967
20
-12.8397
30
0.0000
0
VERTEX
70
8
10
27.2868
20
-12.8187
30
0.0000
0
VERTEX
70
8
10
27.3685
20
-12.8109
30
0.0000
0
VERTEX
70
8
10
27.5657
20
-12.7973
30
0.0000
0
VERTEX
70
8
10
27.7056
20
-12.7933
30
0.0000
0
VERTEX
70
8
10
27.8511
20
-12.7861
30
0.0000
0
VERTEX
70
8
10
27.9965
20
-12.7790
30
0.0000
0
VERTEX
70
8
10
28.0721
20
-12.7737
30
0.0000
0
VERTEX
70
8
10
28.1476
20
-12.7684
30
0.0000
0
VERTEX
70
8
10
28.2232
20
-12.7632
30
0.0000
0
VERTEX
70
8
10
28.2987
20
-12.7579
30
0.0000
0
VERTEX
70
8
10
28.3770
20
-12.7508
30
0.0000
0
VERTEX
70
8
10
28.4553
20
-12.7437
30
0.0000
0
VERTEX
70
8
10
28.5335
20
-12.7366
30
0.0000
0
VERTEX
70
8
10
28.6118
20
-12.7295
30
0.0000
0
VERTEX
70
8
10
28.6448
20
-12.6544
30
0.0000
0
VERTEX
70
8
10
28.6778
20
-12.5792
30
0.0000
0
VERTEX
70
8
10
28.7107
20
-12.5041
30
0.0000
0
VERTEX
70
8
10
28.7437
20
-12.4289
30
0.0000
0
VERTEX
70
8
10
28.6959
20
-12.3665
30
0.0000
0
VERTEX
70
8
10
28.6481
20
-12.3041
30
0.0000
0
VERTEX
70
8
10
28.6003
20
-12.2417
30
0.0000
0
VERTEX
70
8
10
28.5525
20
-12.1793
30
0.0000
0
VERTEX
70
8
10
28.5052
20
-12.1202
30
0.0000
0
VERTEX
70
8
10
28.4579
20
-12.0611
30
0.0000
0
VERTEX
70
8
10
28.4106
20
-12.0019
30
0.0000
0
VERTEX
70
8
10
28.3634
20
-11.9428
30
0.0000
0
VERTEX
70
8
10
28.2701
20
-11.8309
30
0.0000
0
VERTEX
70
8
10
28.1768
20
-11.7190
30
0.0000
0
VERTEX
70
8
10
28.0850
20
-11.6134
30
0.0000
0
VERTEX
70
8
10
28.0245
20
-11.5415
30
0.0000
0
VERTEX
70
8
10
27.9615
20
-11.4591
30
0.0000
0
VERTEX
70
8
10
27.8469
20
-11.3059
30
0.0000
0
VERTEX
70
8
10
27.7789
20
-11.2139
30
0.0000
0
VERTEX
70
8
10
27.7789
20
-11.2139
30
0.0000
0
VERTEX
70
8
10
27.7789
20
-11.2139
30
0.0000
0
VERTEX
70
8
10
27.7789
20
-11.2139
30
0.0000
0
VERTEX
70
8
10
27.6664
20
-11.0733
30
0.0000
0
VERTEX
70
8
10
27.2294
20
-10.5441
30
0.0000
0
VERTEX
70
8
10
27.1644
20
-10.4699
30
0.0000
0
VERTEX
70
8
10
27.1227
20
-10.4206
30
0.0000
0
VERTEX
70
8
10
27.0757
20
-10.3687
30
0.0000
0
VERTEX
70
8
10
27.0235
20
-10.3126
30
0.0000
0
VERTEX
70
8
10
27.0235
20
-10.3126
30
0.0000
0
VERTEX
70
8
10
27.0432
20
-10.3207
30
0.0000
0
VERTEX
70
8
10
27.0753
20
-10.2350
30
0.0000
0
VERTEX
70
8
10
27.1074
20
-10.1492
30
0.0000
0
VERTEX
70
8
10
27.1395
20
-10.0635
30
0.0000
0
VERTEX
70
8
10
27.1716
20
-9.9777
30
0.0000
0
VERTEX
70
8
10
27.2276
20
-9.9629
30
0.0000
0
VERTEX
70
8
10
27.2276
20
-9.9629
30
0.0000
0
VERTEX
70
8
10
27.2276
20
-9.9629
30
0.0000
0
VERTEX
70
8
10
27.5563
20
-9.9183
30
0.0000
0
VERTEX
70
8
10
27.5563
20
-9.9183
30
0.0000
0
VERTEX
70
8
10
27.5563
20
-9.9183
30
0.0000
0
VERTEX
70
8
10
27.6151
20
-9.9106
30
0.0000
0
VERTEX
70
8
10
27.6681
20
-9.9013
30
0.0000
0
VERTEX
70
8
10
27.7869
20
-9.8815
30
0.0000
0
VERTEX
70
8
10
27.9961
20
-9.8471
30
0.0000
0
VERTEX
70
8
10
28.1728
20
-9.8123
30
0.0000
0
VERTEX
70
8
10
28.3447
20
-9.7810
30
0.0000
0
VERTEX
70
8
10
28.5313
20
-9.7392
30
0.0000
0
VERTEX
70
8
10
28.6117
20
-9.7224
30
0.0000
0
VERTEX
70
8
10
28.8062
20
-9.6872
30
0.0000
0
VERTEX
70
8
10
28.9448
20
-9.6678
30
0.0000
0
VERTEX
70
8
10
29.0886
20
-9.6447
30
0.0000
0
VERTEX
70
8
10
29.2324
20
-9.6216
30
0.0000
0
VERTEX
70
8
10
29.3069
20
-9.6080
30
0.0000
0
VERTEX
70
8
10
29.3814
20
-9.5945
30
0.0000
0
VERTEX
70
8
10
29.4559
20
-9.5809
30
0.0000
0
VERTEX
70
8
10
29.5304
20
-9.5674
30
0.0000
0
VERTEX
70
8
10
29.6074
20
-9.5517
30
0.0000
0
VERTEX
70
8
10
29.6845
20
-9.5360
30
0.0000
0
VERTEX
70
8
10
29.7615
20
-9.5204
30
0.0000
0
VERTEX
70
8
10
29.8385
20
-9.5047
30
0.0000
0
VERTEX
70
8
10
29.8630
20
-9.4264
30
0.0000
0
VERTEX
70
8
10
29.8875
20
-9.3481
30
0.0000
0
VERTEX
70
8
10
29.9120
20
-9.2698
30
0.0000
0
VERTEX
70
8
10
29.9365
20
-9.1915
30
0.0000
0
VERTEX
70
8
10
29.8821
20
-9.1347
30
0.0000
0
VERTEX
70
8
10
29.8278
20
-9.0779
30
0.0000
0
VERTEX
70
8
10
29.7734
20
-9.0212
30
0.0000
0
VERTEX
70
8
10
29.7190
20
-8.9644
30
0.0000
0
VERTEX
70
8
10
29.6655
20
-8.9108
30
0.0000
0
VERTEX
70
8
10
29.6120
20
-8.8572
30
0.0000
0
VERTEX
70
8
10
29.5585
20
-8.8037
30
0.0000
0
VERTEX
70
8
10
29.5050
20
-8.7501
30
0.0000
0
VERTEX
70
8
10
29.4000
20
-8.6491
30
0.0000
0
VERTEX
70
8
10
29.2950
20
-8.5482
30
0.0000
0
VERTEX
70
8
10
29.1921
20
-8.4533
30
0.0000
0
VERTEX
70
8
10
29.1240
20
-8.3885
30
0.0000
0
VERTEX
70
8
10
29.0524
20
-8.3135
30
0.0000
0
VERTEX
70
8
10
28.9217
20
-8.1739
30
0.0000
0
VERTEX
70
8
10
28.8439
20
-8.0899
30
0.0000
0
VERTEX
70
8
10
28.8439
20
-8.0899
30
0.0000
0
VERTEX
70
8
10
28.8439
20
-8.0899
30
0.0000
0
VERTEX
70
8
10
28.8439
20
-8.0899
30
0.0000
0
VERTEX
70
8
10
28.7166
20
-7.9625
30
0.0000
0
VERTEX
70
8
10
28.2240
20
-7.4846
30
0.0000
0
VERTEX
70
8
10
28.1513
20
-7.4181
30
0.0000
0
VERTEX
70
8
10
28.1044
20
-7.3736
30
0.0000
0
VERTEX
70
8
10
28.0520
20
-7.3272
30
0.0000
0
VERTEX
70
8
10
27.9940
20
-7.2772
30
0.0000
0
VERTEX
70
8
10
27.9940
20
-7.2772
30
0.0000
0
VERTEX
70
8
10
28.0144
20
-7.2831
30
0.0000
0
VERTEX
70
8
10
28.0369
20
-7.1944
30
0.0000
0
VERTEX
70
8
10
28.0593
20
-7.1056
30
0.0000
0
VERTEX
70
8
10
28.0818
20
-7.0168
30
0.0000
0
VERTEX
70
8
10
28.1043
20
-6.9281
30
0.0000
0
VERTEX
70
8
10
28.1584
20
-6.9072
30
0.0000
0
VERTEX
70
8
10
28.1584
20
-6.9072
30
0.0000
0
VERTEX
70
8
10
28.1584
20
-6.9072
30
0.0000
0
VERTEX
70
8
10
28.4802
20
-6.8267
30
0.0000
0
VERTEX
70
8
10
28.4802
20
-6.8267
30
0.0000
0
VERTEX
70
8
10
28.4802
20
-6.8267
30
0.0000
0
VERTEX
70
8
10
28.5377
20
-6.8126
30
0.0000
0
VERTEX
70
8
10
28.5894
20
-6.7975
30
0.0000
0
VERTEX
70
8
10
28.7053
20
-6.7648
30
0.0000
0
VERTEX
70
8
10
28.9095
20
-6.7075
30
0.0000
0
VERTEX
70
8
10
29.0813
20
-6.6535
30
0.0000
0
VERTEX
70
8
10
29.2486
20
-6.6034
30
0.0000
0
VERTEX
70
8
10
29.4295
20
-6.5414
30
0.0000
0
VERTEX
70
8
10
29.5076
20
-6.5159
30
0.0000
0
VERTEX
70
8
10
29.6971
20
-6.4594
30
0.0000
0
VERTEX
70
8
10
29.8326
20
-6.4250
30
0.0000
0
VERTEX
70
8
10
29.9730
20
-6.3862
30
0.0000
0
VERTEX
70
8
10
30.1134
20
-6.3474
30
0.0000
0
VERTEX
70
8
10
30.1860
20
-6.3257
30
0.0000
0
VERTEX
70
8
10
30.2586
20
-6.3040
30
0.0000
0
VERTEX
70
8
10
30.3311
20
-6.2824
30
0.0000
0
VERTEX
70
8
10
30.4037
20
-6.2607
30
0.0000
0
VERTEX
70
8
10
30.4785
20
-6.2367
30
0.0000
0
VERTEX
70
8
10
30.5533
20
-6.2126
30
0.0000
0
VERTEX
70
8
10
30.6282
20
-6.1886
30
0.0000
0
VERTEX
70
8
10
30.7030
20
-6.1646
30
0.0000
0
VERTEX
70
8
10
30.7188
20
-6.0840
30
0.0000
0
VERTEX
70
8
10
30.7345
20
-6.0035
30
0.0000
0
VERTEX
70
8
10
30.7502
20
-5.9230
30
0.0000
0
VERTEX
70
8
10
30.7660
20
-5.8424
30
0.0000
0
VERTEX
70
8
10
30.7057
20
-5.7920
30
0.0000
0
VERTEX
70
8
10
30.6454
20
-5.7416
30
0.0000
0
VERTEX
70
8
10
30.5851
20
-5.6911
30
0.0000
0
VERTEX
70
8
10
30.5248
20
-5.6407
30
0.0000
0
VERTEX
70
8
10
30.4657
20
-5.5933
30
0.0000
0
VERTEX
70
8
10
30.4067
20
-5.5459
30
0.0000
0
VERTEX
70
8
10
30.3476
20
-5.4986
30
0.0000
0
VERTEX
70
8
10
30.2885
20
-5.4512
30
0.0000
0
VERTEX
70
8
10
30.1730
20
-5.3624
30
0.0000
0
VERTEX
70
8
10
30.0575
20
-5.2736
30
0.0000
0
VERTEX
70
8
10
29.9449
20
-5.1907
30
0.0000
0
VERTEX
70
8
10
29.8701
20
-5.1337
30
0.0000
0
VERTEX
70
8
10
29.7906
20
-5.0671
30
0.0000
0
VERTEX
70
8
10
29.6453
20
-4.9427
30
0.0000
0
VERTEX
70
8
10
29.5588
20
-4.8678
30
0.0000
0
VERTEX
70
8
10
29.5588
20
-4.8678
30
0.0000
0
VERTEX
70
8
10
29.5588
20
-4.8678
30
0.0000
0
VERTEX
70
8
10
29.5588
20
-4.8678
30
0.0000
0
VERTEX
70
8
10
29.4183
20
-4.7551
30
0.0000
0
VERTEX
70
8
10
28.8761
20
-4.3343
30
0.0000
0
VERTEX
70
8
10
28.7965
20
-4.2762
30
0.0000
0
VERTEX
70
8
10
28.7450
20
-4.2372
30
0.0000
0
VERTEX
70
8
10
28.6878
20
-4.1968
30
0.0000
0
VERTEX
70
8
10
28.6246
20
-4.1534
30
0.0000
0
VERTEX
70
8
10
28.6246
20
-4.1534
30
0.0000
0
VERTEX
70
8
10
28.6456
20
-4.1571
30
0.0000
0
VERTEX
70
8
10
28.6581
20
-4.0664
30
0.0000
0
VERTEX
70
8
10
28.6707
20
-3.9757
30
0.0000
0
VERTEX
70
8
10
28.6833
20
-3.8850
30
0.0000
0
VERTEX
70
8
10
28.6959
20
-3.7943
30
0.0000
0
VERTEX
70
8
10
28.7473
20
-3.7676
30
0.0000
0
VERTEX
70
8
10
28.7473
20
-3.7676
30
0.0000
0
VERTEX
70
8
10
28.7473
20
-3.7676
30
0.0000
0
VERTEX
70
8
10
29.0583
20
-3.6522
30
0.0000
0
VERTEX
70
8
10
29.0583
20
-3.6522
30
0.0000
0
VERTEX
70
8
10
29.0583
20
-3.6522
30
0.0000
0
VERTEX
70
8
10
29.1139
20
-3.6319
30
0.0000
0
VERTEX
70
8
10
29.1637
20
-3.6111
30
0.0000
0
VERTEX
70
8
10
29.2753
20
-3.5659
30
0.0000
0
VERTEX
70
8
10
29.4719
20
-3.4865
30
0.0000
0
VERTEX
70
8
10
29.6367
20
-3.4139
30
0.0000
0
VERTEX
70
8
10
29.7975
20
-3.3458
30
0.0000
0
VERTEX
70
8
10
29.9705
20
-3.2642
30
0.0000
0
VERTEX
70
8
10
30.0453
20
-3.2303
30
0.0000
0
VERTEX
70
8
10
30.2274
20
-3.1533
30
0.0000
0
VERTEX
70
8
10
30.3584
20
-3.1041
30
0.0000
0
VERTEX
70
8
10
30.4937
20
-3.0501
30
0.0000
0
VERTEX
70
8
10
30.6289
20
-2.9961
30
0.0000
0
VERTEX
70
8
10
30.6987
20
-2.9666
30
0.0000
0
VERTEX
70
8
10
30.7684
20
-2.9371
30
0.0000
0
VERTEX
70
8
10
30.8381
20
-2.9076
30
0.0000
0
VERTEX
70
8
10
30.9079
20
-2.8781
30
0.0000
0
VERTEX
70
8
10
30.9796
20
-2.8459
30
0.0000
0
VERTEX
70
8
10
31.0514
20
-2.8138
30
0.0000
0
VERTEX
70
8
10
31.1231
20
-2.7817
30
0.0000
0
VERTEX
70
8
10
31.1948
20
-2.7496
30
0.0000
0
VERTEX
70
8
10
31.2016
20
-2.6678
30
0.0000
0
VERTEX
70
8
10
31.2084
20
-2.5860
30
0.0000
0
VERTEX
70
8
10
31.2152
20
-2.5042
30
0.0000
0
VERTEX
70
8
10
31.2220
20
-2.4225
30
0.0000
0
VERTEX
70
8
10
31.1565
20
-2.3790
30
0.0000
0
VERTEX
70
8
10
31.0910
20
-2.3355
30
0.0000
0
VERTEX
70
8
10
31.0255
20
-2.2920
30
0.0000
0
VERTEX
70
8
10
30.9600
20
-2.2485
30
0.0000
0
VERTEX
70
8
10
30.8961
20
-2.2079
30
0.0000
0
VERTEX
70
8
10
30.8322
20
-2.1673
30
0.0000
0
VERTEX
70
8
10
30.7683
20
-2.1267
30
0.0000
0
VERTEX
70
8
10
30.7044
20
-2.0861
30
0.0000
0
VERTEX
70
8
10
30.5798
20
-2.0106
30
0.0000
0
VERTEX
70
8
10
30.4553
20
-1.9350
30
0.0000
0
VERTEX
70
8
10
30.3342
20
-1.8650
30
0.0000
0
VERTEX
70
8
10
30.2535
20
-1.8166
30
0.0000
0
VERTEX
70
8
10
30.1672
20
-1.7591
30
0.0000
0
VERTEX
70
8
10
30.0091
20
-1.6515
30
0.0000
0
VERTEX
70
8
10
29.9149
20
-1.5865
30
0.0000
0
VERTEX
70
8
10
29.9149
20
-1.5865
30
0.0000
0
VERTEX
70
8
10
29.9149
20
-1.5865
30
0.0000
0
VERTEX
70
8
10
29.9149
20
-1.5865
30
0.0000
0
VERTEX
70
8
10
29.7628
20
-1.4900
30
0.0000
0
VERTEX
70
8
10
29.1777
20
-1.1314
30
0.0000
0
VERTEX
70
8
10
29.1777
20
-1.1314
30
0.0000
0
VERTEX
70
8
10
29.0922
20
-1.0824
30
0.0000
0
VERTEX
70
8
10
29.0367
20
-1.0492
30
0.0000
0
VERTEX
70
8
10
28.9754
20
-1.0154
30
0.0000
0
VERTEX
70
8
10
28.9078
20
-0.9793
30
0.0000
0
VERTEX
70
8
10
28.9290
20
-0.9806
30
0.0000
0
VERTEX
70
8
10
28.9315
20
-0.8891
30
0.0000
0
VERTEX
70
8
10
28.9341
20
-0.7976
30
0.0000
0
VERTEX
70
8
10
28.9366
20
-0.7060
30
0.0000
0
VERTEX
70
8
10
28.9391
20
-0.6145
30
0.0000
0
VERTEX
70
8
10
28.9873
20
-0.5823
30
0.0000
0
VERTEX
70
8
10
28.9873
20
-0.5823
30
0.0000
0
VERTEX
70
8
10
28.9873
20
-0.5823
30
0.0000
0
VERTEX
70
8
10
29.2837
20
-0.4334
30
0.0000
0
VERTEX
70
8
10
29.2837
20
-0.4334
30
0.0000
0
VERTEX
70
8
10
29.2837
20
-0.4334
30
0.0000
0
VERTEX
70
8
10
29.3368
20
-0.4070
30
0.0000
0
VERTEX
70
8
10
29.3839
20
-0.3810
30
0.0000
0
VERTEX
70
8
10
29.4899
20
-0.3237
30
0.0000
0
VERTEX
70
8
10
29.6766
20
-0.2232
30
0.0000
0
VERTEX
70
8
10
29.8324
20
-0.1329
30
0.0000
0
VERTEX
70
8
10
29.9848
20
-0.0475
30
0.0000
0
VERTEX
70
8
10
30.1477
20
0.0526
30
0.0000
0
VERTEX
70
8
10
30.2183
20
0.0946
30
0.0000
0
VERTEX
70
8
10
30.3908
20
0.1911
30
0.0000
0
VERTEX
70
8
10
30.5156
20
0.2544
30
0.0000
0
VERTEX
70
8
10
30.6441
20
0.3229
30
0.0000
0
VERTEX
70
8
10
30.7726
20
0.3915
30
0.0000
0
VERTEX
70
8
10
30.8387
20
0.4285
30
0.0000
0
VERTEX
70
8
10
30.9048
20
0.4655
30
0.0000
0
VERTEX
70
8
10
30.9708
20
0.5025
30
0.0000
0
VERTEX
70
8
10
31.0369
20
0.5395
30
0.0000
0
VERTEX
70
8
10
31.1047
20
0.5793
30
0.0000
0
VERTEX
70
8
10
31.1724
20
0.6192
30
0.0000
0
VERTEX
70
8
10
31.2402
20
0.6590
30
0.0000
0
VERTEX
70
8
10
31.3080
20
0.6988
30
0.0000
0
VERTEX
70
8
10
31.3057
20
0.7808
30
0.0000
0
VERTEX
70
8
10
31.3035
20
0.8629
30
0.0000
0
VERTEX
70
8
10
31.3012
20
0.9449
30
0.0000
0
VERTEX
70
8
10
31.2989
20
1.0269
30
0.0000
0
VERTEX
70
8
10
31.2291
20
1.0630
30
0.0000
0
VERTEX
70
8
10
31.1592
20
1.0990
30
0.0000
0
VERTEX
70
8
10
31.0894
20
1.1350
30
0.0000
0
VERTEX
70
8
10
31.0195
20
1.1710
30
0.0000
0
VERTEX
70
8
10
30.9515
20
1.2044
30
0.0000
0
VERTEX
70
8
10
30.8835
20
1.2377
30
0.0000
0
VERTEX
70
8
10
30.8155
20
1.2710
30
0.0000
0
VERTEX
70
8
10
30.7475
20
1.3043
30
0.0000
0
VERTEX
70
8
10
30.6154
20
1.3657
30
0.0000
0
VERTEX
70
8
10
30.4833
20
1.4270
30
0.0000
0
VERTEX
70
8
10
30.3552
20
1.4834
30
0.0000
0
VERTEX
70
8
10
30.2698
20
1.5226
30
0.0000
0
VERTEX
70
8
10
30.1048
20
1.6082
30
0.0000
0
VERTEX
70
8
10
30.0087
20
1.6598
30
0.0000
0
VERTEX
70
8
10
29.9366
20
1.6992
30
0.0000
0
VERTEX
70
8
10
29.7461
20
1.7932
30
0.0000
0
VERTEX
70
8
10
29.7461
20
1.7932
30
0.0000
0
VERTEX
70
8
10
29.7461
20
1.7932
30
0.0000
0
VERTEX
70
8
10
29.5807
20
1.8771
30
0.0000
0
VERTEX
70
8
10
29.1250
20
2.0852
30
0.0000
0
VERTEX
70
8
10
29.0347
20
2.1246
30
0.0000
0
VERTEX
70
8
10
29.0347
20
2.1246
30
0.0000
0
VERTEX
70
8
10
28.9112
20
2.1783
30
0.0000
0
VERTEX
70
8
10
28.8401
20
2.2067
30
0.0000
0
VERTEX
70
8
10
28.8401
20
2.2067
30
0.0000
0
VERTEX
70
8
10
28.8613
20
2.2078
30
0.0000
0
VERTEX
70
8
10
28.8538
20
2.2990
30
0.0000
0
VERTEX
70
8
10
28.8462
20
2.3903
30
0.0000
0
VERTEX
70
8
10
28.8386
20
2.4815
30
0.0000
0
VERTEX
70
8
10
28.8311
20
2.5728
30
0.0000
0
VERTEX
70
8
10
28.8755
20
2.6101
30
0.0000
0
VERTEX
70
8
10
28.8755
20
2.6101
30
0.0000
0
SEQEND
0
ENDSEC
0
EOF