  0
SECTION
  2
HEADER
  9
$ACADVER
  1
AC1027
  9
$ACADMAINTVER
 70
   105
  9
$DWGCODEPAGE
  3
ANSI_1252
  9
$REQUIREDVERSIONS
160
                 0
  9
$INSBASE
 10
0.0
 20
0.0
 30
0.0
  9
$EXTMIN
 10
590.0
 20
295.0500000000003
 30
0.0
  9
$EXTMAX
 10
9.999999999999943
 20
10.00000000000004
 30
0.0
  9
$LIMMIN
 10
0.0
 20
0.0
  9
$LIMMAX
 10
12.0
 20
9.0
  9
$ORTHOMODE
 70
     0
  9
$REGENMODE
 70
     1
  9
$FILLMODE
 70
     1
  9
$QTEXTMODE
 70
     0
  9
$MIRRTEXT
 70
     1
  9
$LTSCALE
 40
1.0
  9
$ATTMODE
 70
     1
  9
$TEXTSIZE
 40
0.2
  9
$TRACEWID
 40
0.05
  9
$TEXTSTYLE
  7
Standard
  9
$CLAYER
  8
0
  9
$CELTYPE
  6
ByLayer
  9
$CECOLOR
 62
   178
  9
$CELTSCALE
 40
1.0
  9
$DISPSILH
 70
     0
  9
$DIMSCALE
 40
1.0
  9
$DIMASZ
 40
0.18
  9
$DIMEXO
 40
0.0625
  9
$DIMDLI
 40
0.38
  9
$DIMRND
 40
0.0
  9
$DIMDLE
 40
0.0
  9
$DIMEXE
 40
0.18
  9
$DIMTP
 40
0.0
  9
$DIMTM
 40
0.0
  9
$DIMTXT
 40
0.18
  9
$DIMCEN
 40
0.09
  9
$DIMTSZ
 40
0.0
  9
$DIMTOL
 70
     0
  9
$DIMLIM
 70
     0
  9
$DIMTIH
 70
     1
  9
$DIMTOH
 70
     1
  9
$DIMSE1
 70
     0
  9
$DIMSE2
 70
     0
  9
$DIMTAD
 70
     0
  9
$DIMZIN
 70
     0
  9
$DIMBLK
  1

  9
$DIMASO
 70
     1
  9
$DIMSHO
 70
     1
  9
$DIMPOST
  1

  9
$DIMAPOST
  1

  9
$DIMALT
 70
     0
  9
$DIMALTD
 70
     2
  9
$DIMALTF
 40
25.4
  9
$DIMLFAC
 40
1.0
  9
$DIMTOFL
 70
     0
  9
$DIMTVP
 40
0.0
  9
$DIMTIX
 70
     0
  9
$DIMSOXD
 70
     0
  9
$DIMSAH
 70
     0
  9
$DIMBLK1
  1

  9
$DIMBLK2
  1

  9
$DIMSTYLE
  2
Standard
  9
$DIMCLRD
 70
   178
  9
$DIMCLRE
 70
   178
  9
$DIMCLRT
 70
   178
  9
$DIMTFAC
 40
1.0
  9
$DIMGAP
 40
0.09
  9
$DIMJUST
 70
     0
  9
$DIMSD1
 70
     0
  9
$DIMSD2
 70
     0
  9
$DIMTOLJ
 70
     1
  9
$DIMTZIN
 70
     0
  9
$DIMALTZ
 70
     0
  9
$DIMALTTZ
 70
     0
  9
$DIMUPT
 70
     0
  9
$DIMDEC
 70
     4
  9
$DIMTDEC
 70
     4
  9
$DIMALTU
 70
     2
  9
$DIMALTTD
 70
     2
  9
$DIMTXSTY
  7
Standard
  9
$DIMAUNIT
 70
     0
  9
$DIMADEC
 70
     0
  9
$DIMALTRND
 40
0.0
  9
$DIMAZIN
 70
     0
  9
$DIMDSEP
 70
    46
  9
$DIMATFIT
 70
     3
  9
$DIMFRAC
 70
     0
  9
$DIMLDRBLK
  1

  9
$DIMLUNIT
 70
     2
  9
$DIMLWD
 70
    -2
  9
$DIMLWE
 70
    -2
  9
$DIMTMOVE
 70
     0
  9
$DIMFXL
 40
1.0
  9
$DIMFXLON
 70
     0
  9
$DIMJOGANG
 40
0.7853981633974483
  9
$DIMTFILL
 70
     0
  9
$DIMTFILLCLR
 70
     0
  9
$DIMARCSYM
 70
     0
  9
$DIMLTYPE
  6

  9
$DIMLTEX1
  6

  9
$DIMLTEX2
  6

  9
$DIMTXTDIRECTION
 70
     0
  9
$LUNITS
 70
     2
  9
$LUPREC
 70
     4
  9
$SKETCHINC
 40
0.1
  9
$FILLETRAD
 40
0.5
  9
$AUNITS
 70
     0
  9
$AUPREC
 70
     0
  9
$MENU
  1
.
  9
$ELEVATION
 40
0.0
  9
$PELEVATION
 40
0.0
  9
$THICKNESS
 40
0.0
  9
$LIMCHECK
 70
     0
  9
$CHAMFERA
 40
0.0
  9
$CHAMFERB
 40
0.0
  9
$CHAMFERC
 40
0.0
  9
$CHAMFERD
 40
0.0
  9
$SKPOLY
 70
     0
  9
$TDCREATE
 40
2458607.659373669
  9
$TDUCREATE
 40
2458607.326040335
  9
$TDUPDATE
 40
2458607.659373854
  9
$TDUUPDATE
 40
2458607.326040521
  9
$TDINDWG
 40
0.0000000116
  9
$TDUSRTIMER
 40
0.0000000116
  9
$USRTIMER
 70
     1
  9
$ANGBASE
 50
0.0
  9
$ANGDIR
 70
     0
  9
$PDMODE
 70
     0
  9
$PDSIZE
 40
0.0
  9
$PLINEWID
 40
0.0
  9
$SPLFRAME
 70
     0
  9
$SPLINETYPE
 70
     6
  9
$SPLINESEGS
 70
     8
  9
$HANDSEED
  5
2D29
  9
$SURFTAB1
 70
     6
  9
$SURFTAB2
 70
     6
  9
$SURFTYPE
 70
     6
  9
$SURFU
 70
     6
  9
$SURFV
 70
     6
  9
$UCSBASE
  2

  9
$UCSNAME
  2

  9
$UCSORG
 10
0.0
 20
0.0
 30
0.0
  9
$UCSXDIR
 10
1.0
 20
0.0
 30
0.0
  9
$UCSYDIR
 10
0.0
 20
1.0
 30
0.0
  9
$UCSORTHOREF
  2

  9
$UCSORTHOVIEW
 70
     0
  9
$UCSORGTOP
 10
0.0
 20
0.0
 30
0.0
  9
$UCSORGBOTTOM
 10
0.0
 20
0.0
 30
0.0
  9
$UCSORGLEFT
 10
0.0
 20
0.0
 30
0.0
  9
$UCSORGRIGHT
 10
0.0
 20
0.0
 30
0.0
  9
$UCSORGFRONT
 10
0.0
 20
0.0
 30
0.0
  9
$UCSORGBACK
 10
0.0
 20
0.0
 30
0.0
  9
$PUCSBASE
  2

  9
$PUCSNAME
  2

  9
$PUCSORG
 10
0.0
 20
0.0
 30
0.0
  9
$PUCSXDIR
 10
1.0
 20
0.0
 30
0.0
  9
$PUCSYDIR
 10
0.0
 20
1.0
 30
0.0
  9
$PUCSORTHOREF
  2

  9
$PUCSORTHOVIEW
 70
     0
  9
$PUCSORGTOP
 10
0.0
 20
0.0
 30
0.0
  9
$PUCSORGBOTTOM
 10
0.0
 20
0.0
 30
0.0
  9
$PUCSORGLEFT
 10
0.0
 20
0.0
 30
0.0
  9
$PUCSORGRIGHT
 10
0.0
 20
0.0
 30
0.0
  9
$PUCSORGFRONT
 10
0.0
 20
0.0
 30
0.0
  9
$PUCSORGBACK
 10
0.0
 20
0.0
 30
0.0
  9
$USERI1
 70
     0
  9
$USERI2
 70
     0
  9
$USERI3
 70
     0
  9
$USERI4
 70
     0
  9
$USERI5
 70
     0
  9
$USERR1
 40
0.0
  9
$USERR2
 40
0.0
  9
$USERR3
 40
0.0
  9
$USERR4
 40
0.0
  9
$USERR5
 40
0.0
  9
$WORLDVIEW
 70
     1
  9
$SHADEDGE
 70
     3
  9
$SHADEDIF
 70
    70
  9
$TILEMODE
 70
     1
  9
$MAXACTVP
 70
    64
  9
$PINSBASE
 10
0.0
 20
0.0
 30
0.0
  9
$PLIMCHECK
 70
     0
  9
$PEXTMIN
 10
1.000000000000000E+20
 20
1.000000000000000E+20
 30
1.000000000000000E+20
  9
$PEXTMAX
 10
-1.000000000000000E+20
 20
-1.000000000000000E+20
 30
-1.000000000000000E+20
  9
$PLIMMIN
 10
-0.25
 20
-0.25
  9
$PLIMMAX
 10
10.75
 20
8.25
  9
$UNITMODE
 70
     0
  9
$VISRETAIN
 70
     1
  9
$PLINEGEN
 70
     0
  9
$PSLTSCALE
 70
     1
  9
$TREEDEPTH
 70
  3020
  9
$CMLSTYLE
  2
Standard
  9
$CMLJUST
 70
     0
  9
$CMLSCALE
 40
1.0
  9
$PROXYGRAPHICS
 70
     1
  9
$MEASUREMENT
 70
     0
  9
$CELWEIGHT
370
    -1
  9
$ENDCAPS
280
     0
  9
$JOINSTYLE
280
     0
  9
$LWDISPLAY
290
     0
  9
$INSUNITS
 70
     0
  9
$HYPERLINKBASE
  1

  9
$STYLESHEET
  1

  9
$XEDIT
290
     1
  9
$CEPSNTYPE
380
     0
  9
$PSTYLEMODE
290
     1
  9
$FINGERPRINTGUID
  2
{39643166-70e2-3777-b4b1-723239773632}
  9
$VERSIONGUID
  2
{FAEB1C32-E019-11D5-929B-00C0DF256EC4}
  9
$EXTNAMES
290
     1
  9
$PSVPSCALE
 40
0.0
  9
$OLESTARTUP
290
     0
  9
$SORTENTS
280
   127
  9
$INDEXCTL
280
     0
  9
$HIDETEXT
280
     1
  9
$XCLIPFRAME
280
     2
  9
$HALOGAP
280
     0
  9
$OBSCOLOR
 70
   257
  9
$OBSLTYPE
280
     0
  9
$INTERSECTIONDISPLAY
280
     0
  9
$INTERSECTIONCOLOR
 70
   257
  9
$DIMASSOC
280
     2
  9
$PROJECTNAME
  1

  9
$CAMERADISPLAY
290
     0
  9
$LENSLENGTH
 40
50.0
  9
$CAMERAHEIGHT
 40
0.0
  9
$STEPSPERSEC
 40
2.0
  9
$STEPSIZE
 40
6.0
  9
$3DDWFPREC
 40
2.0
  9
$PSOLWIDTH
 40
0.25
  9
$PSOLHEIGHT
 40
4.0
  9
$LOFTANG1
 40
1.570796326794897
  9
$LOFTANG2
 40
1.570796326794897
  9
$LOFTMAG1
 40
0.0
  9
$LOFTMAG2
 40
0.0
  9
$LOFTPARAM
 70
     7
  9
$LOFTNORMALS
280
     1
  9
$LATITUDE
 40
37.795
  9
$LONGITUDE
 40
-122.394
  9
$NORTHDIRECTION
 40
0.0
  9
$TIMEZONE
 70
 -8000
  9
$LIGHTGLYPHDISPLAY
280
     1
  9
$TILEMODELIGHTSYNCH
280
     1
  9
$CMATERIAL
347
2C83
  9
$SOLIDHIST
280
     0
  9
$SHOWHIST
280
     1
  9
$DWFFRAME
280
     2
  9
$DGNFRAME
280
     2
  9
$REALWORLDSCALE
290
     1
  9
$INTERFERECOLOR
 62
   256
  9
$CSHADOW
280
     0
  9
$SHADOWPLANELOCATION
 40
0.0
  0
ENDSEC
  0
SECTION
  2
CLASSES
  0
CLASS
  1
ACDBDICTIONARYWDFLT
  2
AcDbDictionaryWithDefault
  3
ObjectDBX Classes
 90
        0
 91
        3
280
     0
281
     0
  0
CLASS
  1
VISUALSTYLE
  2
AcDbVisualStyle
  3
ObjectDBX Classes
 90
     4095
 91
        3
280
     0
281
     0
  0
CLASS
  1
MATERIAL
  2
AcDbMaterial
  3
ObjectDBX Classes
 90
     1153
 91
        3
280
     0
281
     0
  0
CLASS
  1
SCALE
  2
AcDbScale
  3
ObjectDBX Classes
 90
     1153
 91
        3
280
     0
281
     0
  0
CLASS
  1
TABLESTYLE
  2
AcDbTableStyle
  3
ObjectDBX Classes
 90
     4095
 91
        3
280
     0
281
     0
  0
CLASS
  1
MLEADERSTYLE
  2
AcDbMLeaderStyle
  3
ACDB_MLEADERSTYLE_CLASS
 90
     4095
 91
        3
280
     0
281
     0
  0
CLASS
  1
SUN
  2
AcDbSun
  3
SCENEOE
 90
     1153
 91
        3
280
     0
281
     0
  0
CLASS
  1
DICTIONARYVAR
  2
AcDbDictionaryVar
  3
ObjectDBX Classes
 90
        0
 91
        3
280
     0
281
     0
  0
CLASS
  1
CELLSTYLEMAP
  2
AcDbCellStyleMap
  3
ObjectDBX Classes
 90
     1152
 91
        3
280
     0
281
     0
  0
ENDSEC
  0
SECTION
  2
TABLES
  0
TABLE
  2
VPORT
  5
2C48
330
0
100
AcDbSymbolTable
 70
     1
  0
VPORT
  5
2C68
330
2C48
100
AcDbSymbolTableRecord
100
AcDbViewportTableRecord
  2
*Active
 70
     0
 10
0.0
 20
0.0
 11
1.0
 21
1.0
 12
221.1371828830734
 22
116.7593827173022
 13
0.0
 23
0.0
 14
0.5
 24
0.5
 15
0.5
 25
0.5
 16
0.0
 26
0.0
 36
1.0
 17
0.0
 27
0.0
 37
0.0
 40
599.9248408070852
 41
1.693726937269373
 42
50.0
 43
0.0
 44
0.0
 50
0.0
 51
0.0
 71
     0
 72
   100
 73
     1
 74
     3
 75
     0
 76
     0
 77
     0
 78
     0
281
     0
 65
     1
110
0.0
120
0.0
130
0.0
111
1.0
121
0.0
131
0.0
112
0.0
122
1.0
132
0.0
 79
     0
146
0.0
348
2C6E
 60
     3
 61
     5
292
     1
282
     1
141
0.0
142
0.0
 63
   250
361
2CAC
  0
ENDTAB
  0
TABLE
  2
LTYPE
  5
2C45
330
0
100
AcDbSymbolTable
 70
    48
  0
LTYPE
  5
2C53
330
2C45
100
AcDbSymbolTableRecord
100
AcDbLinetypeTableRecord
  2
ByBlock
 70
     0
  3

 72
    65
 73
     0
 40
0.0
  0
LTYPE
  5
2C54
330
2C45
100
AcDbSymbolTableRecord
100
AcDbLinetypeTableRecord
  2
ByLayer
 70
     0
  3

 72
    65
 73
     0
 40
0.0
  0
LTYPE
  5
2C55
330
2C45
100
AcDbSymbolTableRecord
100
AcDbLinetypeTableRecord
  2
Continuous
 70
     0
  3
Solid line
 72
    65
 73
     0
 40
0.0
  0
LTYPE
  5
2CE3
330
2C45
100
AcDbSymbolTableRecord
100
AcDbLinetypeTableRecord
  2
PHANTOM2
 70
     0
  3
Phantom (.5x) ___ _ _ ___ _ _ ___ _ _ ___ _ _
 72
    65
 73
     6
 40
31.75
 49
15.875
 74
     0
 49
-3.175
 74
     0
 49
3.175
 74
     0
 49
-3.175
 74
     0
 49
3.175
 74
     0
 49
-3.175
 74
     0
  0
LTYPE
  5
2CE4
330
2C45
100
AcDbSymbolTableRecord
100
AcDbLinetypeTableRecord
  2
PHANTOM
 70
     0
  3
Phantom ______  __  __  ______  __  __  ______ 
 72
    65
 73
     6
 40
63.50000000000001
 49
31.75
 74
     0
 49
-6.35
 74
     0
 49
6.35
 74
     0
 49
-6.35
 74
     0
 49
6.35
 74
     0
 49
-6.35
 74
     0
  0
LTYPE
  5
2CE6
330
2C45
100
AcDbSymbolTableRecord
100
AcDbLinetypeTableRecord
  2
HOT_WATER_SUPPLY
 70
     0
  3
Hot water supply ---- HW ---- HW ---- HW ----
 72
    65
 73
     3
 40
22.86
 49
12.7
 74
     0
 49
-5.08
 74
     2
 75
     0
340
2CE5
 46
2.54
 50
0.0
 44
-2.54
 45
-1.27
  9
HW
 49
-5.08
 74
     0
  0
LTYPE
  5
2CE7
330
2C45
100
AcDbSymbolTableRecord
100
AcDbLinetypeTableRecord
  2
HIDDENX2
 70
     0
  3
Hidden (2x) ____ ____ ____ ____ ____ ____ ____ 
 72
    65
 73
     2
 40
19.05
 49
12.7
 74
     0
 49
-6.35
 74
     0
  0
LTYPE
  5
2CEA
330
2C45
100
AcDbSymbolTableRecord
100
AcDbLinetypeTableRecord
  2
ZIGZAG
 70
     0
  3
Zig zag /\/\/\/\/\/\/\/\/\/\/\/\/\/\/\/\/\/\/\/\/\/\/\/
 72
    65
 73
     4
 40
20.32254
 49
0.00254
 74
     0
 49
-5.08
 74
     2
 75
     0
340
2CE8
 46
5.08
 50
0.0
 44
-5.08
 45
0.0
  9
ZIG
 49
-10.16
 74
     2
 75
     0
340
2CE9
 46
5.08
 50
180.0
 44
5.08
 45
0.0
  9
ZIG
 49
-5.08
 74
     0
  0
LTYPE
  5
2CEC
330
2C45
100
AcDbSymbolTableRecord
100
AcDbLinetypeTableRecord
  2
TRACKS
 70
     0
  3
Tracks -|-|-|-|-|-|-|-|-|-|-|-|-|-|-|-|-|-|-|-|-|-|-|-|-
 72
    65
 73
     2
 40
7.62
 49
3.81
 74
     2
 75
     0
340
2CEB
 46
6.35
 50
0.0
 44
0.0
 45
0.0
  9
TRACK1
 49
3.81
 74
     0
  0
LTYPE
  5
2CED
330
2C45
100
AcDbSymbolTableRecord
100
AcDbLinetypeTableRecord
  2
PHANTOMX2
 70
     0
  3
Phantom (2x) ____________    ____    ____   _
 72
    65
 73
     6
 40
127.0
 49
63.5
 74
     0
 49
-12.7
 74
     0
 49
12.7
 74
     0
 49
-12.7
 74
     0
 49
12.7
 74
     0
 49
-12.7
 74
     0
  0
LTYPE
  5
2CEF
330
2C45
100
AcDbSymbolTableRecord
100
AcDbLinetypeTableRecord
  2
FENCELINE1
 70
     0
  3
Fenceline circle ----0-----0----0-----0----0-----0--
 72
    65
 73
     4
 40
36.83
 49
6.35
 74
     0
 49
-2.54
 74
     2
 75
     0
340
2CEE
 46
2.54
 50
0.0
 44
-2.54
 45
0.0
  9
CIRC1
 49
-2.54
 74
     0
 49
25.4
 74
     0
  0
LTYPE
  5
2CF1
330
2C45
100
AcDbSymbolTableRecord
100
AcDbLinetypeTableRecord
  2
DRAINAGE2
 70
     0
  3
Drainage reversed----<----<----<----
 72
    65
 73
     2
 40
10.16
 49
5.08
 74
     2
 75
     0
340
2CF0
 46
2.54
 50
0.0
 44
0.0
 45
0.0
  9
RIGHT_ARROW
 49
5.08
 74
     0
  0
LTYPE
  5
2CF3
330
2C45
100
AcDbSymbolTableRecord
100
AcDbLinetypeTableRecord
  2
DRAINAGE
 70
     0
  3
Drainage ---->---->---->----
 72
    65
 73
     2
 40
10.16
 49
5.08
 74
     2
 75
     0
340
2CF2
 46
2.54
 50
180.0
 44
0.0
 45
0.0
  9
RIGHT_ARROW
 49
5.08
 74
     0
  0
LTYPE
  5
2CF4
330
2C45
100
AcDbSymbolTableRecord
100
AcDbLinetypeTableRecord
  2
DOTX2
 70
     0
  3
Dot (2x) .  .  .  .  .  .  .  .  .  .  .  .  .  .
 72
    65
 73
     2
 40
12.7
 49
0.0
 74
     0
 49
-12.7
 74
     0
  0
LTYPE
  5
2CF5
330
2C45
100
AcDbSymbolTableRecord
100
AcDbLinetypeTableRecord
  2
HIDDEN2
 70
     0
  3
Hidden (.5x) _ _ _ _ _ _ _ _ _ _ _ _ _ _ _ _ _ 
 72
    65
 73
     2
 40
4.762499999999999
 49
3.175
 74
     0
 49
-1.5875
 74
     0
  0
LTYPE
  5
2CF6
330
2C45
100
AcDbSymbolTableRecord
100
AcDbLinetypeTableRecord
  2
HIDDEN
 70
     0
  3
Hidden __ __ __ __ __ __ __ __ __ __ __ __ __ __
 72
    65
 73
     2
 40
9.524999999999999
 49
6.35
 74
     0
 49
-3.175
 74
     0
  0
LTYPE
  5
2CF8
330
2C45
100
AcDbSymbolTableRecord
100
AcDbLinetypeTableRecord
  2
GAS_LINE
 70
     0
  3
Gas line ----GAS----GAS----GAS----GAS----GAS----GAS--
 72
    65
 73
     3
 40
24.13
 49
12.7
 74
     0
 49
-5.08
 74
     2
 75
     0
340
2CF7
 46
2.54
 50
0.0
 44
-2.54
 45
-1.27
  9
GAS
 49
-6.35
 74
     0
  0
LTYPE
  5
2CFA
330
2C45
100
AcDbSymbolTableRecord
100
AcDbLinetypeTableRecord
  2
FENCELINE2
 70
     0
  3
Fenceline square ----[]-----[]----[]-----[]----[]---
 72
    65
 73
     4
 40
36.83
 49
6.35
 74
     0
 49
-2.54
 74
     2
 75
     0
340
2CF9
 46
2.54
 50
0.0
 44
-2.54
 45
0.0
  9
BOX
 49
-2.54
 74
     0
 49
25.4
 74
     0
  0
LTYPE
  5
2CFB
330
2C45
100
AcDbSymbolTableRecord
100
AcDbLinetypeTableRecord
  2
DIVIDE
 70
     0
  3
Divide ____ . . ____ . . ____ . . ____ . . ____
 72
    65
 73
     6
 40
31.75
 49
12.7
 74
     0
 49
-6.35
 74
     0
 49
0.0
 74
     0
 49
-6.35
 74
     0
 49
0.0
 74
     0
 49
-6.35
 74
     0
  0
LTYPE
  5
2CFC
330
2C45
100
AcDbSymbolTableRecord
100
AcDbLinetypeTableRecord
  2
DASHEDX2
 70
     0
  3
Dashed (2x) ____  ____  ____  ____  ____  ___
 72
    65
 73
     2
 40
38.09999999999999
 49
25.4
 74
     0
 49
-12.7
 74
     0
  0
LTYPE
  5
2CFD
330
2C45
100
AcDbSymbolTableRecord
100
AcDbLinetypeTableRecord
  2
DASHED2
 70
     0
  3
Dashed (.5x) _ _ _ _ _ _ _ _ _ _ _ _ _ _ _ _ _ 
 72
    65
 73
     2
 40
9.524999999999999
 49
6.35
 74
     0
 49
-3.175
 74
     0
  0
LTYPE
  5
2CFE
330
2C45
100
AcDbSymbolTableRecord
100
AcDbLinetypeTableRecord
  2
DASHED
 70
     0
  3
Dashed __ __ __ __ __ __ __ __ __ __ __ __ __ _
 72
    65
 73
     2
 40
19.05
 49
12.7
 74
     0
 49
-6.35
 74
     0
  0
LTYPE
  5
2CFF
330
2C45
100
AcDbSymbolTableRecord
100
AcDbLinetypeTableRecord
  2
DOT2
 70
     0
  3
Dot (.5x) ........................................
 72
    65
 73
     2
 40
3.175
 49
0.0
 74
     0
 49
-3.175
 74
     0
  0
LTYPE
  5
2D00
330
2C45
100
AcDbSymbolTableRecord
100
AcDbLinetypeTableRecord
  2
DOT
 70
     0
  3
Dot . . . . . . . . . . . . . . . . . . . . . . . .
 72
    65
 73
     2
 40
6.35
 49
0.0
 74
     0
 49
-6.35
 74
     0
  0
LTYPE
  5
2D01
330
2C45
100
AcDbSymbolTableRecord
100
AcDbLinetypeTableRecord
  2
DIVIDEX2
 70
     0
  3
Divide (2x) ________  .  .  ________  .  .  _
 72
    65
 73
     6
 40
63.5
 49
25.4
 74
     0
 49
-12.7
 74
     0
 49
0.0
 74
     0
 49
-12.7
 74
     0
 49
0.0
 74
     0
 49
-12.7
 74
     0
  0
LTYPE
  5
2D02
330
2C45
100
AcDbSymbolTableRecord
100
AcDbLinetypeTableRecord
  2
DIVIDE2
 70
     0
  3
Divide (.5x) __..__..__..__..__..__..__..__.._
 72
    65
 73
     6
 40
15.875
 49
6.35
 74
     0
 49
-3.175
 74
     0
 49
0.0
 74
     0
 49
-3.175
 74
     0
 49
0.0
 74
     0
 49
-3.175
 74
     0
  0
LTYPE
  5
2D03
330
2C45
100
AcDbSymbolTableRecord
100
AcDbLinetypeTableRecord
  2
CENTER2
 70
     0
  3
Center (.5x) ___ _ ___ _ ___ _ ___ _ ___ _ ___
 72
    65
 73
     4
 40
28.575
 49
19.05
 74
     0
 49
-3.175
 74
     0
 49
3.175
 74
     0
 49
-3.175
 74
     0
  0
LTYPE
  5
2D04
330
2C45
100
AcDbSymbolTableRecord
100
AcDbLinetypeTableRecord
  2
CENTER
 70
     0
  3
Center ____ _ ____ _ ____ _ ____ _ ____ _ ____
 72
    65
 73
     4
 40
50.8
 49
31.75
 74
     0
 49
-6.35
 74
     0
 49
6.35
 74
     0
 49
-6.35
 74
     0
  0
LTYPE
  5
2D05
330
2C45
100
AcDbSymbolTableRecord
100
AcDbLinetypeTableRecord
  2
BORDERX2
 70
     0
  3
Border (2x) ____  ____  .  ____  ____  .  ___
 72
    65
 73
     6
 40
88.89999999999999
 49
25.4
 74
     0
 49
-12.7
 74
     0
 49
25.4
 74
     0
 49
-12.7
 74
     0
 49
0.0
 74
     0
 49
-12.7
 74
     0
  0
LTYPE
  5
2D06
330
2C45
100
AcDbSymbolTableRecord
100
AcDbLinetypeTableRecord
  2
BORDER2
 70
     0
  3
Border (.5x) __.__.__.__.__.__.__.__.__.__.__.
 72
    65
 73
     6
 40
22.225
 49
6.35
 74
     0
 49
-3.175
 74
     0
 49
6.35
 74
     0
 49
-3.175
 74
     0
 49
0.0
 74
     0
 49
-3.175
 74
     0
  0
LTYPE
  5
2D07
330
2C45
100
AcDbSymbolTableRecord
100
AcDbLinetypeTableRecord
  2
DASHDOTX2
 70
     0
  3
Dash dot (2x) ____  .  ____  .  ____  .  ___
 72
    65
 73
     4
 40
50.8
 49
25.4
 74
     0
 49
-12.7
 74
     0
 49
0.0
 74
     0
 49
-12.7
 74
     0
  0
LTYPE
  5
2D08
330
2C45
100
AcDbSymbolTableRecord
100
AcDbLinetypeTableRecord
  2
DASHDOT2
 70
     0
  3
Dash dot (.5x) _._._._._._._._._._._._._._._.
 72
    65
 73
     4
 40
12.7
 49
6.35
 74
     0
 49
-3.175
 74
     0
 49
0.0
 74
     0
 49
-3.175
 74
     0
  0
LTYPE
  5
2D09
330
2C45
100
AcDbSymbolTableRecord
100
AcDbLinetypeTableRecord
  2
DASHDOT
 70
     0
  3
Dash dot __ . __ . __ . __ . __ . __ . __ . __
 72
    65
 73
     4
 40
25.4
 49
12.7
 74
     0
 49
-6.35
 74
     0
 49
0.0
 74
     0
 49
-6.35
 74
     0
  0
LTYPE
  5
2D0A
330
2C45
100
AcDbSymbolTableRecord
100
AcDbLinetypeTableRecord
  2
CENTERX2
 70
     0
  3
Center (2x) ________  __  ________  __  _____
 72
    65
 73
     4
 40
101.6
 49
63.5
 74
     0
 49
-12.7
 74
     0
 49
12.7
 74
     0
 49
-12.7
 74
     0
  0
LTYPE
  5
2D0B
330
2C45
100
AcDbSymbolTableRecord
100
AcDbLinetypeTableRecord
  2
ACAD_ISO13W100
 70
     0
  3
ISO double-dash double-dot __ __ . . __ __ . . _
 72
    65
 73
     8
 40
36.0
 49
12.0
 74
     0
 49
-3.0
 74
     0
 49
12.0
 74
     0
 49
-3.0
 74
     0
 49
0.0
 74
     0
 49
-3.0
 74
     0
 49
0.0
 74
     0
 49
-3.0
 74
     0
  0
LTYPE
  5
2D0C
330
2C45
100
AcDbSymbolTableRecord
100
AcDbLinetypeTableRecord
  2
ACAD_ISO12W100
 70
     0
  3
ISO dash double-dot __ . . __ . . __ . . __ . . 
 72
    65
 73
     6
 40
21.0
 49
12.0
 74
     0
 49
-3.0
 74
     0
 49
0.0
 74
     0
 49
-3.0
 74
     0
 49
0.0
 74
     0
 49
-3.0
 74
     0
  0
LTYPE
  5
2D0D
330
2C45
100
AcDbSymbolTableRecord
100
AcDbLinetypeTableRecord
  2
ACAD_ISO11W100
 70
     0
  3
ISO double-dash dot __ __ . __ __ . __ __ . __ _
 72
    65
 73
     6
 40
33.0
 49
12.0
 74
     0
 49
-3.0
 74
     0
 49
12.0
 74
     0
 49
-3.0
 74
     0
 49
0.0
 74
     0
 49
-3.0
 74
     0
  0
LTYPE
  5
2D0E
330
2C45
100
AcDbSymbolTableRecord
100
AcDbLinetypeTableRecord
  2
ACAD_ISO10W100
 70
     0
  3
ISO dash dot __ . __ . __ . __ . __ . __ . __ . 
 72
    65
 73
     4
 40
18.0
 49
12.0
 74
     0
 49
-3.0
 74
     0
 49
0.0
 74
     0
 49
-3.0
 74
     0
  0
LTYPE
  5
2D0F
330
2C45
100
AcDbSymbolTableRecord
100
AcDbLinetypeTableRecord
  2
BORDER
 70
     0
  3
Border __ __ . __ __ . __ __ . __ __ . __ __ .
 72
    65
 73
     6
 40
44.45
 49
12.7
 74
     0
 49
-6.35
 74
     0
 49
12.7
 74
     0
 49
-6.35
 74
     0
 49
0.0
 74
     0
 49
-6.35
 74
     0
  0
LTYPE
  5
2D12
330
2C45
100
AcDbSymbolTableRecord
100
AcDbLinetypeTableRecord
  2
BATTING
 70
     0
  3
Batting SSSSSSSSSSSSSSSSSSSSSSSSSSSSSSSSSSSSSSSSSSSSSSS
 72
    65
 73
     4
 40
10.16254
 49
0.00254
 74
     0
 49
-2.54
 74
     2
 75
     0
340
2D10
 46
2.54
 50
0.0
 44
-2.54
 45
0.0
  9
BAT
 49
-5.08
 74
     2
 75
     0
340
2D11
 46
2.54
 50
180.0
 44
2.54
 45
0.0
  9
BAT
 49
-2.54
 74
     0
  0
LTYPE
  5
2D13
330
2C45
100
AcDbSymbolTableRecord
100
AcDbLinetypeTableRecord
  2
ACAD_ISO15W100
 70
     0
  3
ISO double-dash triple-dot __ __ . . . __ __ . .
 72
    65
 73
    10
 40
39.0
 49
12.0
 74
     0
 49
-3.0
 74
     0
 49
12.0
 74
     0
 49
-3.0
 74
     0
 49
0.0
 74
     0
 49
-3.0
 74
     0
 49
0.0
 74
     0
 49
-3.0
 74
     0
 49
0.0
 74
     0
 49
-3.0
 74
     0
  0
LTYPE
  5
2D14
330
2C45
100
AcDbSymbolTableRecord
100
AcDbLinetypeTableRecord
  2
ACAD_ISO14W100
 70
     0
  3
ISO dash triple-dot __ . . . __ . . . __ . . . _
 72
    65
 73
     8
 40
24.0
 49
12.0
 74
     0
 49
-3.0
 74
     0
 49
0.0
 74
     0
 49
-3.0
 74
     0
 49
0.0
 74
     0
 49
-3.0
 74
     0
 49
0.0
 74
     0
 49
-3.0
 74
     0
  0
LTYPE
  5
2D15
330
2C45
100
AcDbSymbolTableRecord
100
AcDbLinetypeTableRecord
  2
ACAD_ISO05W100
 70
     0
  3
ISO long-dash double-dot ____ .. ____ .. ____ . 
 72
    65
 73
     6
 40
33.0
 49
24.0
 74
     0
 49
-3.0
 74
     0
 49
0.0
 74
     0
 49
-3.0
 74
     0
 49
0.0
 74
     0
 49
-3.0
 74
     0
  0
LTYPE
  5
2D16
330
2C45
100
AcDbSymbolTableRecord
100
AcDbLinetypeTableRecord
  2
ACAD_ISO04W100
 70
     0
  3
ISO long-dash dot ____ . ____ . ____ . ____ . _
 72
    65
 73
     4
 40
30.0
 49
24.0
 74
     0
 49
-3.0
 74
     0
 49
0.0
 74
     0
 49
-3.0
 74
     0
  0
LTYPE
  5
2D17
330
2C45
100
AcDbSymbolTableRecord
100
AcDbLinetypeTableRecord
  2
ACAD_ISO03W100
 70
     0
  3
ISO dash space __    __    __    __    __    __
 72
    65
 73
     2
 40
30.0
 49
12.0
 74
     0
 49
-18.0
 74
     0
  0
LTYPE
  5
2D18
330
2C45
100
AcDbSymbolTableRecord
100
AcDbLinetypeTableRecord
  2
ACAD_ISO02W100
 70
     0
  3
ISO dash __ __ __ __ __ __ __ __ __ __ __ __ __
 72
    65
 73
     2
 40
15.0
 49
12.0
 74
     0
 49
-3.0
 74
     0
  0
LTYPE
  5
2D19
330
2C45
100
AcDbSymbolTableRecord
100
AcDbLinetypeTableRecord
  2
ACAD_ISO09W100
 70
     0
  3
ISO long-dash double-short-dash ____ __ __ ____
 72
    65
 73
     6
 40
45.0
 49
24.0
 74
     0
 49
-3.0
 74
     0
 49
6.0
 74
     0
 49
-3.0
 74
     0
 49
6.0
 74
     0
 49
-3.0
 74
     0
  0
LTYPE
  5
2D1A
330
2C45
100
AcDbSymbolTableRecord
100
AcDbLinetypeTableRecord
  2
ACAD_ISO08W100
 70
     0
  3
ISO long-dash short-dash ____ __ ____ __ ____ _
 72
    65
 73
     4
 40
36.0
 49
24.0
 74
     0
 49
-3.0
 74
     0
 49
6.0
 74
     0
 49
-3.0
 74
     0
  0
LTYPE
  5
2D1B
330
2C45
100
AcDbSymbolTableRecord
100
AcDbLinetypeTableRecord
  2
ACAD_ISO07W100
 70
     0
  3
ISO dot . . . . . . . . . . . . . . . . . . . . 
 72
    65
 73
     2
 40
3.0
 49
0.0
 74
     0
 49
-3.0
 74
     0
  0
LTYPE
  5
2D1C
330
2C45
100
AcDbSymbolTableRecord
100
AcDbLinetypeTableRecord
  2
ACAD_ISO06W100
 70
     0
  3
ISO long-dash triple-dot ____ ... ____ ... ____
 72
    65
 73
     8
 40
36.0
 49
24.0
 74
     0
 49
-3.0
 74
     0
 49
0.0
 74
     0
 49
-3.0
 74
     0
 49
0.0
 74
     0
 49
-3.0
 74
     0
 49
0.0
 74
     0
 49
-3.0
 74
     0
  0
ENDTAB
  0
TABLE
  2
LAYER
  5
2C43
330
0
100
AcDbSymbolTable
 70
     2
  0
LAYER
  5
2C50
330
2C43
100
AcDbSymbolTableRecord
100
AcDbLayerTableRecord
  2
0
 70
     0
 62
     7
420
 16777215
  6
Continuous
370
    -3
390
2C4F
347
2C85
348
0
  0
LAYER
  5
2D1D
330
2C43
100
AcDbSymbolTableRecord
100
AcDbLayerTableRecord
  2
LaserCut
 70
     0
 62
     1
420
 16711680
  6
Continuous
370
    25
390
2C4F
347
2C85
348
0
  0
ENDTAB
  0
TABLE
  2
STYLE
  5
2C44
330
0
100
AcDbSymbolTable
 70
    13
  0
STYLE
  5
2C51
330
2C44
100
AcDbSymbolTableRecord
100
AcDbTextStyleTableRecord
  2
Standard
 70
     0
 40
0.0
 41
1.0
 50
0.0
 71
     0
 42
0.2
  3
txt
  4

  0
STYLE
  5
2CE1
330
2C44
100
AcDbSymbolTableRecord
100
AcDbTextStyleTableRecord
  2
QCADDimTextStyle
 70
     0
 40
0.0
 41
1.0
 50
0.0
 71
     0
 42
0.2
  3

  4

  0
STYLE
  5
2CE5
330
2C44
100
AcDbSymbolTableRecord
100
AcDbTextStyleTableRecord
  2
textstyle0
 70
     0
 40
0.0
 41
1.0
 50
0.0
 71
     0
 42
0.2
  3
STANDARD
  4

  0
STYLE
  5
2CE8
330
2C44
100
AcDbSymbolTableRecord
100
AcDbTextStyleTableRecord
  2
textstyle1
 70
     0
 40
0.0
 41
1.0
 50
0.0
 71
     0
 42
0.2
  3
ltypeshp.shx
  4

  0
STYLE
  5
2CE9
330
2C44
100
AcDbSymbolTableRecord
100
AcDbTextStyleTableRecord
  2
textstyle2
 70
     0
 40
0.0
 41
1.0
 50
0.0
 71
     0
 42
0.2
  3
ltypeshp.shx
  4

  0
STYLE
  5
2CEB
330
2C44
100
AcDbSymbolTableRecord
100
AcDbTextStyleTableRecord
  2
textstyle3
 70
     0
 40
0.0
 41
1.0
 50
0.0
 71
     0
 42
0.2
  3
ltypeshp.shx
  4

  0
STYLE
  5
2CEE
330
2C44
100
AcDbSymbolTableRecord
100
AcDbTextStyleTableRecord
  2
textstyle4
 70
     0
 40
0.0
 41
1.0
 50
0.0
 71
     0
 42
0.2
  3
ltypeshp.shx
  4

  0
STYLE
  5
2CF0
330
2C44
100
AcDbSymbolTableRecord
100
AcDbTextStyleTableRecord
  2
textstyle5
 70
     0
 40
0.0
 41
1.0
 50
0.0
 71
     0
 42
0.2
  3
qcadshp.shx
  4

  0
STYLE
  5
2CF2
330
2C44
100
AcDbSymbolTableRecord
100
AcDbTextStyleTableRecord
  2
textstyle6
 70
     0
 40
0.0
 41
1.0
 50
0.0
 71
     0
 42
0.2
  3
qcadshp.shx
  4

  0
STYLE
  5
2CF7
330
2C44
100
AcDbSymbolTableRecord
100
AcDbTextStyleTableRecord
  2
textstyle7
 70
     0
 40
0.0
 41
1.0
 50
0.0
 71
     0
 42
0.2
  3
STANDARD
  4

  0
STYLE
  5
2CF9
330
2C44
100
AcDbSymbolTableRecord
100
AcDbTextStyleTableRecord
  2
textstyle8
 70
     0
 40
0.0
 41
1.0
 50
0.0
 71
     0
 42
0.2
  3
ltypeshp.shx
  4

  0
STYLE
  5
2D10
330
2C44
100
AcDbSymbolTableRecord
100
AcDbTextStyleTableRecord
  2
textstyle9
 70
     0
 40
0.0
 41
1.0
 50
0.0
 71
     0
 42
0.2
  3
ltypeshp.shx
  4

  0
STYLE
  5
2D11
330
2C44
100
AcDbSymbolTableRecord
100
AcDbTextStyleTableRecord
  2
textstyle10
 70
     0
 40
0.0
 41
1.0
 50
0.0
 71
     0
 42
0.2
  3
ltypeshp.shx
  4

  0
ENDTAB
  0
TABLE
  2
VIEW
  5
2C46
330
0
100
AcDbSymbolTable
 70
     0
  0
ENDTAB
  0
TABLE
  2
UCS
  5
2C47
330
0
100
AcDbSymbolTable
 70
     0
  0
ENDTAB
  0
TABLE
  2
APPID
  5
2C49
330
0
100
AcDbSymbolTable
 70
     2
  0
APPID
  5
2C52
330
2C49
100
AcDbSymbolTableRecord
100
AcDbRegAppTableRecord
  2
ACAD
 70
     0
  0
APPID
  5
2CAD
330
2C49
100
AcDbSymbolTableRecord
100
AcDbRegAppTableRecord
  2
QCAD
 70
     0
  0
ENDTAB
  0
TABLE
  2
DIMSTYLE
  5
2C4A
330
0
100
AcDbSymbolTable
 70
     2
100
AcDbDimStyleTable
  0
DIMSTYLE
105
2C66
330
2C4A
100
AcDbSymbolTableRecord
100
AcDbDimStyleTableRecord
  2
Standard
 70
     0
178
     0
340
2C51
  0
DIMSTYLE
105
2CE2
330
2C4A
100
AcDbSymbolTableRecord
100
AcDbDimStyleTableRecord
  2
QCADDimStyle
 70
     0
 73
     0
 77
     1
178
     0
340
2CE1
  0
ENDTAB
  0
TABLE
  2
BLOCK_RECORD
  5
2C42
330
0
100
AcDbSymbolTable
 70
     0
  0
BLOCK_RECORD
  5
2C5E
330
2C42
100
AcDbSymbolTableRecord
100
AcDbBlockTableRecord
  2
*Model_Space
340
2C61
 70
     0
280
     1
281
     0
  0
BLOCK_RECORD
  5
2C5A
330
2C42
100
AcDbSymbolTableRecord
100
AcDbBlockTableRecord
  2
*Paper_Space
340
2C5D
 70
     0
280
     1
281
     0
  0
ENDTAB
  0
ENDSEC
  0
SECTION
  2
BLOCKS
  0
BLOCK
  5
2C5F
330
2C5E
100
AcDbEntity
  8
0
100
AcDbBlockBegin
  2
*Model_Space
 70
     0
 10
0.0
 20
0.0
 30
0.0
  3
*Model_Space
  1

  0
ENDBLK
  5
2C60
330
2C5E
100
AcDbEntity
  8
0
100
AcDbBlockEnd
  0
BLOCK
  5
2C5B
330
2C5A
100
AcDbEntity
 67
     1
  8
0
100
AcDbBlockBegin
  2
*Paper_Space
 70
     0
 10
0.0
 20
0.0
 30
0.0
  3
*Paper_Space
  1

  0
ENDBLK
  5
2C5C
330
2C5A
100
AcDbEntity
 67
     1
  8
0
100
AcDbBlockEnd
  0
ENDSEC
  0
SECTION
  2
ENTITIES
  0
LWPOLYLINE
  5
296B
330
2C5E
100
AcDbEntity
  8
LaserCut
 62
     1
420
 16711680
100
AcDbPolyline
 90
      486
 70
   128
 43
0.0
 10
120.6832
 20
231.6762
 10
121.6042
 20
231.8207
 10
121.6277
 20
231.8253999999999
 10
121.6973
 20
231.8434999999999
 10
121.8111
 20
231.8809
 10
121.9669
 20
231.9433
 10
122.1617
 20
232.0360000000001
 10
122.3921
 20
232.1643
 10
122.6541
 20
232.3329
 10
122.9435
 20
232.5463
 10
123.2553
 20
232.8086000000001
 10
123.5844
 20
233.1233999999999
 10
123.4553
 20
233.6052999999999
 10
123.3262
 20
234.0873
 10
122.8838
 20
234.1953
 10
122.4825
 20
234.2666
 10
122.1252
 20
234.3067
 10
121.814
 20
234.3217
 10
121.5504
 20
234.3176
 10
121.3353
 20
234.3005000000001
 10
121.1692
 20
234.2766
 10
121.0519
 20
234.2521
 10
120.9826
 20
234.2329999999999
 10
120.9599
 20
234.2254
 10
120.09
 20
233.89
 10
119.7778
 20
234.5595000000001
 10
119.4656
 20
235.2289000000001
 10
119.4656
 20
235.2289000000001
 10
120.2817
 20
235.6797
 10
120.3021
 20
235.6922
 10
120.3613
 20
235.7331
 10
120.4555
 20
235.8072
 10
120.5806
 20
235.919
 10
120.7319
 20
236.0728
 10
120.9045
 20
236.2721
 10
121.0931
 20
236.5201999999999
 10
121.292
 20
236.8197
 10
121.4953
 20
237.1728000000001
 10
121.6969
 20
237.5812
 10
121.4108
 20
237.9899
 10
121.1246
 20
238.3986
 10
120.6719
 20
238.3488
 10
120.2705
 20
238.2785
 10
119.921
 20
238.1940999999999
 10
119.6234
 20
238.1016999999999
 10
119.3771
 20
238.0077
 10
119.1808
 20
237.9181
 10
119.0329
 20
237.8388
 10
118.9311
 20
237.7755999999999
 10
118.8725
 20
237.734
 10
118.8537
 20
237.7190000000001
 10
118.151
 20
237.1064
 10
117.6287
 20
237.6287
 10
117.1064
 20
238.1510000000001
 10
117.1064
 20
238.1510000000001
 10
117.719
 20
238.8537
 10
117.734
 20
238.8724999999999
 10
117.7756
 20
238.9311
 10
117.8388
 20
239.0329
 10
117.9181
 20
239.1808
 10
118.0077
 20
239.3771
 10
118.1017
 20
239.6233999999999
 10
118.1941
 20
239.921
 10
118.2785
 20
240.2705
 10
118.3488
 20
240.6719000000001
 10
118.3986
 20
241.1246
 10
117.9899
 20
241.4108
 10
117.5812
 20
241.6969
 10
117.1728
 20
241.4953
 10
116.8197
 20
241.292
 10
116.5202
 20
241.0931
 10
116.2721
 20
240.9045
 10
116.0728
 20
240.7319
 10
115.919
 20
240.5806
 10
115.8072
 20
240.4555
 10
115.7331
 20
240.3613
 10
115.6922
 20
240.3021
 10
115.6797
 20
240.2817
 10
115.2289
 20
239.4656
 10
114.5595
 20
239.7778000000001
 10
113.89
 20
240.09
 10
113.89
 20
240.09
 10
114.2254
 20
240.9599000000001
 10
114.233
 20
240.9826
 10
114.2521
 20
241.0518999999999
 10
114.2766
 20
241.1692
 10
114.3005
 20
241.3353
 10
114.3176
 20
241.5504
 10
114.3217
 20
241.814
 10
114.3067
 20
242.1251999999999
 10
114.2666
 20
242.4825
 10
114.1953
 20
242.8838000000001
 10
114.0873
 20
243.3262
 10
113.6053
 20
243.4553
 10
113.1234
 20
243.5844
 10
112.8086
 20
243.2553
 10
112.5463
 20
242.9435
 10
112.3329
 20
242.6541
 10
112.1643
 20
242.3921
 10
112.036
 20
242.1617
 10
111.9433
 20
241.9669
 10
111.8809
 20
241.8111
 10
111.8435
 20
241.6973
 10
111.8254
 20
241.6277
 10
111.8207
 20
241.6042
 10
111.6762
 20
240.6831999999999
 10
110.9403
 20
240.7476
 10
110.2044
 20
240.812
 10
110.2044
 20
240.812
 10
110.222
 20
241.7441
 10
110.2215
 20
241.768
 10
110.2157
 20
241.8397
 10
110.1986
 20
241.9583
 10
110.1643
 20
242.1226
 10
110.1068
 20
242.3305
 10
110.0205
 20
242.5796
 10
109.8999
 20
242.867
 10
109.74
 20
243.189
 10
109.5358
 20
243.5416
 10
109.283
 20
243.9204
 10
108.7859
 20
243.8769
 10
108.2889
 20
243.8335
 10
108.1057
 20
243.4165
 10
107.9658
 20
243.0338
 10
107.8642
 20
242.6889
 10
107.7954
 20
242.385
 10
107.7537
 20
242.1246
 10
107.7332
 20
241.9099
 10
107.7279
 20
241.7422
 10
107.7316
 20
241.6224
 10
107.7384
 20
241.5508
 10
107.742
 20
241.5271
 10
107.9212
 20
240.6122
 10
107.2077
 20
240.421
 10
106.4942
 20
240.2298000000001
 10
106.4942
 20
240.2298000000001
 10
106.1919
 20
241.1117
 10
106.1832
 20
241.1341
 10
106.1533
 20
241.1994999999999
 10
106.0967
 20
241.3051
 10
106.0082
 20
241.4476999999999
 10
105.883
 20
241.6233999999999
 10
105.7167
 20
241.828
 10
105.5052
 20
242.0568000000001
 10
105.2448
 20
242.3047
 10
104.9323
 20
242.5662
 10
104.5651
 20
242.8357
 10
104.1129
 20
242.6248000000001
 10
103.6608
 20
242.414
 10
103.6312
 20
241.9594999999999
 10
103.6307
 20
241.552
 10
103.6532
 20
241.1931999999999
 10
103.6925
 20
240.8841
 10
103.7423
 20
240.6251
 10
103.7965
 20
240.4163
 10
103.8488
 20
240.2569
 10
103.8934
 20
240.1456000000001
 10
103.9242
 20
240.0807
 10
103.9357
 20
240.0596
 10
104.417
 20
239.2612
 10
103.8119
 20
238.8375
 10
103.2068
 20
238.4138
 10
103.2068
 20
238.4138
 10
102.6212
 20
239.1392
 10
102.6053
 20
239.1572
 10
102.5548
 20
239.2084
 10
102.4655
 20
239.2882999999999
 10
102.3336
 20
239.3920000000001
 10
102.1559
 20
239.5143
 10
101.9296
 20
239.6496999999999
 10
101.6526
 20
239.7923000000001
 10
101.3231
 20
239.9362
 10
100.94
 20
240.0751
 10
100.5028
 20
240.2028
 10
100.15
 20
239.85
 10
99.79719999999998
 20
239.4972
 10
99.92489999999998
 20
239.0599999999999
 10
100.0638
 20
238.6768999999999
 10
100.2077
 20
238.3474
 10
100.3503
 20
238.0704000000001
 10
100.4857
 20
237.8441
 10
100.608
 20
237.6664000000001
 10
100.7117
 20
237.5345
 10
100.7916
 20
237.4452
 10
100.8428
 20
237.3947000000001
 10
100.8608
 20
237.3788
 10
101.5862
 20
236.7932000000001
 10
101.1625
 20
236.1881
 10
100.7388
 20
235.583
 10
100.7388
 20
235.583
 10
99.94040000000001
 20
236.0643
 10
99.91930000000002
 20
236.0758
 10
99.8544
 20
236.1066
 10
99.74310000000003
 20
236.1512
 10
99.58370000000002
 20
236.2035
 10
99.37490000000003
 20
236.2577
 10
99.11590000000001
 20
236.3075
 10
98.80680000000001
 20
236.3468
 10
98.44799999999998
 20
236.3693000000001
 10
98.04050000000001
 20
236.3688
 10
97.58600000000001
 20
236.3392
 10
97.37519999999995
 20
235.8871
 10
97.16430000000003
 20
235.4349
 10
97.43380000000002
 20
235.0677000000001
 10
97.69529999999997
 20
234.7552000000001
 10
97.94319999999993
 20
234.4947999999999
 10
98.17200000000003
 20
234.2833000000001
 10
98.3766
 20
234.117
 10
98.5523
 20
233.9918
 10
98.69490000000002
 20
233.9032999999999
 10
98.8005
 20
233.8467000000001
 10
98.86590000000001
 20
233.8168000000001
 10
98.88830000000002
 20
233.8081
 10
99.77019999999999
 20
233.5058
 10
99.57900000000001
 20
232.7923000000001
 10
99.38780000000003
 20
232.0788
 10
99.38780000000003
 20
232.0788
 10
98.47289999999998
 20
232.258
 10
98.44920000000002
 20
232.2616
 10
98.37759999999997
 20
232.2684
 10
98.25779999999997
 20
232.2721
 10
98.0901
 20
232.2668
 10
97.87540000000001
 20
232.2463
 10
97.61500000000001
 20
232.2046
 10
97.31110000000001
 20
232.1358
 10
96.96620000000007
 20
232.0342000000001
 10
96.58349999999996
 20
231.8942999999999
 10
96.16650000000004
 20
231.7111
 10
96.12310000000002
 20
231.2141
 10
96.07960000000003
 20
230.717
 10
96.45839999999998
 20
230.4642
 10
96.81100000000004
 20
230.26
 10
97.13300000000004
 20
230.1001
 10
97.42039999999997
 20
229.9795
 10
97.66949999999997
 20
229.8932
 10
97.87739999999997
 20
229.8357
 10
98.04169999999999
 20
229.8014000000001
 10
98.1603
 20
229.7843
 10
98.23200000000003
 20
229.7785
 10
98.2559
 20
229.778
 10
99.18799999999999
 20
229.7956
 10
99.25240000000002
 20
229.0597
 10
99.3168
 20
228.3238
 10
99.3168
 20
228.3238
 10
98.39580000000001
 20
228.1793
 10
98.3723
 20
228.1746000000001
 10
98.30270000000002
 20
228.1565000000001
 10
98.18889999999999
 20
228.1191
 10
98.03309999999999
 20
228.0567
 10
97.8383
 20
227.9639999999999
 10
97.60789999999997
 20
227.8357
 10
97.34590000000003
 20
227.6671
 10
97.05650000000003
 20
227.4537
 10
96.74469999999997
 20
227.1913999999999
 10
96.41560000000004
 20
226.8766000000001
 10
96.54470000000003
 20
226.3947000000001
 10
96.67380000000003
 20
225.9127
 10
97.11619999999994
 20
225.8047
 10
97.51749999999993
 20
225.7334
 10
97.87480000000005
 20
225.6933
 10
98.18599999999998
 20
225.6783
 10
98.44959999999998
 20
225.6824
 10
98.66469999999998
 20
225.6994999999999
 10
98.83080000000001
 20
225.7234
 10
98.94810000000001
 20
225.7479
 10
99.01740000000001
 20
225.7670000000001
 10
99.0401
 20
225.7746
 10
99.91000000000003
 20
226.11
 10
100.2222
 20
225.4404999999999
 10
100.5344
 20
224.7710999999999
 10
100.5344
 20
224.7710999999999
 10
99.7183
 20
224.3203
 10
99.6979
 20
224.3078
 10
99.63869999999997
 20
224.2669
 10
99.54450000000003
 20
224.1928
 10
99.4194
 20
224.081
 10
99.2681
 20
223.9272
 10
99.09550000000002
 20
223.7279
 10
98.90690000000001
 20
223.4798000000001
 10
98.70800000000003
 20
223.1803
 10
98.50470000000001
 20
222.8271999999999
 10
98.30309999999997
 20
222.4188
 10
98.5892
 20
222.0101
 10
98.87540000000001
 20
221.6014
 10
99.3281
 20
221.6512
 10
99.72949999999997
 20
221.7215
 10
100.079
 20
221.8059000000001
 10
100.3766
 20
221.8983000000001
 10
100.6229
 20
221.9923
 10
100.8192
 20
222.0819
 10
100.9671
 20
222.1612
 10
101.0689
 20
222.2244000000001
 10
101.1275
 20
222.266
 10
101.1463
 20
222.2809999999999
 10
101.849
 20
222.8936
 10
102.3713
 20
222.3713
 10
102.8936
 20
221.8489999999999
 10
102.8936
 20
221.8489999999999
 10
102.281
 20
221.1463
 10
102.266
 20
221.1275000000001
 10
102.2244
 20
221.0689
 10
102.1612
 20
220.9671
 10
102.0819
 20
220.8192
 10
101.9923
 20
220.6229
 10
101.8983
 20
220.3766000000001
 10
101.8059
 20
220.079
 10
101.7215
 20
219.7295
 10
101.6512
 20
219.3280999999999
 10
101.6014
 20
218.8754
 10
102.0101
 20
218.5892
 10
102.4188
 20
218.3031
 10
102.8272
 20
218.5047
 10
103.1803
 20
218.708
 10
103.4798
 20
218.9069
 10
103.7279
 20
219.0955
 10
103.9272
 20
219.2681
 10
104.081
 20
219.4194
 10
104.1928
 20
219.5445
 10
104.2669
 20
219.6387
 10
104.3078
 20
219.6979
 10
104.3203
 20
219.7183
 10
104.7711
 20
220.5344
 10
105.4405
 20
220.2221999999999
 10
106.11
 20
219.91
 10
106.11
 20
219.91
 10
105.7746
 20
219.0400999999999
 10
105.767
 20
219.0174
 10
105.7479
 20
218.9481000000001
 10
105.7234
 20
218.8308
 10
105.6995
 20
218.6647
 10
105.6824
 20
218.4496
 10
105.6783
 20
218.186
 10
105.6933
 20
217.8748000000001
 10
105.7334
 20
217.5175
 10
105.8047
 20
217.1161999999999
 10
105.9127
 20
216.6738
 10
106.3947
 20
216.5447
 10
106.8766
 20
216.4156
 10
107.1914
 20
216.7447
 10
107.4537
 20
217.0565
 10
107.6671
 20
217.3459
 10
107.8357
 20
217.6079
 10
107.964
 20
217.8383
 10
108.0567
 20
218.0331
 10
108.1191
 20
218.1889
 10
108.1565
 20
218.3027
 10
108.1746
 20
218.3723
 10
108.1793
 20
218.3958
 10
108.3238
 20
219.3168000000001
 10
109.0597
 20
219.2524
 10
109.7956
 20
219.188
 10
109.7956
 20
219.188
 10
109.778
 20
218.2559
 10
109.7785
 20
218.232
 10
109.7843
 20
218.1603
 10
109.8014
 20
218.0417
 10
109.8357
 20
217.8774
 10
109.8932
 20
217.6695
 10
109.9795
 20
217.4204
 10
110.1001
 20
217.133
 10
110.26
 20
216.811
 10
110.4642
 20
216.4584
 10
110.717
 20
216.0796
 10
111.2141
 20
216.1231
 10
111.7111
 20
216.1665
 10
111.8943
 20
216.5835
 10
112.0342
 20
216.9662
 10
112.1358
 20
217.3111
 10
112.2046
 20
217.615
 10
112.2463
 20
217.8754
 10
112.2668
 20
218.0901
 10
112.2721
 20
218.2578
 10
112.2684
 20
218.3776
 10
112.2616
 20
218.4492
 10
112.258
 20
218.4729
 10
112.0788
 20
219.3878
 10
112.7923
 20
219.579
 10
113.5058
 20
219.7701999999999
 10
113.5058
 20
219.7701999999999
 10
113.8081
 20
218.8883
 10
113.8168
 20
218.8659
 10
113.8467
 20
218.8005000000001
 10
113.9033
 20
218.6949
 10
113.9918
 20
218.5523000000001
 10
114.117
 20
218.3766000000001
 10
114.2833
 20
218.172
 10
114.4948
 20
217.9431999999999
 10
114.7552
 20
217.6953
 10
115.0677
 20
217.4338
 10
115.4349
 20
217.1643
 10
115.8871
 20
217.3751999999999
 10
116.3392
 20
217.586
 10
116.3688
 20
218.0405000000001
 10
116.3693
 20
218.448
 10
116.3468
 20
218.8068000000001
 10
116.3075
 20
219.1159
 10
116.2577
 20
219.3749
 10
116.2035
 20
219.5837
 10
116.1512
 20
219.7431
 10
116.1066
 20
219.8543999999999
 10
116.0758
 20
219.9193
 10
116.0643
 20
219.9404
 10
115.583
 20
220.7388
 10
116.1881
 20
221.1625
 10
116.7932
 20
221.5862
 10
116.7932
 20
221.5862
 10
117.3788
 20
220.8608
 10
117.3947
 20
220.8428
 10
117.4452
 20
220.7916
 10
117.5345
 20
220.7117000000001
 10
117.6664
 20
220.6079999999999
 10
117.8441
 20
220.4857
 10
118.0704
 20
220.3503000000001
 10
118.3474
 20
220.2076999999999
 10
118.6769
 20
220.0638
 10
119.06
 20
219.9249
 10
119.4972
 20
219.7972
 10
119.85
 20
220.15
 10
120.2028
 20
220.5028
 10
120.0751
 20
220.9400000000001
 10
119.9362
 20
221.3231000000001
 10
119.7923
 20
221.6526
 10
119.6497
 20
221.9295999999999
 10
119.5143
 20
222.1559
 10
119.392
 20
222.3335999999999
 10
119.2883
 20
222.4655
 10
119.2084
 20
222.5548
 10
119.1572
 20
222.6052999999999
 10
119.1392
 20
222.6212
 10
118.4138
 20
223.2067999999999
 10
118.8375
 20
223.8119
 10
119.2612
 20
224.417
 10
119.2612
 20
224.417
 10
120.0596
 20
223.9357
 10
120.0807
 20
223.9242
 10
120.1456
 20
223.8934
 10
120.2569
 20
223.8488
 10
120.4163
 20
223.7965
 10
120.6251
 20
223.7423
 10
120.8841
 20
223.6925
 10
121.1932
 20
223.6532
 10
121.552
 20
223.6306999999999
 10
121.9595
 20
223.6312
 10
122.414
 20
223.6608
 10
122.6248
 20
224.1129
 10
122.8357
 20
224.5651
 10
122.5662
 20
224.9322999999999
 10
122.3047
 20
225.2447999999999
 10
122.0568
 20
225.5052000000001
 10
121.828
 20
225.7166999999999
 10
121.6234
 20
225.883
 10
121.4477
 20
226.0082
 10
121.3051
 20
226.0967000000001
 10
121.1995
 20
226.1532999999999
 10
121.1341
 20
226.1831999999999
 10
121.1117
 20
226.1919
 10
120.2298
 20
226.4942
 10
120.421
 20
227.2076999999999
 10
120.6122
 20
227.9212
 10
120.6122
 20
227.9212
 10
121.5271
 20
227.742
 10
121.5508
 20
227.7384
 10
121.6224
 20
227.7316
 10
121.7422
 20
227.7279
 10
121.9099
 20
227.7332
 10
122.1246
 20
227.7537
 10
122.385
 20
227.7954
 10
122.6889
 20
227.8642
 10
123.0338
 20
227.9657999999999
 10
123.4165
 20
228.1057000000001
 10
123.8335
 20
228.2889
 10
123.8769
 20
228.7859
 10
123.9204
 20
229.283
 10
123.5416
 20
229.5358
 10
123.189
 20
229.74
 10
122.867
 20
229.8999
 10
122.5796
 20
230.0205
 10
122.3305
 20
230.1068
 10
122.1226
 20
230.1643
 10
121.9583
 20
230.1985999999999
 10
121.8397
 20
230.2157
 10
121.768
 20
230.2215
 10
121.7441
 20
230.222
 10
120.812
 20
230.2044
 10
120.7476
 20
230.9403
 10
120.6832
 20
231.6762
  0
LWPOLYLINE
  5
296C
330
2C5E
100
AcDbEntity
  8
LaserCut
 62
     1
420
 16711680
100
AcDbPolyline
 90
      729
 70
   128
 43
0.0
 10
67.93869999999998
 20
69.75020000000004
 10
67.3835
 20
69.74040000000008
 10
67.35590000000002
 20
69.74100000000004
 10
67.27339999999998
 20
69.74670000000006
 10
67.13659999999999
 20
69.76380000000006
 10
66.94680000000005
 20
69.79820000000001
 10
66.70549999999997
 20
69.85610000000005
 10
66.41500000000002
 20
69.94300000000004
 10
66.078
 20
70.06480000000002
 10
65.69749999999999
 20
70.2269
 10
65.27730000000003
 20
70.43430000000015
 10
64.82130000000001
 20
70.69200000000015
 10
64.85230000000001
 20
71.22350000000003
 10
64.88319999999999
 20
71.755
 10
65.36610000000002
 20
71.95800000000003
 10
65.8075
 20
72.11520000000004
 10
66.20420000000001
 20
72.23200000000003
 10
66.55309999999997
 20
72.31379999999996
 10
66.8517
 20
72.36650000000006
 10
67.09809999999999
 20
72.39590000000001
 10
67.29070000000002
 20
72.40810000000002
 10
67.42850000000001
 20
72.4092
 10
67.51109999999997
 20
72.40530000000021
 10
67.5385
 20
72.40260000000015
 10
68.08890000000002
 20
72.32850000000002
 10
68.20920000000004
 20
73.01069999999999
 10
68.3295
 20
73.69290000000015
 10
68.3295
 20
73.69290000000015
 10
67.7869
 20
73.81140000000002
 10
67.76029999999997
 20
73.81830000000005
 10
67.68130000000002
 20
73.84289999999999
 10
67.55210000000002
 20
73.89109999999997
 10
67.37529999999998
 20
73.96840000000006
 10
67.15390000000002
 20
74.08030000000002
 10
66.89129999999997
 20
74.23190000000005
 10
66.5915
 20
74.42820000000003
 10
66.2586
 20
74.67360000000008
 10
65.89760000000004
 20
74.97230000000002
 10
65.51330000000002
 20
75.32820000000004
 10
65.666
 20
75.83820000000003
 10
65.8187
 20
76.34829999999997
 10
66.33530000000002
 20
76.43440000000004
 10
66.80110000000002
 20
76.48560000000006
 10
67.21400000000003
 20
76.5078
 10
67.57240000000002
 20
76.50690000000003
 10
67.87509999999997
 20
76.48930000000001
 10
68.1216
 20
76.46109999999999
 10
68.3118
 20
76.42860000000007
 10
68.44619999999998
 20
76.39780000000007
 10
68.52569999999997
 20
76.37500000000003
 10
68.55180000000001
 20
76.36610000000002
 10
69.0702
 20
76.16700000000009
 10
69.34460000000001
 20
76.80310000000009
 10
69.6189
 20
77.43920000000006
 10
69.6189
 20
77.43920000000006
 10
69.11840000000001
 20
77.6796
 10
69.09400000000002
 20
77.6925
 10
69.02280000000002
 20
77.73460000000006
 10
68.9083
 20
77.81130000000005
 10
68.7541
 20
77.92730000000003
 10
68.56440000000003
 20
78.08719999999997
 10
68.34390000000002
 20
78.29530000000005
 10
68.09730000000002
 20
78.55550000000002
 10
67.83010000000002
 20
78.87100000000007
 10
67.54759999999999
 20
79.24490000000009
 10
67.25580000000002
 20
79.67990000000003
 10
67.52199999999999
 20
80.14089999999999
 10
67.78819999999999
 20
80.60200000000009
 10
68.31079999999997
 20
80.56670000000003
 10
68.7758
 20
80.50910000000005
 10
69.18270000000004
 20
80.43540000000002
 10
69.53120000000001
 20
80.35200000000006
 10
69.82170000000002
 20
80.26499999999999
 10
70.05509999999998
 20
80.1807
 10
70.23270000000002
 20
80.10520000000005
 10
70.35629999999998
 20
80.04429999999999
 10
70.42840000000001
 20
80.00380000000004
 10
70.45170000000002
 20
79.98910000000015
 10
70.9103
 20
79.67580000000007
 10
71.32389999999998
 20
80.23140000000012
 10
71.73759999999999
 20
80.78710000000018
 10
71.73759999999999
 20
80.78710000000018
 10
71.30599999999998
 20
81.13650000000001
 10
71.28519999999997
 20
81.15470000000005
 10
71.22570000000002
 20
81.21210000000002
 10
71.13189999999997
 20
81.31310000000002
 10
71.0086
 20
81.4615
 10
70.86090000000002
 20
81.66090000000003
 10
70.69430000000003
 20
81.91430000000003
 10
70.51440000000005
 20
82.22419999999997
 10
70.3272
 20
82.59289999999999
 10
70.1386
 20
83.02190000000002
 10
69.95490000000001
 20
83.51240000000004
 10
70.3202
 20
83.89960000000005
 10
70.68560000000002
 20
84.2869
 10
71.18599999999998
 20
84.13210000000004
 10
71.6252
 20
83.96869999999993
 10
72.0041
 20
83.80320000000003
 10
72.32400000000001
 20
83.6416000000001
 10
72.58659999999998
 20
83.49000000000015
 10
72.79430000000002
 20
83.35420000000005
 10
72.94959999999998
 20
83.23970000000006
 10
73.05590000000001
 20
83.15200000000002
 10
73.11670000000001
 20
83.0959
 10
73.13600000000002
 20
83.07620000000009
 10
73.50990000000002
 20
82.6656999999999
 10
74.04060000000001
 20
83.11089999999987
 10
74.57119999999998
 20
83.55620000000005
 10
74.57119999999998
 20
83.55620000000005
 10
74.23180000000002
 20
83.99580000000006
 10
74.2158
 20
84.01820000000004
 10
74.17110000000002
 20
84.08779999999993
 10
74.10320000000004
 20
84.20769999999996
 10
74.01740000000001
 20
84.38060000000007
 10
73.91969999999998
 20
84.60860000000008
 10
73.81599999999997
 20
84.89359999999999
 10
73.71249999999998
 20
85.23669999999998
 10
73.61520000000002
 20
85.63860000000005
 10
73.53070000000002
 20
86.09950000000003
 10
73.4651
 20
86.61910000000003
 10
73.9099
 20
86.91170000000002
 10
74.35469999999998
 20
87.20429999999999
 10
74.80590000000001
 20
86.9382
 10
75.19560000000001
 20
86.67800000000005
 10
75.52609999999999
 20
86.42950000000008
 10
75.80009999999999
 20
86.19850000000005
 10
76.02069999999998
 20
85.99050000000003
 10
76.19139999999999
 20
85.81040000000002
 10
76.31619999999998
 20
85.66320000000002
 10
76.39940000000001
 20
85.55330000000004
 10
76.44560000000001
 20
85.48470000000006
 10
76.45979999999997
 20
85.46109999999996
 10
76.72899999999998
 20
84.97540000000004
 10
77.34809999999999
 20
85.2863000000001
 10
77.96710000000002
 20
85.59719999999999
 10
77.96710000000002
 20
85.59719999999999
 10
77.73820000000003
 20
86.10319999999987
 10
77.7278
 20
86.12870000000004
 10
77.7004
 20
86.20670000000001
 10
77.6619
 20
86.33910000000009
 10
77.61829999999998
 20
86.52700000000004
 10
77.57580000000002
 20
86.77150000000003
 10
77.54070000000002
 20
87.07270000000005
 10
77.519
 20
87.43040000000002
 10
77.51710000000003
 20
87.84390000000002
 10
77.54109999999997
 20
88.3119000000001
 10
77.59710000000001
 20
88.83270000000002
 10
78.0974
 20
89.01480000000006
 10
78.59769999999997
 20
89.1968
 10
78.9753
 20
88.83390000000003
 10
79.2946
 20
88.49080000000006
 10
79.5589
 20
88.1728
 10
79.7722
 20
87.8848999999999
 10
79.93889999999999
 20
87.63160000000002
 10
80.06349999999998
 20
87.41700000000006
 10
80.15089999999998
 20
87.24500000000018
 10
80.2065
 20
87.11890000000005
 10
80.23570000000001
 20
87.04149999999998
 10
80.2441
 20
87.01520000000002
 10
80.394
 20
86.48050000000018
 10
81.06799999999998
 20
86.64020000000002
 10
81.7421
 20
86.80000000000001
 10
81.7421
 20
86.80000000000001
 10
81.6361
 20
87.34510000000003
 10
81.6318
 20
87.37240000000003
 10
81.62310000000002
 20
87.45460000000003
 10
81.61619999999999
 20
87.59230000000002
 10
81.61720000000003
 20
87.78520000000006
 10
81.63220000000001
 20
88.03289999999998
 10
81.66739999999999
 20
88.33410000000003
 10
81.72879999999998
 20
88.68710000000002
 10
81.82229999999998
 20
89.0899
 10
81.9536
 20
89.5397999999999
 10
82.12819999999999
 20
90.0336
 10
82.65700000000001
 20
90.09539999999998
 10
83.18579999999997
 20
90.15719999999999
 10
83.46960000000001
 20
89.71700000000001
 10
83.7011
 20
89.30950000000007
 10
83.88499999999999
 20
88.9391
 10
84.02609999999999
 20
88.6098
 10
84.12990000000002
 20
88.32480000000004
 10
84.20159999999998
 20
88.08730000000003
 10
84.24709999999999
 20
87.89980000000003
 10
84.27210000000005
 20
87.76420000000002
 10
84.2826
 20
87.68220000000005
 10
84.28469999999999
 20
87.65470000000002
 10
84.3073
 20
87.09980000000007
 10
85.0
 20
87.09980000000004
 10
85.6927
 20
87.09980000000007
 10
85.6927
 20
87.09980000000007
 10
85.71530000000001
 20
87.65470000000002
 10
85.7174
 20
87.68220000000002
 10
85.72789999999998
 20
87.76420000000007
 10
85.75290000000001
 20
87.89980000000006
 10
85.79840000000002
 20
88.08730000000003
 10
85.87009999999998
 20
88.32480000000004
 10
85.97390000000001
 20
88.60980000000004
 10
86.11500000000004
 20
88.9391
 10
86.2989
 20
89.30950000000007
 10
86.53039999999999
 20
89.71700000000004
 10
86.81420000000003
 20
90.15720000000002
 10
87.34300000000005
 20
90.09539999999998
 10
87.87180000000001
 20
90.03360000000004
 10
88.0464
 20
89.53979999999993
 10
88.17770000000004
 20
89.08989999999997
 10
88.27120000000002
 20
88.68710000000002
 10
88.33260000000004
 20
88.33410000000003
 10
88.36779999999999
 20
88.03289999999998
 10
88.38279999999997
 20
87.78520000000006
 10
88.38380000000001
 20
87.59230000000005
 10
88.37689999999998
 20
87.45460000000006
 10
88.3682
 20
87.37240000000003
 10
88.36390000000003
 20
87.3451
 10
88.2579
 20
86.80000000000001
 10
88.93200000000002
 20
86.6402
 10
89.606
 20
86.48050000000012
 10
89.606
 20
86.48050000000012
 10
89.7559
 20
87.01520000000002
 10
89.76429999999999
 20
87.04150000000001
 10
89.79350000000002
 20
87.1189
 10
89.84910000000002
 20
87.24500000000012
 10
89.93650000000002
 20
87.41700000000006
 10
90.06110000000001
 20
87.63159999999999
 10
90.2278
 20
87.88489999999993
 10
90.4411
 20
88.17280000000002
 10
90.70540000000003
 20
88.49080000000004
 10
91.0247
 20
88.83390000000003
 10
91.40230000000005
 20
89.1968
 10
91.90260000000004
 20
89.01480000000004
 10
92.40289999999999
 20
88.83269999999999
 10
92.45890000000003
 20
88.31190000000007
 10
92.48289999999997
 20
87.84390000000005
 10
92.481
 20
87.43040000000005
 10
92.45929999999998
 20
87.0727
 10
92.42419999999998
 20
86.77150000000003
 10
92.38170000000002
 20
86.52700000000002
 10
92.3381
 20
86.33910000000003
 10
92.2996
 20
86.20670000000001
 10
92.2722
 20
86.12870000000007
 10
92.26180000000002
 20
86.1031999999999
 10
92.03289999999998
 20
85.59720000000002
 10
92.65190000000004
 20
85.28630000000004
 10
93.27100000000002
 20
84.97540000000006
 10
93.27100000000002
 20
84.97540000000006
 10
93.54020000000003
 20
85.46109999999999
 10
93.55440000000002
 20
85.48470000000003
 10
93.60060000000001
 20
85.55330000000004
 10
93.68380000000002
 20
85.66320000000005
 10
93.80860000000001
 20
85.81040000000002
 10
93.97930000000002
 20
85.99050000000005
 10
94.19990000000001
 20
86.19850000000005
 10
94.47390000000001
 20
86.42950000000005
 10
94.80439999999999
 20
86.678
 10
95.19409999999999
 20
86.93820000000002
 10
95.64530000000002
 20
87.20430000000005
 10
96.0901
 20
86.91170000000005
 10
96.53490000000002
 20
86.6191
 10
96.46929999999998
 20
86.09950000000009
 10
96.38479999999998
 20
85.6386
 10
96.28750000000002
 20
85.23670000000001
 10
96.18400000000003
 20
84.89359999999999
 10
96.08030000000005
 20
84.60860000000002
 10
95.98260000000002
 20
84.38060000000002
 10
95.89679999999998
 20
84.20770000000002
 10
95.82889999999998
 20
84.08779999999993
 10
95.78420000000003
 20
84.01820000000004
 10
95.76819999999998
 20
83.99580000000009
 10
95.42880000000005
 20
83.55619999999999
 10
95.95940000000002
 20
83.11089999999993
 10
96.49009999999998
 20
82.6656999999999
 10
96.49009999999998
 20
82.6656999999999
 10
96.864
 20
83.07620000000006
 10
96.88330000000002
 20
83.09590000000006
 10
96.94410000000002
 20
83.15199999999999
 10
97.05040000000002
 20
83.23970000000006
 10
97.20570000000001
 20
83.35419999999999
 10
97.41340000000002
 20
83.49000000000018
 10
97.67599999999999
 20
83.64160000000007
 10
97.99590000000003
 20
83.8032
 10
98.3748
 20
83.9686999999999
 10
98.81400000000005
 20
84.13210000000004
 10
99.3144
 20
84.2869
 10
99.6798
 20
83.89960000000005
 10
100.0451
 20
83.51240000000001
 10
99.8614
 20
83.02190000000002
 10
99.67280000000002
 20
82.59289999999999
 10
99.48559999999998
 20
82.2242
 10
99.3057
 20
81.91430000000003
 10
99.13910000000001
 20
81.66090000000003
 10
98.9914
 20
81.46150000000003
 10
98.86810000000003
 20
81.31310000000002
 10
98.77430000000001
 20
81.21210000000002
 10
98.71480000000003
 20
81.15469999999999
 10
98.69400000000002
 20
81.13650000000004
 10
98.26240000000004
 20
80.78710000000012
 10
98.67610000000005
 20
80.23140000000012
 10
99.08970000000002
 20
79.67580000000004
 10
99.08970000000002
 20
79.67580000000004
 10
99.54829999999998
 20
79.98910000000012
 10
99.57160000000002
 20
80.00380000000001
 10
99.64370000000002
 20
80.04430000000005
 10
99.7673
 20
80.10520000000002
 10
99.94490000000002
 20
80.18070000000003
 10
100.1783
 20
80.26499999999999
 10
100.4688
 20
80.35200000000003
 10
100.8173
 20
80.43540000000002
 10
101.2242
 20
80.50910000000002
 10
101.6892
 20
80.56670000000003
 10
102.2118
 20
80.60200000000006
 10
102.478
 20
80.14090000000004
 10
102.7442
 20
79.67990000000003
 10
102.4524
 20
79.24490000000003
 10
102.1699
 20
78.87100000000004
 10
101.9027
 20
78.5555
 10
101.6561
 20
78.2953
 10
101.4356
 20
78.08720000000005
 10
101.2459
 20
77.92730000000003
 10
101.0917
 20
77.81130000000002
 10
100.9772
 20
77.73460000000006
 10
100.906
 20
77.69250000000002
 10
100.8816
 20
77.67960000000002
 10
100.3811
 20
77.43920000000006
 10
100.6554
 20
76.80310000000006
 10
100.9298
 20
76.16700000000006
 10
100.9298
 20
76.16700000000006
 10
101.4482
 20
76.36610000000002
 10
101.4743
 20
76.37500000000003
 10
101.5538
 20
76.39780000000005
 10
101.6882
 20
76.42860000000005
 10
101.8784
 20
76.46109999999999
 10
102.1249000000001
 20
76.48930000000001
 10
102.4276
 20
76.50690000000009
 10
102.786
 20
76.50780000000009
 10
103.1989
 20
76.48560000000006
 10
103.6647
 20
76.43440000000007
 10
104.1813
 20
76.34830000000002
 10
104.334
 20
75.83820000000003
 10
104.4867
 20
75.3282000000001
 10
104.1024
 20
74.97230000000005
 10
103.7414
 20
74.67360000000002
 10
103.4085
 20
74.42820000000006
 10
103.1087
 20
74.23190000000005
 10
102.8461
 20
74.08030000000005
 10
102.6247
 20
73.96840000000006
 10
102.4479
 20
73.89110000000002
 10
102.3187
 20
73.84289999999999
 10
102.2397
 20
73.81830000000005
 10
102.2131
 20
73.81140000000002
 10
101.6705
 20
73.69290000000015
 10
101.7908
 20
73.01070000000001
 10
101.9111
 20
72.32850000000005
 10
101.9111
 20
72.32850000000005
 10
102.4615
 20
72.40260000000012
 10
102.4889
 20
72.40530000000012
 10
102.5715
 20
72.40920000000006
 10
102.7093
 20
72.40810000000002
 10
102.9019
 20
72.39589999999998
 10
103.1483
 20
72.36650000000006
 10
103.4469
 20
72.3137999999999
 10
103.7958
 20
72.23200000000003
 10
104.1925
 20
72.11520000000002
 10
104.6339
 20
71.95800000000006
 10
105.1168
 20
71.75500000000002
 10
105.1477
 20
71.22350000000003
 10
105.1787
 20
70.69200000000015
 10
104.7227
 20
70.43430000000012
 10
104.3025
 20
70.22690000000006
 10
103.922
 20
70.06480000000002
 10
103.585
 20
69.94300000000001
 10
103.2945
 20
69.85610000000003
 10
103.0532
 20
69.79820000000004
 10
102.8634
 20
69.7638
 10
102.7266
 20
69.74670000000006
 10
102.6441
 20
69.74099999999999
 10
102.6165
 20
69.74040000000005
 10
102.0613
 20
69.7502
 10
102.021
 20
69.05860000000004
 10
101.9807
 20
68.3671
 10
101.9807
 20
68.3671
 10
102.5333
 20
68.31230000000002
 10
102.5607
 20
68.30860000000007
 10
102.6419
 20
68.29330000000004
 10
102.7758
 20
68.26050000000006
 10
102.9604
 20
68.2041999999999
 10
103.1933000000001
 20
68.11880000000002
 10
103.4717
 20
67.99860000000012
 10
103.7923
 20
67.83850000000001
 10
104.1514000000001
 20
67.6334
 10
104.5447
 20
67.37870000000007
 10
104.9677
 20
67.06979999999999
 10
104.8753
 20
66.54550000000003
 10
104.7828
 20
66.02110000000005
 10
104.2797
 20
65.87560000000002
 10
103.8229
 20
65.77070000000003
 10
103.4154
 20
65.70070000000001
 10
103.0594
 20
65.6599
 10
102.7566
 20
65.64230000000003
 10
102.5085
 20
65.64169999999993
 10
102.3158
 20
65.65190000000004
 10
102.1788
 20
65.6669
 10
102.0972
 20
65.68030000000002
 10
102.0703
 20
65.68610000000012
 10
101.5322
 20
65.82370000000003
 10
101.3336
 20
65.1601
 10
101.1349
 20
64.4964
 10
101.1349
 20
64.4964
 10
101.66
 20
64.31570000000002
 10
101.6857
 20
64.30580000000006
 10
101.7613
 20
64.27220000000005
 10
101.884
 20
64.20929999999998
 10
102.0506
 20
64.11200000000005
 10
102.2575
 20
63.97520000000009
 10
102.5007
 20
63.79410000000007
 10
102.7758
 20
63.5643
 10
103.0779
 20
63.28200000000007
 10
103.4018
 20
62.94330000000002
 10
103.7422
 20
62.54520000000008
 10
103.5313
 20
62.05640000000005
 10
103.3204
 20
61.56750000000005
 10
102.7973000000001
 20
61.5419
 10
102.3287
 20
61.54510000000002
 10
101.916
 20
61.5711
 10
101.5601
 20
61.61350000000004
 10
101.2615
 20
61.66610000000003
 10
101.02
 20
61.72280000000012
 10
100.8348
 20
61.77720000000002
 10
100.7049
 20
61.8232999999999
 10
100.6286
 20
61.85520000000005
 10
100.6038
 20
61.86709999999999
 10
100.1119
 20
62.125
 10
99.7656
 20
61.52510000000007
 10
99.41919999999999
 20
60.92519999999993
 10
99.41919999999999
 20
60.92519999999993
 10
99.88850000000005
 20
60.62819999999999
 10
99.91120000000001
 20
60.61260000000001
 10
99.977
 20
60.5625
 10
100.0819
 20
60.47310000000004
 10
100.2216
 20
60.3399
 10
100.3914
 20
60.15899999999999
 10
100.5863
 20
59.92670000000004
 10
100.801
 20
59.63980000000004
 10
101.0298
 20
59.29540000000009
 10
101.2669
 20
58.89109999999999
 10
101.5063
 20
58.42530000000002
 10
101.1883
 20
57.99820000000005
 10
100.8704
 20
57.57120000000003
 10
100.3555
 20
57.6669
 10
99.90019999999998
 20
57.77810000000002
 10
99.50460000000001
 20
57.8984999999999
 10
99.16820000000001
 20
58.02190000000004
 10
98.8897
 20
58.14200000000005
 10
98.66770000000005
 20
58.25280000000004
 10
98.50009999999997
 20
58.34840000000003
 10
98.38440000000006
 20
58.42320000000001
 10
98.31749999999997
 20
58.47190000000018
 10
98.29599999999999
 20
58.48920000000007
 10
97.87700000000001
 20
58.85360000000003
 10
97.40159999999997
 20
58.34970000000004
 10
96.92620000000002
 20
57.8458
 10
96.92620000000002
 20
57.8458
 10
97.3144
 20
57.44870000000003
 10
97.3329
 20
57.42820000000003
 10
97.38529999999997
 20
57.36430000000001
 10
97.46679999999995
 20
57.25309999999996
 10
97.57199999999997
 20
57.09130000000005
 10
97.69549999999998
 20
56.87620000000004
 10
97.83159999999998
 20
56.60520000000002
 10
97.97430000000008
 20
56.27640000000002
 10
98.11750000000004
 20
55.88850000000002
 10
98.25500000000002
 20
55.44049999999999
 10
98.38049999999998
 20
54.93199999999993
 10
97.9727
 20
54.58980000000003
 10
97.56479999999999
 20
54.24760000000009
 10
97.08580000000003
 20
54.45949999999999
 10
96.6685
 20
54.67270000000005
 10
96.31139999999999
 20
54.88110000000006
 10
96.01240000000001
 20
55.07870000000005
 10
95.76909999999998
 20
55.25979999999998
 10
95.57870000000005
 20
55.41880000000003
 10
95.43769999999998
 20
55.55050000000006
 10
95.3423
 20
55.65000000000009
 10
95.2884
 20
55.71270000000004
 10
95.2715
 20
55.73450000000005
 10
94.9478
 20
56.1857
 10
94.36900000000006
 20
55.80510000000004
 10
93.79030000000003
 20
55.42439999999999
 10
93.79030000000003
 20
55.42439999999999
 10
94.07639999999998
 20
54.94840000000002
 10
94.08970000000002
 20
54.9242999999999
 10
94.1259
 20
54.85000000000005
 10
94.17960000000002
 20
54.72300000000001
 10
94.24460000000002
 20
54.54130000000004
 10
94.31519999999998
 20
54.30350000000004
 10
94.38510000000005
 20
54.00839999999999
 10
94.44810000000001
 20
53.65560000000002
 10
94.4981
 20
53.24520000000007
 10
94.52850000000004
 20
52.77750000000003
 10
94.5334
 20
52.25380000000001
 10
94.05760000000001
 20
52.01480000000004
 10
93.58179999999999
 20
51.77590000000006
 10
93.16460000000001
 20
52.09250000000006
 10
92.80770000000001
 20
52.39620000000008
 10
92.50830000000005
 20
52.68140000000002
 10
92.2629
 20
52.94260000000008
 10
92.06800000000001
 20
53.17490000000004
 10
91.91930000000005
 20
53.37350000000004
 10
91.8125
 20
53.53420000000003
 10
91.74270000000001
 20
53.65300000000005
 10
91.7047
 20
53.72650000000002
 10
91.69330000000002
 20
53.75160000000002
 10
91.48230000000004
 20
54.26530000000002
 10
90.83139999999997
 20
54.02840000000006
 10
90.18039999999999
 20
53.79150000000004
 10
90.18039999999999
 20
53.79150000000004
 10
90.34900000000002
 20
53.26230000000004
 10
90.35640000000001
 20
53.23579999999998
 10
90.37459999999999
 20
53.1551
 10
90.39749999999998
 20
53.01920000000004
 10
90.41890000000001
 20
52.82739999999995
 10
90.43270000000001
 20
52.5797
 10
90.43269999999998
 20
52.27650000000006
 10
90.41270000000003
 20
51.9187
 10
90.36660000000006
 20
51.5077
 10
90.28840000000002
 20
51.04569999999995
 10
90.1723
 20
50.53489999999999
 10
89.65429999999998
 20
50.41210000000018
 10
89.13619999999997
 20
50.28940000000003
 10
88.80329999999998
 20
50.69370000000009
 10
88.52600000000001
 20
51.07149999999993
 10
88.30040000000002
 20
51.41800000000012
 10
88.12190000000001
 20
51.72880000000004
 10
87.98579999999998
 20
51.99979999999999
 10
87.887
 20
52.22729999999993
 10
87.82010000000005
 20
52.40830000000003
 10
87.77949999999998
 20
52.54010000000002
 10
87.75950000000003
 20
52.62029999999999
 10
87.75420000000005
 20
52.6474
 10
87.66739999999999
 20
53.19590000000002
 10
86.9794
 20
53.11550000000005
 10
86.2913
 20
53.03500000000003
 10
86.2913
 20
53.03500000000003
 10
86.33339999999998
 20
52.48130000000009
 10
86.33440000000004
 20
52.45370000000003
 10
86.33350000000004
 20
52.37100000000004
 10
86.32440000000005
 20
52.23349999999999
 10
86.30100000000002
 20
52.04200000000003
 10
86.25729999999999
 20
51.79770000000005
 10
86.18740000000005
 20
51.5027
 10
86.08540000000002
 20
51.15910000000002
 10
85.94580000000002
 20
50.76990000000012
 10
85.76310000000001
 20
50.33830000000003
 10
85.5324
 20
49.86810000000008
 10
84.99999999999997
 20
49.86810000000008
 10
84.4676
 20
49.86810000000008
 10
84.23689999999999
 20
50.3383
 10
84.05420000000004
 20
50.76990000000012
 10
83.91460000000001
 20
51.15910000000008
 10
83.81260000000003
 20
51.5027
 10
83.74270000000001
 20
51.79770000000005
 10
83.69900000000001
 20
52.04200000000003
 10
83.67559999999997
 20
52.23349999999999
 10
83.66649999999998
 20
52.37100000000007
 10
83.66559999999998
 20
52.45370000000005
 10
83.66660000000002
 20
52.48130000000003
 10
83.70870000000002
 20
53.03500000000008
 10
83.0206
 20
53.11550000000003
 10
82.33259999999999
 20
53.19590000000005
 10
82.33259999999999
 20
53.19590000000005
 10
82.24579999999997
 20
52.6474
 10
82.2405
 20
52.62029999999999
 10
82.22050000000007
 20
52.5401
 10
82.17989999999998
 20
52.40830000000005
 10
82.11300000000003
 20
52.2272999999999
 10
82.01420000000002
 20
51.99979999999999
 10
81.87810000000007
 20
51.72880000000004
 10
81.69960000000003
 20
51.41800000000012
 10
81.47400000000002
 20
51.0714999999999
 10
81.19670000000005
 20
50.69370000000004
 10
80.86380000000003
 20
50.28940000000003
 10
80.34570000000008
 20
50.41210000000012
 10
79.8277
 20
50.53489999999999
 10
79.71160000000003
 20
51.0456999999999
 10
79.63339999999997
 20
51.50770000000006
 10
79.5873
 20
51.91870000000006
 10
79.56730000000002
 20
52.2765
 10
79.56730000000002
 20
52.5797
 10
79.58109999999999
 20
52.82739999999995
 10
79.60250000000005
 20
53.01920000000001
 10
79.62540000000007
 20
53.1551
 10
79.64359999999999
 20
53.23580000000004
 10
79.65100000000007
 20
53.26230000000004
 10
79.81959999999998
 20
53.79150000000001
 10
79.16860000000003
 20
54.02840000000006
 10
78.51769999999999
 20
54.26530000000008
 10
78.51769999999999
 20
54.26530000000008
 10
78.30669999999998
 20
53.7516
 10
78.29530000000003
 20
53.72649999999999
 10
78.25729999999999
 20
53.65300000000002
 10
78.1875
 20
53.5342
 10
78.08070000000001
 20
53.37350000000004
 10
77.93200000000004
 20
53.17490000000004
 10
77.7371
 20
52.94260000000008
 10
77.49169999999998
 20
52.68140000000002
 10
77.19229999999999
 20
52.39620000000005
 10
76.83540000000002
 20
52.09250000000003
 10
76.41820000000001
 20
51.77590000000006
 10
75.94240000000002
 20
52.01480000000009
 10
75.46660000000003
 20
52.25380000000004
 10
75.47149999999999
 20
52.77750000000009
 10
75.50189999999998
 20
53.24520000000007
 10
75.55190000000002
 20
53.65559999999999
 10
75.61489999999998
 20
54.00839999999999
 10
75.68480000000002
 20
54.30349999999999
 10
75.75540000000004
 20
54.54130000000004
 10
75.82040000000006
 20
54.72300000000001
 10
75.87410000000006
 20
54.85000000000002
 10
75.91030000000006
 20
54.92429999999987
 10
75.92360000000005
 20
54.94839999999999
 10
76.20970000000003
 20
55.42439999999999
 10
75.63099999999997
 20
55.8051000000001
 10
75.0522
 20
56.18570000000005
 10
75.0522
 20
56.18570000000005
 10
74.72850000000003
 20
55.73450000000003
 10
74.71159999999998
 20
55.71270000000001
 10
74.6577
 20
55.65000000000003
 10
74.5623
 20
55.55050000000006
 10
74.42129999999995
 20
55.41880000000009
 10
74.23090000000005
 20
55.25979999999998
 10
73.98759999999999
 20
55.07870000000008
 10
73.68860000000004
 20
54.8811
 10
73.3315
 20
54.67270000000005
 10
72.9142
 20
54.45950000000005
 10
72.43520000000004
 20
54.24760000000003
 10
72.02730000000003
 20
54.58980000000003
 10
71.61950000000004
 20
54.9319999999999
 10
71.74500000000003
 20
55.44049999999999
 10
71.8825
 20
55.88850000000005
 10
72.02569999999997
 20
56.27640000000008
 10
72.16840000000002
 20
56.60520000000008
 10
72.30450000000002
 20
56.87620000000004
 10
72.428
 20
57.09130000000002
 10
72.53320000000002
 20
57.25309999999993
 10
72.61470000000003
 20
57.36430000000007
 10
72.66710000000003
 20
57.4282
 10
72.6856
 20
57.44870000000009
 10
73.0738
 20
57.84580000000003
 10
72.59840000000003
 20
58.34970000000001
 10
72.12300000000002
 20
58.85360000000003
 10
72.12300000000002
 20
58.85360000000003
 10
71.70400000000004
 20
58.48920000000004
 10
71.6825
 20
58.47190000000012
 10
71.61559999999997
 20
58.42320000000004
 10
71.49990000000003
 20
58.34840000000003
 10
71.3323
 20
58.25280000000004
 10
71.11030000000002
 20
58.142
 10
70.83179999999999
 20
58.02190000000007
 10
70.49540000000005
 20
57.8984999999999
 10
70.09980000000004
 20
57.77809999999999
 10
69.64450000000002
 20
57.6669
 10
69.12959999999998
 20
57.57120000000003
 10
68.81169999999997
 20
57.9982
 10
68.49369999999999
 20
58.42530000000005
 10
68.73309999999998
 20
58.89109999999999
 10
68.97019999999998
 20
59.29540000000003
 10
69.19899999999998
 20
59.63980000000009
 10
69.4137
 20
59.9267000000001
 10
69.60860000000002
 20
60.15899999999999
 10
69.7784
 20
60.3399
 10
69.91809999999998
 20
60.47309999999999
 10
70.023
 20
60.56250000000006
 10
70.08879999999999
 20
60.61260000000004
 10
70.11150000000004
 20
60.62819999999996
 10
70.58080000000004
 20
60.9251999999999
 10
70.2344
 20
61.52510000000004
 10
69.88810000000001
 20
62.125
 10
69.88810000000001
 20
62.125
 10
69.39620000000008
 20
61.86709999999999
 10
69.3714
 20
61.85520000000005
 10
69.29510000000002
 20
61.8232999999999
 10
69.16520000000006
 20
61.77719999999999
 10
68.98000000000008
 20
61.72280000000009
 10
68.73849999999999
 20
61.66610000000003
 10
68.43990000000002
 20
61.61350000000002
 10
68.08399999999997
 20
61.57110000000006
 10
67.67129999999997
 20
61.54510000000005
 10
67.2027
 20
61.54190000000006
 10
66.67960000000002
 20
61.5675
 10
66.46870000000001
 20
62.05640000000005
 10
66.25779999999997
 20
62.54520000000002
 10
66.59820000000005
 20
62.94330000000002
 10
66.9221
 20
63.28200000000007
 10
67.2242
 20
63.56430000000006
 10
67.49930000000006
 20
63.79409999999999
 10
67.74250000000004
 20
63.97520000000003
 10
67.94940000000005
 20
64.11200000000002
 10
68.11599999999999
 20
64.20929999999998
 10
68.2387
 20
64.27220000000003
 10
68.3143
 20
64.30580000000006
 10
68.33999999999995
 20
64.31570000000005
 10
68.86509999999998
 20
64.49640000000005
 10
68.66640000000001
 20
65.16010000000006
 10
68.46780000000001
 20
65.82370000000003
 10
68.46780000000001
 20
65.82370000000003
 10
67.92970000000003
 20
65.68610000000012
 10
67.90280000000004
 20
65.68029999999999
 10
67.8212
 20
65.66689999999997
 10
67.68419999999998
 20
65.65190000000007
 10
67.4915
 20
65.6416999999999
 10
67.24340000000001
 20
65.64230000000006
 10
66.94060000000002
 20
65.6599
 10
66.58460000000002
 20
65.70069999999998
 10
66.1771
 20
65.77070000000006
 10
65.72030000000001
 20
65.87560000000002
 10
65.21720000000002
 20
66.02109999999999
 10
65.12470000000002
 20
66.54550000000003
 10
65.03230000000002
 20
67.06980000000004
 10
65.45530000000002
 20
67.37870000000007
 10
65.84859999999998
 20
67.6334
 10
66.20769999999999
 20
67.83850000000001
 10
66.52830000000003
 20
67.99860000000012
 10
66.80669999999998
 20
68.11880000000008
 10
67.03960000000001
 20
68.20419999999996
 10
67.2242
 20
68.26050000000004
 10
67.35809999999998
 20
68.29330000000002
 10
67.43930000000003
 20
68.30860000000001
 10
67.4667
 20
68.3123
 10
68.01930000000002
 20
68.36709999999997
 10
67.97899999999998
 20
69.05860000000001
 10
67.93869999999998
 20
69.75020000000004
  0
LWPOLYLINE
  5
296D
330
2C5E
100
AcDbEntity
  8
LaserCut
 62
     1
420
 16711680
100
AcDbPolyline
 90
      729
 70
   128
 43
0.0
 10
105.4386978759045
 20
48.09956367904215
 10
104.8834978759046
 20
48.08976367904202
 10
104.8558978759046
 20
48.09036367904218
 10
104.7733978759045
 20
48.09606367904203
 10
104.6365978759046
 20
48.11316367904209
 10
104.4467978759046
 20
48.14756367904212
 10
104.2054978759046
 20
48.20546367904211
 10
103.9149978759046
 20
48.29236367904213
 10
103.5779978759045
 20
48.41416367904213
 10
103.1974978759046
 20
48.57626367904209
 10
102.7772978759046
 20
48.78366367904215
 10
102.3212978759046
 20
49.04136367904209
 10
102.3522978759046
 20
49.57286367904209
 10
102.3831978759046
 20
50.10436367904214
 10
102.8660978759046
 20
50.30736367904211
 10
103.3074978759046
 20
50.46456367904213
 10
103.7041978759046
 20
50.58136367904214
 10
104.0530978759046
 20
50.66316367904199
 10
104.3516978759046
 20
50.71586367904217
 10
104.5980978759046
 20
50.74526367904213
 10
104.7906978759046
 20
50.75746367904213
 10
104.9284978759046
 20
50.75856367904211
 10
105.0110978759046
 20
50.75466367904212
 10
105.0384978759046
 20
50.75196367904212
 10
105.5888978759046
 20
50.67786367904216
 10
105.7091978759046
 20
51.36006367904213
 10
105.8294978759046
 20
52.04226367904212
 10
105.8294978759046
 20
52.04226367904212
 10
105.2868978759046
 20
52.16076367904216
 10
105.2602978759046
 20
52.16766367904199
 10
105.1812978759046
 20
52.19226367904216
 10
105.0520978759046
 20
52.24046367904214
 10
104.8752978759045
 20
52.31776367904217
 10
104.6538978759046
 20
52.42966367904214
 10
104.3912978759046
 20
52.58126367904217
 10
104.0914978759046
 20
52.77756367904212
 10
103.7585978759046
 20
53.02296367904211
 10
103.3975978759046
 20
53.32166367904202
 10
103.0132978759046
 20
53.67756367904215
 10
103.1659978759046
 20
54.187563679042
 10
103.3186978759045
 20
54.69766367904219
 10
103.8352978759046
 20
54.78376367904212
 10
104.3010978759046
 20
54.83496367904212
 10
104.7139978759046
 20
54.85716367904217
 10
105.0723978759046
 20
54.85626367904212
 10
105.3750978759045
 20
54.83866367904216
 10
105.6215978759046
 20
54.81046367904213
 10
105.8117978759046
 20
54.77796367904213
 10
105.9461978759045
 20
54.7471636790421
 10
106.0256978759045
 20
54.72436367904214
 10
106.0517978759046
 20
54.71546367904216
 10
106.5701978759046
 20
54.51636367904203
 10
106.8445978759046
 20
55.15246367904211
 10
107.1188978759046
 20
55.788563679042
 10
107.1188978759046
 20
55.788563679042
 10
106.6183978759046
 20
56.02896367904219
 10
106.5939978759046
 20
56.04186367904217
 10
106.5227978759046
 20
56.08396367904209
 10
106.4082978759046
 20
56.1606636790421
 10
106.2540978759046
 20
56.27666367904212
 10
106.0643978759046
 20
56.43656367904214
 10
105.8438978759046
 20
56.6446636790422
 10
105.5972978759046
 20
56.90486367904217
 10
105.3300978759046
 20
57.22036367904218
 10
105.0475978759046
 20
57.594263679042
 10
104.7557978759046
 20
58.02926367904217
 10
105.0219978759046
 20
58.49026367904213
 10
105.2881978759046
 20
58.95136367904212
 10
105.8107978759045
 20
58.91606367904217
 10
106.2757978759046
 20
58.85846367904216
 10
106.6826978759046
 20
58.78476367904216
 10
107.0311978759046
 20
58.70136367904215
 10
107.3216978759046
 20
58.61436367904216
 10
107.5550978759046
 20
58.53006367904212
 10
107.7326978759046
 20
58.45456367904211
 10
107.8562978759045
 20
58.39366367904205
 10
107.9283978759046
 20
58.3531636790421
 10
107.9516978759046
 20
58.33846367904209
 10
108.4102978759046
 20
58.02516367904212
 10
108.8238978759045
 20
58.58076367904209
 10
109.2375978759046
 20
59.13646367904212
 10
109.2375978759046
 20
59.13646367904212
 10
108.8059978759046
 20
59.4858636790421
 10
108.7851978759045
 20
59.50406367904216
 10
108.7256978759046
 20
59.56146367904216
 10
108.6318978759045
 20
59.66246367904211
 10
108.5085978759046
 20
59.81086367904209
 10
108.3608978759046
 20
60.01026367904211
 10
108.1942978759046
 20
60.26366367904205
 10
108.0143978759046
 20
60.57356367904219
 10
107.8271978759046
 20
60.94226367904218
 10
107.6385978759046
 20
61.3712636790421
 10
107.4548978759046
 20
61.8617636790421
 10
107.8201978759046
 20
62.24896367904213
 10
108.1855978759046
 20
62.63626367904212
 10
108.6859978759045
 20
62.48146367904218
 10
109.1251978759046
 20
62.31806367904204
 10
109.5040978759046
 20
62.15256367904212
 10
109.8239978759046
 20
61.99096367904212
 10
110.0865978759045
 20
61.83936367904209
 10
110.2942978759046
 20
61.70356367904219
 10
110.4495978759045
 20
61.58906367904217
 10
110.5558978759046
 20
61.50136367904216
 10
110.6166978759045
 20
61.44526367904203
 10
110.6359978759046
 20
61.42556367904214
 10
111.0098978759046
 20
61.01506367904199
 10
111.5405978759046
 20
61.46026367904199
 10
112.0711978759045
 20
61.90556367904213
 10
112.0711978759045
 20
61.90556367904213
 10
111.7317978759046
 20
62.34516367904206
 10
111.7157978759046
 20
62.36756367904215
 10
111.6710978759046
 20
62.43716367904202
 10
111.6031978759046
 20
62.55706367904219
 10
111.5173978759046
 20
62.72996367904213
 10
111.4196978759045
 20
62.95796367904202
 10
111.3159978759045
 20
63.24296367904213
 10
111.2124978759045
 20
63.58606367904216
 10
111.1151978759046
 20
63.9879636790422
 10
111.0306978759046
 20
64.44886367904215
 10
110.9650978759046
 20
64.96846367904209
 10
111.4098978759046
 20
65.2610636790422
 10
111.8546978759045
 20
65.55366367904216
 10
112.3058978759046
 20
65.28756367904217
 10
112.6955978759046
 20
65.02736367904217
 10
113.0260978759046
 20
64.7788636790421
 10
113.3000978759046
 20
64.54786367904214
 10
113.5206978759045
 20
64.33986367904214
 10
113.6913978759046
 20
64.1597636790421
 10
113.8161978759045
 20
64.0125636790421
 10
113.8993978759046
 20
63.90266367904212
 10
113.9455978759046
 20
63.83406367904212
 10
113.9597978759045
 20
63.81046367904216
 10
114.2289978759046
 20
63.32476367904212
 10
114.8480978759046
 20
63.63566367904215
 10
115.4670978759046
 20
63.94656367904216
 10
115.4670978759046
 20
63.94656367904216
 10
115.2381978759046
 20
64.45256367904204
 10
115.2277978759046
 20
64.47806367904212
 10
115.2003978759046
 20
64.5560636790421
 10
115.1618978759046
 20
64.688463679042
 10
115.1182978759045
 20
64.87636367904213
 10
115.0757978759046
 20
65.12086367904212
 10
115.0406978759046
 20
65.42206367904214
 10
115.0189978759046
 20
65.77976367904216
 10
115.0170978759046
 20
66.19326367904213
 10
115.0410978759045
 20
66.66126367904212
 10
115.0970978759046
 20
67.18206367904216
 10
115.5973978759046
 20
67.36416367904215
 10
116.0976978759045
 20
67.54616367904217
 10
116.4752978759046
 20
67.18326367904211
 10
116.7945978759046
 20
66.84016367904212
 10
117.0588978759046
 20
66.52216367904217
 10
117.2721978759046
 20
66.23426367904199
 10
117.4388978759046
 20
65.98096367904216
 10
117.5634978759045
 20
65.76636367904206
 10
117.6508978759045
 20
65.59436367904212
 10
117.7064978759046
 20
65.46826367904217
 10
117.7356978759046
 20
65.39086367904213
 10
117.7440978759046
 20
65.36456367904216
 10
117.8939978759046
 20
64.82986367904215
 10
118.5679978759046
 20
64.98956367904219
 10
119.2420978759046
 20
65.14936367904212
 10
119.2420978759046
 20
65.14936367904212
 10
119.1360978759046
 20
65.69446367904212
 10
119.1317978759046
 20
65.72176367904214
 10
119.1230978759046
 20
65.80396367904206
 10
119.1161978759046
 20
65.94166367904202
 10
119.1171978759047
 20
66.134563679042
 10
119.1321978759046
 20
66.38226367904218
 10
119.1673978759046
 20
66.68346367904215
 10
119.2287978759045
 20
67.03646367904219
 10
119.3222978759046
 20
67.43926367904214
 10
119.4535978759046
 20
67.88916367904201
 10
119.6281978759046
 20
68.38296367904212
 10
120.1569978759046
 20
68.44476367904215
 10
120.6857978759046
 20
68.50656367904213
 10
120.9695978759046
 20
68.06636367904213
 10
121.2010978759046
 20
67.65886367904213
 10
121.3849978759046
 20
67.28846367904217
 10
121.5260978759046
 20
66.95916367904212
 10
121.6298978759046
 20
66.67416367904215
 10
121.7015978759046
 20
66.43666367904203
 10
121.7470978759046
 20
66.24916367904203
 10
121.7720978759046
 20
66.11356367904213
 10
121.7825978759046
 20
66.03156367904211
 10
121.7846978759046
 20
66.00406367904219
 10
121.8072978759046
 20
65.44916367904213
 10
122.4999978759046
 20
65.44916367904213
 10
123.1926978759045
 20
65.44916367904213
 10
123.1926978759045
 20
65.44916367904213
 10
123.2152978759045
 20
66.00406367904219
 10
123.2173978759046
 20
66.03156367904214
 10
123.2278978759046
 20
66.1135636790421
 10
123.2528978759046
 20
66.24916367904203
 10
123.2983978759046
 20
66.43666367904203
 10
123.3700978759045
 20
66.67416367904215
 10
123.4738978759046
 20
66.95916367904212
 10
123.6149978759046
 20
67.28846367904217
 10
123.7988978759046
 20
67.65886367904213
 10
124.0303978759046
 20
68.06636367904213
 10
124.3141978759046
 20
68.50656367904219
 10
124.8429978759045
 20
68.44476367904215
 10
125.3717978759046
 20
68.38296367904212
 10
125.5463978759046
 20
67.88916367904201
 10
125.6776978759046
 20
67.43926367904211
 10
125.7711978759046
 20
67.03646367904216
 10
125.8325978759046
 20
66.68346367904215
 10
125.8677978759046
 20
66.38226367904215
 10
125.8827978759045
 20
66.13456367904203
 10
125.8837978759045
 20
65.94166367904202
 10
125.8768978759045
 20
65.80396367904203
 10
125.8681978759046
 20
65.72176367904211
 10
125.8638978759045
 20
65.69446367904212
 10
125.7578978759045
 20
65.14936367904212
 10
126.4319978759046
 20
64.98956367904216
 10
127.1059978759046
 20
64.82986367904209
 10
127.1059978759046
 20
64.82986367904209
 10
127.2558978759046
 20
65.36456367904216
 10
127.2642978759045
 20
65.39086367904216
 10
127.2934978759046
 20
65.46826367904217
 10
127.3490978759046
 20
65.59436367904209
 10
127.4364978759046
 20
65.766363679042
 10
127.5610978759046
 20
65.98096367904213
 10
127.7277978759046
 20
66.23426367904202
 10
127.9410978759046
 20
66.52216367904217
 10
128.2053978759045
 20
66.84016367904215
 10
128.5246978759046
 20
67.18326367904214
 10
128.9022978759047
 20
67.54616367904217
 10
129.4025978759046
 20
67.36416367904212
 10
129.9028978759045
 20
67.18206367904216
 10
129.9588978759045
 20
66.66126367904215
 10
129.9828978759045
 20
66.19326367904213
 10
129.9809978759046
 20
65.7797636790421
 10
129.9592978759046
 20
65.42206367904214
 10
129.9241978759046
 20
65.12086367904212
 10
129.8816978759046
 20
64.87636367904213
 10
129.8380978759046
 20
64.688463679042
 10
129.7995978759045
 20
64.55606367904213
 10
129.7721978759046
 20
64.47806367904215
 10
129.7617978759046
 20
64.45256367904202
 10
129.5328978759046
 20
63.94656367904213
 10
130.1518978759045
 20
63.63566367904215
 10
130.7709978759046
 20
63.32476367904218
 10
130.7709978759046
 20
63.32476367904218
 10
131.0401978759046
 20
63.81046367904219
 10
131.0543978759046
 20
63.83406367904215
 10
131.1005978759046
 20
63.90266367904218
 10
131.1837978759046
 20
64.01256367904216
 10
131.3085978759045
 20
64.15976367904216
 10
131.4792978759047
 20
64.33986367904214
 10
131.6998978759045
 20
64.54786367904214
 10
131.9738978759046
 20
64.77886367904216
 10
132.3043978759046
 20
65.0273636790422
 10
132.6940978759046
 20
65.28756367904217
 10
133.1452978759046
 20
65.55366367904216
 10
133.5900978759046
 20
65.26106367904217
 10
134.0348978759046
 20
64.96846367904212
 10
133.9692978759045
 20
64.44886367904215
 10
133.8847978759045
 20
63.98796367904217
 10
133.7874978759046
 20
63.58606367904213
 10
133.6839978759047
 20
63.24296367904216
 10
133.5802978759045
 20
62.95796367904202
 10
133.4825978759045
 20
62.7299636790421
 10
133.3967978759046
 20
62.55706367904216
 10
133.3288978759045
 20
62.43716367904202
 10
133.2841978759046
 20
62.36756367904215
 10
133.2681978759045
 20
62.34516367904206
 10
132.9287978759046
 20
61.90556367904216
 10
133.4593978759046
 20
61.46026367904201
 10
133.9900978759046
 20
61.01506367904202
 10
133.9900978759046
 20
61.01506367904202
 10
134.3639978759045
 20
61.42556367904214
 10
134.3832978759046
 20
61.44526367904203
 10
134.4440978759046
 20
61.50136367904213
 10
134.5503978759045
 20
61.58906367904214
 10
134.7056978759045
 20
61.70356367904213
 10
134.9133978759046
 20
61.83936367904212
 10
135.1759978759046
 20
61.99096367904215
 10
135.4958978759046
 20
62.15256367904212
 10
135.8747978759045
 20
62.31806367904201
 10
136.3139978759045
 20
62.48146367904215
 10
136.8143978759045
 20
62.63626367904209
 10
137.1797978759046
 20
62.24896367904211
 10
137.5450978759045
 20
61.86176367904213
 10
137.3613978759046
 20
61.3712636790421
 10
137.1727978759045
 20
60.94226367904216
 10
136.9855978759045
 20
60.57356367904217
 10
136.8056978759046
 20
60.26366367904203
 10
136.6390978759046
 20
60.01026367904211
 10
136.4913978759046
 20
59.81086367904211
 10
136.3680978759046
 20
59.66246367904213
 10
136.2742978759045
 20
59.56146367904213
 10
136.2147978759047
 20
59.50406367904213
 10
136.1939978759047
 20
59.4858636790421
 10
135.7623978759046
 20
59.13646367904209
 10
136.1760978759046
 20
58.58076367904212
 10
136.5896978759046
 20
58.02516367904215
 10
136.5896978759046
 20
58.02516367904215
 10
137.0482978759046
 20
58.33846367904212
 10
137.0715978759046
 20
58.35316367904213
 10
137.1436978759046
 20
58.39366367904202
 10
137.2672978759046
 20
58.45456367904211
 10
137.4448978759046
 20
58.53006367904212
 10
137.6782978759045
 20
58.61436367904216
 10
137.9687978759046
 20
58.70136367904215
 10
138.3172978759046
 20
58.78476367904213
 10
138.7241978759046
 20
58.85846367904216
 10
139.1891978759046
 20
58.91606367904214
 10
139.7117978759045
 20
58.95136367904215
 10
139.9779978759045
 20
58.49026367904216
 10
140.2441978759046
 20
58.02926367904215
 10
139.9523978759046
 20
57.59426367904203
 10
139.6698978759046
 20
57.22036367904215
 10
139.4026978759046
 20
56.90486367904217
 10
139.1560978759046
 20
56.64466367904217
 10
138.9355978759046
 20
56.43656367904217
 10
138.7458978759046
 20
56.27666367904209
 10
138.5916978759047
 20
56.16066367904213
 10
138.4771978759045
 20
56.08396367904211
 10
138.4059978759046
 20
56.04186367904219
 10
138.3815978759046
 20
56.02896367904216
 10
137.8810978759045
 20
55.788563679042
 10
138.1553978759046
 20
55.15246367904214
 10
138.4297978759046
 20
54.51636367904203
 10
138.4297978759046
 20
54.51636367904203
 10
138.9481978759045
 20
54.7154636790421
 10
138.9742978759045
 20
54.72436367904211
 10
139.0537978759046
 20
54.74716367904213
 10
139.1881978759045
 20
54.77796367904213
 10
139.3783978759045
 20
54.81046367904216
 10
139.6248978759046
 20
54.83866367904216
 10
139.9275978759046
 20
54.85626367904214
 10
140.2859978759045
 20
54.85716367904215
 10
140.6988978759045
 20
54.83496367904215
 10
141.1646978759045
 20
54.78376367904215
 10
141.6812978759047
 20
54.69766367904217
 10
141.8339978759045
 20
54.187563679042
 10
141.9866978759046
 20
53.67756367904215
 10
141.6023978759046
 20
53.32166367904202
 10
141.2413978759046
 20
53.02296367904214
 10
140.9084978759046
 20
52.77756367904212
 10
140.6086978759046
 20
52.58126367904214
 10
140.3460978759046
 20
52.42966367904214
 10
140.1246978759045
 20
52.31776367904217
 10
139.9478978759045
 20
52.24046367904219
 10
139.8186978759045
 20
52.19226367904216
 10
139.7396978759045
 20
52.16766367904205
 10
139.7130978759046
 20
52.16076367904216
 10
139.1704978759046
 20
52.04226367904212
 10
139.2907978759046
 20
51.36006367904216
 10
139.4110978759045
 20
50.67786367904213
 10
139.4110978759045
 20
50.67786367904213
 10
139.9614978759046
 20
50.75196367904212
 10
139.9888978759045
 20
50.7546636790421
 10
140.0714978759046
 20
50.75856367904208
 10
140.2092978759046
 20
50.75746367904216
 10
140.4018978759045
 20
50.74526367904215
 10
140.6482978759045
 20
50.71586367904214
 10
140.9468978759046
 20
50.66316367904201
 10
141.2957978759046
 20
50.58136367904214
 10
141.6924978759046
 20
50.46456367904216
 10
142.1338978759045
 20
50.30736367904211
 10
142.6167978759046
 20
50.10436367904217
 10
142.6476978759046
 20
49.57286367904209
 10
142.6786978759046
 20
49.04136367904212
 10
142.2226978759045
 20
48.78366367904209
 10
141.8024978759046
 20
48.57626367904209
 10
141.4219978759046
 20
48.41416367904216
 10
141.0849978759045
 20
48.29236367904215
 10
140.7944978759047
 20
48.20546367904214
 10
140.5531978759045
 20
48.14756367904212
 10
140.3633978759046
 20
48.11316367904212
 10
140.2265978759046
 20
48.096063679042
 10
140.1440978759046
 20
48.09036367904213
 10
140.1164978759045
 20
48.08976367904205
 10
139.5612978759045
 20
48.09956367904215
 10
139.5209978759046
 20
47.40796367904213
 10
139.4806978759045
 20
46.71646367904219
 10
139.4806978759045
 20
46.71646367904219
 10
140.0332978759045
 20
46.66166367904216
 10
140.0606978759046
 20
46.65796367904213
 10
140.1418978759046
 20
46.64266367904213
 10
140.2757978759046
 20
46.60986367904212
 10
140.4603978759046
 20
46.55356367904201
 10
140.6932978759046
 20
46.46816367904214
 10
140.9716978759045
 20
46.34796367904212
 10
141.2922978759045
 20
46.18786367904212
 10
141.6513978759046
 20
45.98276367904214
 10
142.0446978759047
 20
45.72806367904215
 10
142.4676978759046
 20
45.41916367904216
 10
142.3752978759046
 20
44.89486367904212
 10
142.2827978759046
 20
44.37046367904216
 10
141.7796978759046
 20
44.22496367904211
 10
141.3228978759045
 20
44.12006367904215
 10
140.9153978759045
 20
44.05006367904215
 10
140.5593978759046
 20
44.00926367904216
 10
140.2565978759046
 20
43.99166367904215
 10
140.0084978759045
 20
43.99106367904201
 10
139.8157978759046
 20
44.0012636790421
 10
139.6787978759046
 20
44.01626367904208
 10
139.5971978759046
 20
44.02966367904216
 10
139.5702978759045
 20
44.03546367904212
 10
139.0321978759046
 20
44.17306367904203
 10
138.8335978759046
 20
43.50946367904211
 10
138.6348978759046
 20
42.84576367904216
 10
138.6348978759046
 20
42.84576367904216
 10
139.1599978759045
 20
42.66506367904216
 10
139.1856978759046
 20
42.65516367904212
 10
139.2612978759046
 20
42.62156367904214
 10
139.3839978759046
 20
42.55866367904216
 10
139.5505978759044
 20
42.46136367904214
 10
139.7574978759046
 20
42.32456367904214
 10
140.0006978759046
 20
42.14346367904213
 10
140.2757978759046
 20
41.91366367904214
 10
140.5778978759046
 20
41.63136367904215
 10
140.9017978759045
 20
41.29266367904202
 10
141.2421978759047
 20
40.89456367904202
 10
141.0312978759046
 20
40.40576367904217
 10
140.8203978759045
 20
39.91686367904214
 10
140.2972978759046
 20
39.89126367904211
 10
139.8286978759047
 20
39.89446367904216
 10
139.4159978759047
 20
39.92046367904211
 10
139.0600978759045
 20
39.96286367904219
 10
138.7614978759045
 20
40.01546367904203
 10
138.5199978759046
 20
40.07216367904212
 10
138.3347978759045
 20
40.12656367904219
 10
138.2048978759046
 20
40.17266367904202
 10
138.1285978759046
 20
40.20456367904211
 10
138.1037978759046
 20
40.21646367904216
 10
137.6118978759046
 20
40.47436367904211
 10
137.2655978759046
 20
39.87446367904209
 10
136.9191978759045
 20
39.27456367904202
 10
136.9191978759045
 20
39.27456367904202
 10
137.3884978759046
 20
38.97756367904216
 10
137.4111978759046
 20
38.96196367904216
 10
137.4769978759045
 20
38.91186367904209
 10
137.5818978759046
 20
38.82246367904216
 10
137.7215978759046
 20
38.68926367904211
 10
137.8913978759045
 20
38.50836367904216
 10
138.0862978759046
 20
38.27606367904218
 10
138.3009978759046
 20
37.98916367904212
 10
138.5297978759046
 20
37.64476367904214
 10
138.7668978759045
 20
37.24046367904219
 10
139.0062978759046
 20
36.77466367904216
 10
138.6882978759046
 20
36.34756367904217
 10
138.3703978759046
 20
35.92056367904215
 10
137.8554978759046
 20
36.01626367904211
 10
137.4001978759046
 20
36.12746367904214
 10
137.0045978759046
 20
36.24786367904201
 10
136.6681978759046
 20
36.37126367904213
 10
136.3896978759046
 20
36.49136367904217
 10
136.1676978759047
 20
36.60216367904212
 10
136.0000978759045
 20
36.69776367904214
 10
135.8843978759047
 20
36.77256367904209
 10
135.8174978759046
 20
36.82126367904212
 10
135.7959978759045
 20
36.83856367904215
 10
135.3769978759047
 20
37.20296367904203
 10
134.9015978759046
 20
36.69906367904215
 10
134.4261978759046
 20
36.19516367904217
 10
134.4261978759046
 20
36.19516367904217
 10
134.8143978759045
 20
35.798063679042
 10
134.8328978759046
 20
35.77756367904212
 10
134.8852978759046
 20
35.71366367904213
 10
134.9667978759047
 20
35.60246367904199
 10
135.0719978759046
 20
35.44066367904213
 10
135.1954978759045
 20
35.22556367904215
 10
135.3315978759045
 20
34.95456367904214
 10
135.4742978759045
 20
34.62576367904214
 10
135.6174978759045
 20
34.23786367904202
 10
135.7549978759046
 20
33.78986367904216
 10
135.8804978759046
 20
33.28136367904202
 10
135.4726978759045
 20
32.93916367904214
 10
135.0647978759046
 20
32.59696367904215
 10
134.5857978759045
 20
32.80886367904219
 10
134.1684978759046
 20
33.02206367904213
 10
133.8113978759045
 20
33.23046367904212
 10
133.5123978759045
 20
33.42806367904205
 10
133.2690978759045
 20
33.60916367904218
 10
133.0786978759047
 20
33.768163679042
 10
132.9376978759046
 20
33.89986367904211
 10
132.8422978759046
 20
33.99936367904215
 10
132.7883978759046
 20
34.06206367904215
 10
132.7714978759046
 20
34.083863679042
 10
132.4477978759046
 20
34.53506367904217
 10
131.8689978759046
 20
34.15446367904215
 10
131.2902978759046
 20
33.77376367904216
 10
131.2902978759046
 20
33.77376367904216
 10
131.5763978759046
 20
33.29776367904216
 10
131.5896978759045
 20
33.27366367904204
 10
131.6258978759046
 20
33.19936367904202
 10
131.6795978759046
 20
33.0723636790421
 10
131.7445978759046
 20
32.89066367904215
 10
131.8151978759045
 20
32.65286367904218
 10
131.8850978759047
 20
32.35776367904216
 10
131.9480978759046
 20
32.00496367904213
 10
131.9980978759046
 20
31.59456367904212
 10
132.0284978759046
 20
31.12686367904203
 10
132.0333978759045
 20
30.6031636790421
 10
131.5575978759045
 20
30.36416367904215
 10
131.0817978759046
 20
30.12526367904215
 10
130.6645978759046
 20
30.44186367904211
 10
130.3076978759046
 20
30.74556367904202
 10
130.0082978759046
 20
31.03076367904217
 10
129.7628978759047
 20
31.29196367904214
 10
129.5679978759046
 20
31.52426367904215
 10
129.4192978759046
 20
31.72286367904218
 10
129.3124978759046
 20
31.88356367904211
 10
129.2426978759046
 20
32.00236367904199
 10
129.2046978759046
 20
32.07586367904216
 10
129.1932978759046
 20
32.10096367904214
 10
128.9822978759046
 20
32.61466367904202
 10
128.3313978759045
 20
32.37776367904215
 10
127.6803978759047
 20
32.14086367904216
 10
127.6803978759047
 20
32.14086367904216
 10
127.8489978759047
 20
31.61166367904215
 10
127.8563978759046
 20
31.58516367904215
 10
127.8745978759046
 20
31.50446367904212
 10
127.8974978759045
 20
31.36856367904213
 10
127.9188978759046
 20
31.1767636790421
 10
127.9326978759045
 20
30.92906367904209
 10
127.9326978759045
 20
30.62586367904211
 10
127.9126978759045
 20
30.26806367904211
 10
127.8665978759045
 20
29.85706367904211
 10
127.7883978759046
 20
29.39506367904207
 10
127.6722978759046
 20
28.88426367904214
 10
127.1542978759046
 20
28.76146367904212
 10
126.6361978759046
 20
28.63876367904211
 10
126.3032978759045
 20
29.04306367904215
 10
126.0259978759046
 20
29.42086367904201
 10
125.8003978759045
 20
29.76736367904212
 10
125.6218978759046
 20
30.07816367904212
 10
125.4857978759046
 20
30.34916367904216
 10
125.3869978759046
 20
30.57666367904201
 10
125.3200978759047
 20
30.75766367904214
 10
125.2794978759046
 20
30.88946367904214
 10
125.2594978759046
 20
30.96966367904213
 10
125.2541978759046
 20
30.99676367904212
 10
125.1673978759046
 20
31.54526367904214
 10
124.4793978759047
 20
31.46486367904214
 10
123.7912978759046
 20
31.38436367904211
 10
123.7912978759046
 20
31.38436367904211
 10
123.8333978759046
 20
30.830663679042
 10
123.8343978759046
 20
30.80306367904203
 10
123.8334978759047
 20
30.72036367904212
 10
123.8243978759047
 20
30.58286367904216
 10
123.8009978759046
 20
30.39136367904203
 10
123.7572978759046
 20
30.14706367904211
 10
123.6873978759046
 20
29.85206367904212
 10
123.5853978759046
 20
29.50846367904214
 10
123.4457978759046
 20
29.11926367904212
 10
123.2630978759046
 20
28.68766367904212
 10
123.0323978759045
 20
28.21746367904203
 10
122.4999978759046
 20
28.21746367904203
 10
121.9675978759046
 20
28.217463679042
 10
121.7368978759046
 20
28.68766367904212
 10
121.5541978759045
 20
29.11926367904212
 10
121.4145978759046
 20
29.50846367904211
 10
121.3125978759046
 20
29.85206367904209
 10
121.2426978759046
 20
30.14706367904213
 10
121.1989978759046
 20
30.39136367904203
 10
121.1755978759045
 20
30.58286367904216
 10
121.1664978759046
 20
30.72036367904212
 10
121.1655978759046
 20
30.80306367904203
 10
121.1665978759046
 20
30.830663679042
 10
121.2086978759046
 20
31.38436367904214
 10
120.5205978759046
 20
31.4648636790422
 10
119.8325978759046
 20
31.54526367904219
 10
119.8325978759046
 20
31.54526367904219
 10
119.7457978759045
 20
30.99676367904215
 10
119.7404978759046
 20
30.96966367904213
 10
119.7204978759046
 20
30.88946367904214
 10
119.6798978759045
 20
30.75766367904217
 10
119.6129978759046
 20
30.57666367904201
 10
119.5141978759046
 20
30.34916367904216
 10
119.3780978759046
 20
30.07816367904215
 10
119.1995978759045
 20
29.76736367904209
 10
118.9739978759046
 20
29.42086367904199
 10
118.6966978759046
 20
29.04306367904215
 10
118.3637978759047
 20
28.63876367904209
 10
117.8456978759046
 20
28.76146367904209
 10
117.3276978759046
 20
28.88426367904216
 10
117.2115978759045
 20
29.39506367904204
 10
117.1333978759046
 20
29.85706367904208
 10
117.0872978759046
 20
30.26806367904209
 10
117.0672978759046
 20
30.62586367904208
 10
117.0672978759046
 20
30.92906367904212
 10
117.0810978759046
 20
31.17676367904207
 10
117.1024978759046
 20
31.3685636790421
 10
117.1253978759046
 20
31.50446367904209
 10
117.1435978759046
 20
31.58516367904218
 10
117.1509978759046
 20
31.61166367904212
 10
117.3195978759045
 20
32.14086367904218
 10
116.6685978759046
 20
32.37776367904218
 10
116.0176978759046
 20
32.61466367904202
 10
116.0176978759046
 20
32.61466367904202
 10
115.8066978759045
 20
32.10096367904217
 10
115.7952978759046
 20
32.07586367904219
 10
115.7572978759046
 20
32.00236367904202
 10
115.6874978759046
 20
31.88356367904211
 10
115.5806978759046
 20
31.72286367904212
 10
115.4319978759046
 20
31.52426367904215
 10
115.2370978759046
 20
31.29196367904214
 10
114.9916978759046
 20
31.03076367904217
 10
114.6922978759045
 20
30.74556367904202
 10
114.3353978759046
 20
30.44186367904214
 10
113.9181978759046
 20
30.12526367904215
 10
113.4423978759046
 20
30.36416367904215
 10
112.9665978759045
 20
30.60316367904213
 10
112.9714978759046
 20
31.126863679042
 10
113.0018978759046
 20
31.5945636790421
 10
113.0518978759046
 20
32.00496367904216
 10
113.1148978759046
 20
32.35776367904214
 10
113.1847978759046
 20
32.65286367904218
 10
113.2553978759046
 20
32.89066367904215
 10
113.3203978759046
 20
33.07236367904216
 10
113.3740978759046
 20
33.19936367904202
 10
113.4102978759046
 20
33.27366367904202
 10
113.4235978759046
 20
33.29776367904216
 10
113.7096978759046
 20
33.77376367904213
 10
113.1309978759045
 20
34.15446367904218
 10
112.5521978759047
 20
34.53506367904217
 10
112.5521978759047
 20
34.53506367904217
 10
112.2284978759046
 20
34.083863679042
 10
112.2115978759046
 20
34.06206367904213
 10
112.1576978759045
 20
33.99936367904212
 10
112.0622978759046
 20
33.89986367904211
 10
111.9212978759045
 20
33.768163679042
 10
111.7308978759046
 20
33.60916367904213
 10
111.4875978759046
 20
33.428063679042
 10
111.1885978759046
 20
33.23046367904212
 10
110.8314978759046
 20
33.02206367904211
 10
110.4141978759046
 20
32.80886367904216
 10
109.9351978759046
 20
32.59696367904215
 10
109.5272978759046
 20
32.93916367904217
 10
109.1194978759046
 20
33.28136367904199
 10
109.2449978759046
 20
33.78986367904213
 10
109.3824978759046
 20
34.23786367904199
 10
109.5256978759046
 20
34.62576367904211
 10
109.6683978759046
 20
34.95456367904211
 10
109.8044978759046
 20
35.22556367904215
 10
109.9279978759046
 20
35.44066367904216
 10
110.0331978759046
 20
35.60246367904202
 10
110.1146978759046
 20
35.71366367904213
 10
110.1670978759046
 20
35.77756367904212
 10
110.1855978759046
 20
35.79806367904203
 10
110.5737978759046
 20
36.19516367904214
 10
110.0983978759046
 20
36.69906367904215
 10
109.6229978759046
 20
37.20296367904206
 10
109.6229978759046
 20
37.20296367904206
 10
109.2039978759046
 20
36.83856367904212
 10
109.1824978759046
 20
36.82126367904209
 10
109.1155978759046
 20
36.77256367904209
 10
108.9998978759046
 20
36.69776367904214
 10
108.8322978759045
 20
36.60216367904215
 10
108.6102978759046
 20
36.49136367904217
 10
108.3317978759046
 20
36.37126367904213
 10
107.9953978759046
 20
36.24786367904201
 10
107.5997978759046
 20
36.12746367904214
 10
107.1444978759045
 20
36.01626367904214
 10
106.6295978759046
 20
35.92056367904217
 10
106.3116978759045
 20
36.3475636790422
 10
105.9936978759046
 20
36.77466367904216
 10
106.2330978759046
 20
37.24046367904214
 10
106.4701978759046
 20
37.64476367904211
 10
106.6989978759046
 20
37.98916367904215
 10
106.9136978759046
 20
38.27606367904215
 10
107.1085978759046
 20
38.50836367904216
 10
107.2783978759045
 20
38.68926367904209
 10
107.4180978759046
 20
38.82246367904216
 10
107.5229978759046
 20
38.91186367904209
 10
107.5887978759046
 20
38.96196367904213
 10
107.6114978759045
 20
38.97756367904213
 10
108.0807978759046
 20
39.27456367904199
 10
107.7343978759046
 20
39.87446367904212
 10
107.3880978759046
 20
40.47436367904209
 10
107.3880978759046
 20
40.47436367904209
 10
106.8961978759046
 20
40.21646367904216
 10
106.8713978759046
 20
40.20456367904217
 10
106.7950978759046
 20
40.17266367904202
 10
106.6651978759046
 20
40.12656367904216
 10
106.4799978759046
 20
40.07216367904209
 10
106.2384978759046
 20
40.015463679042
 10
105.9398978759046
 20
39.96286367904219
 10
105.5839978759046
 20
39.92046367904209
 10
105.1712978759046
 20
39.89446367904213
 10
104.7026978759046
 20
39.89126367904208
 10
104.1795978759045
 20
39.91686367904217
 10
103.9686978759046
 20
40.40576367904214
 10
103.7577978759045
 20
40.89456367904202
 10
104.0981978759046
 20
41.29266367904199
 10
104.4220978759045
 20
41.63136367904218
 10
104.7241978759045
 20
41.91366367904214
 10
104.9992978759046
 20
42.14346367904216
 10
105.2424978759046
 20
42.32456367904211
 10
105.4493978759046
 20
42.46136367904214
 10
105.6159978759046
 20
42.55866367904213
 10
105.7386978759045
 20
42.62156367904214
 10
105.8142978759046
 20
42.65516367904212
 10
105.8399978759045
 20
42.66506367904213
 10
106.3650978759046
 20
42.84576367904216
 10
106.1663978759046
 20
43.50946367904211
 10
105.9677978759046
 20
44.173063679042
 10
105.9677978759046
 20
44.173063679042
 10
105.4296978759046
 20
44.03546367904212
 10
105.4027978759046
 20
44.02966367904213
 10
105.3211978759046
 20
44.01626367904208
 10
105.1841978759045
 20
44.00126367904213
 10
104.9914978759046
 20
43.99106367904199
 10
104.7433978759046
 20
43.99166367904212
 10
104.4405978759046
 20
44.00926367904219
 10
104.0845978759046
 20
44.05006367904215
 10
103.6770978759046
 20
44.12006367904215
 10
103.2202978759046
 20
44.22496367904213
 10
102.7171978759046
 20
44.37046367904213
 10
102.6246978759046
 20
44.89486367904212
 10
102.5322978759046
 20
45.41916367904213
 10
102.9552978759046
 20
45.72806367904215
 10
103.3485978759046
 20
45.98276367904214
 10
103.7076978759046
 20
46.18786367904215
 10
104.0282978759046
 20
46.34796367904212
 10
104.3066978759045
 20
46.46816367904214
 10
104.5395978759046
 20
46.55356367904201
 10
104.7241978759046
 20
46.60986367904215
 10
104.8580978759045
 20
46.64266367904216
 10
104.9392978759046
 20
46.6579636790421
 10
104.9666978759046
 20
46.66166367904214
 10
105.5192978759046
 20
46.71646367904214
 10
105.4789978759046
 20
47.40796367904213
 10
105.4386978759045
 20
48.09956367904215
  0
LWPOLYLINE
  5
296E
330
2C5E
100
AcDbEntity
  8
LaserCut
 62
     1
420
 16711680
100
AcDbPolyline
 90
      729
 70
   128
 43
0.0
 10
105.4386978759046
 20
91.40083632095792
 10
104.8834978759046
 20
91.391036320958
 10
104.8558978759046
 20
91.39163632095793
 10
104.7733978759045
 20
91.39733632095792
 10
104.6365978759046
 20
91.41443632095792
 10
104.4467978759046
 20
91.44883632095792
 10
104.2054978759045
 20
91.50673632095791
 10
103.9149978759046
 20
91.59363632095793
 10
103.5779978759045
 20
91.71543632095805
 10
103.1974978759046
 20
91.87753632095806
 10
102.7772978759046
 20
92.08493632095804
 10
102.3212978759046
 20
92.34263632095806
 10
102.3522978759046
 20
92.87413632095794
 10
102.3831978759046
 20
93.40563632095805
 10
102.8660978759046
 20
93.60863632095788
 10
103.3074978759046
 20
93.76583632095793
 10
103.7041978759046
 20
93.88263632095791
 10
104.0530978759045
 20
93.96443632095799
 10
104.3516978759046
 20
94.01713632095792
 10
104.5980978759046
 20
94.0465363209579
 10
104.7906978759046
 20
94.05873632095802
 10
104.9284978759046
 20
94.05983632095794
 10
105.0110978759046
 20
94.05593632095807
 10
105.0384978759046
 20
94.05323632095804
 10
105.5888978759046
 20
93.97913632095796
 10
105.7091978759046
 20
94.66133632095793
 10
105.8294978759046
 20
95.3435363209581
 10
105.8294978759046
 20
95.3435363209581
 10
105.2868978759046
 20
95.46203632095794
 10
105.2602978759046
 20
95.46893632095794
 10
105.1812978759046
 20
95.4935363209579
 10
105.0520978759046
 20
95.54173632095794
 10
104.8752978759046
 20
95.61903632095789
 10
104.6538978759046
 20
95.730936320958
 10
104.3912978759046
 20
95.88253632095805
 10
104.0914978759046
 20
96.07883632095795
 10
103.7585978759046
 20
96.32423632095797
 10
103.3975978759046
 20
96.62293632095796
 10
103.0132978759046
 20
96.97883632095795
 10
103.1659978759046
 20
97.48883632095789
 10
103.3186978759045
 20
97.99893632095805
 10
103.8352978759046
 20
98.0850363209579
 10
104.3010978759046
 20
98.13623632095789
 10
104.7139978759046
 20
98.15843632095792
 10
105.0723978759046
 20
98.15753632095795
 10
105.3750978759045
 20
98.13993632095796
 10
105.6215978759046
 20
98.1117363209579
 10
105.8117978759046
 20
98.07923632095793
 10
105.9461978759045
 20
98.04843632095793
 10
106.0256978759045
 20
98.02563632095806
 10
106.0517978759046
 20
98.01673632095796
 10
106.5701978759046
 20
97.81763632095792
 10
106.8445978759046
 20
98.45373632095792
 10
107.1188978759046
 20
99.08983632095789
 10
107.1188978759046
 20
99.08983632095789
 10
106.6183978759046
 20
99.33023632095791
 10
106.5939978759046
 20
99.34313632095805
 10
106.5227978759046
 20
99.38523632095803
 10
106.4082978759046
 20
99.46193632095796
 10
106.2540978759046
 20
99.57793632095795
 10
106.0643978759045
 20
99.73783632095797
 10
105.8438978759046
 20
99.94593632095808
 10
105.5972978759046
 20
100.2061363209579
 10
105.3300978759046
 20
100.5216363209579
 10
105.0475978759046
 20
100.8955363209579
 10
104.7557978759046
 20
101.3305363209579
 10
105.0219978759046
 20
101.7915363209579
 10
105.2881978759046
 20
102.2526363209579
 10
105.8107978759045
 20
102.2173363209579
 10
106.2757978759046
 20
102.1597363209579
 10
106.6826978759046
 20
102.086036320958
 10
107.0311978759046
 20
102.0026363209579
 10
107.3216978759046
 20
101.915636320958
 10
107.5550978759046
 20
101.831336320958
 10
107.7326978759046
 20
101.7558363209579
 10
107.8562978759045
 20
101.6949363209579
 10
107.9283978759046
 20
101.654436320958
 10
107.9516978759046
 20
101.639736320958
 10
108.4102978759046
 20
101.326436320958
 10
108.8238978759045
 20
101.8820363209581
 10
109.2375978759046
 20
102.4377363209581
 10
109.2375978759046
 20
102.4377363209581
 10
108.8059978759046
 20
102.787136320958
 10
108.7851978759045
 20
102.8053363209579
 10
108.7256978759046
 20
102.862736320958
 10
108.6318978759045
 20
102.963736320958
 10
108.5085978759046
 20
103.112136320958
 10
108.3608978759046
 20
103.3115363209579
 10
108.1942978759046
 20
103.5649363209579
 10
108.0143978759046
 20
103.874836320958
 10
107.8271978759046
 20
104.2435363209579
 10
107.6385978759046
 20
104.6725363209579
 10
107.4548978759046
 20
105.1630363209579
 10
107.8201978759046
 20
105.5502363209579
 10
108.1855978759046
 20
105.9375363209579
 10
108.6859978759045
 20
105.7827363209579
 10
109.1251978759046
 20
105.6193363209579
 10
109.5040978759046
 20
105.453836320958
 10
109.8239978759046
 20
105.2922363209579
 10
110.0865978759045
 20
105.140636320958
 10
110.2942978759046
 20
105.004836320958
 10
110.4495978759045
 20
104.8903363209579
 10
110.5558978759046
 20
104.8026363209579
 10
110.6166978759045
 20
104.7465363209579
 10
110.6359978759046
 20
104.7268363209579
 10
111.0098978759046
 20
104.3163363209579
 10
111.5405978759046
 20
104.7615363209579
 10
112.0711978759045
 20
105.206836320958
 10
112.0711978759045
 20
105.206836320958
 10
111.7317978759046
 20
105.6464363209579
 10
111.7157978759046
 20
105.668836320958
 10
111.6710978759046
 20
105.7384363209579
 10
111.6031978759046
 20
105.8583363209579
 10
111.5173978759046
 20
106.0312363209579
 10
111.4196978759045
 20
106.2592363209579
 10
111.3159978759045
 20
106.544236320958
 10
111.2124978759045
 20
106.8873363209579
 10
111.1151978759046
 20
107.2892363209581
 10
111.0306978759046
 20
107.7501363209579
 10
110.9650978759046
 20
108.269736320958
 10
111.4098978759046
 20
108.5623363209581
 10
111.8546978759045
 20
108.8549363209579
 10
112.3058978759046
 20
108.5888363209579
 10
112.6955978759046
 20
108.328636320958
 10
113.0260978759046
 20
108.0801363209579
 10
113.3000978759046
 20
107.8491363209579
 10
113.5206978759045
 20
107.641136320958
 10
113.6913978759046
 20
107.4610363209579
 10
113.8161978759045
 20
107.3138363209579
 10
113.8993978759046
 20
107.203936320958
 10
113.9455978759046
 20
107.1353363209579
 10
113.9597978759045
 20
107.1117363209579
 10
114.2289978759046
 20
106.626036320958
 10
114.8480978759046
 20
106.9369363209579
 10
115.4670978759046
 20
107.2478363209579
 10
115.4670978759046
 20
107.2478363209579
 10
115.2381978759046
 20
107.7538363209579
 10
115.2277978759046
 20
107.779336320958
 10
115.2003978759046
 20
107.8573363209579
 10
115.1618978759046
 20
107.9897363209579
 10
115.1182978759045
 20
108.1776363209579
 10
115.0757978759046
 20
108.4221363209579
 10
115.0406978759046
 20
108.7233363209579
 10
115.0189978759046
 20
109.0810363209579
 10
115.0170978759046
 20
109.4945363209579
 10
115.0410978759045
 20
109.962536320958
 10
115.0970978759046
 20
110.4833363209579
 10
115.5973978759046
 20
110.665436320958
 10
116.0976978759045
 20
110.8474363209579
 10
116.4752978759046
 20
110.4845363209579
 10
116.7945978759046
 20
110.141436320958
 10
117.0588978759046
 20
109.8234363209579
 10
117.2721978759046
 20
109.5355363209579
 10
117.4388978759046
 20
109.2822363209579
 10
117.5634978759045
 20
109.0676363209579
 10
117.6508978759045
 20
108.895636320958
 10
117.7064978759046
 20
108.7695363209579
 10
117.7356978759046
 20
108.6921363209579
 10
117.7440978759046
 20
108.6658363209579
 10
117.8939978759046
 20
108.131136320958
 10
118.5679978759046
 20
108.2908363209579
 10
119.2420978759046
 20
108.4506363209579
 10
119.2420978759046
 20
108.4506363209579
 10
119.1360978759046
 20
108.995736320958
 10
119.1317978759046
 20
109.0230363209579
 10
119.1230978759046
 20
109.1052363209579
 10
119.1161978759046
 20
109.2429363209579
 10
119.1171978759046
 20
109.4358363209579
 10
119.1321978759046
 20
109.6835363209579
 10
119.1673978759046
 20
109.9847363209579
 10
119.2287978759045
 20
110.3377363209579
 10
119.3222978759046
 20
110.7405363209579
 10
119.4535978759046
 20
111.1904363209579
 10
119.6281978759046
 20
111.684236320958
 10
120.1569978759046
 20
111.7460363209579
 10
120.6857978759045
 20
111.8078363209579
 10
120.9695978759046
 20
111.3676363209579
 10
121.2010978759046
 20
110.9601363209579
 10
121.3849978759046
 20
110.5897363209579
 10
121.5260978759046
 20
110.260436320958
 10
121.6298978759046
 20
109.9754363209579
 10
121.7015978759046
 20
109.7379363209579
 10
121.7470978759046
 20
109.5504363209579
 10
121.7720978759046
 20
109.4148363209579
 10
121.7825978759046
 20
109.3328363209579
 10
121.7846978759046
 20
109.3053363209579
 10
121.8072978759046
 20
108.7504363209579
 10
122.4999978759046
 20
108.7504363209579
 10
123.1926978759045
 20
108.7504363209579
 10
123.1926978759045
 20
108.7504363209579
 10
123.2152978759045
 20
109.3053363209579
 10
123.2173978759046
 20
109.3328363209579
 10
123.2278978759045
 20
109.4148363209579
 10
123.2528978759046
 20
109.5504363209579
 10
123.2983978759046
 20
109.7379363209579
 10
123.3700978759045
 20
109.975436320958
 10
123.4738978759046
 20
110.260436320958
 10
123.6149978759046
 20
110.589736320958
 10
123.7988978759046
 20
110.9601363209579
 10
124.0303978759046
 20
111.3676363209579
 10
124.3141978759046
 20
111.8078363209579
 10
124.8429978759045
 20
111.7460363209579
 10
125.3717978759046
 20
111.684236320958
 10
125.5463978759046
 20
111.1904363209579
 10
125.6776978759046
 20
110.7405363209579
 10
125.7711978759046
 20
110.3377363209579
 10
125.8325978759046
 20
109.9847363209579
 10
125.8677978759046
 20
109.6835363209579
 10
125.8827978759045
 20
109.4358363209579
 10
125.8837978759045
 20
109.2429363209579
 10
125.8768978759045
 20
109.1052363209579
 10
125.8681978759046
 20
109.0230363209579
 10
125.8638978759045
 20
108.995736320958
 10
125.7578978759045
 20
108.4506363209579
 10
126.4319978759046
 20
108.2908363209579
 10
127.1059978759046
 20
108.131136320958
 10
127.1059978759046
 20
108.131136320958
 10
127.2558978759046
 20
108.6658363209579
 10
127.2642978759045
 20
108.6921363209579
 10
127.2934978759046
 20
108.7695363209579
 10
127.3490978759046
 20
108.895636320958
 10
127.4364978759046
 20
109.0676363209579
 10
127.5610978759046
 20
109.2822363209579
 10
127.7277978759046
 20
109.5355363209579
 10
127.9410978759046
 20
109.8234363209579
 10
128.2053978759045
 20
110.141436320958
 10
128.5246978759046
 20
110.4845363209579
 10
128.9022978759047
 20
110.8474363209579
 10
129.4025978759046
 20
110.6654363209579
 10
129.9028978759045
 20
110.4833363209579
 10
129.9588978759045
 20
109.962536320958
 10
129.9828978759045
 20
109.4945363209579
 10
129.9809978759046
 20
109.0810363209579
 10
129.9592978759046
 20
108.7233363209579
 10
129.9241978759046
 20
108.4221363209579
 10
129.8816978759046
 20
108.1776363209579
 10
129.8380978759046
 20
107.9897363209579
 10
129.7995978759045
 20
107.8573363209579
 10
129.7721978759046
 20
107.7793363209579
 10
129.7617978759046
 20
107.7538363209579
 10
129.5328978759046
 20
107.2478363209579
 10
130.1518978759045
 20
106.9369363209579
 10
130.7709978759046
 20
106.626036320958
 10
130.7709978759046
 20
106.626036320958
 10
131.0401978759046
 20
107.1117363209579
 10
131.0543978759046
 20
107.1353363209579
 10
131.1005978759046
 20
107.203936320958
 10
131.1837978759046
 20
107.3138363209579
 10
131.3085978759045
 20
107.4610363209579
 10
131.4792978759046
 20
107.641136320958
 10
131.6998978759045
 20
107.8491363209579
 10
131.9738978759046
 20
108.0801363209579
 10
132.3043978759046
 20
108.328636320958
 10
132.6940978759046
 20
108.5888363209579
 10
133.1452978759046
 20
108.8549363209579
 10
133.5900978759046
 20
108.5623363209581
 10
134.0348978759046
 20
108.269736320958
 10
133.9692978759045
 20
107.7501363209579
 10
133.8847978759045
 20
107.2892363209581
 10
133.7874978759046
 20
106.8873363209579
 10
133.6839978759047
 20
106.544236320958
 10
133.5802978759045
 20
106.2592363209579
 10
133.4825978759045
 20
106.0312363209579
 10
133.3967978759046
 20
105.8583363209579
 10
133.3288978759045
 20
105.7384363209579
 10
133.2841978759045
 20
105.668836320958
 10
133.2681978759045
 20
105.6464363209579
 10
132.9287978759046
 20
105.206836320958
 10
133.4593978759046
 20
104.7615363209579
 10
133.9900978759046
 20
104.3163363209579
 10
133.9900978759046
 20
104.3163363209579
 10
134.3639978759045
 20
104.7268363209579
 10
134.3832978759046
 20
104.7465363209579
 10
134.4440978759046
 20
104.8026363209579
 10
134.5503978759045
 20
104.8903363209579
 10
134.7056978759045
 20
105.004836320958
 10
134.9133978759046
 20
105.140636320958
 10
135.1759978759046
 20
105.2922363209579
 10
135.4958978759046
 20
105.4538363209579
 10
135.8747978759045
 20
105.6193363209579
 10
136.3139978759045
 20
105.782736320958
 10
136.8143978759045
 20
105.9375363209579
 10
137.1797978759046
 20
105.5502363209579
 10
137.5450978759045
 20
105.1630363209579
 10
137.3613978759046
 20
104.6725363209579
 10
137.1727978759045
 20
104.2435363209579
 10
136.9855978759045
 20
103.8748363209581
 10
136.8056978759046
 20
103.5649363209579
 10
136.6390978759046
 20
103.3115363209579
 10
136.4913978759046
 20
103.1121363209581
 10
136.3680978759046
 20
102.963736320958
 10
136.2742978759045
 20
102.862736320958
 10
136.2147978759047
 20
102.8053363209579
 10
136.1939978759046
 20
102.787136320958
 10
135.7623978759045
 20
102.4377363209581
 10
136.1760978759046
 20
101.8820363209581
 10
136.5896978759046
 20
101.3264363209579
 10
136.5896978759046
 20
101.3264363209579
 10
137.0482978759046
 20
101.6397363209581
 10
137.0715978759046
 20
101.654436320958
 10
137.1436978759045
 20
101.694936320958
 10
137.2672978759045
 20
101.755836320958
 10
137.4448978759046
 20
101.8313363209581
 10
137.6782978759045
 20
101.9156363209579
 10
137.9687978759046
 20
102.0026363209579
 10
138.3172978759046
 20
102.086036320958
 10
138.7241978759046
 20
102.1597363209579
 10
139.1891978759046
 20
102.2173363209579
 10
139.7117978759045
 20
102.2526363209579
 10
139.9779978759045
 20
101.7915363209579
 10
140.2441978759045
 20
101.3305363209579
 10
139.9523978759046
 20
100.8955363209579
 10
139.6698978759046
 20
100.5216363209579
 10
139.4026978759046
 20
100.2061363209579
 10
139.1560978759046
 20
99.94593632095805
 10
138.9355978759046
 20
99.73783632095794
 10
138.7458978759046
 20
99.57793632095795
 10
138.5916978759046
 20
99.46193632095796
 10
138.4771978759045
 20
99.38523632095806
 10
138.4059978759046
 20
99.34313632095805
 10
138.3815978759046
 20
99.33023632095794
 10
137.8810978759045
 20
99.08983632095791
 10
138.1553978759046
 20
98.45373632095792
 10
138.4297978759046
 20
97.81763632095792
 10
138.4297978759046
 20
97.81763632095792
 10
138.9481978759045
 20
98.01673632095796
 10
138.9742978759045
 20
98.02563632095806
 10
139.0537978759046
 20
98.04843632095796
 10
139.1881978759045
 20
98.07923632095796
 10
139.3783978759045
 20
98.11173632095793
 10
139.6248978759046
 20
98.13993632095796
 10
139.9275978759046
 20
98.15753632095792
 10
140.2859978759045
 20
98.15843632095792
 10
140.6988978759045
 20
98.13623632095792
 10
141.1646978759045
 20
98.08503632095793
 10
141.6812978759046
 20
97.99893632095805
 10
141.8339978759045
 20
97.48883632095792
 10
141.9866978759046
 20
96.97883632095792
 10
141.6023978759046
 20
96.62293632095796
 10
141.2413978759046
 20
96.32423632095797
 10
140.9084978759046
 20
96.07883632095795
 10
140.6086978759046
 20
95.88253632095805
 10
140.3460978759045
 20
95.73093632095797
 10
140.1246978759045
 20
95.61903632095792
 10
139.9478978759046
 20
95.54173632095794
 10
139.8186978759045
 20
95.49353632095793
 10
139.7396978759045
 20
95.46893632095797
 10
139.7130978759046
 20
95.46203632095794
 10
139.1704978759046
 20
95.34353632095807
 10
139.2907978759046
 20
94.66133632095793
 10
139.4110978759045
 20
93.97913632095796
 10
139.4110978759045
 20
93.97913632095796
 10
139.9614978759046
 20
94.05323632095806
 10
139.9888978759045
 20
94.05593632095807
 10
140.0714978759046
 20
94.05983632095794
 10
140.2092978759046
 20
94.05873632095805
 10
140.4018978759045
 20
94.04653632095793
 10
140.6482978759045
 20
94.01713632095792
 10
140.9468978759046
 20
93.96443632095796
 10
141.2957978759046
 20
93.88263632095791
 10
141.6924978759046
 20
93.76583632095796
 10
142.1338978759045
 20
93.60863632095791
 10
142.6167978759046
 20
93.40563632095805
 10
142.6476978759046
 20
92.87413632095794
 10
142.6786978759046
 20
92.34263632095806
 10
142.2226978759045
 20
92.08493632095806
 10
141.8024978759046
 20
91.87753632095806
 10
141.4219978759046
 20
91.71543632095805
 10
141.0849978759045
 20
91.5936363209579
 10
140.7944978759047
 20
91.50673632095791
 10
140.5531978759045
 20
91.44883632095795
 10
140.3633978759046
 20
91.41443632095795
 10
140.2265978759046
 20
91.39733632095792
 10
140.1440978759045
 20
91.39163632095793
 10
140.1164978759045
 20
91.39103632095797
 10
139.5612978759045
 20
91.40083632095795
 10
139.5209978759046
 20
90.70923632095796
 10
139.4806978759045
 20
90.01773632095794
 10
139.4806978759045
 20
90.01773632095794
 10
140.0332978759045
 20
89.96293632095794
 10
140.0606978759046
 20
89.95923632095796
 10
140.1418978759045
 20
89.94393632095793
 10
140.2757978759046
 20
89.91113632095792
 10
140.4603978759046
 20
89.85483632095796
 10
140.6932978759046
 20
89.76943632095796
 10
140.9716978759045
 20
89.64923632095807
 10
141.2922978759045
 20
89.48913632095795
 10
141.6513978759046
 20
89.28403632095794
 10
142.0446978759046
 20
89.02933632095792
 10
142.4676978759046
 20
88.72043632095793
 10
142.3752978759046
 20
88.19613632095795
 10
142.2827978759046
 20
87.67173632095793
 10
141.7796978759045
 20
87.52623632095796
 10
141.3228978759046
 20
87.42133632095792
 10
140.9153978759045
 20
87.35133632095793
 10
140.5593978759046
 20
87.31053632095805
 10
140.2565978759046
 20
87.29293632095792
 10
140.0084978759046
 20
87.29233632095796
 10
139.8157978759045
 20
87.30253632095796
 10
139.6787978759046
 20
87.31753632095794
 10
139.5971978759046
 20
87.33093632095793
 10
139.5702978759045
 20
87.33673632095807
 10
139.0321978759046
 20
87.47433632095792
 10
138.8335978759046
 20
86.81073632095794
 10
138.6348978759046
 20
86.14703632095805
 10
138.6348978759046
 20
86.14703632095805
 10
139.1599978759045
 20
85.96633632095805
 10
139.1856978759046
 20
85.95643632095792
 10
139.2612978759046
 20
85.92283632095806
 10
139.3839978759046
 20
85.85993632095793
 10
139.5505978759045
 20
85.76263632095797
 10
139.7574978759046
 20
85.62583632095792
 10
140.0006978759045
 20
85.44473632095796
 10
140.2757978759046
 20
85.21493632095806
 10
140.5778978759046
 20
84.93263632095793
 10
140.9017978759045
 20
84.59393632095797
 10
141.2421978759046
 20
84.19583632095797
 10
141.0312978759046
 20
83.70703632095794
 10
140.8203978759045
 20
83.21813632095805
 10
140.2972978759046
 20
83.19253632095794
 10
139.8286978759046
 20
83.19573632095793
 10
139.4159978759046
 20
83.22173632095806
 10
139.0600978759046
 20
83.26413632095793
 10
138.7614978759045
 20
83.31673632095792
 10
138.5199978759046
 20
83.37343632095806
 10
138.3347978759045
 20
83.42783632095805
 10
138.2048978759046
 20
83.47393632095796
 10
138.1285978759046
 20
83.50583632095797
 10
138.1037978759045
 20
83.51773632095794
 10
137.6118978759046
 20
83.77563632095806
 10
137.2655978759046
 20
83.17573632095795
 10
136.9191978759045
 20
82.57583632095796
 10
136.9191978759045
 20
82.57583632095796
 10
137.3884978759046
 20
82.27883632095805
 10
137.4111978759046
 20
82.26323632095793
 10
137.4769978759045
 20
82.21313632095806
 10
137.5818978759046
 20
82.12373632095793
 10
137.7215978759045
 20
81.99053632095794
 10
137.8913978759045
 20
81.80963632095805
 10
138.0862978759046
 20
81.57733632095793
 10
138.3009978759046
 20
81.29043632095792
 10
138.5297978759046
 20
80.94603632095792
 10
138.7668978759045
 20
80.54173632095794
 10
139.0062978759046
 20
80.07593632095805
 10
138.6882978759046
 20
79.64883632095805
 10
138.3703978759046
 20
79.22183632095792
 10
137.8554978759046
 20
79.31753632095794
 10
137.4001978759045
 20
79.42873632095805
 10
137.0045978759046
 20
79.54913632095796
 10
136.6681978759045
 20
79.67253632095796
 10
136.3896978759046
 20
79.79263632095794
 10
136.1676978759047
 20
79.90343632095792
 10
136.0000978759045
 20
79.99903632095791
 10
135.8843978759046
 20
80.07383632095795
 10
135.8174978759046
 20
80.12253632095806
 10
135.7959978759045
 20
80.13983632095793
 10
135.3769978759046
 20
80.50423632095792
 10
134.9015978759046
 20
80.00033632095793
 10
134.4261978759046
 20
79.49643632095797
 10
134.4261978759046
 20
79.49643632095797
 10
134.8143978759045
 20
79.09933632095792
 10
134.8328978759046
 20
79.07883632095795
 10
134.8852978759046
 20
79.01493632095796
 10
134.9667978759046
 20
78.90373632095796
 10
135.0719978759046
 20
78.74193632095793
 10
135.1954978759045
 20
78.52683632095793
 10
135.3315978759045
 20
78.25583632095797
 10
135.4742978759045
 20
77.92703632095797
 10
135.6174978759045
 20
77.53913632095794
 10
135.7549978759046
 20
77.09113632095793
 10
135.8804978759046
 20
76.58263632095796
 10
135.4726978759045
 20
76.24043632095791
 10
135.0647978759046
 20
75.89823632095792
 10
134.5857978759045
 20
76.11013632095793
 10
134.1684978759046
 20
76.32333632095799
 10
133.8113978759045
 20
76.53173632095795
 10
133.5123978759045
 20
76.72933632095791
 10
133.2690978759045
 20
76.91043632095793
 10
133.0786978759046
 20
77.06943632095792
 10
132.9376978759046
 20
77.20113632095794
 10
132.8422978759046
 20
77.30063632095792
 10
132.7883978759046
 20
77.36333632095793
 10
132.7714978759045
 20
77.38513632095791
 10
132.4477978759046
 20
77.83633632095805
 10
131.8689978759046
 20
77.45573632095793
 10
131.2902978759046
 20
77.07503632095802
 10
131.2902978759046
 20
77.07503632095802
 10
131.5763978759046
 20
76.59903632095805
 10
131.5896978759046
 20
76.57493632095796
 10
131.6258978759046
 20
76.50063632095797
 10
131.6795978759046
 20
76.37363632095796
 10
131.7445978759046
 20
76.19193632095792
 10
131.8151978759046
 20
75.95413632095793
 10
131.8850978759046
 20
75.65903632095791
 10
131.9480978759045
 20
75.30623632095794
 10
131.9980978759046
 20
74.89583632095795
 10
132.0284978759046
 20
74.42813632095792
 10
132.0333978759045
 20
73.90443632095796
 10
131.5575978759045
 20
73.66543632095792
 10
131.0817978759046
 20
73.42653632095792
 10
130.6645978759045
 20
73.74313632095792
 10
130.3076978759045
 20
74.046836320958
 10
130.0082978759046
 20
74.33203632095794
 10
129.7628978759046
 20
74.59323632095791
 10
129.5679978759046
 20
74.82553632095792
 10
129.4192978759046
 20
75.02413632095792
 10
129.3124978759046
 20
75.18483632095794
 10
129.2426978759046
 20
75.30363632095796
 10
129.2046978759046
 20
75.37713632095793
 10
129.1932978759046
 20
75.40223632095794
 10
128.9822978759046
 20
75.91593632095797
 10
128.3313978759045
 20
75.67903632095792
 10
127.6803978759047
 20
75.4421363209579
 10
127.6803978759047
 20
75.4421363209579
 10
127.8489978759046
 20
74.91293632095793
 10
127.8563978759046
 20
74.8864363209579
 10
127.8745978759046
 20
74.80573632095795
 10
127.8974978759045
 20
74.66983632095796
 10
127.9188978759046
 20
74.47803632095793
 10
127.9326978759045
 20
74.23033632095806
 10
127.9326978759045
 20
73.92713632095794
 10
127.9126978759045
 20
73.56933632095792
 10
127.8665978759045
 20
73.15833632095806
 10
127.7883978759046
 20
72.69633632095795
 10
127.6722978759046
 20
72.18553632095805
 10
127.1542978759046
 20
72.06273632095807
 10
126.6361978759046
 20
71.94003632095806
 10
126.3032978759045
 20
72.34433632095792
 10
126.0259978759045
 20
72.72213632095796
 10
125.8003978759045
 20
73.06863632095806
 10
125.6218978759046
 20
73.3794363209579
 10
125.4857978759047
 20
73.65043632095791
 10
125.3869978759046
 20
73.87793632095796
 10
125.3200978759047
 20
74.05893632095791
 10
125.2794978759046
 20
74.19073632095791
 10
125.2594978759046
 20
74.2709363209579
 10
125.2541978759045
 20
74.29803632095795
 10
125.1673978759045
 20
74.84653632095797
 10
124.4793978759046
 20
74.76613632095805
 10
123.7912978759045
 20
74.68563632095791
 10
123.7912978759045
 20
74.68563632095791
 10
123.8333978759046
 20
74.13193632095792
 10
123.8343978759047
 20
74.10433632095788
 10
123.8334978759046
 20
74.0216363209579
 10
123.8243978759047
 20
73.88413632095794
 10
123.8009978759046
 20
73.69263632095792
 10
123.7572978759046
 20
73.44833632095796
 10
123.6873978759046
 20
73.15333632095806
 10
123.5853978759046
 20
72.80973632095797
 10
123.4457978759046
 20
72.42053632095806
 10
123.2630978759046
 20
71.98893632095806
 10
123.0323978759045
 20
71.51873632095791
 10
122.4999978759046
 20
71.51873632095788
 10
121.9675978759046
 20
71.51873632095788
 10
121.7368978759046
 20
71.98893632095806
 10
121.5541978759045
 20
72.42053632095806
 10
121.4145978759046
 20
72.80973632095797
 10
121.3125978759045
 20
73.15333632095806
 10
121.2426978759046
 20
73.44833632095796
 10
121.1989978759046
 20
73.69263632095792
 10
121.1755978759046
 20
73.88413632095794
 10
121.1664978759046
 20
74.02163632095792
 10
121.1655978759046
 20
74.10433632095788
 10
121.1665978759046
 20
74.13193632095792
 10
121.2086978759046
 20
74.68563632095791
 10
120.5205978759046
 20
74.76613632095805
 10
119.8325978759046
 20
74.84653632095794
 10
119.8325978759046
 20
74.84653632095794
 10
119.7457978759045
 20
74.29803632095798
 10
119.7404978759046
 20
74.27093632095793
 10
119.7204978759046
 20
74.19073632095794
 10
119.6798978759045
 20
74.05893632095794
 10
119.6129978759046
 20
73.87793632095796
 10
119.5141978759046
 20
73.65043632095797
 10
119.3780978759046
 20
73.37943632095792
 10
119.1995978759046
 20
73.06863632095806
 10
118.9739978759046
 20
72.72213632095793
 10
118.6966978759046
 20
72.34433632095792
 10
118.3637978759047
 20
71.94003632095803
 10
117.8456978759046
 20
72.06273632095807
 10
117.3276978759046
 20
72.18553632095808
 10
117.2115978759045
 20
72.69633632095795
 10
117.1333978759046
 20
73.15833632095806
 10
117.0872978759046
 20
73.56933632095794
 10
117.0672978759046
 20
73.92713632095797
 10
117.0672978759046
 20
74.23033632095806
 10
117.0810978759046
 20
74.47803632095795
 10
117.1024978759046
 20
74.66983632095796
 10
117.1253978759046
 20
74.80573632095795
 10
117.1435978759046
 20
74.88643632095793
 10
117.1509978759046
 20
74.9129363209579
 10
117.3195978759045
 20
75.44213632095793
 10
116.6685978759046
 20
75.67903632095792
 10
116.0176978759046
 20
75.91593632095797
 10
116.0176978759046
 20
75.91593632095797
 10
115.8066978759045
 20
75.40223632095791
 10
115.7952978759046
 20
75.37713632095793
 10
115.7572978759046
 20
75.30363632095793
 10
115.6874978759046
 20
75.18483632095794
 10
115.5806978759045
 20
75.02413632095792
 10
115.4319978759046
 20
74.82553632095792
 10
115.2370978759046
 20
74.59323632095791
 10
114.9916978759045
 20
74.33203632095794
 10
114.6922978759046
 20
74.04683632095796
 10
114.3353978759046
 20
73.74313632095792
 10
113.9181978759046
 20
73.42653632095795
 10
113.4423978759046
 20
73.66543632095792
 10
112.9665978759046
 20
73.90443632095796
 10
112.9714978759046
 20
74.42813632095792
 10
113.0018978759045
 20
74.89583632095795
 10
113.0518978759046
 20
75.30623632095791
 10
113.1148978759045
 20
75.65903632095791
 10
113.1847978759046
 20
75.9541363209579
 10
113.2553978759046
 20
76.1919363209579
 10
113.3203978759046
 20
76.37363632095796
 10
113.3740978759046
 20
76.50063632095797
 10
113.4102978759046
 20
76.57493632095793
 10
113.4235978759046
 20
76.59903632095808
 10
113.7096978759046
 20
77.07503632095805
 10
113.1309978759045
 20
77.45573632095793
 10
112.5521978759046
 20
77.83633632095808
 10
112.5521978759046
 20
77.83633632095808
 10
112.2284978759046
 20
77.38513632095788
 10
112.2115978759045
 20
77.36333632095793
 10
112.1576978759045
 20
77.30063632095789
 10
112.0622978759046
 20
77.20113632095794
 10
111.9212978759045
 20
77.06943632095789
 10
111.7308978759046
 20
76.91043632095793
 10
111.4875978759046
 20
76.72933632095794
 10
111.1885978759046
 20
76.53173632095795
 10
110.8314978759046
 20
76.32333632095796
 10
110.4141978759046
 20
76.11013632095796
 10
109.9351978759046
 20
75.89823632095792
 10
109.5272978759046
 20
76.24043632095788
 10
109.1194978759046
 20
76.58263632095796
 10
109.2449978759046
 20
77.09113632095793
 10
109.3824978759046
 20
77.53913632095794
 10
109.5256978759045
 20
77.92703632095797
 10
109.6683978759046
 20
78.25583632095797
 10
109.8044978759046
 20
78.52683632095793
 10
109.9279978759046
 20
78.74193632095793
 10
110.0331978759046
 20
78.90373632095796
 10
110.1146978759046
 20
79.01493632095796
 10
110.1670978759046
 20
79.07883632095795
 10
110.1855978759046
 20
79.09933632095795
 10
110.5737978759046
 20
79.49643632095791
 10
110.0983978759046
 20
80.00033632095793
 10
109.6229978759046
 20
80.50423632095792
 10
109.6229978759046
 20
80.50423632095792
 10
109.2039978759046
 20
80.1398363209579
 10
109.1824978759046
 20
80.12253632095806
 10
109.1155978759045
 20
80.07383632095792
 10
108.9998978759046
 20
79.99903632095794
 10
108.8322978759045
 20
79.9034363209579
 10
108.6102978759046
 20
79.79263632095794
 10
108.3317978759046
 20
79.67253632095793
 10
107.9953978759046
 20
79.54913632095793
 10
107.5997978759046
 20
79.42873632095802
 10
107.1444978759046
 20
79.31753632095794
 10
106.6295978759046
 20
79.22183632095792
 10
106.3116978759045
 20
79.64883632095805
 10
105.9936978759046
 20
80.07593632095805
 10
106.2330978759045
 20
80.54173632095794
 10
106.4701978759045
 20
80.94603632095789
 10
106.6989978759046
 20
81.29043632095792
 10
106.9136978759046
 20
81.5773363209579
 10
107.1085978759046
 20
81.80963632095802
 10
107.2783978759045
 20
81.99053632095794
 10
107.4180978759046
 20
82.12373632095793
 10
107.5229978759046
 20
82.21313632095806
 10
107.5887978759046
 20
82.2632363209579
 10
107.6114978759045
 20
82.27883632095802
 10
108.0807978759046
 20
82.57583632095796
 10
107.7343978759046
 20
83.17573632095795
 10
107.3880978759046
 20
83.77563632095809
 10
107.3880978759046
 20
83.77563632095809
 10
106.8961978759046
 20
83.51773632095794
 10
106.8713978759046
 20
83.50583632095797
 10
106.7950978759046
 20
83.47393632095796
 10
106.6651978759046
 20
83.42783632095802
 10
106.4799978759046
 20
83.37343632095806
 10
106.2384978759046
 20
83.31673632095792
 10
105.9398978759046
 20
83.2641363209579
 10
105.5839978759046
 20
83.22173632095806
 10
105.1712978759045
 20
83.19573632095796
 10
104.7026978759046
 20
83.19253632095794
 10
104.1795978759046
 20
83.21813632095802
 10
103.9686978759046
 20
83.70703632095791
 10
103.7577978759046
 20
84.19583632095794
 10
104.0981978759046
 20
84.59393632095797
 10
104.4220978759046
 20
84.9326363209579
 10
104.7241978759046
 20
85.21493632095806
 10
104.9992978759046
 20
85.44473632095796
 10
105.2424978759046
 20
85.62583632095792
 10
105.4493978759046
 20
85.76263632095794
 10
105.6159978759046
 20
85.85993632095793
 10
105.7386978759046
 20
85.92283632095806
 10
105.8142978759046
 20
85.95643632095792
 10
105.8399978759046
 20
85.96633632095802
 10
106.3650978759046
 20
86.14703632095805
 10
106.1663978759046
 20
86.81073632095794
 10
105.9677978759046
 20
87.47433632095792
 10
105.9677978759046
 20
87.47433632095792
 10
105.4296978759046
 20
87.33673632095804
 10
105.4027978759046
 20
87.3309363209579
 10
105.3211978759045
 20
87.31753632095794
 10
105.1841978759045
 20
87.30253632095796
 10
104.9914978759046
 20
87.29233632095793
 10
104.7433978759046
 20
87.29293632095795
 10
104.4405978759046
 20
87.31053632095802
 10
104.0845978759046
 20
87.35133632095793
 10
103.6770978759046
 20
87.42133632095789
 10
103.2202978759046
 20
87.52623632095793
 10
102.7171978759046
 20
87.67173632095793
 10
102.6246978759046
 20
88.19613632095798
 10
102.5322978759046
 20
88.72043632095793
 10
102.9552978759046
 20
89.0293363209579
 10
103.3485978759045
 20
89.28403632095794
 10
103.7076978759046
 20
89.48913632095795
 10
104.0282978759046
 20
89.64923632095807
 10
104.3066978759045
 20
89.76943632095794
 10
104.5395978759046
 20
89.85483632095793
 10
104.7241978759046
 20
89.9111363209579
 10
104.8580978759045
 20
89.94393632095793
 10
104.9392978759046
 20
89.95923632095796
 10
104.9666978759046
 20
89.96293632095791
 10
105.5192978759046
 20
90.01773632095791
 10
105.4789978759046
 20
90.70923632095796
 10
105.4386978759046
 20
91.40083632095792
  0
LWPOLYLINE
  5
296F
330
2C5E
100
AcDbEntity
  8
LaserCut
 62
     1
420
 16711680
100
AcDbPolyline
 90
     1944
 70
   128
 43
0.0
 10
61.4436
 20
69.37480000000002
 10
61.4436
 20
69.37480000000002
 10
61.44360000000006
 20
69.37639999999996
 10
61.4434
 20
69.3871999999999
 10
61.44299999999998
 20
69.41640000000007
 10
61.44229999999999
 20
69.4726
 10
61.44130000000001
 20
69.56379999999996
 10
61.27179999999998
 20
69.6959
 10
60.65589999999997
 20
69.87610000000001
 10
59.9556
 20
70.11630000000008
 10
59.17509999999999
 20
70.4246
 10
58.31950000000001
 20
70.80870000000004
 10
58.32749999999999
 20
71.17750000000012
 10
58.3356
 20
71.54630000000003
 10
59.20710000000003
 20
71.89270000000005
 10
60.00029999999998
 20
72.16670000000002
 10
60.71050000000002
 20
72.37610000000001
 10
61.33370000000008
 20
72.5293
 10
61.50869999999998
 20
72.65379999999999
 10
61.51369999999997
 20
72.74490000000006
 10
61.51690000000002
 20
72.80100000000002
 10
61.51850000000002
 20
72.83019999999996
 10
61.51920000000007
 20
72.84099999999987
 10
61.51920000000007
 20
72.84250000000003
 10
61.51920000000007
 20
72.84250000000003
 10
61.5444
 20
73.22590000000002
 10
61.56950000000001
 20
73.60930000000002
 10
61.56950000000001
 20
73.60930000000002
 10
61.56950000000001
 20
73.60930000000002
 10
61.56960000000004
 20
73.61089999999987
 10
61.57040000000006
 20
73.6217
 10
61.57260000000008
 20
73.65090000000004
 10
61.57679999999999
 20
73.70690000000008
 10
61.58370000000002
 20
73.7978
 10
61.4264
 20
73.94420000000005
 10
60.82859999999999
 20
74.17740000000003
 10
60.15180000000004
 20
74.47770000000003
 10
59.40109999999999
 20
74.85290000000006
 10
58.5822
 20
75.31010000000009
 10
58.62240000000003
 20
75.67680000000007
 10
58.6626
 20
76.04340000000013
 10
59.56100000000004
 20
76.31260000000006
 10
60.375
 20
76.51640000000009
 10
61.10079999999999
 20
76.66310000000001
 10
61.73489999999998
 20
76.76140000000007
 10
61.92020000000002
 20
76.87020000000001
 10
61.93310000000002
 20
76.96050000000005
 10
61.94110000000001
 20
77.01610000000005
 10
61.94529999999997
 20
77.04500000000002
 10
61.94690000000003
 20
77.05580000000006
 10
61.94709999999998
 20
77.05730000000003
 10
61.94709999999998
 20
77.05730000000003
 10
62.00560000000007
 20
77.4369999999999
 10
62.06400000000008
 20
77.8168
 10
62.06400000000008
 20
77.8168
 10
62.06400000000008
 20
77.8168
 10
62.0643
 20
77.81830000000008
 10
62.06599999999997
 20
77.82910000000004
 10
62.07069999999999
 20
77.85790000000006
 10
62.07979999999998
 20
77.91340000000002
 10
62.09460000000001
 20
78.00330000000008
 10
61.95060000000001
 20
78.16280000000003
 10
61.37540000000001
 20
78.44720000000007
 10
60.72739999999999
 20
78.80540000000005
 10
60.01229999999998
 20
79.24459999999999
 10
59.2364
 20
79.77140000000003
 10
59.30829999999997
 20
80.13320000000004
 10
59.38029999999998
 20
80.49499999999995
 10
60.29870000000005
 20
80.68479999999997
 10
61.1275
 20
80.81690000000003
 10
61.86320000000001
 20
80.89980000000006
 10
62.50349999999997
 20
80.94240000000008
 10
62.69760000000002
 20
81.03470000000002
 10
62.7183
 20
81.12350000000006
 10
62.73110000000003
 20
81.17820000000003
 10
62.73779999999999
 20
81.20660000000004
 10
62.74029999999999
 20
81.21719999999999
 10
62.7407
 20
81.2186999999999
 10
62.7407
 20
81.2186999999999
 10
62.83199999999999
 20
81.5918999999999
 10
62.92340000000002
 20
81.9650999999999
 10
62.92340000000002
 20
81.9650999999999
 10
62.92340000000002
 20
81.9650999999999
 10
62.9237
 20
81.96670000000003
 10
62.9264
 20
81.97720000000007
 10
62.93360000000001
 20
82.00550000000004
 10
62.94749999999999
 20
82.06000000000006
 10
62.9701
 20
82.14830000000006
 10
62.84059999999999
 20
82.31970000000013
 10
62.29230000000001
 20
82.65320000000008
 10
61.67790000000002
 20
83.06650000000002
 10
61.00380000000001
 20
83.56630000000007
 10
60.27679999999998
 20
84.15880000000001
 10
60.38
 20
84.5129
 10
60.48320000000001
 20
84.86700000000008
 10
61.41480000000001
 20
84.9761
 10
62.2518
 20
85.03540000000007
 10
62.99200000000002
 20
85.05389999999989
 10
63.6336
 20
85.04060000000001
 10
63.83499999999998
 20
85.11560000000006
 10
63.86329999999998
 20
85.20220000000006
 10
63.8809
 20
85.25560000000004
 10
63.89010000000002
 20
85.28340000000006
 10
63.89350000000002
 20
85.29370000000006
 10
63.89400000000001
 20
85.29510000000002
 10
63.89400000000001
 20
85.29510000000002
 10
64.01749999999998
 20
85.65900000000002
 10
64.14100000000002
 20
86.02279999999999
 10
64.14100000000002
 20
86.02279999999999
 10
64.14100000000002
 20
86.02279999999999
 10
64.14150000000001
 20
86.0243000000001
 10
64.14499999999998
 20
86.03450000000004
 10
64.15469999999999
 20
86.06209999999999
 10
64.17320000000001
 20
86.11520000000002
 10
64.20350000000002
 20
86.20120000000006
 10
64.08940000000001
 20
86.38320000000002
 10
63.57229999999998
 20
86.76320000000001
 10
62.99630000000002
 20
87.22850000000003
 10
62.36829999999998
 20
87.78520000000006
 10
61.69569999999999
 20
88.43880000000007
 10
61.82940000000008
 20
88.78250000000003
 10
61.96300000000002
 20
89.12630000000007
 10
62.90050000000002
 20
89.15380000000002
 10
63.7396
 20
89.13990000000001
 10
64.47859999999997
 20
89.09379999999999
 10
65.1166
 20
89.02460000000005
 10
65.32369999999997
 20
89.08179999999999
 10
65.35950000000003
 20
89.16560000000001
 10
65.38170000000002
 20
89.21730000000005
 10
65.39319999999998
 20
89.24410000000006
 10
65.39750000000001
 20
89.2541
 10
65.3981
 20
89.25549999999998
 10
65.3981
 20
89.25549999999998
 10
65.55279999999999
 20
89.60720000000003
 10
65.70760000000001
 20
89.95890000000006
 10
65.70760000000001
 20
89.95890000000006
 10
65.70760000000001
 20
89.95890000000006
 10
65.70819999999998
 20
89.96030000000005
 10
65.71269999999998
 20
89.97020000000003
 10
65.72469999999998
 20
89.99690000000004
 10
65.74779999999998
 20
90.04810000000006
 10
65.78539999999998
 20
90.13109999999998
 10
65.68759999999997
 20
90.32250000000005
 10
65.2056
 20
90.74610000000001
 10
64.67239999999998
 20
91.25979999999998
 10
64.09530000000001
 20
91.869
 10
63.48219999999998
 20
92.57880000000003
 10
63.64530000000002
 20
92.90960000000001
 10
63.80849999999998
 20
93.24040000000005
 10
64.7448
 20
93.18610000000004
 10
65.57940000000002
 20
93.09910000000005
 10
66.3116
 20
92.9888
 10
66.9411
 20
92.86430000000001
 10
67.1524
 20
92.90320000000008
 10
67.1954
 20
92.98360000000002
 10
67.22199999999998
 20
93.03309999999999
 10
67.23579999999998
 20
93.05880000000002
 10
67.24099999999999
 20
93.0684
 10
67.24169999999998
 20
93.06979999999999
 10
67.24169999999998
 20
93.06979999999999
 10
67.42649999999998
 20
93.40660000000005
 10
67.61130000000003
 20
93.74349999999998
 10
67.61130000000003
 20
93.74349999999998
 10
67.61130000000003
 20
93.74349999999998
 10
67.61210000000003
 20
93.7448
 10
67.61739999999998
 20
93.75430000000003
 10
67.63159999999999
 20
93.7798
 10
67.65910000000002
 20
93.82880000000003
 10
67.7038
 20
93.9083
 10
67.62310000000002
 20
94.10739999999998
 10
67.1798
 20
94.57140000000004
 10
66.6934
 20
95.1296000000001
 10
66.17160000000001
 20
95.7869
 10
65.62270000000001
 20
96.5474000000001
 10
65.8141
 20
96.86270000000005
 10
66.00540000000001
 20
97.17800000000003
 10
66.9334
 20
97.04230000000007
 10
67.75729999999999
 20
96.88290000000006
 10
68.47710000000001
 20
96.70920000000004
 10
69.09339999999997
 20
96.53029999999998
 10
69.3073
 20
96.55060000000009
 10
69.3571
 20
96.62700000000001
 10
69.3879
 20
96.67400000000004
 10
69.40390000000002
 20
96.69840000000002
 10
69.4099
 20
96.7075000000001
 10
69.41070000000002
 20
96.70880000000002
 10
69.41070000000002
 20
96.70880000000002
 10
69.62419999999997
 20
97.02830000000003
 10
69.83760000000001
 20
97.34770000000003
 10
69.83760000000001
 20
97.34770000000003
 10
69.83760000000001
 20
97.34770000000003
 10
69.83850000000001
 20
97.34899999999999
 10
69.84460000000001
 20
97.35800000000003
 10
69.86110000000002
 20
97.38220000000004
 10
69.89270000000002
 20
97.42859999999999
 10
69.94420000000002
 20
97.50380000000001
 10
69.8811
 20
97.70920000000001
 10
69.48000000000002
 20
98.21010000000004
 10
69.04399999999998
 20
98.80860000000004
 10
68.5815
 20
99.50880000000006
 10
68.101
 20
100.3143
 10
68.31909999999999
 20
100.6117
 10
68.53719999999998
 20
100.9092
 10
69.44979999999998
 20
100.6931
 10
70.25670000000002
 20
100.4625000000001
 10
70.95859999999999
 20
100.2267
 10
71.55689999999998
 20
99.99480000000003
 10
71.77179999999998
 20
99.99640000000005
 10
71.8281
 20
100.0681000000001
 10
71.8628
 20
100.1123
 10
71.8809
 20
100.1352000000001
 10
71.8877
 20
100.1437000000001
 10
71.8886
 20
100.1449000000001
 10
71.8886
 20
100.1449000000001
 10
72.1291
 20
100.4446
 10
72.36959999999999
 20
100.7442000000001
 10
72.36959999999999
 20
100.7442000000001
 10
72.36959999999999
 20
100.7442000000001
 10
72.37060000000002
 20
100.7454
 10
72.3775
 20
100.7539
 10
72.39589999999998
 20
100.7765
 10
72.43150000000003
 20
100.8200000000001
 10
72.48939999999999
 20
100.8905
 10
72.44439999999997
 20
101.1006
 10
72.08850000000001
 20
101.6345000000001
 10
71.70639999999997
 20
102.2687000000001
 10
71.3066
 20
103.0066
 10
70.8981
 20
103.8508
 10
71.1413
 20
104.1282
 10
71.3845
 20
104.4055
 10
72.2749
 20
104.1106
 10
73.05860000000001
 20
103.8107
 10
73.73719999999997
 20
103.5146
 10
74.31310000000002
 20
103.2314
 10
74.52730000000003
 20
103.2142
 10
74.58960000000002
 20
103.2808
 10
74.62810000000002
 20
103.3217000000001
 10
74.6481
 20
103.343
 10
74.65550000000002
 20
103.3509000000001
 10
74.65660000000003
 20
103.352
 10
74.65660000000003
 20
103.352
 10
74.9223
 20
103.6296000000001
 10
75.18799999999999
 20
103.9071000000001
 10
75.18799999999999
 20
103.9071000000001
 10
75.18799999999999
 20
103.9071000000001
 10
75.1891
 20
103.9083
 10
75.19670000000002
 20
103.916
 10
75.21699999999998
 20
103.937
 10
75.25630000000001
 20
103.9772000000001
 10
75.32
 20
104.0424
 10
75.29360000000003
 20
104.2556000000001
 10
74.9855
 20
104.8185
 10
74.6601
 20
105.4836000000001
 10
74.32619999999997
 20
106.2535
 10
73.99279999999999
 20
107.1302
 10
74.2593
 20
107.3852
 10
74.52569999999997
 20
107.6403
 10
75.387
 20
107.269
 10
76.14159999999998
 20
106.9018
 10
76.7919
 20
106.5478000000001
 10
77.3408
 20
106.2154
 10
77.55270000000002
 20
106.1797
 10
77.62060000000002
 20
106.2405
 10
77.66250000000002
 20
106.278
 10
77.68430000000001
 20
106.2974000000001
 10
77.69240000000002
 20
106.3047
 10
77.6936
 20
106.3057
 10
77.6936
 20
106.3057
 10
77.98239999999998
 20
106.559
 10
78.2713
 20
106.8124000000001
 10
78.2713
 20
106.8124000000001
 10
78.2713
 20
106.8124000000001
 10
78.27249999999998
 20
106.8134
 10
78.28070000000002
 20
106.8205
 10
78.30279999999999
 20
106.8396000000001
 10
78.34539999999998
 20
106.8762
 10
78.41460000000001
 20
106.9356
 10
78.40690000000001
 20
107.1503000000001
 10
78.149
 20
107.7379000000001
 10
77.88279999999997
 20
108.4289000000001
 10
77.6173
 20
109.2249000000001
 10
77.36160000000001
 20
110.1273
 10
77.64929999999998
 20
110.3582000000001
 10
77.93689999999998
 20
110.589
 10
78.76260000000002
 20
110.1441
 10
79.48230000000001
 20
109.7126
 10
80.0992
 20
109.3031
 10
80.6171
 20
108.9242000000001
 10
80.82510000000002
 20
108.8702
 10
80.89800000000002
 20
108.9249
 10
80.94299999999998
 20
108.9585
 10
80.96640000000002
 20
108.976
 10
80.9751
 20
108.9825
 10
80.97640000000001
 20
108.9834000000001
 10
80.97640000000001
 20
108.9834000000001
 10
81.28620000000001
 20
109.2106
 10
81.59609999999998
 20
109.4378000000001
 10
81.59609999999998
 20
109.4378000000001
 10
81.59609999999998
 20
109.4378000000001
 10
81.5974
 20
109.4387
 10
81.6062
 20
109.4451000000001
 10
81.62990000000002
 20
109.4622
 10
81.6755
 20
109.495
 10
81.74959999999999
 20
109.5481
 10
81.76060000000001
 20
109.7627
 10
81.55489999999998
 20
110.3705
 10
81.35000000000002
 20
111.082
 10
81.1549
 20
111.8982
 10
80.97879999999998
 20
112.8194
 10
81.28550000000001
 20
113.0243
 10
81.59219999999999
 20
113.2293000000001
 10
82.3759
 20
112.714
 10
83.05520000000001
 20
112.2214
 10
83.63409999999999
 20
111.7598
 10
84.11700000000002
 20
111.3372000000001
 10
84.3195
 20
111.2652000000001
 10
84.39690000000002
 20
111.3134
 10
84.44470000000001
 20
111.343
 10
84.46949999999998
 20
111.3583
 10
84.47879999999998
 20
111.364
 10
84.4801
 20
111.3648
 10
84.4801
 20
111.3648
 10
84.80860000000001
 20
111.5642
 10
85.13709999999998
 20
111.7635000000001
 10
85.13709999999998
 20
111.7635000000001
 10
85.13709999999998
 20
111.7635000000001
 10
85.13839999999999
 20
111.7643
 10
85.14769999999999
 20
111.7698
 10
85.1728
 20
111.7848000000001
 10
85.22109999999998
 20
111.8135
 10
85.2996
 20
111.8599
 10
85.32920000000001
 20
112.0728
 10
85.17739999999998
 20
112.6962
 10
85.03519999999997
 20
113.4229
 10
84.91199999999998
 20
114.253
 10
84.8168
 20
115.186
 10
85.1402
 20
115.3634
 10
85.46359999999999
 20
115.5409
 10
86.19940000000003
 20
114.9593000000001
 10
86.83319999999998
 20
114.4093
 10
87.36970000000002
 20
113.899
 10
87.81400000000002
 20
113.4359
 10
88.00940000000003
 20
113.3466000000001
 10
88.09070000000003
 20
113.3878
 10
88.14089999999999
 20
113.4131
 10
88.16699999999997
 20
113.4263
 10
88.17669999999998
 20
113.4311
 10
88.178
 20
113.4318000000001
 10
88.178
 20
113.4318000000001
 10
88.52260000000001
 20
113.6018
 10
88.86720000000003
 20
113.7717
 10
88.86720000000003
 20
113.7717
 10
88.86720000000003
 20
113.7717
 10
88.86860000000001
 20
113.7724
 10
88.8784
 20
113.7771
 10
88.90469999999999
 20
113.7898
 10
88.9554
 20
113.8142
 10
89.0376
 20
113.8536
 10
89.0856
 20
114.0631
 10
88.9887
 20
114.6974000000001
 10
88.91039999999998
 20
115.4337
 10
88.86000000000001
 20
116.2713000000001
 10
88.84649999999999
 20
117.2091
 10
89.1841
 20
117.3577000000001
 10
89.52170000000001
 20
117.5062
 10
90.20409999999998
 20
116.8628000000001
 10
90.7876
 20
116.2597
 10
91.27749999999997
 20
115.7045000000001
 10
91.67970000000003
 20
115.2045000000001
 10
91.8666
 20
115.0984
 10
91.95119999999997
 20
115.1324
 10
92.0034
 20
115.1533
 10
92.03050000000002
 20
115.1641
 10
92.04059999999998
 20
115.1681
 10
92.0421
 20
115.1687000000001
 10
92.0421
 20
115.1687000000001
 10
92.40019999999998
 20
115.3079
 10
92.75830000000002
 20
115.4472000000001
 10
92.75830000000002
 20
115.4472000000001
 10
92.75830000000002
 20
115.4472000000001
 10
92.75970000000001
 20
115.4477
 10
92.7699
 20
115.4516
 10
92.79719999999998
 20
115.4619
 10
92.84969999999998
 20
115.4818000000001
 10
92.93509999999998
 20
115.5139
 10
93.00119999999998
 20
115.7184
 10
92.9599
 20
116.3588
 10
92.9461
 20
117.0991
 10
92.96890000000002
 20
117.9379000000001
 10
93.03719999999998
 20
118.8733
 10
93.38650000000001
 20
118.9919000000001
 10
93.73570000000001
 20
119.1105
 10
94.3594
 20
118.4099000000001
 10
94.88810000000001
 20
117.7583000000001
 10
95.32780000000002
 20
117.1626
 10
95.68490000000003
 20
116.6294
 10
95.86180000000002
 20
116.5074
 10
95.94909999999999
 20
116.5339
 10
96.00290000000001
 20
116.5501000000001
 10
96.03089999999997
 20
116.5585
 10
96.04129999999998
 20
116.5617
 10
96.04270000000002
 20
116.5621
 10
96.04270000000002
 20
116.5621
 10
96.41160000000002
 20
116.6696
 10
96.78050000000002
 20
116.7771
 10
96.78050000000002
 20
116.7771
 10
96.78050000000002
 20
116.7771
 10
96.78199999999998
 20
116.7776
 10
96.79239999999999
 20
116.7805000000001
 10
96.82060000000001
 20
116.7885
 10
96.87470000000002
 20
116.8037000000001
 10
96.9624
 20
116.8282
 10
97.0462
 20
117.0261
 10
97.06079999999997
 20
117.6677000000001
 10
97.11160000000001
 20
118.4064
 10
97.2074
 20
119.2401
 10
97.35700000000003
 20
120.1659000000001
 10
97.71530000000001
 20
120.2536
 10
98.07350000000002
 20
120.3413
 10
98.63380000000001
 20
119.5891
 10
99.1037
 20
118.8938
 10
99.4898
 20
118.262
 10
99.79899999999998
 20
117.6998
 10
99.9647
 20
117.5629000000001
 10
100.0539
 20
117.5816000000001
 10
100.1089
 20
117.5931
 10
100.1375
 20
117.5991
 10
100.1481
 20
117.6013
 10
100.1497
 20
117.6016
 10
100.1497
 20
117.6016
 10
100.5265
 20
117.6765
 10
100.9033
 20
117.7515
 10
100.9033
 20
117.7515
 10
100.9033
 20
117.7515
 10
100.9049
 20
117.7518000000001
 10
100.9155
 20
117.7538
 10
100.9442
 20
117.7593
 10
100.9995
 20
117.7697
 10
101.089
 20
117.7865
 10
101.1897
 20
117.9764000000001
 10
101.2602
 20
118.6142
 10
101.3752
 20
119.3457000000001
 10
101.5433
 20
120.1678
 10
101.773
 20
121.0772000000001
 10
102.1375
 20
121.1333
 10
102.5021
 20
121.1894
 10
102.9946
 20
120.3912
 10
103.4022
 20
119.6577
 10
103.7317
 20
118.9946000000001
 10
103.9908
 20
118.4075
 10
104.1439
 20
118.2567
 10
104.2344
 20
118.2676
 10
104.2902
 20
118.2743
 10
104.3192
 20
118.2777
 10
104.33
 20
118.2790000000001
 10
104.3315
 20
118.2791
 10
104.3315
 20
118.2791
 10
104.7135
 20
118.321
 10
105.0954
 20
118.3628000000001
 10
105.0954
 20
118.3628000000001
 10
105.0954
 20
118.3628000000001
 10
105.097
 20
118.363
 10
105.1078
 20
118.3641
 10
105.1368
 20
118.367
 10
105.1927
 20
118.3726
 10
105.2835
 20
118.3815
 10
105.4003
 20
118.5619
 10
105.5261
 20
119.1911
 10
105.7044
 20
119.9098
 10
105.9435
 20
120.7142
 10
106.2516
 20
121.6000000000001
 10
106.6197
 20
121.6241
 10
106.9877
 20
121.6483
 10
107.4088
 20
120.8102
 10
107.7509
 20
120.0439
 10
108.0214
 20
119.3547
 10
108.2283
 20
118.7472
 10
108.3676
 20
118.5837
 10
108.4588
 20
118.5866
 10
108.5149
 20
118.5884
 10
108.5441
 20
118.5893
 10
108.555
 20
118.5896
 10
108.5565
 20
118.5897
 10
108.5565
 20
118.5897
 10
108.9407
 20
118.598
 10
109.3248
 20
118.6064
 10
109.3248
 20
118.6064
 10
109.3248
 20
118.6064
 10
109.3264
 20
118.6064
 10
109.3372
 20
118.6066
 10
109.3664
 20
118.607
 10
109.4226
 20
118.6077000000001
 10
109.5138
 20
118.6087
 10
109.6459
 20
118.7782
 10
109.8261
 20
119.3941
 10
110.0663
 20
120.0944
 10
110.3746
 20
120.8749000000001
 10
110.7587
 20
121.7305
 10
111.1275
 20
121.7225
 10
111.4963
 20
121.7144
 10
111.8427
 20
120.8429
 10
112.1167
 20
120.0497
 10
112.3261
 20
119.3395
 10
112.4793
 20
118.7163
 10
112.6038
 20
118.5413
 10
112.6949
 20
118.5363
 10
112.751
 20
118.5331000000001
 10
112.7802
 20
118.5315
 10
112.791
 20
118.5308
 10
112.7925
 20
118.5308
 10
112.7925
 20
118.5308
 10
113.1759
 20
118.5056
 10
113.5593
 20
118.4805
 10
113.5593
 20
118.4805
 10
113.5593
 20
118.4805
 10
113.5609
 20
118.4804
 10
113.5717
 20
118.4796
 10
113.6009
 20
118.4774
 10
113.6569
 20
118.4732
 10
113.7478
 20
118.4663
 10
113.8942
 20
118.6236
 10
114.1274
 20
119.2214
 10
114.4277
 20
119.8982
 10
114.8029
 20
120.6489
 10
115.2601
 20
121.4678
 10
115.6268
 20
121.4276
 10
115.9934
 20
121.3874000000001
 10
116.2626
 20
120.4890000000001
 10
116.4664
 20
119.675
 10
116.6131
 20
118.9492000000001
 10
116.7114
 20
118.3151
 10
116.8202
 20
118.1298
 10
116.9105
 20
118.1169
 10
116.9661
 20
118.1089
 10
116.995
 20
118.1047
 10
117.0058
 20
118.1031
 10
117.0073
 20
118.1029
 10
117.0073
 20
118.1029
 10
117.387
 20
118.0444000000001
 10
117.7668
 20
117.986
 10
117.7668
 20
117.986
 10
117.7668
 20
117.986
 10
117.7683
 20
117.9857
 10
117.7791
 20
117.9840000000001
 10
117.8079
 20
117.9793
 10
117.8634
 20
117.9702
 10
117.9533
 20
117.9554
 10
118.1128
 20
118.0994
 10
118.3972
 20
118.6746
 10
118.7554
 20
119.3226000000001
 10
119.1946
 20
120.0377
 10
119.7214
 20
120.8136
 10
120.0832
 20
120.7417
 10
120.445
 20
120.6697
 10
120.6348
 20
119.7513
 10
120.7669
 20
118.9225
 10
120.8498
 20
118.1868
 10
120.8924
 20
117.5465
 10
120.9847
 20
117.3524
 10
121.0735
 20
117.3317
 10
121.1282
 20
117.3189
 10
121.1566
 20
117.3122
 10
121.1672
 20
117.3097
 10
121.1687
 20
117.3093
 10
121.1687
 20
117.3093
 10
121.5419
 20
117.218
 10
121.9151
 20
117.1266000000001
 10
121.9151
 20
117.1266000000001
 10
121.9151
 20
117.1266000000001
 10
121.9167
 20
117.1263
 10
121.9272
 20
117.1236
 10
121.9555
 20
117.1164
 10
122.01
 20
117.1025
 10
122.0983
 20
117.0799
 10
122.2697000000001
 20
117.2094
 10
122.6032
 20
117.7577
 10
123.0165
 20
118.3721
 10
123.5163
 20
119.0462
 10
124.1088
 20
119.7732
 10
124.4629
 20
119.67
 10
124.817
 20
119.5668
 10
124.9261
 20
118.6352
 10
124.9854
 20
117.7982
 10
125.0038999999999
 20
117.058
 10
124.9906
 20
116.4164
 10
125.0656
 20
116.215
 10
125.1522
 20
116.1867
 10
125.2056
 20
116.1691
 10
125.2334000000001
 20
116.1599000000001
 10
125.2437
 20
116.1565000000001
 10
125.2451
 20
116.156
 10
125.2451
 20
116.156
 10
125.6089999999999
 20
116.0325
 10
125.9728
 20
115.909
 10
125.9728
 20
115.909
 10
125.9728
 20
115.909
 10
125.9743
 20
115.9085
 10
125.9845
 20
115.905
 10
126.0121
 20
115.8953000000001
 10
126.0652
 20
115.8768
 10
126.1512
 20
115.8465
 10
126.3332
 20
115.9606
 10
126.7132
 20
116.4777
 10
127.1785
 20
117.0537
 10
127.7352000000001
 20
117.6817
 10
128.3887999999999
 20
118.3543
 10
128.7325000000001
 20
118.2206
 10
129.0762999999999
 20
118.087
 10
129.1038
 20
117.1495
 10
129.0898999999999
 20
116.3104
 10
129.0438
 20
115.5714
 10
128.9746
 20
114.9334
 10
129.0318
 20
114.7263
 10
129.1156
 20
114.6905
 10
129.1673000000001
 20
114.6683
 10
129.1940999999999
 20
114.6568
 10
129.2040999999999
 20
114.6525
 10
129.2055
 20
114.6519
 10
129.2055
 20
114.6519
 10
129.5572
 20
114.4972000000001
 10
129.9089
 20
114.3424
 10
129.9089
 20
114.3424
 10
129.9089
 20
114.3424
 10
129.9103
 20
114.3418
 10
129.9202
 20
114.3373
 10
129.9469
 20
114.3253
 10
129.9981
 20
114.3022
 10
130.0811
 20
114.2646
 10
130.2725
 20
114.3624
 10
130.6961
 20
114.8444
 10
131.2098
 20
115.3776
 10
131.819
 20
115.9547
 10
132.5288
 20
116.5678
 10
132.8596
 20
116.4047
 10
133.1904
 20
116.2415
 10
133.1360999999999
 20
115.3052
 10
133.0491
 20
114.4706
 10
132.9388
 20
113.7384
 10
132.8143
 20
113.1089
 10
132.8532
 20
112.8976
 10
132.9336000000001
 20
112.8546
 10
132.9830999999999
 20
112.828
 10
133.0088000000001
 20
112.8142
 10
133.0183999999999
 20
112.809
 10
133.0198
 20
112.8083
 10
133.0198
 20
112.8083
 10
133.3566000000001
 20
112.6235
 10
133.6935
 20
112.4387
 10
133.6935
 20
112.4387
 10
133.6935
 20
112.4387
 10
133.6948
 20
112.4379
 10
133.7043
 20
112.4326
 10
133.7298000000001
 20
112.4184
 10
133.7788
 20
112.3909
 10
133.8583
 20
112.3462
 10
134.0574
 20
112.4269
 10
134.5214
 20
112.8702
 10
135.0796
 20
113.3566
 10
135.7369
 20
113.8784
 10
136.4974
 20
114.4273
 10
136.8126999999999
 20
114.2359
 10
137.1279999999999
 20
114.0446
 10
136.9923
 20
113.1166
 10
136.8329
 20
112.2927000000001
 10
136.6592000000001
 20
111.5729
 10
136.4802999999999
 20
110.9566
 10
136.5006000000001
 20
110.7427
 10
136.577
 20
110.6929
 10
136.624
 20
110.6621
 10
136.6484
 20
110.6461
 10
136.6575
 20
110.6401
 10
136.6587999999999
 20
110.6393
 10
136.6587999999999
 20
110.6393
 10
136.9783
 20
110.4258
 10
137.2977000000001
 20
110.2124
 10
137.2977000000001
 20
110.2124
 10
137.2977000000001
 20
110.2124
 10
137.299
 20
110.2115
 10
137.308
 20
110.2054
 10
137.3322000000001
 20
110.1889
 10
137.3786
 20
110.1573
 10
137.4538
 20
110.1058
 10
137.6592000000001
 20
110.1689
 10
138.1601000000001
 20
110.5700000000001
 10
138.7586
 20
111.006
 10
139.4588
 20
111.4685
 10
140.2643
 20
111.949
 10
140.5617
 20
111.7309
 10
140.8592
 20
111.5128
 10
140.6431
 20
110.6002
 10
140.4125
 20
109.7933
 10
140.1767
 20
109.0914
 10
139.9448
 20
108.4931
 10
139.9464
 20
108.2782
 10
140.0181
 20
108.2219
 10
140.0623000000001
 20
108.1872
 10
140.0852
 20
108.1691
 10
140.0937
 20
108.1623
 10
140.0949000000001
 20
108.1614
 10
140.0949000000001
 20
108.1614
 10
140.3946
 20
107.9209
 10
140.6942
 20
107.6804
 10
140.6942
 20
107.6804
 10
140.6942
 20
107.6804
 10
140.6954000000001
 20
107.6794
 10
140.7039
 20
107.6725
 10
140.7265
 20
107.6541
 10
140.77
 20
107.6185
 10
140.8405
 20
107.5606000000001
 10
141.0506
 20
107.6056
 10
141.5844999999999
 20
107.9615
 10
142.2187
 20
108.3436
 10
142.9566
 20
108.7434
 10
143.8008
 20
109.1519
 10
144.0781999999999
 20
108.9087
 10
144.3555
 20
108.6655
 10
144.0606
 20
107.7751
 10
143.7607
 20
106.9914
 10
143.4646
 20
106.3128
 10
143.1813999999999
 20
105.7369
 10
143.1641999999999
 20
105.5227
 10
143.2308
 20
105.4604
 10
143.2717
 20
105.4219000000001
 10
143.293
 20
105.4019
 10
143.3009
 20
105.3945000000001
 10
143.302
 20
105.3934
 10
143.302
 20
105.3934
 10
143.5796
 20
105.1277
 10
143.8570999999999
 20
104.8620000000001
 10
143.8570999999999
 20
104.8620000000001
 10
143.8570999999999
 20
104.8620000000001
 10
143.8583
 20
104.8609
 10
143.866
 20
104.8533
 10
143.8869999999999
 20
104.833
 10
143.9272
 20
104.7937
 10
143.9924
 20
104.73
 10
144.2056
 20
104.7564
 10
144.7685
 20
105.0645
 10
145.4336000000001
 20
105.3899
 10
146.2035000000001
 20
105.7238
 10
147.0802
 20
106.0572000000001
 10
147.3352
 20
105.7907
 10
147.5903000000001
 20
105.5243
 10
147.2190000000001
 20
104.663
 10
146.8518
 20
103.9084000000001
 10
146.4978
 20
103.2581
 10
146.1654
 20
102.7092
 10
146.1297
 20
102.4973
 10
146.1904999999999
 20
102.4294
 10
146.2280000000001
 20
102.3875
 10
146.2474
 20
102.3657
 10
146.2547
 20
102.3576
 10
146.2556999999999
 20
102.3564
 10
146.2556999999999
 20
102.3564
 10
146.509
 20
102.0676000000001
 10
146.7624000000001
 20
101.7787
 10
146.7624000000001
 20
101.7787
 10
146.7624000000001
 20
101.7787
 10
146.7634
 20
101.7775000000001
 10
146.7705
 20
101.7693
 10
146.7896000000001
 20
101.7472
 10
146.8262
 20
101.7046000000001
 10
146.8856000000001
 20
101.6354
 10
147.1003000000001
 20
101.6431
 10
147.6879
 20
101.901
 10
148.3788999999999
 20
102.1672000000001
 10
149.1749
 20
102.4327
 10
150.0772999999999
 20
102.6884
 10
150.3081999999999
 20
102.4007000000001
 10
150.539
 20
102.1131000000001
 10
150.0941
 20
101.2874
 10
149.6626
 20
100.5677
 10
149.2531
 20
99.95080000000004
 10
148.8742
 20
99.43290000000005
 10
148.8202
 20
99.22490000000002
 10
148.8749
 20
99.15200000000002
 10
148.9085
 20
99.10700000000006
 10
148.9259999999999
 20
99.08360000000002
 10
148.9325
 20
99.07490000000004
 10
148.9334
 20
99.07360000000003
 10
148.9334
 20
99.07360000000003
 10
149.1605999999999
 20
98.76380000000003
 10
149.3878
 20
98.45390000000006
 10
149.3878
 20
98.45390000000006
 10
149.3878
 20
98.45390000000006
 10
149.3887
 20
98.45260000000005
 10
149.3951
 20
98.44380000000004
 10
149.4122
 20
98.42010000000002
 10
149.4449999999999
 20
98.37450000000004
 10
149.4981
 20
98.30040000000005
 10
149.7127
 20
98.28940000000003
 10
150.3205
 20
98.49510000000006
 10
151.0319999999999
 20
98.70000000000002
 10
151.8482
 20
98.89510000000004
 10
152.7694
 20
99.07120000000006
 10
152.9743
 20
98.76450000000003
 10
153.1793
 20
98.45780000000005
 10
152.664
 20
97.67410000000004
 10
152.1713999999999
 20
96.99480000000003
 10
151.7098
 20
96.41590000000005
 10
151.2872
 20
95.93300000000002
 10
151.2152
 20
95.73050000000003
 10
151.2634
 20
95.65310000000002
 10
151.293
 20
95.60530000000003
 10
151.3083
 20
95.58050000000006
 10
151.314
 20
95.57120000000006
 10
151.3148
 20
95.56990000000005
 10
151.3148
 20
95.56990000000005
 10
151.5142000000001
 20
95.24140000000003
 10
151.7135000000001
 20
94.91290000000006
 10
151.7135000000001
 20
94.91290000000006
 10
151.7135000000001
 20
94.91290000000006
 10
151.7143
 20
94.91160000000005
 10
151.7198000000001
 20
94.90230000000005
 10
151.7348
 20
94.87720000000004
 10
151.7635
 20
94.82890000000006
 10
151.8099
 20
94.75040000000004
 10
152.0228
 20
94.72080000000003
 10
152.6462
 20
94.87260000000006
 10
153.3729000000001
 20
95.01480000000006
 10
154.203
 20
95.13800000000006
 10
155.136
 20
95.23320000000004
 10
155.3134
 20
94.90980000000005
 10
155.4909
 20
94.58640000000005
 10
154.9093
 20
93.85060000000001
 10
154.3593000000001
 20
93.21680000000006
 10
153.8489999999999
 20
92.68030000000002
 10
153.3859
 20
92.23600000000002
 10
153.2966
 20
92.04060000000001
 10
153.3378
 20
91.95930000000001
 10
153.3631
 20
91.90910000000005
 10
153.3763
 20
91.88300000000007
 10
153.3811000000001
 20
91.87330000000006
 10
153.3818
 20
91.87200000000004
 10
153.3818
 20
91.87200000000004
 10
153.5518
 20
91.52740000000003
 10
153.7217000000001
 20
91.18280000000001
 10
153.7217000000001
 20
91.18280000000001
 10
153.7217000000001
 20
91.18280000000001
 10
153.7224
 20
91.18140000000002
 10
153.7271000000001
 20
91.17160000000004
 10
153.7398000000001
 20
91.14530000000005
 10
153.7642000000001
 20
91.09460000000004
 10
153.8036
 20
91.01240000000004
 10
154.0131
 20
90.96440000000004
 10
154.6474000000001
 20
91.06130000000005
 10
155.3837
 20
91.13960000000006
 10
156.2212999999999
 20
91.19000000000003
 10
157.1591
 20
91.20350000000005
 10
157.3077
 20
90.86590000000004
 10
157.4562
 20
90.52830000000003
 10
156.8127999999999
 20
89.84590000000006
 10
156.2097
 20
89.26240000000004
 10
155.6545
 20
88.77250000000006
 10
155.1545
 20
88.37030000000001
 10
155.0484
 20
88.18340000000003
 10
155.0824
 20
88.09880000000007
 10
155.1033
 20
88.04659999999993
 10
155.1141
 20
88.01950000000002
 10
155.1181
 20
88.00940000000006
 10
155.1187
 20
88.00790000000003
 10
155.1187
 20
88.00790000000003
 10
155.2579000000001
 20
87.64980000000006
 10
155.3972
 20
87.29170000000002
 10
155.3972
 20
87.29170000000002
 10
155.3972
 20
87.29170000000002
 10
155.3977
 20
87.29029999999992
 10
155.4016
 20
87.28010000000003
 10
155.4119000000001
 20
87.25280000000006
 10
155.4318000000001
 20
87.20030000000006
 10
155.4639
 20
87.11490000000006
 10
155.6684
 20
87.04880000000006
 10
156.3088
 20
87.09009999999992
 10
157.0491
 20
87.10390000000004
 10
157.8878999999999
 20
87.08110000000002
 10
158.8233
 20
87.01280000000006
 10
158.9419
 20
86.66349999999991
 10
159.0605
 20
86.31430000000003
 10
158.3599
 20
85.69059999999993
 10
157.7083
 20
85.16190000000003
 10
157.1126
 20
84.72220000000002
 10
156.5794000000001
 20
84.36510000000001
 10
156.4574
 20
84.18820000000002
 10
156.4838999999999
 20
84.10090000000005
 10
156.5001
 20
84.04710000000003
 10
156.5085
 20
84.01910000000007
 10
156.5117
 20
84.00870000000006
 10
156.5121
 20
84.00730000000001
 10
156.5121
 20
84.00730000000001
 10
156.6196
 20
83.63840000000002
 10
156.7271000000001
 20
83.26950000000002
 10
156.7271000000001
 20
83.26950000000002
 10
156.7271000000001
 20
83.26950000000002
 10
156.7275999999999
 20
83.26800000000006
 10
156.7305
 20
83.25760000000005
 10
156.7384999999999
 20
83.22940000000003
 10
156.7537
 20
83.17530000000002
 10
156.7782
 20
83.08760000000004
 10
156.9761
 20
83.00380000000004
 10
157.6177
 20
82.98920000000007
 10
158.3564
 20
82.93840000000003
 10
159.1901
 20
82.84260000000003
 10
160.1159
 20
82.69300000000001
 10
160.2036000000001
 20
82.33469999999991
 10
160.2913
 20
81.97650000000002
 10
159.5391
 20
81.41619999999992
 10
158.8438
 20
80.94630000000004
 10
158.212
 20
80.56019999999992
 10
157.6498
 20
80.25100000000006
 10
157.5128999999999
 20
80.08530000000005
 10
157.5316
 20
79.99610000000004
 10
157.5431
 20
79.94110000000015
 10
157.5491
 20
79.91250000000005
 10
157.5513
 20
79.90190000000004
 10
157.5516
 20
79.90030000000016
 10
157.5516
 20
79.90030000000016
 10
157.6265
 20
79.52350000000015
 10
157.7015
 20
79.14670000000015
 10
157.7015
 20
79.14670000000015
 10
157.7015
 20
79.14670000000015
 10
157.7018
 20
79.14510000000004
 10
157.7038
 20
79.13449999999992
 10
157.7093
 20
79.10580000000002
 10
157.7197
 20
79.05050000000003
 10
157.7365
 20
78.96100000000015
 10
157.9264000000001
 20
78.86030000000002
 10
158.5642
 20
78.78980000000016
 10
159.2957
 20
78.67480000000015
 10
160.1178
 20
78.50670000000005
 10
161.0272
 20
78.27700000000002
 10
161.0833
 20
77.91250000000005
 10
161.1394
 20
77.54790000000006
 10
160.3412
 20
77.05540000000005
 10
159.6077
 20
76.64780000000005
 10
158.9446
 20
76.31830000000005
 10
158.3575
 20
76.05920000000006
 10
158.2067
 20
75.90610000000007
 10
158.2175999999999
 20
75.81559999999993
 10
158.2243
 20
75.75980000000001
 10
158.2277
 20
75.73080000000002
 10
158.229
 20
75.72000000000006
 10
158.2291
 20
75.71850000000003
 10
158.2291
 20
75.71850000000003
 10
158.271
 20
75.33649999999992
 10
158.3128
 20
74.95460000000006
 10
158.3128
 20
74.95460000000006
 10
158.3128
 20
74.95460000000006
 10
158.313
 20
74.95300000000006
 10
158.3141000000001
 20
74.94220000000004
 10
158.317
 20
74.91320000000005
 10
158.3226
 20
74.85729999999992
 10
158.3315
 20
74.76650000000004
 10
158.5119
 20
74.64970000000002
 10
159.1411000000001
 20
74.52390000000005
 10
159.8598
 20
74.34560000000002
 10
160.6641999999999
 20
74.10650000000007
 10
161.55
 20
73.79839999999993
 10
161.5741
 20
73.43030000000002
 10
161.5983
 20
73.06230000000002
 10
160.7601999999999
 20
72.64120000000005
 10
159.9938999999999
 20
72.29910000000004
 10
159.3047
 20
72.02860000000001
 10
158.6972
 20
71.82170000000005
 10
158.5337
 20
71.68240000000006
 10
158.5366
 20
71.59120000000004
 10
158.5384
 20
71.53510000000003
 10
158.5393
 20
71.50590000000003
 10
158.5396
 20
71.49499999999995
 10
158.5397
 20
71.49350000000004
 10
158.5397
 20
71.49350000000004
 10
158.548
 20
71.10930000000005
 10
158.5563999999999
 20
70.72520000000006
 10
158.5563999999999
 20
70.72520000000006
 10
158.5563999999999
 20
70.72520000000006
 10
158.5563999999999
 20
70.72360000000006
 10
158.5566
 20
70.71280000000016
 10
158.557
 20
70.68360000000004
 10
158.5577
 20
70.62740000000005
 10
158.5587000000001
 20
70.53620000000015
 10
158.7282
 20
70.40410000000006
 10
159.3441
 20
70.22390000000004
 10
160.0444
 20
69.98370000000003
 10
160.8249
 20
69.67540000000005
 10
161.6804999999999
 20
69.29130000000006
 10
161.6725
 20
68.92249999999993
 10
161.6644
 20
68.55370000000002
 10
160.7929
 20
68.20730000000006
 10
159.9997
 20
67.93330000000006
 10
159.2895
 20
67.72390000000004
 10
158.6663
 20
67.57070000000002
 10
158.4913
 20
67.44620000000006
 10
158.4863
 20
67.35510000000002
 10
158.4831000000001
 20
67.29900000000006
 10
158.4815
 20
67.26980000000006
 10
158.4808
 20
67.25900000000016
 10
158.4808
 20
67.25750000000002
 10
158.4808
 20
67.25750000000002
 10
158.4556
 20
66.87410000000003
 10
158.4304999999999
 20
66.49070000000003
 10
158.4304999999999
 20
66.49070000000003
 10
158.4304999999999
 20
66.49070000000003
 10
158.4304
 20
66.48910000000015
 10
158.4295999999999
 20
66.47830000000002
 10
158.4274
 20
66.44910000000002
 10
158.4232
 20
66.39310000000003
 10
158.4163
 20
66.30220000000006
 10
158.5735999999999
 20
66.15580000000003
 10
159.1713999999999
 20
65.92259999999999
 10
159.8482
 20
65.62230000000002
 10
160.5989
 20
65.24710000000002
 10
161.4178
 20
64.78990000000005
 10
161.3776
 20
64.42320000000004
 10
161.3374
 20
64.05659999999992
 10
160.439
 20
63.78740000000002
 10
159.625
 20
63.58360000000002
 10
158.8992
 20
63.43690000000007
 10
158.2651
 20
63.33860000000001
 10
158.0798
 20
63.22980000000004
 10
158.0669
 20
63.13950000000003
 10
158.0589000000001
 20
63.08390000000006
 10
158.0547000000001
 20
63.05500000000004
 10
158.0531
 20
63.04420000000002
 10
158.0529
 20
63.04270000000005
 10
158.0529
 20
63.04270000000005
 10
157.9944
 20
62.66300000000015
 10
157.936
 20
62.28320000000005
 10
157.936
 20
62.28320000000005
 10
157.936
 20
62.28320000000005
 10
157.9357
 20
62.28170000000003
 10
157.934
 20
62.27090000000001
 10
157.9293
 20
62.24210000000002
 10
157.9202
 20
62.18660000000003
 10
157.9054
 20
62.09670000000003
 10
158.0494
 20
61.93720000000005
 10
158.6246
 20
61.65280000000004
 10
159.2726000000001
 20
61.29460000000006
 10
159.9877
 20
60.85540000000006
 10
160.7636000000001
 20
60.32860000000002
 10
160.6917
 20
59.96680000000006
 10
160.6197
 20
59.60500000000016
 10
159.7012999999999
 20
59.41520000000006
 10
158.8725
 20
59.28310000000005
 10
158.1368
 20
59.20020000000002
 10
157.4965
 20
59.1576
 10
157.3024
 20
59.06530000000006
 10
157.2817
 20
58.97650000000002
 10
157.2689000000001
 20
58.92180000000005
 10
157.2622
 20
58.89340000000001
 10
157.2597
 20
58.88280000000006
 10
157.2592999999999
 20
58.88130000000015
 10
157.2592999999999
 20
58.88130000000015
 10
157.1679999999999
 20
58.50810000000016
 10
157.0766
 20
58.13490000000016
 10
157.0766
 20
58.13490000000016
 10
157.0766
 20
58.13490000000016
 10
157.0762999999999
 20
58.13330000000005
 10
157.0735999999999
 20
58.12280000000001
 10
157.0664
 20
58.09450000000007
 10
157.0525
 20
58.04000000000005
 10
157.0299
 20
57.95170000000005
 10
157.1594
 20
57.78029999999993
 10
157.7077
 20
57.44680000000002
 10
158.3221
 20
57.03350000000003
 10
158.9962
 20
56.53370000000001
 10
159.7232
 20
55.94120000000007
 10
159.62
 20
55.58710000000005
 10
159.5168
 20
55.23300000000003
 10
158.5852
 20
55.12390000000002
 10
157.7482
 20
55.06460000000001
 10
157.008
 20
55.04610000000017
 10
156.3664
 20
55.05940000000004
 10
156.165
 20
54.98440000000002
 10
156.1367
 20
54.89780000000005
 10
156.1191
 20
54.84440000000004
 10
156.1098999999999
 20
54.81660000000005
 10
156.1065
 20
54.80630000000005
 10
156.1060000000001
 20
54.80490000000009
 10
156.1060000000001
 20
54.80490000000009
 10
155.9825000000001
 20
54.44100000000006
 10
155.8589999999999
 20
54.07720000000003
 10
155.8589999999999
 20
54.07720000000003
 10
155.8589999999999
 20
54.07720000000003
 10
155.8585
 20
54.07570000000001
 10
155.855
 20
54.06550000000001
 10
155.8453
 20
54.03790000000006
 10
155.8268000000001
 20
53.98480000000004
 10
155.7965
 20
53.89880000000002
 10
155.9105999999999
 20
53.71680000000009
 10
156.4277
 20
53.33680000000007
 10
157.0037
 20
52.87150000000005
 10
157.6317
 20
52.31480000000002
 10
158.3043
 20
51.66120000000015
 10
158.1706
 20
51.31750000000002
 10
158.037
 20
50.97370000000015
 10
157.0995
 20
50.94620000000006
 10
156.2604
 20
50.96010000000012
 10
155.5214
 20
51.00620000000009
 10
154.8834
 20
51.07540000000003
 10
154.6763
 20
51.01820000000004
 10
154.6405
 20
50.93440000000007
 10
154.6183
 20
50.88269999999994
 10
154.6068
 20
50.85590000000016
 10
154.6025
 20
50.84590000000006
 10
154.6019
 20
50.84450000000007
 10
154.6019
 20
50.84450000000007
 10
154.4472000000001
 20
50.49280000000002
 10
154.2924
 20
50.14110000000002
 10
154.2924
 20
50.14110000000002
 10
154.2924
 20
50.14110000000002
 10
154.2918
 20
50.13970000000003
 10
154.2873
 20
50.12979999999999
 10
154.2753
 20
50.10310000000001
 10
154.2522
 20
50.05190000000002
 10
154.2146
 20
49.96890000000005
 10
154.3124
 20
49.77750000000006
 10
154.7944
 20
49.35390000000004
 10
155.3276000000001
 20
48.84020000000007
 10
155.9047
 20
48.23100000000002
 10
156.5178
 20
47.52120000000005
 10
156.3546999999999
 20
47.19040000000004
 10
156.1915000000001
 20
46.85960000000003
 10
155.2552000000001
 20
46.91390000000015
 10
154.4205999999999
 20
47.00090000000006
 10
153.6884000000001
 20
47.11120000000003
 10
153.0588999999999
 20
47.23570000000004
 10
152.8476000000001
 20
47.19680000000002
 10
152.8045999999999
 20
47.11639999999991
 10
152.778
 20
47.06690000000006
 10
152.7642000000001
 20
47.04119999999992
 10
152.759
 20
47.03160000000005
 10
152.7583
 20
47.03020000000006
 10
152.7583
 20
47.03020000000006
 10
152.5735
 20
46.69340000000003
 10
152.3887
 20
46.35650000000004
 10
152.3887
 20
46.35650000000004
 10
152.3887
 20
46.35650000000004
 10
152.3878999999999
 20
46.35520000000005
 10
152.3826
 20
46.34570000000005
 10
152.3684000000001
 20
46.32019999999991
 10
152.3409
 20
46.27120000000005
 10
152.2962
 20
46.19170000000008
 10
152.3769
 20
45.99260000000007
 10
152.8202
 20
45.52860000000001
 10
153.3066
 20
44.97040000000001
 10
153.8284
 20
44.31310000000005
 10
154.3773
 20
43.55260000000004
 10
154.1858999999999
 20
43.23730000000015
 10
153.9946
 20
42.92200000000017
 10
153.0666
 20
43.05770000000004
 10
152.2427
 20
43.21710000000004
 10
151.5228999999999
 20
43.3907999999999
 10
150.9066
 20
43.56970000000015
 10
150.6927000000001
 20
43.54940000000002
 10
150.6429000000001
 20
43.47300000000007
 10
150.6121000000001
 20
43.42600000000002
 10
150.5961
 20
43.40160000000006
 10
150.5901
 20
43.39250000000001
 10
150.5893
 20
43.39120000000005
 10
150.5893
 20
43.39120000000005
 10
150.3758
 20
43.07170000000005
 10
150.1623999999999
 20
42.75230000000002
 10
150.1623999999999
 20
42.75230000000002
 10
150.1623999999999
 20
42.75230000000002
 10
150.1615
 20
42.75100000000006
 10
150.1553999999999
 20
42.74200000000005
 10
150.1389
 20
42.71779999999993
 10
150.1073
 20
42.67140000000003
 10
150.0557999999999
 20
42.59620000000007
 10
150.1188999999999
 20
42.39079999999993
 10
150.52
 20
41.88989999999993
 10
150.956
 20
41.29140000000004
 10
151.4184999999999
 20
40.59120000000004
 10
151.899
 20
39.78570000000005
 10
151.6809000000001
 20
39.48830000000007
 10
151.4628
 20
39.19080000000002
 10
150.5502
 20
39.40690000000004
 10
149.7433
 20
39.63750000000002
 10
149.0414000000001
 20
39.87330000000003
 10
148.4431
 20
40.10520000000005
 10
148.2282000000001
 20
40.10360000000009
 10
148.1719000000001
 20
40.03190000000006
 10
148.1372
 20
39.98769999999993
 10
148.1191000000001
 20
39.96480000000005
 10
148.1123
 20
39.95630000000003
 10
148.1114
 20
39.95509999999996
 10
148.1114
 20
39.95509999999996
 10
147.8708999999999
 20
39.65540000000001
 10
147.6304000000001
 20
39.35580000000002
 10
147.6304000000001
 20
39.35580000000002
 10
147.6304000000001
 20
39.35580000000002
 10
147.6294
 20
39.35459999999992
 10
147.6224999999999
 20
39.34610000000006
 10
147.6041
 20
39.32350000000005
 10
147.5684999999999
 20
39.28000000000006
 10
147.5106000000001
 20
39.20949999999999
 10
147.5556
 20
38.99940000000009
 10
147.9114999999999
 20
38.46550000000016
 10
148.2936
 20
37.83130000000003
 10
148.6934
 20
37.09340000000006
 10
149.1019
 20
36.24920000000006
 10
148.8587
 20
35.97180000000006
 10
148.6154999999999
 20
35.69450000000003
 10
147.7251
 20
35.98940000000002
 10
146.9414
 20
36.28930000000005
 10
146.2628
 20
36.58540000000002
 10
145.6868999999999
 20
36.86860000000016
 10
145.4727
 20
36.88580000000013
 10
145.4104
 20
36.81920000000008
 10
145.3719
 20
36.77830000000003
 10
145.3519000000001
 20
36.75700000000003
 10
145.3445
 20
36.74910000000003
 10
145.3434
 20
36.74800000000002
 10
145.3434
 20
36.74800000000002
 10
145.0777
 20
36.47040000000004
 10
144.8120000000001
 20
36.19290000000015
 10
144.8120000000001
 20
36.19290000000015
 10
144.8120000000001
 20
36.19290000000015
 10
144.8109
 20
36.19170000000003
 10
144.8033
 20
36.18400000000008
 10
144.7830000000001
 20
36.16300000000015
 10
144.7437
 20
36.12280000000001
 10
144.6800000000001
 20
36.05760000000006
 10
144.7064
 20
35.84440000000006
 10
145.0145
 20
35.28150000000002
 10
145.3399
 20
34.61639999999991
 10
145.6738
 20
33.84650000000002
 10
146.0072
 20
32.96980000000005
 10
145.7407000000001
 20
32.71480000000005
 10
145.4743
 20
32.45969999999991
 10
144.6130000000001
 20
32.83099999999993
 10
143.8584
 20
33.19820000000001
 10
143.2081000000001
 20
33.55220000000006
 10
142.6592000000001
 20
33.88460000000006
 10
142.4473
 20
33.92030000000003
 10
142.3794
 20
33.85950000000017
 10
142.3375
 20
33.82199999999989
 10
142.3157
 20
33.80260000000004
 10
142.3076
 20
33.7953
 10
142.3064
 20
33.79430000000013
 10
142.3064
 20
33.79430000000013
 10
142.0176
 20
33.54100000000003
 10
141.7287000000001
 20
33.28759999999991
 10
141.7287000000001
 20
33.28759999999991
 10
141.7287000000001
 20
33.28759999999991
 10
141.7275
 20
33.28660000000005
 10
141.7193
 20
33.27950000000001
 10
141.6972000000001
 20
33.26039999999989
 10
141.6546000000001
 20
33.22380000000007
 10
141.5854
 20
33.16439999999992
 10
141.5931000000001
 20
32.94969999999992
 10
141.851
 20
32.36210000000003
 10
142.1172
 20
31.67110000000017
 10
142.3827
 20
30.87510000000009
 10
142.6384
 20
29.97270000000006
 10
142.3507
 20
29.74180000000015
 10
142.0631000000001
 20
29.51100000000002
 10
141.2374
 20
29.95590000000001
 10
140.5177
 20
30.38740000000004
 10
139.9008
 20
30.79690000000002
 10
139.3829000000001
 20
31.17580000000007
 10
139.1749
 20
31.22980000000004
 10
139.102
 20
31.17510000000001
 10
139.057
 20
31.14150000000004
 10
139.0336
 20
31.12400000000017
 10
139.0249000000001
 20
31.11750000000004
 10
139.0235999999999
 20
31.11660000000006
 10
139.0235999999999
 20
31.11660000000006
 10
138.7138
 20
30.88940000000014
 10
138.4039000000001
 20
30.66220000000001
 10
138.4039000000001
 20
30.66220000000001
 10
138.4039000000001
 20
30.66220000000001
 10
138.4026
 20
30.66130000000007
 10
138.3938000000001
 20
30.65490000000003
 10
138.3701
 20
30.63780000000003
 10
138.3245
 20
30.60500000000013
 10
138.2504
 20
30.55190000000002
 10
138.2393999999999
 20
30.33730000000003
 10
138.4451000000001
 20
29.72950000000006
 10
138.65
 20
29.01800000000006
 10
138.8451
 20
28.20180000000002
 10
139.0212
 20
27.28059999999999
 10
138.7145000000001
 20
27.07569999999998
 10
138.4078
 20
26.87070000000003
 10
137.6241
 20
27.38600000000002
 10
136.9448
 20
27.87860000000015
 10
136.3659000000001
 20
28.34020000000004
 10
135.883
 20
28.76280000000006
 10
135.6804999999999
 20
28.83480000000006
 10
135.6031
 20
28.78660000000005
 10
135.5553
 20
28.75700000000003
 10
135.5305000000001
 20
28.74170000000007
 10
135.5212000000001
 20
28.73600000000002
 10
135.5199000000001
 20
28.73520000000002
 10
135.5199000000001
 20
28.73520000000002
 10
135.1914
 20
28.53580000000002
 10
134.8629
 20
28.33649999999992
 10
134.8629
 20
28.33649999999992
 10
134.8629
 20
28.33649999999992
 10
134.8616
 20
28.33570000000006
 10
134.8523
 20
28.33020000000002
 10
134.8271999999999
 20
28.31520000000003
 10
134.7789000000001
 20
28.28650000000002
 10
134.7003999999999
 20
28.24010000000001
 10
134.6708
 20
28.02719999999999
 10
134.8226
 20
27.40380000000002
 10
134.9648
 20
26.67710000000002
 10
135.088
 20
25.84700000000007
 10
135.1831999999999
 20
24.91400000000002
 10
134.8598
 20
24.73660000000001
 10
134.5364
 20
24.55910000000003
 10
133.8006
 20
25.14070000000007
 10
133.1668
 20
25.69070000000002
 10
132.6303
 20
26.20100000000016
 10
132.1860000000001
 20
26.66410000000002
 10
131.9906
 20
26.75340000000003
 10
131.9093
 20
26.71220000000002
 10
131.8591
 20
26.68690000000007
 10
131.833
 20
26.67370000000003
 10
131.8233000000001
 20
26.66889999999989
 10
131.822
 20
26.66820000000004
 10
131.822
 20
26.66820000000004
 10
131.4774
 20
26.4982
 10
131.1328
 20
26.32829999999993
 10
131.1328
 20
26.32829999999993
 10
131.1328
 20
26.32829999999993
 10
131.1314
 20
26.32760000000005
 10
131.1215999999999
 20
26.32289999999992
 10
131.0953
 20
26.31019999999992
 10
131.0445999999999
 20
26.28579999999999
 10
130.9624
 20
26.24639999999999
 10
130.9144000000001
 20
26.0369
 10
131.0113000000001
 20
25.40259999999989
 10
131.0896
 20
24.66630000000004
 10
131.14
 20
23.82870000000005
 10
131.1535
 20
22.89090000000002
 10
130.8159000000001
 20
22.74229999999989
 10
130.4782999999999
 20
22.59380000000002
 10
129.7959000000001
 20
23.23720000000006
 10
129.2124
 20
23.84030000000004
 10
128.7225
 20
24.39550000000003
 10
128.3203
 20
24.89550000000003
 10
128.1334
 20
25.0016
 10
128.0488
 20
24.96760000000003
 10
127.9965999999999
 20
24.94670000000005
 10
127.9695
 20
24.9359
 10
127.9594
 20
24.93190000000001
 10
127.9579000000001
 20
24.93130000000005
 10
127.9579000000001
 20
24.93130000000005
 10
127.5998
 20
24.79209999999989
 10
127.2417
 20
24.65280000000004
 10
127.2417
 20
24.65280000000004
 10
127.2417
 20
24.65280000000004
 10
127.2402999999999
 20
24.65230000000005
 10
127.2301
 20
24.64840000000007
 10
127.2028
 20
24.63809999999992
 10
127.1503
 20
24.61819999999992
 10
127.0649
 20
24.58610000000002
 10
126.9988000000001
 20
24.38160000000002
 10
127.0400999999999
 20
23.74120000000002
 10
127.0539
 20
23.00090000000003
 10
127.0310999999999
 20
22.16210000000015
 10
126.9628
 20
21.22670000000002
 10
126.6135
 20
21.10810000000004
 10
126.2643
 20
20.98950000000002
 10
125.6405999999999
 20
21.69010000000003
 10
125.1119
 20
22.3417
 10
124.6722
 20
22.93740000000017
 10
124.3151000000001
 20
23.47059999999999
 10
124.1382
 20
23.59260000000003
 10
124.0509
 20
23.56610000000012
 10
123.9971
 20
23.54990000000006
 10
123.9691
 20
23.54150000000001
 10
123.9587000000001
 20
23.53829999999999
 10
123.9573
 20
23.53790000000006
 10
123.9573
 20
23.53790000000006
 10
123.5884
 20
23.43040000000002
 10
123.2194999999999
 20
23.32289999999989
 10
123.2194999999999
 20
23.32289999999989
 10
123.2194999999999
 20
23.32289999999989
 10
123.2180000000001
 20
23.32240000000016
 10
123.2076
 20
23.31950000000001
 10
123.1794
 20
23.31150000000017
 10
123.1253
 20
23.29630000000003
 10
123.0376000000001
 20
23.27180000000001
 10
122.9538
 20
23.07390000000004
 10
122.9392000000001
 20
22.4323
 10
122.8884
 20
21.6936
 10
122.7926
 20
20.85990000000007
 10
122.6430000000001
 20
19.93410000000003
 10
122.2847
 20
19.84639999999993
 10
121.9265
 20
19.75870000000006
 10
121.3661999999999
 20
20.51090000000002
 10
120.8963000000001
 20
21.20620000000002
 10
120.5102000000001
 20
21.83800000000002
 10
120.201
 20
22.40020000000001
 10
120.0353
 20
22.53710000000015
 10
119.9461000000001
 20
22.51839999999999
 10
119.8911
 20
22.50690000000006
 10
119.8625
 20
22.50090000000003
 10
119.8519
 20
22.49870000000001
 10
119.8503000000001
 20
22.4984
 10
119.8503000000001
 20
22.4984
 10
119.4735
 20
22.42350000000002
 10
119.0967000000001
 20
22.3485
 10
119.0967000000001
 20
22.3485
 10
119.0967000000001
 20
22.3485
 10
119.0951
 20
22.34820000000005
 10
119.0845
 20
22.34620000000004
 10
119.0558
 20
22.34070000000003
 10
119.0005
 20
22.33030000000005
 10
118.911
 20
22.31350000000006
 10
118.8103
 20
22.12359999999993
 10
118.7398000000001
 20
21.48579999999998
 10
118.6248
 20
20.75430000000003
 10
118.4567
 20
19.93220000000002
 10
118.227
 20
19.02280000000002
 10
117.8625000000001
 20
18.96670000000003
 10
117.4979000000001
 20
18.91060000000002
 10
117.0054
 20
19.70880000000002
 10
116.5978
 20
20.44230000000002
 10
116.2683
 20
21.10540000000006
 10
116.0092
 20
21.69250000000002
 10
115.8561
 20
21.84330000000003
 10
115.7656
 20
21.83240000000012
 10
115.7098
 20
21.82570000000001
 10
115.6808
 20
21.82229999999998
 10
115.6700000000001
 20
21.82100000000005
 10
115.6685000000001
 20
21.82089999999999
 10
115.6685000000001
 20
21.82089999999999
 10
115.2865
 20
21.779
 10
114.9046
 20
21.73720000000006
 10
114.9046
 20
21.73720000000006
 10
114.9046
 20
21.73720000000006
 10
114.9030000000001
 20
21.73700000000002
 10
114.8922000000001
 20
21.73589999999993
 10
114.8632000000001
 20
21.733
 10
114.8073
 20
21.72740000000002
 10
114.7165
 20
21.71850000000003
 10
114.5997
 20
21.53810000000001
 10
114.4739000000001
 20
20.9088999999999
 10
114.2956
 20
20.1902
 10
114.0565000000001
 20
19.38580000000013
 10
113.7484
 20
18.50000000000003
 10
113.3803
 20
18.47590000000005
 10
113.0123
 20
18.45170000000005
 10
112.5912
 20
19.28980000000016
 10
112.2491
 20
20.05610000000016
 10
111.9786
 20
20.74529999999999
 10
111.7717
 20
21.35279999999992
 10
111.6324000000001
 20
21.5163
 10
111.5412
 20
21.51340000000002
 10
111.4851
 20
21.51159999999999
 10
111.4559
 20
21.51070000000001
 10
111.4450000000001
 20
21.51039999999989
 10
111.4434999999999
 20
21.51030000000006
 10
111.4434999999999
 20
21.51030000000006
 10
111.0593
 20
21.50200000000004
 10
110.6752
 20
21.49360000000016
 10
110.6752
 20
21.49360000000016
 10
110.6752
 20
21.49360000000016
 10
110.6736
 20
21.49360000000016
 10
110.6627999999999
 20
21.49340000000004
 10
110.6335999999999
 20
21.49300000000002
 10
110.5774
 20
21.49229999999989
 10
110.4861999999999
 20
21.49130000000005
 10
110.3541000000001
 20
21.3218
 10
110.1739
 20
20.70590000000001
 10
109.9337
 20
20.00560000000004
 10
109.6254000000001
 20
19.22509999999988
 10
109.2413
 20
18.36950000000013
 10
108.8725000000001
 20
18.3775
 10
108.5037
 20
18.38560000000001
 10
108.1573000000001
 20
19.25710000000004
 10
107.8833
 20
20.05029999999999
 10
107.6739
 20
20.76050000000004
 10
107.5207
 20
21.38370000000003
 10
107.3962
 20
21.55870000000002
 10
107.3051
 20
21.56369999999998
 10
107.249
 20
21.56690000000006
 10
107.2198
 20
21.56850000000006
 10
107.2090000000001
 20
21.56920000000002
 10
107.2075
 20
21.56920000000005
 10
107.2075
 20
21.56920000000005
 10
106.8240999999999
 20
21.59440000000004
 10
106.4407
 20
21.61950000000016
 10
106.4407
 20
21.61950000000016
 10
106.4407
 20
21.61950000000016
 10
106.4391
 20
21.61960000000002
 10
106.4283
 20
21.62040000000013
 10
106.3991
 20
21.62260000000006
 10
106.3431
 20
21.62680000000003
 10
106.2522
 20
21.63370000000006
 10
106.1058
 20
21.47640000000013
 10
105.8726
 20
20.87860000000012
 10
105.5723
 20
20.20180000000002
 10
105.1971
 20
19.4511
 10
104.7399
 20
18.63220000000013
 10
104.3732000000001
 20
18.67240000000004
 10
104.0066
 20
18.71260000000001
 10
103.7374
 20
19.61100000000002
 10
103.5336
 20
20.42500000000004
 10
103.3869
 20
21.15079999999989
 10
103.2885999999999
 20
21.78490000000002
 10
103.1798000000001
 20
21.97020000000003
 10
103.0895
 20
21.98310000000004
 10
103.0339
 20
21.99110000000005
 10
103.005
 20
21.99529999999999
 10
102.9942
 20
21.99690000000004
 10
102.9927
 20
21.99710000000002
 10
102.9927
 20
21.99710000000002
 10
102.613
 20
22.05560000000006
 10
102.2332
 20
22.11400000000006
 10
102.2332
 20
22.11400000000006
 10
102.2332
 20
22.11400000000006
 10
102.2317
 20
22.11430000000001
 10
102.2209
 20
22.11600000000001
 10
102.1921
 20
22.1207
 10
102.1366
 20
22.12979999999999
 10
102.0467
 20
22.14460000000003
 10
101.8872
 20
22.00060000000008
 10
101.6028
 20
21.42540000000002
 10
101.2446
 20
20.7774
 10
100.8054000000001
 20
20.06229999999999
 10
100.2786
 20
19.28640000000004
 10
99.91680000000002
 20
19.35829999999999
 10
99.55500000000006
 20
19.43029999999999
 10
99.36520000000002
 20
20.34870000000012
 10
99.23309999999998
 20
21.17750000000015
 10
99.15019999999998
 20
21.91320000000005
 10
99.10759999999999
 20
22.55350000000001
 10
99.01530000000002
 20
22.74760000000006
 10
98.9265
 20
22.76830000000001
 10
98.87180000000001
 20
22.78110000000007
 10
98.8434
 20
22.7878
 10
98.83280000000005
 20
22.79029999999989
 10
98.8313
 20
22.79070000000016
 10
98.8313
 20
22.79070000000016
 10
98.4581
 20
22.88200000000001
 10
98.08489999999995
 20
22.97340000000008
 10
98.08489999999995
 20
22.97340000000008
 10
98.08489999999995
 20
22.97340000000008
 10
98.08330000000001
 20
22.97370000000015
 10
98.07279999999992
 20
22.97640000000015
 10
98.04450000000006
 20
22.98360000000017
 10
97.98999999999995
 20
22.99750000000006
 10
97.90170000000003
 20
23.02010000000001
 10
97.7303
 20
22.89060000000003
 10
97.39680000000001
 20
22.34230000000014
 10
96.98350000000002
 20
21.72790000000003
 10
96.48370000000006
 20
21.05380000000002
 10
95.89120000000008
 20
20.32679999999999
 10
95.53710000000001
 20
20.43000000000004
 10
95.18299999999996
 20
20.53320000000005
 10
95.07390000000004
 20
21.46480000000003
 10
95.01459999999994
 20
22.30180000000007
 10
94.99610000000007
 20
23.04200000000003
 10
95.00940000000006
 20
23.68360000000004
 10
94.93440000000001
 20
23.88499999999999
 10
94.84779999999998
 20
23.91330000000002
 10
94.7944
 20
23.93090000000004
 10
94.76659999999998
 20
23.94010000000006
 10
94.75629999999995
 20
23.94350000000009
 10
94.75490000000002
 20
23.94400000000005
 10
94.75490000000002
 20
23.94400000000005
 10
94.39100000000008
 20
24.06749999999997
 10
94.02720000000005
 20
24.19100000000003
 10
94.02720000000005
 20
24.19100000000003
 10
94.02720000000005
 20
24.19100000000003
 10
94.02569999999994
 20
24.19150000000008
 10
94.01550000000003
 20
24.19499999999999
 10
93.98790000000002
 20
24.20470000000003
 10
93.93479999999994
 20
24.22320000000008
 10
93.84880000000004
 20
24.25350000000003
 10
93.66680000000002
 20
24.13940000000014
 10
93.28680000000003
 20
23.62230000000002
 10
92.82150000000004
 20
23.04630000000003
 10
92.26479999999998
 20
22.41830000000002
 10
91.6112
 20
21.74570000000003
 10
91.26749999999998
 20
21.87940000000003
 10
90.9237
 20
22.01300000000006
 10
90.89620000000008
 20
22.95050000000003
 10
90.91010000000003
 20
23.78960000000001
 10
90.95620000000002
 20
24.52860000000001
 10
91.02539999999996
 20
25.16660000000016
 10
90.9682
 20
25.37370000000001
 10
90.88440000000003
 20
25.40950000000007
 10
90.83269999999993
 20
25.43170000000009
 10
90.80590000000001
 20
25.44319999999999
 10
90.79590000000002
 20
25.44750000000002
 10
90.79450000000008
 20
25.44809999999998
 10
90.79450000000008
 20
25.44809999999998
 10
90.44279999999998
 20
25.60279999999989
 10
90.09110000000001
 20
25.75760000000002
 10
90.09110000000001
 20
25.75760000000002
 10
90.09110000000001
 20
25.75760000000002
 10
90.0897
 20
25.75819999999999
 10
90.0798
 20
25.7627
 10
90.05309999999997
 20
25.77470000000002
 10
90.00190000000003
 20
25.79779999999997
 10
89.91889999999998
 20
25.83540000000002
 10
89.72750000000008
 20
25.73759999999999
 10
89.3039
 20
25.25560000000004
 10
88.7902
 20
24.72240000000002
 10
88.18100000000004
 20
24.14530000000002
 10
87.47119999999998
 20
23.53220000000002
 10
87.1404
 20
23.69530000000006
 10
86.80960000000005
 20
23.85849999999999
 10
86.86390000000006
 20
24.7947999999999
 10
86.95089999999996
 20
25.62940000000006
 10
87.06120000000004
 20
26.36160000000001
 10
87.18570000000003
 20
26.99110000000002
 10
87.14679999999998
 20
27.20239999999993
 10
87.06640000000002
 20
27.24540000000013
 10
87.01690000000002
 20
27.27200000000002
 10
86.99119999999999
 20
27.28579999999999
 10
86.98160000000001
 20
27.29100000000003
 10
86.98020000000005
 20
27.29169999999999
 10
86.98020000000005
 20
27.29169999999999
 10
86.64339999999999
 20
27.47650000000002
 10
86.30650000000003
 20
27.66130000000007
 10
86.30650000000003
 20
27.66130000000007
 10
86.30650000000003
 20
27.66130000000007
 10
86.30520000000004
 20
27.66210000000012
 10
86.29570000000001
 20
27.66740000000001
 10
86.27020000000005
 20
27.68159999999989
 10
86.22120000000007
 20
27.70910000000001
 10
86.14169999999999
 20
27.75380000000004
 10
85.94260000000008
 20
27.67310000000003
 10
85.4786
 20
27.22980000000001
 10
84.9204
 20
26.74340000000001
 10
84.26310000000004
 20
26.22160000000005
 10
83.50259999999992
 20
25.67270000000008
 10
83.1873
 20
25.86410000000012
 10
82.87200000000001
 20
26.05540000000005
 10
83.0077
 20
26.98340000000005
 10
83.1671
 20
27.80730000000003
 10
83.3408
 20
28.52710000000016
 10
83.51970000000003
 20
29.14339999999999
 10
83.49939999999998
 20
29.35729999999992
 10
83.423
 20
29.40709999999993
 10
83.37599999999998
 20
29.43789999999993
 10
83.35160000000008
 20
29.45390000000003
 10
83.34250000000003
 20
29.4599
 10
83.34120000000001
 20
29.46070000000009
 10
83.34120000000001
 20
29.46070000000009
 10
83.02170000000001
 20
29.67419999999998
 10
82.70229999999998
 20
29.88760000000016
 10
82.70229999999998
 20
29.88760000000016
 10
82.70229999999998
 20
29.88760000000016
 10
82.70100000000008
 20
29.88850000000011
 10
82.69200000000006
 20
29.89460000000003
 10
82.66780000000006
 20
29.91110000000003
 10
82.6214
 20
29.9427
 10
82.5462
 20
29.99420000000003
 10
82.34080000000006
 20
29.93110000000013
 10
81.8399
 20
29.53000000000006
 10
81.24139999999997
 20
29.09400000000002
 10
80.5412
 20
28.63150000000002
 10
79.73570000000001
 20
28.15100000000004
 10
79.43830000000003
 20
28.36909999999989
 10
79.14080000000007
 20
28.5872
 10
79.35690000000002
 20
29.49979999999999
 10
79.5875
 20
30.30670000000003
 10
79.82330000000007
 20
31.00859999999989
 10
80.05520000000004
 20
31.6069
 10
80.05360000000002
 20
31.82180000000002
 10
79.9819
 20
31.8780999999999
 10
79.9377
 20
31.91280000000003
 10
79.91480000000004
 20
31.93090000000001
 10
79.90629999999999
 20
31.93770000000004
 10
79.90509999999995
 20
31.93860000000006
 10
79.90509999999995
 20
31.93860000000006
 10
79.60540000000003
 20
32.17910000000001
 10
79.30579999999998
 20
32.41960000000006
 10
79.30579999999998
 20
32.41960000000006
 10
79.30579999999998
 20
32.41960000000006
 10
79.30459999999997
 20
32.42060000000009
 10
79.29610000000002
 20
32.42750000000012
 10
79.27350000000001
 20
32.44589999999999
 10
79.23000000000002
 20
32.48150000000007
 10
79.15950000000004
 20
32.53939999999989
 10
78.94940000000005
 20
32.49439999999998
 10
78.41550000000004
 20
32.13850000000014
 10
77.78130000000002
 20
31.75639999999999
 10
77.04340000000002
 20
31.35660000000001
 10
76.19920000000005
 20
30.94810000000001
 10
75.92180000000002
 20
31.19130000000007
 10
75.64449999999997
 20
31.43450000000004
 10
75.93939999999998
 20
32.32490000000007
 10
76.23930000000001
 20
33.10860000000017
 10
76.53539999999998
 20
33.78720000000001
 10
76.81860000000006
 20
34.36310000000003
 10
76.83580000000003
 20
34.57730000000004
 10
76.76920000000007
 20
34.63960000000003
 10
76.72829999999999
 20
34.67810000000009
 10
76.70700000000005
 20
34.69810000000001
 10
76.69909999999999
 20
34.70550000000003
 10
76.69799999999998
 20
34.70660000000007
 10
76.69799999999998
 20
34.70660000000007
 10
76.4204
 20
34.97230000000002
 10
76.1429
 20
35.238
 10
76.1429
 20
35.238
 10
76.1429
 20
35.238
 10
76.14170000000001
 20
35.23910000000015
 10
76.13399999999999
 20
35.24670000000009
 10
76.11300000000003
 20
35.26700000000002
 10
76.07279999999997
 20
35.30630000000002
 10
76.00760000000002
 20
35.36999999999995
 10
75.7944
 20
35.34360000000004
 10
75.23150000000004
 20
35.03550000000001
 10
74.56639999999999
 20
34.71010000000018
 10
73.79650000000004
 20
34.37619999999998
 10
72.91980000000007
 20
34.0428
 10
72.66480000000007
 20
34.30929999999989
 10
72.40970000000002
 20
34.57569999999998
 10
72.78099999999998
 20
35.43699999999995
 10
73.14820000000003
 20
36.19159999999999
 10
73.50220000000002
 20
36.84189999999992
 10
73.83460000000002
 20
37.3907999999999
 10
73.87029999999996
 20
37.60270000000008
 10
73.80949999999999
 20
37.67060000000009
 10
73.77200000000005
 20
37.71250000000003
 10
73.75260000000003
 20
37.73429999999999
 10
73.74530000000001
 20
37.74240000000003
 10
73.74430000000001
 20
37.74360000000013
 10
73.74430000000001
 20
37.74360000000013
 10
73.49099999999996
 20
38.03240000000005
 10
73.23760000000001
 20
38.32130000000001
 10
73.23760000000001
 20
38.32130000000001
 10
73.23760000000001
 20
38.32130000000001
 10
73.23660000000001
 20
38.32249999999999
 10
73.22949999999997
 20
38.33070000000004
 10
73.21040000000005
 20
38.35279999999986
 10
73.17380000000003
 20
38.39540000000005
 10
73.11440000000005
 20
38.46460000000013
 10
72.89970000000005
 20
38.45690000000002
 10
72.31209999999999
 20
38.19900000000007
 10
71.62109999999998
 20
37.93280000000004
 10
70.82509999999999
 20
37.66730000000007
 10
69.92270000000002
 20
37.41160000000002
 10
69.6918
 20
37.69930000000002
 10
69.46100000000004
 20
37.98689999999999
 10
69.90589999999997
 20
38.81260000000006
 10
70.3374
 20
39.53230000000005
 10
70.74689999999998
 20
40.14920000000006
 10
71.12580000000003
 20
40.66709999999995
 10
71.17979999999994
 20
40.87510000000009
 10
71.12510000000003
 20
40.94800000000004
 10
71.09149999999997
 20
40.99300000000005
 10
71.07400000000001
 20
41.01640000000009
 10
71.0675
 20
41.02510000000007
 10
71.06660000000002
 20
41.02640000000002
 10
71.06660000000002
 20
41.02640000000002
 10
70.83940000000004
 20
41.33620000000002
 10
70.61219999999997
 20
41.64609999999999
 10
70.61219999999997
 20
41.64609999999999
 10
70.61219999999997
 20
41.64609999999999
 10
70.61130000000003
 20
41.6474
 10
70.60489999999999
 20
41.6561999999999
 10
70.58780000000002
 20
41.67990000000003
 10
70.555
 20
41.72550000000018
 10
70.50189999999998
 20
41.79960000000005
 10
70.28730000000004
 20
41.81060000000014
 10
69.67950000000002
 20
41.60490000000001
 10
68.96800000000007
 20
41.40000000000003
 10
68.15179999999998
 20
41.20490000000004
 10
67.23060000000004
 20
41.02879999999999
 10
67.02569999999997
 20
41.33550000000002
 10
66.82070000000002
 20
41.6422
 10
67.33600000000001
 20
42.42590000000004
 10
67.82860000000002
 20
43.10520000000002
 10
68.29020000000003
 20
43.68410000000006
 10
68.71280000000002
 20
44.16700000000006
 10
68.78480000000005
 20
44.36950000000013
 10
68.73660000000001
 20
44.44690000000008
 10
68.707
 20
44.49470000000005
 10
68.69170000000003
 20
44.51949999999999
 10
68.68599999999995
 20
44.52880000000005
 10
68.68520000000001
 20
44.53010000000006
 10
68.68520000000001
 20
44.53010000000006
 10
68.48580000000001
 20
44.85860000000014
 10
68.28650000000002
 20
45.18709999999999
 10
68.28650000000002
 20
45.18709999999999
 10
68.28650000000002
 20
45.18709999999999
 10
68.28570000000002
 20
45.1884
 10
68.28020000000004
 20
45.1977
 10
68.26520000000005
 20
45.22280000000012
 10
68.23649999999998
 20
45.27110000000002
 10
68.19009999999997
 20
45.34960000000015
 10
67.97719999999998
 20
45.37920000000005
 10
67.35379999999995
 20
45.22740000000005
 10
66.62710000000004
 20
45.08519999999999
 10
65.79700000000003
 20
44.96199999999999
 10
64.86400000000003
 20
44.86680000000013
 10
64.6866
 20
45.19020000000003
 10
64.50910000000005
 20
45.5136
 10
65.09070000000003
 20
46.24940000000009
 10
65.64069999999998
 20
46.88320000000002
 10
66.15100000000001
 20
47.41970000000006
 10
66.61410000000001
 20
47.86400000000006
 10
66.70340000000002
 20
48.05940000000004
 10
66.66219999999996
 20
48.14070000000009
 10
66.63690000000003
 20
48.19090000000003
 10
66.62369999999999
 20
48.21699999999998
 10
66.6189
 20
48.22670000000002
 10
66.61820000000003
 20
48.22800000000001
 10
66.61820000000003
 20
48.22800000000001
 10
66.44819999999999
 20
48.57260000000005
 10
66.2783
 20
48.91720000000009
 10
66.2783
 20
48.91720000000009
 10
66.2783
 20
48.91720000000009
 10
66.2776
 20
48.91860000000003
 10
66.27290000000005
 20
48.92840000000012
 10
66.2602
 20
48.95470000000003
 10
66.23579999999998
 20
49.00540000000012
 10
66.19640000000001
 20
49.08760000000001
 10
65.98689999999999
 20
49.13560000000007
 10
65.35260000000005
 20
49.03869999999998
 10
64.61630000000008
 20
48.96039999999996
 10
63.77870000000001
 20
48.91000000000008
 10
62.84089999999998
 20
48.89650000000006
 10
62.69229999999999
 20
49.2340999999999
 10
62.54379999999998
 20
49.57170000000008
 10
63.18720000000008
 20
50.25409999999999
 10
63.7903
 20
50.83760000000001
 10
64.34549999999999
 20
51.32750000000004
 10
64.84550000000007
 20
51.72970000000004
 10
64.95160000000001
 20
51.91660000000013
 10
64.9176
 20
52.00120000000004
 10
64.89670000000001
 20
52.05340000000018
 10
64.88589999999999
 20
52.08050000000009
 10
64.88189999999997
 20
52.09060000000002
 10
64.88130000000001
 20
52.09210000000004
 10
64.88130000000001
 20
52.09210000000004
 10
64.7421
 20
52.45020000000002
 10
64.60280000000003
 20
52.80830000000006
 10
64.60280000000003
 20
52.80830000000006
 10
64.60280000000003
 20
52.80830000000006
 10
64.60230000000007
 20
52.80970000000011
 10
64.59840000000005
 20
52.81990000000002
 10
64.5881
 20
52.84719999999999
 10
64.56819999999999
 20
52.8997
 10
64.5361
 20
52.98509999999999
 10
64.33160000000001
 20
53.05119999999999
 10
63.69119999999998
 20
53.00990000000016
 10
62.95089999999999
 20
52.99610000000001
 10
62.1121
 20
53.01890000000006
 10
61.17669999999998
 20
53.08720000000002
 10
61.05810000000002
 20
53.43650000000019
 10
60.93950000000007
 20
53.78570000000002
 10
61.64009999999996
 20
54.40940000000018
 10
62.29169999999999
 20
54.93810000000002
 10
62.88740000000001
 20
55.37780000000004
 10
63.42059999999998
 20
55.73490000000007
 10
63.54259999999999
 20
55.91180000000003
 10
63.51610000000005
 20
55.99909999999997
 10
63.49990000000003
 20
56.05290000000005
 10
63.49149999999997
 20
56.08090000000004
 10
63.48830000000004
 20
56.09129999999999
 10
63.48790000000008
 20
56.09270000000001
 10
63.48790000000008
 20
56.09270000000001
 10
63.38040000000001
 20
56.46160000000003
 10
63.27289999999999
 20
56.83050000000009
 10
63.27289999999999
 20
56.83050000000009
 10
63.27289999999999
 20
56.83050000000009
 10
63.27239999999995
 20
56.83200000000005
 10
63.26949999999999
 20
56.84240000000005
 10
63.26150000000001
 20
56.87060000000005
 10
63.24630000000002
 20
56.92470000000003
 10
63.22180000000003
 20
57.01240000000001
 10
63.02390000000008
 20
57.09619999999998
 10
62.38229999999999
 20
57.11079999999998
 10
61.64360000000005
 20
57.16159999999999
 10
60.80989999999997
 20
57.25740000000008
 10
59.88410000000005
 20
57.40700000000004
 10
59.79640000000006
 20
57.76530000000014
 10
59.70870000000002
 20
58.12350000000004
 10
60.46090000000004
 20
58.6838000000001
 10
61.15620000000001
 20
59.15370000000004
 10
61.78800000000001
 20
59.53980000000018
 10
62.35019999999997
 20
59.84899999999999
 10
62.4871
 20
60.01470000000006
 10
62.46839999999997
 20
60.10390000000007
 10
62.45690000000002
 20
60.1588999999999
 10
62.45090000000005
 20
60.1875
 10
62.44870000000003
 20
60.19809999999998
 10
62.44839999999999
 20
60.19969999999995
 10
62.44839999999999
 20
60.19969999999995
 10
62.37350000000004
 20
60.5764999999999
 10
62.29849999999999
 20
60.95329999999993
 10
62.29849999999999
 20
60.95329999999993
 10
62.29849999999999
 20
60.95329999999993
 10
62.29820000000001
 20
60.95490000000001
 10
62.2962
 20
60.96550000000019
 10
62.29070000000002
 20
60.99420000000006
 10
62.28030000000001
 20
61.04950000000002
 10
62.26350000000002
 20
61.13899999999995
 10
62.0736
 20
61.23970000000003
 10
61.43579999999997
 20
61.31019999999995
 10
60.70429999999999
 20
61.42519999999996
 10
59.88220000000001
 20
61.59330000000003
 10
58.97280000000001
 20
61.82300000000004
 10
58.91669999999999
 20
62.18750000000006
 10
58.86059999999998
 20
62.55210000000005
 10
59.65879999999999
 20
63.04460000000006
 10
60.39229999999998
 20
63.45220000000006
 10
61.05540000000002
 20
63.78170000000003
 10
61.64249999999998
 20
64.04079999999999
 10
61.79329999999999
 20
64.19389999999999
 10
61.7824
 20
64.28440000000015
 10
61.77570000000003
 20
64.34020000000004
 10
61.77229999999997
 20
64.36920000000003
 10
61.77100000000007
 20
64.38
 10
61.77089999999998
 20
64.38150000000007
 10
61.77089999999998
 20
64.38150000000007
 10
61.72899999999998
 20
64.76350000000019
 10
61.68720000000002
 20
65.14540000000005
 10
61.68720000000002
 20
65.14540000000005
 10
61.68720000000002
 20
65.14540000000005
 10
61.68700000000001
 20
65.14699999999996
 10
61.68590000000006
 20
65.15780000000001
 10
61.68299999999999
 20
65.1868
 10
61.67739999999998
 20
65.24270000000013
 10
61.66849999999999
 20
65.33350000000004
 10
61.48809999999997
 20
65.45030000000006
 10
60.85890000000006
 20
65.5761
 10
60.14019999999999
 20
65.75440000000003
 10
59.33579999999995
 20
65.99350000000004
 10
58.44999999999999
 20
66.30160000000012
 10
58.42590000000007
 20
66.66970000000003
 10
58.40170000000001
 20
67.0377
 10
59.23980000000006
 20
67.4588
 10
60.00610000000006
 20
67.80090000000001
 10
60.69529999999997
 20
68.07140000000007
 10
61.30279999999999
 20
68.27830000000003
 10
61.46629999999999
 20
68.41760000000002
 10
61.46339999999998
 20
68.50880000000001
 10
61.46159999999998
 20
68.56490000000005
 10
61.46069999999997
 20
68.59410000000005
 10
61.46039999999999
 20
68.60500000000013
 10
61.46030000000002
 20
68.60650000000007
 10
61.46030000000002
 20
68.60650000000007
 10
61.452
 20
68.9907
 10
61.4436
 20
69.37480000000002
  0
ARC
  5
2970
330
2C5E
100
AcDbEntity
  8
LaserCut
 62
     1
420
 16711680
100
AcDbCircle
 10
320.0
 20
70.05000000000007
 30
0.0
 40
60.05
100
AcDbArc
 50
221.7676588998266
 51
138.2323411001734
1001
QCAD
1000
reversed:1
  0
ARC
  5
2971
330
2C5E
100
AcDbEntity
  8
LaserCut
 62
     1
420
 16711680
100
AcDbCircle
 10
110.0
 20
70.05000000000004
 30
0.0
 40
60.05
100
AcDbArc
 50
221.7676588998266
 51
138.2323411001734
1001
QCAD
1000
reversed:1
  0
ARC
  5
2972
330
2C5E
100
AcDbEntity
  8
LaserCut
 62
     1
420
 16711680
100
AcDbCircle
 10
110.0
 20
230.0
 30
0.0
 40
60.05
100
AcDbArc
 50
221.7676588998266
 51
138.2323411001734
1001
QCAD
1000
reversed:1
  0
ARC
  5
2973
330
2C5E
100
AcDbEntity
  8
LaserCut
 62
     1
420
 16711680
100
AcDbCircle
 10
320.0
 20
230.0
 30
0.0
 40
60.05
100
AcDbArc
 50
221.7676588998266
 51
138.2323411001734
1001
QCAD
1000
reversed:1
  0
CIRCLE
  5
2974
330
2C5E
100
AcDbEntity
  8
LaserCut
 62
     1
420
 16711680
100
AcDbCircle
 10
320.0
 20
70.05000000000007
 30
0.0
 40
8.0
  0
CIRCLE
  5
2976
330
2C5E
100
AcDbEntity
  8
LaserCut
 62
     1
420
 16711680
100
AcDbCircle
 10
335.4999998467113
 20
54.55000015328881
 30
0.0
 40
1.5
  0
CIRCLE
  5
2977
330
2C5E
100
AcDbEntity
  8
LaserCut
 62
     1
420
 16711680
100
AcDbCircle
 10
304.5000001532887
 20
54.55000015328881
 30
0.0
 40
1.5
  0
CIRCLE
  5
2978
330
2C5E
100
AcDbEntity
  8
LaserCut
 62
     1
420
 16711680
100
AcDbCircle
 10
304.5000001532887
 20
85.54999984671136
 30
0.0
 40
1.5
  0
CIRCLE
  5
2979
330
2C5E
100
AcDbEntity
  8
LaserCut
 62
     1
420
 16711680
100
AcDbCircle
 10
335.4999998467113
 20
85.54999984671127
 30
0.0
 40
1.5
  0
LINE
  5
297E
330
2C5E
100
AcDbEntity
  8
LaserCut
 62
     1
420
 16711680
100
AcDbLine
 10
275.2115807378738
 20
110.0500000000001
 30
0.0
 11
220.0
 21
110.05
 31
0.0
  0
LINE
  5
297F
330
2C5E
100
AcDbEntity
  8
LaserCut
 62
     1
420
 16711680
100
AcDbLine
 10
65.21158073787382
 20
110.05
 30
0.0
 11
10.0
 21
110.05
 31
0.0
  0
LINE
  5
2980
330
2C5E
100
AcDbEntity
  8
LaserCut
 62
     1
420
 16711680
100
AcDbLine
 10
65.21158073787387
 20
270.0
 30
0.0
 11
10.0
 21
270.0000000000001
 31
0.0
  0
LINE
  5
2981
330
2C5E
100
AcDbEntity
  8
LaserCut
 62
     1
420
 16711680
100
AcDbLine
 10
275.2115807378739
 20
270.0
 30
0.0
 11
220.0
 21
270.0000000000001
 31
0.0
  0
LINE
  5
2982
330
2C5E
100
AcDbEntity
  8
LaserCut
 62
     1
420
 16711680
100
AcDbLine
 10
220.0
 20
110.05
 30
0.0
 11
220.0000000000001
 21
30.05000000000007
 31
0.0
  0
LINE
  5
2983
330
2C5E
100
AcDbEntity
  8
LaserCut
 62
     1
420
 16711680
100
AcDbLine
 10
10.0
 20
110.05
 30
0.0
 11
9.999999999999943
 21
30.05000000000001
 31
0.0
  0
LINE
  5
2984
330
2C5E
100
AcDbEntity
  8
LaserCut
 62
     1
420
 16711680
100
AcDbLine
 10
10.0
 20
270.0000000000001
 30
0.0
 11
10.0
 21
190.0
 31
0.0
  0
LINE
  5
2985
330
2C5E
100
AcDbEntity
  8
LaserCut
 62
     1
420
 16711680
100
AcDbLine
 10
220.0
 20
270.0000000000001
 30
0.0
 11
220.0
 21
190.0
 31
0.0
  0
LINE
  5
2986
330
2C5E
100
AcDbEntity
  8
LaserCut
 62
     1
420
 16711680
100
AcDbLine
 10
220.0000000000001
 20
30.05000000000007
 30
0.0
 11
275.2115807378738
 21
30.05000000000001
 31
0.0
  0
LINE
  5
2987
330
2C5E
100
AcDbEntity
  8
LaserCut
 62
     1
420
 16711680
100
AcDbLine
 10
9.999999999999943
 20
30.05000000000001
 30
0.0
 11
65.21158073787379
 21
30.05000000000007
 31
0.0
  0
LINE
  5
2988
330
2C5E
100
AcDbEntity
  8
LaserCut
 62
     1
420
 16711680
100
AcDbLine
 10
10.0
 20
190.0
 30
0.0
 11
65.21158073787376
 21
190.0
 31
0.0
  0
LINE
  5
2989
330
2C5E
100
AcDbEntity
  8
LaserCut
 62
     1
420
 16711680
100
AcDbLine
 10
220.0
 20
190.0
 30
0.0
 11
275.2115807378738
 21
190.0
 31
0.0
  0
LINE
  5
298A
330
2C5E
100
AcDbEntity
  8
LaserCut
 62
     1
420
 16711680
100
AcDbLine
 10
420.0
 20
30.05000000000015
 30
0.0
 11
420.0
 21
110.05
 31
0.0
  0
LINE
  5
298B
330
2C5E
100
AcDbEntity
  8
LaserCut
 62
     1
420
 16711680
100
AcDbLine
 10
210.0
 20
30.05000000000004
 30
0.0
 11
210.0
 21
110.05
 31
0.0
  0
LINE
  5
298D
330
2C5E
100
AcDbEntity
  8
LaserCut
 62
     1
420
 16711680
100
AcDbLine
 10
210.0
 20
190.0
 30
0.0
 11
210.0
 21
270.0000000000001
 31
0.0
  0
LINE
  5
298E
330
2C5E
100
AcDbEntity
  8
LaserCut
 62
     1
420
 16711680
100
AcDbLine
 10
590.0
 20
10.05000000000001
 30
0.0
 11
430.0
 21
10.05000000000001
 31
0.0
  0
LINE
  5
2990
330
2C5E
100
AcDbEntity
  8
LaserCut
 62
     1
420
 16711680
100
AcDbLine
 10
590.0
 20
215.0
 30
0.0
 11
590.0
 21
295.0
 31
0.0
  0
LINE
  5
2C2C
330
2C5E
100
AcDbEntity
  8
LaserCut
 62
     1
420
 16711680
100
AcDbLine
 10
390.0
 20
215.0
 30
0.0
 11
390.0
 21
295.0000000000001
 31
0.0
  0
ARC
  5
2992
330
2C5E
100
AcDbEntity
  8
LaserCut
 62
     1
420
 16711680
100
AcDbCircle
 10
320.0
 20
70.05000000000015
 30
0.0
 40
65.0
100
AcDbArc
 50
330.8435791266884
 51
29.15642087331162
1001
QCAD
1000
reversed:1
  0
ARC
  5
2993
330
2C5E
100
AcDbEntity
  8
LaserCut
 62
     1
420
 16711680
100
AcDbCircle
 10
110.0
 20
70.05000000000007
 30
0.0
 40
65.0
100
AcDbArc
 50
330.8435791266884
 51
29.15642087331162
1001
QCAD
1000
reversed:1
  0
ARC
  5
2995
330
2C5E
100
AcDbEntity
  8
LaserCut
 62
     1
420
 16711680
100
AcDbCircle
 10
110.0
 20
230.0
 30
0.0
 40
65.0
100
AcDbArc
 50
330.8435791266884
 51
29.15642087331161
1001
QCAD
1000
reversed:1
  0
ARC
  5
2997
330
2C5E
100
AcDbEntity
  8
LaserCut
 62
     1
420
 16711680
100
AcDbCircle
 10
440.0
 20
255.0500000000004
 30
0.0
 40
65.0
100
AcDbArc
 50
330.8435791266884
 51
29.15642087331162
1001
QCAD
1000
reversed:1
  0
ARC
  5
2C26
330
2C5E
100
AcDbEntity
  8
LaserCut
 62
     1
420
 16711680
100
AcDbCircle
 10
540.0
 20
255.0500000000004
 30
0.0
 40
65.0
100
AcDbArc
 50
150.8435791266884
 51
209.1564208733116
  0
LINE
  5
2999
330
2C5E
100
AcDbEntity
  8
LaserCut
 62
     1
420
 16711680
100
AcDbLine
 10
420.0
 20
110.05
 30
0.0
 11
391.6995750083354
 21
110.0500000000001
 31
0.0
  0
LINE
  5
299A
330
2C5E
100
AcDbEntity
  8
LaserCut
 62
     1
420
 16711680
100
AcDbLine
 10
210.0
 20
110.05
 30
0.0
 11
181.6995750083354
 21
110.05
 31
0.0
  0
LINE
  5
299C
330
2C5E
100
AcDbEntity
  8
LaserCut
 62
     1
420
 16711680
100
AcDbLine
 10
210.0
 20
270.0000000000001
 30
0.0
 11
181.6995750083356
 21
270.0000000000001
 31
0.0
  0
LINE
  5
299D
330
2C5E
100
AcDbEntity
  8
LaserCut
 62
     1
420
 16711680
100
AcDbLine
 10
430.0
 20
10.05000000000001
 30
0.0
 11
430.0
 21
210.05
 31
0.0
  0
LINE
  5
299F
330
2C5E
100
AcDbEntity
  8
LaserCut
 62
     1
420
 16711680
100
AcDbLine
 10
590.0
 20
295.0
 30
0.0
 11
511.6995750083354
 21
295.0500000000002
 31
0.0
  0
LINE
  5
2C21
330
2C5E
100
AcDbEntity
  8
LaserCut
 62
     1
420
 16711680
100
AcDbLine
 10
390.0
 20
295.0000000000001
 30
0.0
 11
468.3004249916646
 21
295.0500000000002
 31
0.0
  0
LINE
  5
29A1
330
2C5E
100
AcDbEntity
  8
LaserCut
 62
     1
420
 16711680
100
AcDbLine
 10
391.6995750083355
 20
30.05000000000011
 30
0.0
 11
420.0
 21
30.05000000000015
 31
0.0
  0
LINE
  5
29A2
330
2C5E
100
AcDbEntity
  8
LaserCut
 62
     1
420
 16711680
100
AcDbLine
 10
181.6995750083354
 20
30.05000000000002
 30
0.0
 11
210.0
 21
30.05000000000004
 31
0.0
  0
LINE
  5
29A4
330
2C5E
100
AcDbEntity
  8
LaserCut
 62
     1
420
 16711680
100
AcDbLine
 10
181.6995750083352
 20
190.0
 30
0.0
 11
210.0
 21
190.0
 31
0.0
  0
LINE
  5
29A5
330
2C5E
100
AcDbEntity
  8
LaserCut
 62
     1
420
 16711680
100
AcDbLine
 10
590.0
 20
210.05
 30
0.0
 11
590.0
 21
10.05000000000001
 31
0.0
  0
LINE
  5
29A7
330
2C5E
100
AcDbEntity
  8
LaserCut
 62
     1
420
 16711680
100
AcDbLine
 10
511.6995750083353
 20
215.0500000000002
 30
0.0
 11
590.0
 21
215.0500000000001
 31
0.0
  0
LINE
  5
2C1D
330
2C5E
100
AcDbEntity
  8
LaserCut
 62
     1
420
 16711680
100
AcDbLine
 10
468.3004249916647
 20
215.0500000000002
 30
0.0
 11
390.0
 21
215.05
 31
0.0
  0
CIRCLE
  5
29A9
330
2C5E
100
AcDbEntity
  8
LaserCut
 62
     1
420
 16711680
100
AcDbCircle
 10
390.0
 20
40.05000000000004
 30
0.0
 40
1.5
  0
CIRCLE
  5
29AA
330
2C5E
100
AcDbEntity
  8
LaserCut
 62
     1
420
 16711680
100
AcDbCircle
 10
180.0
 20
40.05000000000007
 30
0.0
 40
1.5
  0
CIRCLE
  5
29AC
330
2C5E
100
AcDbEntity
  8
LaserCut
 62
     1
420
 16711680
100
AcDbCircle
 10
180.0
 20
200.0
 30
0.0
 40
1.5
  0
CIRCLE
  5
29AD
330
2C5E
100
AcDbEntity
  8
LaserCut
 62
     1
420
 16711680
100
AcDbCircle
 10
540.0
 20
40.05000000000001
 30
0.0
 40
1.5
  0
CIRCLE
  5
29AF
330
2C5E
100
AcDbEntity
  8
LaserCut
 62
     1
420
 16711680
100
AcDbCircle
 10
510.0
 20
225.0500000000001
 30
0.0
 40
1.5
  0
CIRCLE
  5
2C2B
330
2C5E
100
AcDbEntity
  8
LaserCut
 62
     1
420
 16711680
100
AcDbCircle
 10
470.0
 20
225.0500000000001
 30
0.0
 40
1.5
  0
CIRCLE
  5
29B1
330
2C5E
100
AcDbEntity
  8
LaserCut
 62
     1
420
 16711680
100
AcDbCircle
 10
250.0
 20
40.05000000000007
 30
0.0
 40
1.5
  0
CIRCLE
  5
29B2
330
2C5E
100
AcDbEntity
  8
LaserCut
 62
     1
420
 16711680
100
AcDbCircle
 10
40.0
 20
40.05000000000001
 30
0.0
 40
1.5
  0
CIRCLE
  5
29B3
330
2C5E
100
AcDbEntity
  8
LaserCut
 62
     1
420
 16711680
100
AcDbCircle
 10
40.0
 20
200.0
 30
0.0
 40
1.5
  0
CIRCLE
  5
29B4
330
2C5E
100
AcDbEntity
  8
LaserCut
 62
     1
420
 16711680
100
AcDbCircle
 10
250.0
 20
200.0
 30
0.0
 40
1.5
  0
CIRCLE
  5
29B5
330
2C5E
100
AcDbEntity
  8
LaserCut
 62
     1
420
 16711680
100
AcDbCircle
 10
390.0
 20
100.05
 30
0.0
 40
1.5
  0
CIRCLE
  5
29B6
330
2C5E
100
AcDbEntity
  8
LaserCut
 62
     1
420
 16711680
100
AcDbCircle
 10
180.0
 20
100.05
 30
0.0
 40
1.5
  0
CIRCLE
  5
29B8
330
2C5E
100
AcDbEntity
  8
LaserCut
 62
     1
420
 16711680
100
AcDbCircle
 10
180.0
 20
260.0000000000001
 30
0.0
 40
1.5
  0
CIRCLE
  5
29B9
330
2C5E
100
AcDbEntity
  8
LaserCut
 62
     1
420
 16711680
100
AcDbCircle
 10
480.0000000000001
 20
40.05000000000001
 30
0.0
 40
1.5
  0
CIRCLE
  5
29BB
330
2C5E
100
AcDbEntity
  8
LaserCut
 62
     1
420
 16711680
100
AcDbCircle
 10
510.0
 20
285.0500000000001
 30
0.0
 40
1.5
  0
CIRCLE
  5
2C30
330
2C5E
100
AcDbEntity
  8
LaserCut
 62
     1
420
 16711680
100
AcDbCircle
 10
470.0
 20
285.0500000000001
 30
0.0
 40
1.5
  0
CIRCLE
  5
29BD
330
2C5E
100
AcDbEntity
  8
LaserCut
 62
     1
420
 16711680
100
AcDbCircle
 10
250.0
 20
100.0500000000001
 30
0.0
 40
1.5
  0
CIRCLE
  5
29BE
330
2C5E
100
AcDbEntity
  8
LaserCut
 62
     1
420
 16711680
100
AcDbCircle
 10
40.0
 20
100.0500000000001
 30
0.0
 40
1.5
  0
CIRCLE
  5
29BF
330
2C5E
100
AcDbEntity
  8
LaserCut
 62
     1
420
 16711680
100
AcDbCircle
 10
40.0
 20
260.0000000000001
 30
0.0
 40
1.5
  0
CIRCLE
  5
29C0
330
2C5E
100
AcDbEntity
  8
LaserCut
 62
     1
420
 16711680
100
AcDbCircle
 10
250.0
 20
260.0000000000001
 30
0.0
 40
1.5
  0
CIRCLE
  5
29C1
330
2C5E
100
AcDbEntity
  8
LaserCut
 62
     1
420
 16711680
100
AcDbCircle
 10
410.0
 20
70.05000000000004
 30
0.0
 40
1.5
  0
CIRCLE
  5
29C2
330
2C5E
100
AcDbEntity
  8
LaserCut
 62
     1
420
 16711680
100
AcDbCircle
 10
200.0000000000001
 20
70.05000000000007
 30
0.0
 40
1.5
  0
CIRCLE
  5
29C4
330
2C5E
100
AcDbEntity
  8
LaserCut
 62
     1
420
 16711680
100
AcDbCircle
 10
200.0
 20
230.0
 30
0.0
 40
1.5
  0
CIRCLE
  5
29C5
330
2C5E
100
AcDbEntity
  8
LaserCut
 62
     1
420
 16711680
100
AcDbCircle
 10
510.0000000000007
 20
20.04999999999998
 30
0.0
 40
1.5
  0
CIRCLE
  5
29C7
330
2C5E
100
AcDbEntity
  8
LaserCut
 62
     1
420
 16711680
100
AcDbCircle
 10
530.0
 20
255.0500000000002
 30
0.0
 40
1.5
  0
CIRCLE
  5
2BE4
330
2C5E
100
AcDbEntity
  8
LaserCut
 62
     1
420
 16711680
100
AcDbCircle
 10
550.0
 20
225.0
 30
0.0
 40
1.5
  0
CIRCLE
  5
2BE5
330
2C5E
100
AcDbEntity
  8
LaserCut
 62
     1
420
 16711680
100
AcDbCircle
 10
550.0
 20
285.0
 30
0.0
 40
1.5
  0
CIRCLE
  5
2BFD
330
2C5E
100
AcDbEntity
  8
LaserCut
 62
     1
420
 16711680
100
AcDbCircle
 10
580.0
 20
285.0
 30
0.0
 40
1.5
  0
CIRCLE
  5
2BFE
330
2C5E
100
AcDbEntity
  8
LaserCut
 62
     1
420
 16711680
100
AcDbCircle
 10
580.0
 20
225.0
 30
0.0
 40
1.5
  0
CIRCLE
  5
2BFF
330
2C5E
100
AcDbEntity
  8
LaserCut
 62
     1
420
 16711680
100
AcDbCircle
 10
580.0
 20
265.0
 30
0.0
 40
1.5
  0
CIRCLE
  5
2C00
330
2C5E
100
AcDbEntity
  8
LaserCut
 62
     1
420
 16711680
100
AcDbCircle
 10
580.0
 20
245.0
 30
0.0
 40
1.5
  0
CIRCLE
  5
2C05
330
2C5E
100
AcDbEntity
  8
LaserCut
 62
     1
420
 16711680
100
AcDbCircle
 10
550.0
 20
265.0
 30
0.0
 40
1.5
  0
CIRCLE
  5
2C06
330
2C5E
100
AcDbEntity
  8
LaserCut
 62
     1
420
 16711680
100
AcDbCircle
 10
550.0
 20
245.0
 30
0.0
 40
1.5
  0
CIRCLE
  5
2C1F
330
2C5E
100
AcDbEntity
  8
LaserCut
 62
     1
420
 16711680
100
AcDbCircle
 10
400.0
 20
285.0
 30
0.0
 40
1.5
  0
CIRCLE
  5
2C25
330
2C5E
100
AcDbEntity
  8
LaserCut
 62
     1
420
 16711680
100
AcDbCircle
 10
450.0
 20
255.0500000000002
 30
0.0
 40
1.5
  0
CIRCLE
  5
2C28
330
2C5E
100
AcDbEntity
  8
LaserCut
 62
     1
420
 16711680
100
AcDbCircle
 10
430.0
 20
285.0
 30
0.0
 40
1.5
  0
CIRCLE
  5
2C29
330
2C5E
100
AcDbEntity
  8
LaserCut
 62
     1
420
 16711680
100
AcDbCircle
 10
430.0
 20
225.0000000000001
 30
0.0
 40
1.5
  0
CIRCLE
  5
2C2A
330
2C5E
100
AcDbEntity
  8
LaserCut
 62
     1
420
 16711680
100
AcDbCircle
 10
430.0
 20
245.0
 30
0.0
 40
1.5
  0
CIRCLE
  5
2C2D
330
2C5E
100
AcDbEntity
  8
LaserCut
 62
     1
420
 16711680
100
AcDbCircle
 10
400.0
 20
245.0
 30
0.0
 40
1.5
  0
CIRCLE
  5
2C2E
330
2C5E
100
AcDbEntity
  8
LaserCut
 62
     1
420
 16711680
100
AcDbCircle
 10
400.0
 20
265.0
 30
0.0
 40
1.5
  0
CIRCLE
  5
2C2F
330
2C5E
100
AcDbEntity
  8
LaserCut
 62
     1
420
 16711680
100
AcDbCircle
 10
400.0
 20
225.0000000000001
 30
0.0
 40
1.5
  0
CIRCLE
  5
2C31
330
2C5E
100
AcDbEntity
  8
LaserCut
 62
     1
420
 16711680
100
AcDbCircle
 10
430.0
 20
265.0
 30
0.0
 40
1.5
  0
CIRCLE
  5
29C9
330
2C5E
100
AcDbEntity
  8
LaserCut
 62
     1
420
 16711680
100
AcDbCircle
 10
230.0
 20
70.05000000000007
 30
0.0
 40
1.5
  0
CIRCLE
  5
29CA
330
2C5E
100
AcDbEntity
  8
LaserCut
 62
     1
420
 16711680
100
AcDbCircle
 10
20.0
 20
70.05000000000001
 30
0.0
 40
1.5
  0
CIRCLE
  5
29CB
330
2C5E
100
AcDbEntity
  8
LaserCut
 62
     1
420
 16711680
100
AcDbCircle
 10
20.0
 20
230.0
 30
0.0
 40
1.5
  0
CIRCLE
  5
29CC
330
2C5E
100
AcDbEntity
  8
LaserCut
 62
     1
420
 16711680
100
AcDbCircle
 10
230.0
 20
230.0
 30
0.0
 40
1.5
  0
CIRCLE
  5
29CD
330
2C5E
100
AcDbEntity
  8
LaserCut
 62
     1
420
 16711680
100
AcDbCircle
 10
410.0
 20
100.0499999999997
 30
0.0
 40
0.5
  0
CIRCLE
  5
29CE
330
2C5E
100
AcDbEntity
  8
LaserCut
 62
     1
420
 16711680
100
AcDbCircle
 10
200.0
 20
100.05
 30
0.0
 40
0.5
  0
CIRCLE
  5
29D0
330
2C5E
100
AcDbEntity
  8
LaserCut
 62
     1
420
 16711680
100
AcDbCircle
 10
200.0
 20
260.0000000000001
 30
0.0
 40
0.5
  0
CIRCLE
  5
29D1
330
2C5E
100
AcDbEntity
  8
LaserCut
 62
     1
420
 16711680
100
AcDbCircle
 10
480.0000000000001
 20
20.04999999999998
 30
0.0
 40
0.5
  0
CIRCLE
  5
29D3
330
2C5E
100
AcDbEntity
  8
LaserCut
 62
     1
420
 16711680
100
AcDbCircle
 10
530.0
 20
285.0500000000001
 30
0.0
 40
0.5
  0
CIRCLE
  5
2C23
330
2C5E
100
AcDbEntity
  8
LaserCut
 62
     1
420
 16711680
100
AcDbCircle
 10
450.0
 20
285.0500000000001
 30
0.0
 40
0.5
  0
CIRCLE
  5
29D5
330
2C5E
100
AcDbEntity
  8
LaserCut
 62
     1
420
 16711680
100
AcDbCircle
 10
230.0
 20
100.05
 30
0.0
 40
0.5
  0
CIRCLE
  5
29D6
330
2C5E
100
AcDbEntity
  8
LaserCut
 62
     1
420
 16711680
100
AcDbCircle
 10
20.0
 20
100.05
 30
0.0
 40
0.5
  0
CIRCLE
  5
29D7
330
2C5E
100
AcDbEntity
  8
LaserCut
 62
     1
420
 16711680
100
AcDbCircle
 10
20.0
 20
260.0
 30
0.0
 40
0.5
  0
CIRCLE
  5
29D8
330
2C5E
100
AcDbEntity
  8
LaserCut
 62
     1
420
 16711680
100
AcDbCircle
 10
230.0
 20
260.0
 30
0.0
 40
0.5
  0
CIRCLE
  5
29D9
330
2C5E
100
AcDbEntity
  8
LaserCut
 62
     1
420
 16711680
100
AcDbCircle
 10
390.0
 20
70.05000000000001
 30
0.0
 40
0.5
  0
CIRCLE
  5
29DA
330
2C5E
100
AcDbEntity
  8
LaserCut
 62
     1
420
 16711680
100
AcDbCircle
 10
180.0
 20
70.05000000000004
 30
0.0
 40
0.5
  0
CIRCLE
  5
29DC
330
2C5E
100
AcDbEntity
  8
LaserCut
 62
     1
420
 16711680
100
AcDbCircle
 10
180.0
 20
230.0
 30
0.0
 40
0.5
  0
CIRCLE
  5
29DD
330
2C5E
100
AcDbEntity
  8
LaserCut
 62
     1
420
 16711680
100
AcDbCircle
 10
509.9999999999984
 20
40.05000000000001
 30
0.0
 40
0.5
  0
CIRCLE
  5
29DF
330
2C5E
100
AcDbEntity
  8
LaserCut
 62
     1
420
 16711680
100
AcDbCircle
 10
510.0
 20
255.0500000000001
 30
0.0
 40
0.5
  0
CIRCLE
  5
2C27
330
2C5E
100
AcDbEntity
  8
LaserCut
 62
     1
420
 16711680
100
AcDbCircle
 10
470.0
 20
255.0500000000001
 30
0.0
 40
0.5
  0
CIRCLE
  5
29E1
330
2C5E
100
AcDbEntity
  8
LaserCut
 62
     1
420
 16711680
100
AcDbCircle
 10
250.0
 20
70.05000000000004
 30
0.0
 40
0.5
  0
CIRCLE
  5
29E2
330
2C5E
100
AcDbEntity
  8
LaserCut
 62
     1
420
 16711680
100
AcDbCircle
 10
40.0
 20
70.05000000000004
 30
0.0
 40
0.5
  0
CIRCLE
  5
29E3
330
2C5E
100
AcDbEntity
  8
LaserCut
 62
     1
420
 16711680
100
AcDbCircle
 10
40.0
 20
230.0
 30
0.0
 40
0.5
  0
CIRCLE
  5
29E4
330
2C5E
100
AcDbEntity
  8
LaserCut
 62
     1
420
 16711680
100
AcDbCircle
 10
250.0
 20
230.0
 30
0.0
 40
0.5
  0
CIRCLE
  5
29E5
330
2C5E
100
AcDbEntity
  8
LaserCut
 62
     1
420
 16711680
100
AcDbCircle
 10
410.0
 20
40.05000000000007
 30
0.0
 40
0.5
  0
CIRCLE
  5
29E6
330
2C5E
100
AcDbEntity
  8
LaserCut
 62
     1
420
 16711680
100
AcDbCircle
 10
200.0
 20
40.05000000000001
 30
0.0
 40
0.5
  0
CIRCLE
  5
29E8
330
2C5E
100
AcDbEntity
  8
LaserCut
 62
     1
420
 16711680
100
AcDbCircle
 10
199.9999999999999
 20
200.0
 30
0.0
 40
0.5
  0
CIRCLE
  5
29E9
330
2C5E
100
AcDbEntity
  8
LaserCut
 62
     1
420
 16711680
100
AcDbCircle
 10
540.0
 20
20.04999999999995
 30
0.0
 40
0.5
  0
CIRCLE
  5
29EB
330
2C5E
100
AcDbEntity
  8
LaserCut
 62
     1
420
 16711680
100
AcDbCircle
 10
530.0
 20
225.05
 30
0.0
 40
0.5
  0
CIRCLE
  5
2C24
330
2C5E
100
AcDbEntity
  8
LaserCut
 62
     1
420
 16711680
100
AcDbCircle
 10
450.0
 20
225.05
 30
0.0
 40
0.5
  0
CIRCLE
  5
29ED
330
2C5E
100
AcDbEntity
  8
LaserCut
 62
     1
420
 16711680
100
AcDbCircle
 10
230.0
 20
40.05000000000004
 30
0.0
 40
0.5
  0
CIRCLE
  5
29EE
330
2C5E
100
AcDbEntity
  8
LaserCut
 62
     1
420
 16711680
100
AcDbCircle
 10
20.0
 20
40.05000000000001
 30
0.0
 40
0.5
  0
CIRCLE
  5
29EF
330
2C5E
100
AcDbEntity
  8
LaserCut
 62
     1
420
 16711680
100
AcDbCircle
 10
20.0
 20
200.0
 30
0.0
 40
0.5
  0
CIRCLE
  5
29F0
330
2C5E
100
AcDbEntity
  8
LaserCut
 62
     1
420
 16711680
100
AcDbCircle
 10
230.0
 20
200.0
 30
0.0
 40
0.5
  0
CIRCLE
  5
2BEF
330
2C5E
100
AcDbEntity
  8
LaserCut
 62
     1
420
 16711680
100
AcDbCircle
 10
150.0
 20
150.0
 30
0.0
 40
0.5
  0
CIRCLE
  5
2BF0
330
2C5E
100
AcDbEntity
  8
LaserCut
 62
     1
420
 16711680
100
AcDbCircle
 10
110.0
 20
150.0
 30
0.0
 40
0.5
  0
CIRCLE
  5
2BF1
330
2C5E
100
AcDbEntity
  8
LaserCut
 62
     1
420
 16711680
100
AcDbCircle
 10
70.0
 20
150.0
 30
0.0
 40
0.5
  0
CIRCLE
  5
2BF2
330
2C5E
100
AcDbEntity
  8
LaserCut
 62
     1
420
 16711680
100
AcDbCircle
 10
30.0
 20
150.0
 30
0.0
 40
0.5
  0
CIRCLE
  5
2BF3
330
2C5E
100
AcDbEntity
  8
LaserCut
 62
     1
420
 16711680
100
AcDbCircle
 10
450.0
 20
30.0
 30
0.0
 40
0.5
  0
CIRCLE
  5
2BF4
330
2C5E
100
AcDbEntity
  8
LaserCut
 62
     1
420
 16711680
100
AcDbCircle
 10
570.0
 20
30.0
 30
0.0
 40
0.5
  0
CIRCLE
  5
2BF5
330
2C5E
100
AcDbEntity
  8
LaserCut
 62
     1
420
 16711680
100
AcDbCircle
 10
450.0
 20
190.0
 30
0.0
 40
0.5
  0
CIRCLE
  5
2BF6
330
2C5E
100
AcDbEntity
  8
LaserCut
 62
     1
420
 16711680
100
AcDbCircle
 10
570.0
 20
190.0
 30
0.0
 40
0.5
  0
CIRCLE
  5
29F1
330
2C5E
100
AcDbEntity
  8
LaserCut
 62
     1
420
 16711680
100
AcDbCircle
 10
110.0
 20
230.0
 30
0.0
 40
25.00030999999996
  0
CIRCLE
  5
29F2
330
2C5E
100
AcDbEntity
  8
LaserCut
 62
     1
420
 16711680
100
AcDbCircle
 10
320.0
 20
230.0
 30
0.0
 40
25.00030999999996
  0
CIRCLE
  5
29F3
330
2C5E
100
AcDbEntity
  8
LaserCut
 62
     1
420
 16711680
100
AcDbCircle
 10
94.375
 20
257.0633
 30
0.0
 40
1.0
  0
CIRCLE
  5
29F4
330
2C5E
100
AcDbEntity
  8
LaserCut
 62
     1
420
 16711680
100
AcDbCircle
 10
304.375
 20
257.0633
 30
0.0
 40
1.0
  0
CIRCLE
  5
29F5
330
2C5E
100
AcDbEntity
  8
LaserCut
 62
     1
420
 16711680
100
AcDbCircle
 10
141.25
 20
230.0
 30
0.0
 40
1.0
  0
CIRCLE
  5
29F6
330
2C5E
100
AcDbEntity
  8
LaserCut
 62
     1
420
 16711680
100
AcDbCircle
 10
351.25
 20
230.0
 30
0.0
 40
1.0
  0
CIRCLE
  5
29F7
330
2C5E
100
AcDbEntity
  8
LaserCut
 62
     1
420
 16711680
100
AcDbCircle
 10
94.375
 20
202.9367
 30
0.0
 40
1.0
  0
CIRCLE
  5
29F8
330
2C5E
100
AcDbEntity
  8
LaserCut
 62
     1
420
 16711680
100
AcDbCircle
 10
304.375
 20
202.9367
 30
0.0
 40
1.0
  0
CIRCLE
  5
29F9
330
2C5E
100
AcDbEntity
  8
LaserCut
100
AcDbCircle
 10
122.4999978759046
 20
48.3993636790421
 30
0.0
 40
0.9
  0
CIRCLE
  5
29FA
330
2C5E
100
AcDbEntity
  8
LaserCut
100
AcDbCircle
 10
85.0
 20
70.05000000000007
 30
0.0
 40
0.9
  0
CIRCLE
  5
29FB
330
2C5E
100
AcDbEntity
  8
LaserCut
100
AcDbCircle
 10
122.4999978759046
 20
91.70063632095795
 30
0.0
 40
0.9
  0
LINE
  5
29FC
330
2C5E
100
AcDbEntity
  8
LaserCut
100
AcDbLine
 10
391.6995750083355
 20
30.05000000000011
 30
0.0
 11
376.7640378776422
 21
38.38228767615823
 31
0.0
  0
LINE
  5
29FD
330
2C5E
100
AcDbEntity
  8
LaserCut
100
AcDbLine
 10
181.6995750083354
 20
30.05000000000002
 30
0.0
 11
166.7640378776422
 21
38.38228767615811
 31
0.0
  0
LINE
  5
2C0F
330
2C5E
100
AcDbEntity
  8
LaserCut
100
AcDbLine
 10
511.6995750083351
 20
215.0500000000003
 30
0.0
 11
496.7640378776421
 21
223.3822876761584
 31
0.0
  0
LINE
  5
2C22
330
2C5E
100
AcDbEntity
  8
LaserCut
100
AcDbLine
 10
468.3004249916649
 20
215.0500000000003
 30
0.0
 11
483.2359621223579
 21
223.3822876761584
 31
0.0
  0
LINE
  5
29FF
330
2C5E
100
AcDbEntity
  8
LaserCut
100
AcDbLine
 10
181.6995750083352
 20
190.0
 30
0.0
 11
166.7640378776421
 21
198.3322876761581
 31
0.0
  0
LINE
  5
2A03
330
2C5E
100
AcDbEntity
  8
LaserCut
100
AcDbLine
 10
376.7640378776422
 20
101.7177123238419
 30
0.0
 11
391.6995750083354
 21
110.0500000000001
 31
0.0
  0
LINE
  5
2A04
330
2C5E
100
AcDbEntity
  8
LaserCut
100
AcDbLine
 10
166.7640378776422
 20
101.7177123238419
 30
0.0
 11
181.6995750083354
 21
110.05
 31
0.0
  0
LINE
  5
2C10
330
2C5E
100
AcDbEntity
  8
LaserCut
100
AcDbLine
 10
496.7640378776421
 20
286.7177123238421
 30
0.0
 11
511.6995750083356
 21
295.0500000000003
 31
0.0
  0
LINE
  5
2C20
330
2C5E
100
AcDbEntity
  8
LaserCut
100
AcDbLine
 10
483.2359621223579
 20
286.7177123238421
 30
0.0
 11
468.3004249916644
 21
295.0500000000003
 31
0.0
  0
LINE
  5
2A06
330
2C5E
100
AcDbEntity
  8
LaserCut
100
AcDbLine
 10
166.7640378776422
 20
261.6677123238419
 30
0.0
 11
181.6995750083356
 21
270.0000000000001
 31
0.0
  0
LINE
  5
2A07
330
2C5E
100
AcDbEntity
  8
LaserCut
100
AcDbLine
 10
590.0
 20
210.05
 30
0.0
 11
430.0
 21
210.05
 31
0.0
  0
CIRCLE
  5
2AEA
330
2C5E
100
AcDbEntity
  8
LaserCut
100
AcDbCircle
 10
110.0
 20
230.0
 30
0.0
 40
2.45
  0
CIRCLE
  5
2AEB
330
2C5E
100
AcDbEntity
  8
LaserCut
100
AcDbCircle
 10
103.6999614223403
 20
230.0
 30
0.0
 40
1.45
  0
CIRCLE
  5
2AEC
330
2C5E
100
AcDbEntity
  8
LaserCut
100
AcDbCircle
 10
116.3000385776596
 20
230.0
 30
0.0
 40
1.45
  0
CIRCLE
  5
2AED
330
2C5E
100
AcDbEntity
  8
LaserCut
100
AcDbCircle
 10
110.0
 20
223.6999614223403
 30
0.0
 40
1.45
  0
CIRCLE
  5
2AEE
330
2C5E
100
AcDbEntity
  8
LaserCut
100
AcDbCircle
 10
110.0
 20
236.3000385776597
 30
0.0
 40
1.45
  0
CIRCLE
  5
2BEB
330
2C5E
100
AcDbEntity
  8
LaserCut
 62
     1
420
 16711680
100
AcDbCircle
 10
30.0
 20
150.0
 30
0.0
 40
15.0
  0
CIRCLE
  5
2BEC
330
2C5E
100
AcDbEntity
  8
LaserCut
 62
     1
420
 16711680
100
AcDbCircle
 10
70.0
 20
150.0
 30
0.0
 40
15.0
  0
CIRCLE
  5
2BED
330
2C5E
100
AcDbEntity
  8
LaserCut
 62
     1
420
 16711680
100
AcDbCircle
 10
110.0
 20
150.0
 30
0.0
 40
15.0
  0
CIRCLE
  5
2BEE
330
2C5E
100
AcDbEntity
  8
LaserCut
 62
     1
420
 16711680
100
AcDbCircle
 10
150.0
 20
150.0
 30
0.0
 40
15.0
  0
VIEWPORT
  5
2D1E
330
2C5A
100
AcDbEntity
 67
     1
  8
0
 62
   178
420
        0
100
AcDbViewport
 10
5.25
 20
4.0
 30
0.0
 40
11.638
 41
8.993
 68
     1
 69
     1
 12
5.25
 22
4.0
 13
0.0
 23
0.0
 14
0.5
 24
0.5
 15
0.5
 25
0.5
 16
0.0
 26
0.0
 36
1.0
 17
0.0
 27
0.0
 37
0.0
 42
50.0
 43
0.0
 44
0.0
 45
8.993
 50
0.0
 51
0.0
 72
   100
 90
   557152
  1

281
     0
 71
     1
 74
     0
110
0.0
120
0.0
130
0.0
111
1.0
121
0.0
131
0.0
112
0.0
122
1.0
132
0.0
 79
     0
146
0.0
170
     0
 61
     5
348
2C6E
292
     1
282
     1
141
0.0
142
0.0
 63
   256
361
2D1F
  0
ENDSEC
  0
SECTION
  2
OBJECTS
  0
DICTIONARY
  5
2C4C
330
0
100
AcDbDictionary
281
     1
  3
ACAD_DETAILVIEWSTYLE
350
2D27
  3
ACAD_GROUP
350
2C4D
  3
ACAD_LAYOUT
350
2C59
  3
ACAD_MATERIAL
350
2C82
  3
ACAD_MLEADERSTYLE
350
2CAA
  3
ACAD_MLINESTYLE
350
2C56
  3
ACAD_PLOTSETTINGS
350
2C58
  3
ACAD_PLOTSTYLENAME
350
2C4E
  3
ACAD_SCALELIST
350
2C86
  3
ACAD_SECTIONVIEWSTYLE
350
2D28
  3
ACAD_TABLESTYLE
350
2CA8
  3
ACAD_VISUALSTYLE
350
2C69
  3
ACDB_RECOMPOSE_DATA
350
2D24
  3
AcDbVariableDictionary
350
2D20
  3
QCAD_OBJECTS
350
2CAE
  0
SUN
  5
2CAC
330
2C68
100
AcDbSun
 90
        1
290
     0
 63
     7
421
 16777215
 40
1.0
291
     1
 91
  2455826
 92
 54000000
292
     0
 70
     2
 71
   256
280
     1
  0
SUN
  5
2D1F
330
2D1E
100
AcDbSun
 90
        1
290
     0
 63
     7
421
 16777215
 40
1.0
291
     1
 91
  2455826
 92
 54000000
292
     0
 70
     2
 71
   256
280
     1
  0
DICTIONARY
  5
2D27
102
{ACAD_REACTORS
330
2C4C
102
}
330
2C4C
100
AcDbDictionary
281
     1
  0
DICTIONARY
  5
2C4D
102
{ACAD_REACTORS
330
2C4C
102
}
330
2C4C
100
AcDbDictionary
281
     1
  0
DICTIONARY
  5
2C59
102
{ACAD_REACTORS
330
2C4C
102
}
330
2C4C
100
AcDbDictionary
281
     1
  3
Layout1
350
2C5D
  3
Model
350
2C61
  0
DICTIONARY
  5
2C82
102
{ACAD_REACTORS
330
2C4C
102
}
330
2C4C
100
AcDbDictionary
281
     1
  3
ByBlock
350
2C84
  3
ByLayer
350
2C83
  3
Global
350
2C85
  0
DICTIONARY
  5
2CAA
102
{ACAD_REACTORS
330
2C4C
102
}
330
2C4C
100
AcDbDictionary
281
     1
  3
Standard
350
2CAB
  0
DICTIONARY
  5
2C56
102
{ACAD_REACTORS
330
2C4C
102
}
330
2C4C
100
AcDbDictionary
281
     1
  3
Standard
350
2C57
  0
DICTIONARY
  5
2C58
102
{ACAD_REACTORS
330
2C4C
102
}
330
2C4C
100
AcDbDictionary
281
     1
  0
ACDBDICTIONARYWDFLT
  5
2C4E
102
{ACAD_REACTORS
330
2C4C
102
}
330
2C4C
100
AcDbDictionary
281
     1
  3
Normal
350
2C4F
100
AcDbDictionaryWithDefault
340
2C4F
  0
DICTIONARY
  5
2C86
102
{ACAD_REACTORS
330
2C4C
102
}
330
2C4C
100
AcDbDictionary
281
     1
  3
A0
350
2C87
  3
A1
350
2C88
  3
A2
350
2C89
  3
A3
350
2C8A
  3
A4
350
2C8B
  3
A5
350
2C8C
  3
A6
350
2C8D
  3
A7
350
2C8E
  3
A8
350
2C8F
  3
A9
350
2C90
  3
B0
350
2C91
  3
B1
350
2C92
  3
B2
350
2C93
  3
B3
350
2C94
  3
B4
350
2C95
  3
B5
350
2C96
  3
B6
350
2C97
  3
B7
350
2C98
  3
B8
350
2C99
  3
B9
350
2C9A
  3
C0
350
2C9B
  3
C1
350
2C9C
  3
C2
350
2C9D
  3
C3
350
2C9E
  3
C4
350
2C9F
  3
C5
350
2CA0
  3
C6
350
2CA1
  3
C7
350
2CA2
  3
C8
350
2CA3
  3
C9
350
2CA4
  3
D0
350
2CA5
  3
D1
350
2CA6
  3
D2
350
2CA7
  0
DICTIONARY
  5
2D28
102
{ACAD_REACTORS
330
2C4C
102
}
330
2C4C
100
AcDbDictionary
281
     1
  0
DICTIONARY
  5
2CA8
102
{ACAD_REACTORS
330
2C4C
102
}
330
2C4C
100
AcDbDictionary
281
     1
  3
Standard
350
2CA9
  0
DICTIONARY
  5
2C69
102
{ACAD_REACTORS
330
2C4C
102
}
330
2C4C
100
AcDbDictionary
281
     1
  3
2dWireframe
350
2C6E
  3
Basic
350
2C71
  3
Brighten
350
2C75
  3
ColorChange
350
2C79
  3
Conceptual
350
2C73
  3
Dim
350
2C74
  3
EdgeColorOff
350
2C7C
  3
Facepattern
350
2C78
  3
Flat
350
2C6A
  3
FlatWithEdges
350
2C6B
  3
Gouraud
350
2C6C
  3
GouraudWithEdges
350
2C6D
  3
Hidden
350
2C70
  3
JitterOff
350
2C7A
  3
Linepattern
350
2C77
  3
OverhangOff
350
2C7B
  3
Realistic
350
2C72
  3
Shaded
350
2C81
  3
Shaded with edges
350
2C80
  3
Shades of Gray
350
2C7D
  3
Sketchy
350
2C7E
  3
Thicken
350
2C76
  3
Wireframe
350
2C6F
  3
X-Ray
350
2C7F
  0
XRECORD
  5
2D24
102
{ACAD_REACTORS
330
2C4C
102
}
330
2C4C
100
AcDbXrecord
280
     1
 90
        1
330
2CA9
  0
DICTIONARY
  5
2D20
102
{ACAD_REACTORS
330
2C4C
102
}
330
2C4C
100
AcDbDictionary
281
     1
  3
CANNOSCALE
350
2D21
  3
CMLEADERSTYLE
350
2D26
  3
CTABLESTYLE
350
2D25
  0
DICTIONARY
  5
2CAE
102
{ACAD_REACTORS
330
2C4C
102
}
330
2C4C
100
AcDbDictionary
281
     1
  3
ColorSettings/BackgroundColor
350
2CB0
  3
ColorSettings/ColorMode
350
2CB1
  3
Grid/DisplayGrid00
350
2CB2
  3
Grid/DisplayGrid01
350
2CB3
  3
Grid/DisplayGrid02
350
2CB4
  3
Grid/DisplayGrid03
350
2CB5
  3
Grid/GridSpacingX00
350
2CB6
  3
Grid/GridSpacingX01
350
2CB7
  3
Grid/GridSpacingX02
350
2CB8
  3
Grid/GridSpacingX03
350
2CB9
  3
Grid/GridSpacingY00
350
2CBA
  3
Grid/GridSpacingY01
350
2CBB
  3
Grid/GridSpacingY02
350
2CBC
  3
Grid/GridSpacingY03
350
2CBD
  3
Grid/IsometricGrid00
350
2CBE
  3
Grid/IsometricGrid01
350
2CBF
  3
Grid/IsometricGrid02
350
2CC0
  3
Grid/IsometricGrid03
350
2CC1
  3
Grid/IsometricProjection00
350
2CC2
  3
Grid/IsometricProjection01
350
2CC3
  3
Grid/IsometricProjection02
350
2CC4
  3
Grid/IsometricProjection03
350
2CC5
  3
Grid/MetaGridSpacingX00
350
2CC6
  3
Grid/MetaGridSpacingX01
350
2CC7
  3
Grid/MetaGridSpacingX02
350
2CC8
  3
Grid/MetaGridSpacingX03
350
2CC9
  3
Grid/MetaGridSpacingY00
350
2CCA
  3
Grid/MetaGridSpacingY01
350
2CCB
  3
Grid/MetaGridSpacingY02
350
2CCC
  3
Grid/MetaGridSpacingY03
350
2CCD
  3
MultiPageSettings/Columns
350
2CCE
  3
MultiPageSettings/GlueMarginsBottom
350
2CCF
  3
MultiPageSettings/GlueMarginsLeft
350
2CD0
  3
MultiPageSettings/GlueMarginsRight
350
2CD1
  3
MultiPageSettings/GlueMarginsTop
350
2CD2
  3
MultiPageSettings/PrintCropMarks
350
2CD3
  3
MultiPageSettings/Rows
350
2CD4
  3
PageSettings/OffsetX
350
2CD5
  3
PageSettings/OffsetY
350
2CD6
  3
PageSettings/PageOrientation
350
2CD7
  3
PageSettings/PaperHeight
350
2CD8
  3
PageSettings/PaperWidth
350
2CD9
  3
PageSettings/Scale
350
2CDA
  3
PageSettings/ShowPaperBorders
350
2CDB
  3
QCADVersion
350
2CDC
  3
UnitSettings/PaperUnit
350
2CDD
  3
ViewportCenter
350
2CDE
  3
ViewportHeight
350
2CDF
  3
ViewportWidth
350
2CE0
  0
LAYOUT
  5
2C5D
102
{ACAD_REACTORS
330
2C59
102
}
330
2C59
100
AcDbPlotSettings
  1

  2
none_device
  4
Letter_(8.50_x_11.00_Inches)
  6

 40
6.35
 41
6.35
 42
6.35001
 43
6.35001
 44
215.9
 45
279.4
 46
0.0
 47
0.0
 48
0.0
 49
0.0
140
0.0
141
0.0
142
1.0
143
1.0
 70
   688
 72
     0
 73
     1
 74
     5
  7

 75
    16
 76
     0
 77
     2
 78
   300
147
1.0
148
0.0
149
0.0
100
AcDbLayout
  1
Layout1
 70
     1
 71
     1
 10
-0.25
 20
-0.25
 11
10.75
 21
8.25
 12
0.0
 22
0.0
 32
0.0
 14
1.000000000000000E+20
 24
1.000000000000000E+20
 34
1.000000000000000E+20
 15
-1.000000000000000E+20
 25
-1.000000000000000E+20
 35
-1.000000000000000E+20
146
0.0
 13
0.0
 23
0.0
 33
0.0
 16
1.0
 26
0.0
 36
0.0
 17
0.0
 27
1.0
 37
0.0
 76
     0
330
2C5A
331
2D1E
  0
LAYOUT
  5
2C61
102
{ACAD_REACTORS
330
2C59
102
}
330
2C59
100
AcDbPlotSettings
  1

  2
none_device
  4
Letter_(8.50_x_11.00_Inches)
  6

 40
6.35
 41
6.35
 42
6.35000508
 43
6.35000508
 44
215.9
 45
279.4
 46
0.0
 47
0.0
 48
0.0
 49
0.0
140
0.0
141
0.0
142
1.0
143
1.0
 70
  1712
 72
     0
 73
     0
 74
     0
  7

 75
     0
 76
     0
 77
     2
 78
   300
147
1.0
148
0.0
149
0.0
100
AcDbLayout
  1
Model
 70
     1
 71
     0
 10
0.0
 20
0.0
 11
12.0
 21
9.0
 12
0.0
 22
0.0
 32
0.0
 14
590.0
 24
295.0500000000003
 34
0.0
 15
9.999999999999943
 25
10.00000000000004
 35
0.0
146
0.0
 13
0.0
 23
0.0
 33
0.0
 16
1.0
 26
0.0
 36
0.0
 17
0.0
 27
1.0
 37
0.0
 76
     0
330
2C5E
331
2C68
  0
MATERIAL
  5
2C84
102
{ACAD_REACTORS
330
2C82
102
}
330
2C82
100
AcDbMaterial
  1
ByBlock
 72
     1
 94
      127
  0
MATERIAL
  5
2C83
102
{ACAD_REACTORS
330
2C82
102
}
330
2C82
100
AcDbMaterial
  1
ByLayer
 72
     1
 94
      127
  0
MATERIAL
  5
2C85
102
{ACAD_REACTORS
330
2C82
102
}
330
2C82
100
AcDbMaterial
  1
Global
 72
     1
 94
      127
  0
MLEADERSTYLE
  5
2CAB
102
{ACAD_REACTORS
330
2CAA
102
}
330
2CAA
100
AcDbMLeaderStyle
179
     2
170
     2
171
     1
172
     0
 90
        2
 40
0.0
 41
0.0
173
     1
 91
-1056964608
340
2C53
 92
       -2
290
     1
 42
0.09
291
     1
 43
0.36
  3
Standard
341
0
 44
0.18
300

342
2C51
174
     1
178
     6
175
     1
176
     0
 93
-1056964608
 45
0.18
292
     0
297
     0
 46
0.18
343
0
 94
-1056964608
 47
1.0
 49
1.0
140
1.0
293
     1
141
0.0
294
     1
177
     0
142
1.0
295
     0
296
     0
143
0.125
271
     0
272
     9
273
     9
298
     0
  0
MLINESTYLE
  5
2C57
102
{ACAD_REACTORS
330
2C56
102
}
330
2C56
100
AcDbMlineStyle
  2
Standard
 70
     0
  3

 62
   256
 51
90.0
 52
90.0
 71
     2
 49
0.5
 62
   256
  6
BYLAYER
 49
-0.5
 62
   256
  6
BYLAYER
  0
ACDBPLACEHOLDER
  5
2C4F
102
{ACAD_REACTORS
330
2C4E
102
}
330
2C4E
  0
SCALE
  5
2C87
102
{ACAD_REACTORS
330
2C86
102
}
330
2C86
100
AcDbScale
 70
     0
300
1:1
140
1.0
141
1.0
290
     1
  0
SCALE
  5
2C88
102
{ACAD_REACTORS
330
2C86
102
}
330
2C86
100
AcDbScale
 70
     0
300
1:2
140
1.0
141
2.0
290
     0
  0
SCALE
  5
2C89
102
{ACAD_REACTORS
330
2C86
102
}
330
2C86
100
AcDbScale
 70
     0
300
1:4
140
1.0
141
4.0
290
     0
  0
SCALE
  5
2C8A
102
{ACAD_REACTORS
330
2C86
102
}
330
2C86
100
AcDbScale
 70
     0
300
1:5
140
1.0
141
5.0
290
     0
  0
SCALE
  5
2C8B
102
{ACAD_REACTORS
330
2C86
102
}
330
2C86
100
AcDbScale
 70
     0
300
1:8
140
1.0
141
8.0
290
     0
  0
SCALE
  5
2C8C
102
{ACAD_REACTORS
330
2C86
102
}
330
2C86
100
AcDbScale
 70
     0
300
1:10
140
1.0
141
10.0
290
     0
  0
SCALE
  5
2C8D
102
{ACAD_REACTORS
330
2C86
102
}
330
2C86
100
AcDbScale
 70
     0
300
1:16
140
1.0
141
16.0
290
     0
  0
SCALE
  5
2C8E
102
{ACAD_REACTORS
330
2C86
102
}
330
2C86
100
AcDbScale
 70
     0
300
1:20
140
1.0
141
20.0
290
     0
  0
SCALE
  5
2C8F
102
{ACAD_REACTORS
330
2C86
102
}
330
2C86
100
AcDbScale
 70
     0
300
1:30
140
1.0
141
30.0
290
     0
  0
SCALE
  5
2C90
102
{ACAD_REACTORS
330
2C86
102
}
330
2C86
100
AcDbScale
 70
     0
300
1:40
140
1.0
141
40.0
290
     0
  0
SCALE
  5
2C91
102
{ACAD_REACTORS
330
2C86
102
}
330
2C86
100
AcDbScale
 70
     0
300
1:50
140
1.0
141
50.0
290
     0
  0
SCALE
  5
2C92
102
{ACAD_REACTORS
330
2C86
102
}
330
2C86
100
AcDbScale
 70
     0
300
1:100
140
1.0
141
100.0
290
     0
  0
SCALE
  5
2C93
102
{ACAD_REACTORS
330
2C86
102
}
330
2C86
100
AcDbScale
 70
     0
300
2:1
140
2.0
141
1.0
290
     0
  0
SCALE
  5
2C94
102
{ACAD_REACTORS
330
2C86
102
}
330
2C86
100
AcDbScale
 70
     0
300
4:1
140
4.0
141
1.0
290
     0
  0
SCALE
  5
2C95
102
{ACAD_REACTORS
330
2C86
102
}
330
2C86
100
AcDbScale
 70
     0
300
8:1
140
8.0
141
1.0
290
     0
  0
SCALE
  5
2C96
102
{ACAD_REACTORS
330
2C86
102
}
330
2C86
100
AcDbScale
 70
     0
300
10:1
140
10.0
141
1.0
290
     0
  0
SCALE
  5
2C97
102
{ACAD_REACTORS
330
2C86
102
}
330
2C86
100
AcDbScale
 70
     0
300
100:1
140
100.0
141
1.0
290
     0
  0
SCALE
  5
2C98
102
{ACAD_REACTORS
330
2C86
102
}
330
2C86
100
AcDbScale
 70
     0
300
1/128" = 1'-0"
140
0.0078125
141
12.0
290
     0
  0
SCALE
  5
2C99
102
{ACAD_REACTORS
330
2C86
102
}
330
2C86
100
AcDbScale
 70
     0
300
1/64" = 1'-0"
140
0.015625
141
12.0
290
     0
  0
SCALE
  5
2C9A
102
{ACAD_REACTORS
330
2C86
102
}
330
2C86
100
AcDbScale
 70
     0
300
1/32" = 1'-0"
140
0.03125
141
12.0
290
     0
  0
SCALE
  5
2C9B
102
{ACAD_REACTORS
330
2C86
102
}
330
2C86
100
AcDbScale
 70
     0
300
1/16" = 1'-0"
140
0.0625
141
12.0
290
     0
  0
SCALE
  5
2C9C
102
{ACAD_REACTORS
330
2C86
102
}
330
2C86
100
AcDbScale
 70
     0
300
3/32" = 1'-0"
140
0.09375
141
12.0
290
     0
  0
SCALE
  5
2C9D
102
{ACAD_REACTORS
330
2C86
102
}
330
2C86
100
AcDbScale
 70
     0
300
1/8" = 1'-0"
140
0.125
141
12.0
290
     0
  0
SCALE
  5
2C9E
102
{ACAD_REACTORS
330
2C86
102
}
330
2C86
100
AcDbScale
 70
     0
300
3/16" = 1'-0"
140
0.1875
141
12.0
290
     0
  0
SCALE
  5
2C9F
102
{ACAD_REACTORS
330
2C86
102
}
330
2C86
100
AcDbScale
 70
     0
300
1/4" = 1'-0"
140
0.25
141
12.0
290
     0
  0
SCALE
  5
2CA0
102
{ACAD_REACTORS
330
2C86
102
}
330
2C86
100
AcDbScale
 70
     0
300
3/8" = 1'-0"
140
0.375
141
12.0
290
     0
  0
SCALE
  5
2CA1
102
{ACAD_REACTORS
330
2C86
102
}
330
2C86
100
AcDbScale
 70
     0
300
1/2" = 1'-0"
140
0.5
141
12.0
290
     0
  0
SCALE
  5
2CA2
102
{ACAD_REACTORS
330
2C86
102
}
330
2C86
100
AcDbScale
 70
     0
300
3/4" = 1'-0"
140
0.75
141
12.0
290
     0
  0
SCALE
  5
2CA3
102
{ACAD_REACTORS
330
2C86
102
}
330
2C86
100
AcDbScale
 70
     0
300
1" = 1'-0"
140
1.0
141
12.0
290
     0
  0
SCALE
  5
2CA4
102
{ACAD_REACTORS
330
2C86
102
}
330
2C86
100
AcDbScale
 70
     0
300
1-1/2" = 1'-0"
140
1.5
141
12.0
290
     0
  0
SCALE
  5
2CA5
102
{ACAD_REACTORS
330
2C86
102
}
330
2C86
100
AcDbScale
 70
     0
300
3" = 1'-0"
140
3.0
141
12.0
290
     0
  0
SCALE
  5
2CA6
102
{ACAD_REACTORS
330
2C86
102
}
330
2C86
100
AcDbScale
 70
     0
300
6" = 1'-0"
140
6.0
141
12.0
290
     0
  0
SCALE
  5
2CA7
102
{ACAD_REACTORS
330
2C86
102
}
330
2C86
100
AcDbScale
 70
     0
300
1'-0" = 1'-0"
140
12.0
141
12.0
290
     0
  0
TABLESTYLE
  5
2CA9
102
{ACAD_REACTORS
330
2CA8
102
}
102
{ACAD_XDICTIONARY
360
2D22
102
}
330
2CA8
100
AcDbTableStyle
  3
Standard
 70
     0
 71
     0
 40
0.06
 41
0.06
280
     0
281
     0
  7
Standard
140
0.18
170
     2
 62
     0
 63
   257
283
     0
 90
        4
 91
        0
  1

274
    -2
284
     1
 64
     0
275
    -2
285
     1
 65
     0
276
    -2
286
     1
 66
     0
277
    -2
287
     1
 67
     0
278
    -2
288
     1
 68
     0
279
    -2
289
     1
 69
     0
  7
Standard
140
0.25
170
     5
 62
     0
 63
   257
283
     0
 90
        4
 91
        0
  1

274
    -2
284
     1
 64
     0
275
    -2
285
     1
 65
     0
276
    -2
286
     1
 66
     0
277
    -2
287
     1
 67
     0
278
    -2
288
     1
 68
     0
279
    -2
289
     1
 69
     0
  7
Standard
140
0.18
170
     5
 62
     0
 63
   257
283
     0
 90
        4
 91
        0
  1

274
    -2
284
     1
 64
     0
275
    -2
285
     1
 65
     0
276
    -2
286
     1
 66
     0
277
    -2
287
     1
 67
     0
278
    -2
288
     1
 68
     0
279
    -2
289
     1
 69
     0
  0
VISUALSTYLE
  5
2C6E
102
{ACAD_REACTORS
330
2C69
102
}
330
2C69
100
AcDbVisualStyle
  2
2dWireframe
 70
     4
177
     3
291
     0
 70
    58
 90
        0
176
     1
 90
        2
176
     1
 90
        0
176
     1
 90
        0
176
     1
 40
0.6
176
     1
 40
30.0
176
     1
 62
     7
420
 16777215
176
     1
 90
        1
176
     1
 90
        4
176
     1
 62
     7
176
     1
 62
   257
176
     1
 90
        1
176
     1
 90
        1
176
     1
 40
1.0
176
     1
 90
        0
176
     1
 62
   257
176
     1
 40
1.0
176
     1
 90
        1
176
     1
 90
        6
176
     1
 90
        2
176
     1
 62
     7
176
     1
 90
        5
176
     1
 90
        0
176
     1
 90
        0
176
     1
290
     0
176
     1
 90
        1
176
     1
 40
0.0
176
     1
 90
        0
176
     1
290
     1
176
     1
290
     1
176
     1
290
     0
176
     1
290
     0
176
     1
290
     0
176
     1
290
     0
176
     1
290
     0
176
     1
290
     0
176
     1
290
     0
176
     1
 90
       50
176
     1
 40
0.0
176
     1
 40
1.0
176
     1
 90
        0
176
     1
 62
   178
420
        0
176
     1
 90
       50
176
     1
 90
        3
176
     1
 62
     5
420
      255
176
     1
290
     0
176
     1
 90
       50
176
     1
 90
       50
176
     1
 90
       50
176
     1
290
     0
176
     1
 90
       50
176
     1
 62
   256
176
     0
 40
1.0
176
     0
 90
        2
176
     1
  1
strokes_ogs.tif
176
     1
290
     0
176
     1
 40
1.0
176
     1
 40
1.0
176
     1
  0
VISUALSTYLE
  5
2C71
102
{ACAD_REACTORS
330
2C69
102
}
330
2C69
100
AcDbVisualStyle
  2
Basic
 70
     7
177
     3
291
     1
 70
    58
 90
        1
176
     1
 90
        0
176
     1
 90
        1
176
     1
 90
        0
176
     1
 40
0.6
176
     1
 40
30.0
176
     1
 62
     7
420
 16777215
176
     1
 90
        0
176
     1
 90
        4
176
     1
 62
     7
176
     1
 62
   257
176
     1
 90
        1
176
     1
 90
        1
176
     1
 40
1.0
176
     1
 90
        8
176
     1
 62
     7
176
     1
 40
1.0
176
     1
 90
        1
176
     1
 90
        6
176
     1
 90
        2
176
     1
 62
     7
176
     1
 90
        5
176
     1
 90
        0
176
     1
 90
        0
176
     1
290
     0
176
     1
 90
        1
176
     1
 40
0.0
176
     1
 90
        0
176
     1
290
     0
176
     1
290
     1
176
     1
290
     1
176
     1
290
     0
176
     1
290
     0
176
     1
290
     0
176
     1
290
     0
176
     1
290
     0
176
     1
290
     0
176
     1
 90
       50
176
     1
 40
0.0
176
     1
 40
1.0
176
     1
 90
        0
176
     1
 62
   178
420
        0
176
     1
 90
       50
176
     1
 90
        3
176
     1
 62
     5
420
      255
176
     1
290
     0
176
     1
 90
       50
176
     1
 90
       50
176
     1
 90
       50
176
     1
290
     0
176
     1
 90
       50
176
     1
 62
   256
176
     0
 40
1.0
176
     0
 90
        2
176
     1
  1
strokes_ogs.tif
176
     1
290
     0
176
     1
 40
1.0
176
     1
 40
1.0
176
     1
  0
VISUALSTYLE
  5
2C75
102
{ACAD_REACTORS
330
2C69
102
}
330
2C69
100
AcDbVisualStyle
  2
Brighten
 70
    12
177
     3
291
     1
 70
    58
 90
        2
176
     1
 90
        2
176
     1
 90
        0
176
     1
 90
        0
176
     1
 40
0.6
176
     1
 40
30.0
176
     1
 62
     7
420
 16777215
176
     1
 90
        1
176
     1
 90
        4
176
     1
 62
     7
176
     1
 62
   257
176
     1
 90
        1
176
     1
 90
        1
176
     1
 40
1.0
176
     1
 90
        8
176
     1
 62
     7
176
     1
 40
1.0
176
     1
 90
        1
176
     1
 90
        6
176
     1
 90
        2
176
     1
 62
     7
176
     1
 90
        5
176
     1
 90
        0
176
     1
 90
        0
176
     1
290
     0
176
     1
 90
        1
176
     1
 40
50.0
176
     1
 90
        0
176
     1
290
     0
176
     1
290
     1
176
     1
290
     1
176
     1
290
     0
176
     1
290
     0
176
     1
290
     0
176
     1
290
     0
176
     1
290
     0
176
     1
290
     0
176
     1
 90
       50
176
     1
 40
0.0
176
     1
 40
1.0
176
     1
 90
        0
176
     1
 62
   178
420
        0
176
     1
 90
       50
176
     1
 90
        3
176
     1
 62
     5
420
      255
176
     1
290
     0
176
     1
 90
       50
176
     1
 90
       50
176
     1
 90
       50
176
     1
290
     0
176
     1
 90
       50
176
     1
 62
   256
176
     0
 40
1.0
176
     0
 90
        2
176
     1
  1
strokes_ogs.tif
176
     1
290
     0
176
     1
 40
1.0
176
     1
 40
1.0
176
     1
  0
VISUALSTYLE
  5
2C79
102
{ACAD_REACTORS
330
2C69
102
}
330
2C69
100
AcDbVisualStyle
  2
ColorChange
 70
    16
177
     3
291
     1
 70
    58
 90
        2
176
     1
 90
        2
176
     1
 90
        3
176
     1
 90
        0
176
     1
 40
0.6
176
     1
 40
30.0
176
     1
 62
     8
420
  8421504
176
     1
 90
        1
176
     1
 90
        4
176
     1
 62
     7
176
     1
 62
   257
176
     1
 90
        1
176
     1
 90
        1
176
     1
 40
1.0
176
     1
 90
        8
176
     1
 62
     8
420
  8421504
176
     1
 40
1.0
176
     1
 90
        1
176
     1
 90
        6
176
     1
 90
        2
176
     1
 62
     7
176
     1
 90
        5
176
     1
 90
        0
176
     1
 90
        0
176
     1
290
     0
176
     1
 90
        1
176
     1
 40
0.0
176
     1
 90
        0
176
     1
290
     0
176
     1
290
     1
176
     1
290
     1
176
     1
290
     0
176
     1
290
     0
176
     1
290
     0
176
     1
290
     0
176
     1
290
     0
176
     1
290
     0
176
     1
 90
       50
176
     1
 40
0.0
176
     1
 40
1.0
176
     1
 90
        0
176
     1
 62
   178
420
        0
176
     1
 90
       50
176
     1
 90
        3
176
     1
 62
     5
420
      255
176
     1
290
     0
176
     1
 90
       50
176
     1
 90
       50
176
     1
 90
       50
176
     1
290
     0
176
     1
 90
       50
176
     1
 62
   256
176
     0
 40
1.0
176
     0
 90
        2
176
     1
  1
strokes_ogs.tif
176
     1
290
     0
176
     1
 40
1.0
176
     1
 40
1.0
176
     1
  0
VISUALSTYLE
  5
2C73
102
{ACAD_REACTORS
330
2C69
102
}
330
2C69
100
AcDbVisualStyle
  2
Conceptual
 70
     9
177
     3
291
     0
 70
    58
 90
        3
176
     1
 90
        2
176
     1
 90
        0
176
     1
 90
        0
176
     1
 40
0.6
176
     1
 40
30.0
176
     1
 62
     7
420
 16777215
176
     1
 90
        2
176
     1
 90
        2
176
     1
 62
     7
176
     1
 62
   257
176
     1
 90
        1
176
     1
 90
        1
176
     1
 40
179.0
176
     1
 90
        8
176
     1
 62
     7
176
     1
 40
1.0
176
     1
 90
        1
176
     1
 90
        6
176
     1
 90
        2
176
     1
 62
     7
176
     1
 90
        3
176
     1
 90
        0
176
     1
 90
        0
176
     1
290
     0
176
     1
 90
        1
176
     1
 40
0.0
176
     1
 90
        0
176
     1
290
     0
176
     1
290
     1
176
     1
290
     1
176
     1
290
     0
176
     1
290
     0
176
     1
290
     0
176
     1
290
     0
176
     1
290
     0
176
     1
290
     0
176
     1
 90
       50
176
     1
 40
0.0
176
     1
 40
1.0
176
     1
 90
        0
176
     1
 62
   178
420
        0
176
     1
 90
       50
176
     1
 90
        3
176
     1
 62
     5
420
      255
176
     1
290
     0
176
     1
 90
       50
176
     1
 90
       50
176
     1
 90
       50
176
     1
290
     0
176
     1
 90
       50
176
     1
 62
   256
176
     0
 40
1.0
176
     0
 90
        2
176
     1
  1
strokes_ogs.tif
176
     1
290
     0
176
     1
 40
1.0
176
     1
 40
1.0
176
     1
  0
VISUALSTYLE
  5
2C74
102
{ACAD_REACTORS
330
2C69
102
}
330
2C69
100
AcDbVisualStyle
  2
Dim
 70
    11
177
     3
291
     1
 70
    58
 90
        2
176
     1
 90
        2
176
     1
 90
        0
176
     1
 90
        0
176
     1
 40
0.6
176
     1
 40
30.0
176
     1
 62
     7
420
 16777215
176
     1
 90
        1
176
     1
 90
        4
176
     1
 62
     7
176
     1
 62
   257
176
     1
 90
        1
176
     1
 90
        1
176
     1
 40
1.0
176
     1
 90
        8
176
     1
 62
     7
176
     1
 40
1.0
176
     1
 90
        1
176
     1
 90
        6
176
     1
 90
        2
176
     1
 62
     7
176
     1
 90
        5
176
     1
 90
        0
176
     1
 90
        0
176
     1
290
     0
176
     1
 90
        1
176
     1
 40
-50.0
176
     1
 90
        0
176
     1
290
     0
176
     1
290
     1
176
     1
290
     1
176
     1
290
     0
176
     1
290
     0
176
     1
290
     0
176
     1
290
     0
176
     1
290
     0
176
     1
290
     0
176
     1
 90
       50
176
     1
 40
0.0
176
     1
 40
1.0
176
     1
 90
        0
176
     1
 62
   178
420
        0
176
     1
 90
       50
176
     1
 90
        3
176
     1
 62
     5
420
      255
176
     1
290
     0
176
     1
 90
       50
176
     1
 90
       50
176
     1
 90
       50
176
     1
290
     0
176
     1
 90
       50
176
     1
 62
   256
176
     0
 40
1.0
176
     0
 90
        2
176
     1
  1
strokes_ogs.tif
176
     1
290
     0
176
     1
 40
1.0
176
     1
 40
1.0
176
     1
  0
VISUALSTYLE
  5
2C7C
102
{ACAD_REACTORS
330
2C69
102
}
330
2C69
100
AcDbVisualStyle
  2
EdgeColorOff
 70
    22
177
     3
291
     1
 70
    58
 90
        2
176
     0
 90
        2
176
     0
 90
        0
176
     0
 90
        0
176
     0
 40
0.6
176
     0
 40
30.0
176
     0
 62
     7
420
 16777215
176
     0
 90
        1
176
     0
 90
        4
176
     0
 62
     7
176
     0
 62
   257
176
     0
 90
        1
176
     0
 90
        1
176
     0
 40
1.0
176
     0
 90
        8
176
     2
 62
     7
176
     0
 40
1.0
176
     0
 90
        1
176
     0
 90
        6
176
     0
 90
        2
176
     0
 62
     7
176
     0
 90
        5
176
     0
 90
        0
176
     0
 90
        0
176
     0
290
     0
176
     0
 90
        1
176
     0
 40
0.0
176
     0
 90
        0
176
     0
290
     0
176
     0
290
     1
176
     0
290
     1
176
     0
290
     0
176
     0
290
     0
176
     0
290
     0
176
     0
290
     0
176
     0
290
     0
176
     0
290
     0
176
     0
 90
       50
176
     0
 40
0.0
176
     0
 40
1.0
176
     0
 90
        0
176
     0
 62
   178
420
        0
176
     0
 90
       50
176
     0
 90
        3
176
     0
 62
     5
420
      255
176
     0
290
     0
176
     0
 90
       50
176
     0
 90
       50
176
     0
 90
       50
176
     0
290
     0
176
     0
 90
       50
176
     0
 62
   256
176
     0
 40
1.0
176
     0
 90
        2
176
     0
  1
strokes_ogs.tif
176
     0
290
     0
176
     0
 40
1.0
176
     0
 40
1.0
176
     0
  0
VISUALSTYLE
  5
2C78
102
{ACAD_REACTORS
330
2C69
102
}
330
2C69
100
AcDbVisualStyle
  2
Facepattern
 70
    15
177
     3
291
     1
 70
    58
 90
        2
176
     1
 90
        2
176
     1
 90
        0
176
     1
 90
        0
176
     1
 40
0.6
176
     1
 40
30.0
176
     1
 62
     7
420
 16777215
176
     1
 90
        1
176
     1
 90
        4
176
     1
 62
     7
176
     1
 62
   257
176
     1
 90
        1
176
     1
 90
        1
176
     1
 40
1.0
176
     1
 90
        8
176
     1
 62
     7
176
     1
 40
1.0
176
     1
 90
        1
176
     1
 90
        6
176
     1
 90
        2
176
     1
 62
     7
176
     1
 90
        5
176
     1
 90
        0
176
     1
 90
        0
176
     1
290
     0
176
     1
 90
        1
176
     1
 40
0.0
176
     1
 90
        0
176
     1
290
     0
176
     1
290
     1
176
     1
290
     1
176
     1
290
     0
176
     1
290
     0
176
     1
290
     0
176
     1
290
     0
176
     1
290
     0
176
     1
290
     0
176
     1
 90
       50
176
     1
 40
0.0
176
     1
 40
1.0
176
     1
 90
        0
176
     1
 62
   178
420
        0
176
     1
 90
       50
176
     1
 90
        3
176
     1
 62
     5
420
      255
176
     1
290
     0
176
     1
 90
       50
176
     1
 90
       50
176
     1
 90
       50
176
     1
290
     0
176
     1
 90
       50
176
     1
 62
   256
176
     0
 40
1.0
176
     0
 90
        2
176
     1
  1
strokes_ogs.tif
176
     1
290
     0
176
     1
 40
1.0
176
     1
 40
1.0
176
     1
  0
VISUALSTYLE
  5
2C6A
102
{ACAD_REACTORS
330
2C69
102
}
330
2C69
100
AcDbVisualStyle
  2
Flat
 70
     0
177
     3
291
     1
 70
    58
 90
        2
176
     1
 90
        1
176
     1
 90
        1
176
     1
 90
        2
176
     1
 40
0.6
176
     1
 40
30.0
176
     1
 62
     7
420
 16777215
176
     1
 90
        0
176
     1
 90
        0
176
     1
 62
     7
176
     1
 62
   257
176
     1
 90
        1
176
     1
 90
        1
176
     1
 40
1.0
176
     1
 90
        8
176
     1
 62
     7
176
     1
 40
1.0
176
     1
 90
        1
176
     1
 90
        6
176
     1
 90
        2
176
     1
 62
     7
176
     1
 90
        5
176
     1
 90
        0
176
     1
 90
        0
176
     1
290
     0
176
     1
 90
       13
176
     1
 40
0.0
176
     1
 90
        0
176
     1
290
     0
176
     1
290
     1
176
     1
290
     1
176
     1
290
     0
176
     1
290
     0
176
     1
290
     0
176
     1
290
     0
176
     1
290
     0
176
     1
290
     0
176
     1
 90
       50
176
     1
 40
0.0
176
     1
 40
1.0
176
     1
 90
        0
176
     1
 62
   178
420
        0
176
     1
 90
       50
176
     1
 90
        3
176
     1
 62
     5
420
      255
176
     1
290
     0
176
     1
 90
       50
176
     1
 90
       50
176
     1
 90
       50
176
     1
290
     0
176
     1
 90
       50
176
     1
 62
   256
176
     0
 40
1.0
176
     0
 90
        2
176
     1
  1
strokes_ogs.tif
176
     1
290
     0
176
     1
 40
1.0
176
     1
 40
1.0
176
     1
  0
VISUALSTYLE
  5
2C6B
102
{ACAD_REACTORS
330
2C69
102
}
330
2C69
100
AcDbVisualStyle
  2
FlatWithEdges
 70
     1
177
     3
291
     1
 70
    58
 90
        2
176
     1
 90
        1
176
     1
 90
        1
176
     1
 90
        2
176
     1
 40
0.6
176
     1
 40
30.0
176
     1
 62
     7
420
 16777215
176
     1
 90
        1
176
     1
 90
        0
176
     1
 62
     7
176
     1
 62
   257
176
     1
 90
        1
176
     1
 90
        1
176
     1
 40
1.0
176
     1
 90
        0
176
     1
 62
   257
176
     1
 40
1.0
176
     1
 90
        1
176
     1
 90
        6
176
     1
 90
        2
176
     1
 62
     7
176
     1
 90
        5
176
     1
 90
        0
176
     1
 90
        0
176
     1
290
     0
176
     1
 90
       13
176
     1
 40
0.0
176
     1
 90
        0
176
     1
290
     0
176
     1
290
     1
176
     1
290
     1
176
     1
290
     0
176
     1
290
     0
176
     1
290
     0
176
     1
290
     0
176
     1
290
     0
176
     1
290
     0
176
     1
 90
       50
176
     1
 40
0.0
176
     1
 40
1.0
176
     1
 90
        0
176
     1
 62
   178
420
        0
176
     1
 90
       50
176
     1
 90
        3
176
     1
 62
     5
420
      255
176
     1
290
     0
176
     1
 90
       50
176
     1
 90
       50
176
     1
 90
       50
176
     1
290
     0
176
     1
 90
       50
176
     1
 62
   256
176
     0
 40
1.0
176
     0
 90
        2
176
     1
  1
strokes_ogs.tif
176
     1
290
     0
176
     1
 40
1.0
176
     1
 40
1.0
176
     1
  0
VISUALSTYLE
  5
2C6C
102
{ACAD_REACTORS
330
2C69
102
}
330
2C69
100
AcDbVisualStyle
  2
Gouraud
 70
     2
177
     3
291
     1
 70
    58
 90
        2
176
     1
 90
        2
176
     1
 90
        1
176
     1
 90
        2
176
     1
 40
0.6
176
     1
 40
30.0
176
     1
 62
     7
420
 16777215
176
     1
 90
        0
176
     1
 90
        0
176
     1
 62
     7
176
     1
 62
   257
176
     1
 90
        1
176
     1
 90
        1
176
     1
 40
1.0
176
     1
 90
        0
176
     1
 62
     7
176
     1
 40
1.0
176
     1
 90
        1
176
     1
 90
        6
176
     1
 90
        2
176
     1
 62
     7
176
     1
 90
        5
176
     1
 90
        0
176
     1
 90
        0
176
     1
290
     0
176
     1
 90
       13
176
     1
 40
0.0
176
     1
 90
        0
176
     1
290
     0
176
     1
290
     1
176
     1
290
     1
176
     1
290
     0
176
     1
290
     0
176
     1
290
     0
176
     1
290
     0
176
     1
290
     0
176
     1
290
     0
176
     1
 90
       50
176
     1
 40
0.0
176
     1
 40
1.0
176
     1
 90
        0
176
     1
 62
   178
420
        0
176
     1
 90
       50
176
     1
 90
        3
176
     1
 62
     5
420
      255
176
     1
290
     0
176
     1
 90
       50
176
     1
 90
       50
176
     1
 90
       50
176
     1
290
     0
176
     1
 90
       50
176
     1
 62
   256
176
     0
 40
1.0
176
     0
 90
        2
176
     1
  1
strokes_ogs.tif
176
     1
290
     0
176
     1
 40
1.0
176
     1
 40
1.0
176
     1
  0
VISUALSTYLE
  5
2C6D
102
{ACAD_REACTORS
330
2C69
102
}
330
2C69
100
AcDbVisualStyle
  2
GouraudWithEdges
 70
     3
177
     3
291
     1
 70
    58
 90
        2
176
     1
 90
        2
176
     1
 90
        1
176
     1
 90
        2
176
     1
 40
0.6
176
     1
 40
30.0
176
     1
 62
     7
420
 16777215
176
     1
 90
        1
176
     1
 90
        0
176
     1
 62
     7
176
     1
 62
   257
176
     1
 90
        1
176
     1
 90
        1
176
     1
 40
1.0
176
     1
 90
        0
176
     1
 62
   257
176
     1
 40
1.0
176
     1
 90
        1
176
     1
 90
        6
176
     1
 90
        2
176
     1
 62
     7
176
     1
 90
        5
176
     1
 90
        0
176
     1
 90
        0
176
     1
290
     0
176
     1
 90
       13
176
     1
 40
0.0
176
     1
 90
        0
176
     1
290
     0
176
     1
290
     1
176
     1
290
     1
176
     1
290
     0
176
     1
290
     0
176
     1
290
     0
176
     1
290
     0
176
     1
290
     0
176
     1
290
     0
176
     1
 90
       50
176
     1
 40
0.0
176
     1
 40
1.0
176
     1
 90
        0
176
     1
 62
   178
420
        0
176
     1
 90
       50
176
     1
 90
        3
176
     1
 62
     5
420
      255
176
     1
290
     0
176
     1
 90
       50
176
     1
 90
       50
176
     1
 90
       50
176
     1
290
     0
176
     1
 90
       50
176
     1
 62
   256
176
     0
 40
1.0
176
     0
 90
        2
176
     1
  1
strokes_ogs.tif
176
     1
290
     0
176
     1
 40
1.0
176
     1
 40
1.0
176
     1
  0
VISUALSTYLE
  5
2C70
102
{ACAD_REACTORS
330
2C69
102
}
330
2C69
100
AcDbVisualStyle
  2
Hidden
 70
     6
177
     3
291
     0
 70
    58
 90
        1
176
     1
 90
        2
176
     1
 90
        2
176
     1
 90
        0
176
     1
 40
0.6
176
     1
 40
30.0
176
     1
 62
     7
420
 16777215
176
     1
 90
        2
176
     1
 90
        2
176
     1
 62
     7
176
     1
 62
   257
176
     1
 90
        2
176
     1
 90
        1
176
     1
 40
40.0
176
     1
 90
        0
176
     1
 62
   257
176
     1
 40
1.0
176
     1
 90
        1
176
     1
 90
        6
176
     1
 90
        2
176
     1
 62
     7
176
     1
 90
        3
176
     1
 90
        0
176
     1
 90
        0
176
     1
290
     0
176
     1
 90
        1
176
     1
 40
0.0
176
     1
 90
        0
176
     1
290
     0
176
     1
290
     1
176
     1
290
     1
176
     1
290
     0
176
     1
290
     0
176
     1
290
     0
176
     1
290
     0
176
     1
290
     0
176
     1
290
     0
176
     1
 90
       50
176
     1
 40
0.0
176
     1
 40
1.0
176
     1
 90
        0
176
     1
 62
   178
420
        0
176
     1
 90
       50
176
     1
 90
        3
176
     1
 62
     5
420
      255
176
     1
290
     0
176
     1
 90
       50
176
     1
 90
       50
176
     1
 90
       50
176
     1
290
     0
176
     1
 90
       50
176
     1
 62
   256
176
     0
 40
1.0
176
     0
 90
        2
176
     1
  1
strokes_ogs.tif
176
     1
290
     0
176
     1
 40
1.0
176
     1
 40
1.0
176
     1
  0
VISUALSTYLE
  5
2C7A
102
{ACAD_REACTORS
330
2C69
102
}
330
2C69
100
AcDbVisualStyle
  2
JitterOff
 70
    20
177
     3
291
     1
 70
    58
 90
        2
176
     0
 90
        2
176
     0
 90
        0
176
     0
 90
        0
176
     0
 40
0.6
176
     0
 40
30.0
176
     0
 62
     7
420
 16777215
176
     0
 90
        1
176
     0
 90
        4
176
     0
 62
     7
176
     0
 62
   257
176
     0
 90
        1
176
     0
 90
        1
176
     0
 40
1.0
176
     0
 90
       10
176
     2
 62
     7
176
     0
 40
1.0
176
     0
 90
        1
176
     0
 90
        6
176
     0
 90
        2
176
     0
 62
     7
176
     0
 90
        5
176
     0
 90
        0
176
     0
 90
        0
176
     0
290
     0
176
     0
 90
        1
176
     0
 40
0.0
176
     0
 90
        0
176
     0
290
     0
176
     0
290
     1
176
     0
290
     1
176
     0
290
     0
176
     0
290
     0
176
     0
290
     0
176
     0
290
     0
176
     0
290
     0
176
     0
290
     0
176
     0
 90
       50
176
     0
 40
0.0
176
     0
 40
1.0
176
     0
 90
        0
176
     0
 62
   178
420
        0
176
     0
 90
       50
176
     0
 90
        3
176
     0
 62
     5
420
      255
176
     0
290
     0
176
     0
 90
       50
176
     0
 90
       50
176
     0
 90
       50
176
     0
290
     0
176
     0
 90
       50
176
     0
 62
   256
176
     0
 40
1.0
176
     0
 90
        2
176
     0
  1
strokes_ogs.tif
176
     0
290
     0
176
     0
 40
1.0
176
     0
 40
1.0
176
     0
  0
VISUALSTYLE
  5
2C77
102
{ACAD_REACTORS
330
2C69
102
}
330
2C69
100
AcDbVisualStyle
  2
Linepattern
 70
    14
177
     3
291
     1
 70
    58
 90
        2
176
     1
 90
        2
176
     1
 90
        0
176
     1
 90
        0
176
     1
 40
0.6
176
     1
 40
30.0
176
     1
 62
     7
420
 16777215
176
     1
 90
        1
176
     1
 90
        4
176
     1
 62
     7
176
     1
 62
   257
176
     1
 90
        7
176
     1
 90
        7
176
     1
 40
1.0
176
     1
 90
        8
176
     1
 62
     7
176
     1
 40
1.0
176
     1
 90
        1
176
     1
 90
        6
176
     1
 90
        2
176
     1
 62
     7
176
     1
 90
        5
176
     1
 90
        0
176
     1
 90
        0
176
     1
290
     0
176
     1
 90
        1
176
     1
 40
0.0
176
     1
 90
        0
176
     1
290
     0
176
     1
290
     1
176
     1
290
     1
176
     1
290
     0
176
     1
290
     0
176
     1
290
     0
176
     1
290
     0
176
     1
290
     0
176
     1
290
     0
176
     1
 90
       50
176
     1
 40
0.0
176
     1
 40
1.0
176
     1
 90
        0
176
     1
 62
   178
420
        0
176
     1
 90
       50
176
     1
 90
        3
176
     1
 62
     5
420
      255
176
     1
290
     0
176
     1
 90
       50
176
     1
 90
       50
176
     1
 90
       50
176
     1
290
     0
176
     1
 90
       50
176
     1
 62
   256
176
     0
 40
1.0
176
     0
 90
        2
176
     1
  1
strokes_ogs.tif
176
     1
290
     0
176
     1
 40
1.0
176
     1
 40
1.0
176
     1
  0
VISUALSTYLE
  5
2C7B
102
{ACAD_REACTORS
330
2C69
102
}
330
2C69
100
AcDbVisualStyle
  2
OverhangOff
 70
    21
177
     3
291
     1
 70
    58
 90
        2
176
     0
 90
        2
176
     0
 90
        0
176
     0
 90
        0
176
     0
 40
0.6
176
     0
 40
30.0
176
     0
 62
     7
420
 16777215
176
     0
 90
        1
176
     0
 90
        4
176
     0
 62
     7
176
     0
 62
   257
176
     0
 90
        1
176
     0
 90
        1
176
     0
 40
1.0
176
     0
 90
        9
176
     2
 62
     7
176
     0
 40
1.0
176
     0
 90
        1
176
     0
 90
        6
176
     0
 90
        2
176
     0
 62
     7
176
     0
 90
        5
176
     0
 90
        0
176
     0
 90
        0
176
     0
290
     0
176
     0
 90
        1
176
     0
 40
0.0
176
     0
 90
        0
176
     0
290
     0
176
     0
290
     1
176
     0
290
     1
176
     0
290
     0
176
     0
290
     0
176
     0
290
     0
176
     0
290
     0
176
     0
290
     0
176
     0
290
     0
176
     0
 90
       50
176
     0
 40
0.0
176
     0
 40
1.0
176
     0
 90
        0
176
     0
 62
   178
420
        0
176
     0
 90
       50
176
     0
 90
        3
176
     0
 62
     5
420
      255
176
     0
290
     0
176
     0
 90
       50
176
     0
 90
       50
176
     0
 90
       50
176
     0
290
     0
176
     0
 90
       50
176
     0
 62
   256
176
     0
 40
1.0
176
     0
 90
        2
176
     0
  1
strokes_ogs.tif
176
     0
290
     0
176
     0
 40
1.0
176
     0
 40
1.0
176
     0
  0
VISUALSTYLE
  5
2C72
102
{ACAD_REACTORS
330
2C69
102
}
330
2C69
100
AcDbVisualStyle
  2
Realistic
 70
     8
177
     3
291
     0
 70
    58
 90
        2
176
     1
 90
        3
176
     1
 90
        0
176
     1
 90
        2
176
     1
 40
0.6
176
     1
 40
30.0
176
     1
 62
     7
420
 16777215
176
     1
 90
        0
176
     1
 90
        0
176
     1
 62
     7
176
     1
 62
   257
176
     1
 90
        1
176
     1
 90
        1
176
     1
 40
1.0
176
     1
 90
        8
176
     1
 62
   257
176
     1
 40
1.0
176
     1
 90
        1
176
     1
 90
        6
176
     1
 90
        2
176
     1
 62
     7
176
     1
 90
        3
176
     1
 90
        0
176
     1
 90
        0
176
     1
290
     0
176
     1
 90
       13
176
     1
 40
0.0
176
     1
 90
        0
176
     1
290
     0
176
     1
290
     1
176
     1
290
     1
176
     1
290
     0
176
     1
290
     0
176
     1
290
     0
176
     1
290
     0
176
     1
290
     0
176
     1
290
     0
176
     1
 90
       50
176
     1
 40
0.0
176
     1
 40
1.0
176
     1
 90
        0
176
     1
 62
   178
420
        0
176
     1
 90
       50
176
     1
 90
        3
176
     1
 62
     5
420
      255
176
     1
290
     0
176
     1
 90
       50
176
     1
 90
       50
176
     1
 90
       50
176
     1
290
     0
176
     1
 90
       50
176
     1
 62
   256
176
     0
 40
1.0
176
     0
 90
        2
176
     1
  1
strokes_ogs.tif
176
     1
290
     0
176
     1
 40
1.0
176
     1
 40
1.0
176
     1
  0
VISUALSTYLE
  5
2C81
102
{ACAD_REACTORS
330
2C69
102
}
330
2C69
100
AcDbVisualStyle
  2
Shaded
 70
    27
177
     3
291
     0
 70
    58
 90
        2
176
     1
 90
        2
176
     1
 90
        1
176
     1
 90
        2
176
     1
 40
0.6
176
     1
 40
30.0
176
     1
 62
     7
420
 16777215
176
     1
 90
        0
176
     1
 90
        4
176
     1
 62
     7
176
     1
 62
   257
176
     1
 90
        1
176
     1
 90
        1
176
     1
 40
1.0
176
     1
 90
        8
176
     1
 62
   257
176
     1
 40
1.0
176
     1
 90
        1
176
     1
 90
        6
176
     1
 90
        2
176
     1
 62
     8
420
  7895160
176
     1
 90
        3
176
     1
 90
        0
176
     1
 90
        0
176
     1
290
     0
176
     1
 90
        5
176
     1
 40
0.0
176
     1
 90
        0
176
     1
290
     0
176
     1
290
     1
176
     1
290
     1
176
     1
290
     0
176
     1
290
     0
176
     1
290
     0
176
     1
290
     0
176
     1
290
     0
176
     1
290
     0
176
     1
 90
       50
176
     1
 40
0.0
176
     1
 40
1.0
176
     1
 90
        0
176
     1
 62
   178
420
        0
176
     1
 90
       50
176
     1
 90
        3
176
     1
 62
     5
420
      255
176
     1
290
     0
176
     1
 90
       50
176
     1
 90
       50
176
     1
 90
       50
176
     1
290
     0
176
     1
 90
       50
176
     1
 62
   256
176
     0
 40
1.0
176
     0
 90
        2
176
     1
  1
strokes_ogs.tif
176
     1
290
     0
176
     1
 40
1.0
176
     1
 40
1.0
176
     1
  0
VISUALSTYLE
  5
2C80
102
{ACAD_REACTORS
330
2C69
102
}
330
2C69
100
AcDbVisualStyle
  2
Shaded with edges
 70
    26
177
     3
291
     0
 70
    58
 90
        2
176
     1
 90
        2
176
     1
 90
        1
176
     1
 90
        2
176
     1
 40
0.6
176
     1
 40
30.0
176
     1
 62
     7
420
 16777215
176
     1
 90
        1
176
     1
 90
       10
176
     1
 62
     7
176
     1
 62
   257
176
     1
 90
        2
176
     1
 90
        1
176
     1
 40
1.0
176
     1
 90
        8
176
     1
 62
   257
176
     1
 40
1.0
176
     1
 90
        1
176
     1
 90
        6
176
     1
 90
        2
176
     1
 62
     7
176
     1
 90
        3
176
     1
 90
        0
176
     1
 90
        0
176
     1
290
     0
176
     1
 90
        5
176
     1
 40
0.0
176
     1
 90
        0
176
     1
290
     0
176
     1
290
     1
176
     1
290
     1
176
     1
290
     0
176
     1
290
     0
176
     1
290
     0
176
     1
290
     0
176
     1
290
     0
176
     1
290
     0
176
     1
 90
       50
176
     1
 40
0.0
176
     1
 40
1.0
176
     1
 90
        0
176
     1
 62
   178
420
        0
176
     1
 90
       50
176
     1
 90
        3
176
     1
 62
     5
420
      255
176
     1
290
     0
176
     1
 90
       50
176
     1
 90
       50
176
     1
 90
       50
176
     1
290
     0
176
     1
 90
       50
176
     1
 62
   256
176
     0
 40
1.0
176
     0
 90
        2
176
     1
  1
strokes_ogs.tif
176
     1
290
     0
176
     1
 40
1.0
176
     1
 40
1.0
176
     1
  0
VISUALSTYLE
  5
2C7D
102
{ACAD_REACTORS
330
2C69
102
}
330
2C69
100
AcDbVisualStyle
  2
Shades of Gray
 70
    23
177
     3
291
     0
 70
    58
 90
        2
176
     1
 90
        2
176
     1
 90
        3
176
     1
 90
        0
176
     1
 40
0.6
176
     1
 40
30.0
176
     1
 62
     7
420
 16777215
176
     1
 90
        2
176
     1
 90
        2
176
     1
 62
     7
176
     1
 62
     7
176
     1
 90
        1
176
     1
 90
        1
176
     1
 40
40.0
176
     1
 90
        8
176
     1
 62
     7
176
     1
 40
1.0
176
     1
 90
        1
176
     1
 90
        6
176
     1
 90
        2
176
     1
 62
     7
176
     1
 90
        3
176
     1
 90
        0
176
     1
 90
        0
176
     1
290
     0
176
     1
 90
        1
176
     1
 40
0.0
176
     1
 90
        0
176
     1
290
     0
176
     1
290
     1
176
     1
290
     1
176
     1
290
     0
176
     1
290
     0
176
     1
290
     0
176
     1
290
     0
176
     1
290
     0
176
     1
290
     0
176
     1
 90
       50
176
     1
 40
0.0
176
     1
 40
1.0
176
     1
 90
        0
176
     1
 62
   178
420
        0
176
     1
 90
       50
176
     1
 90
        3
176
     1
 62
     5
420
      255
176
     1
290
     0
176
     1
 90
       50
176
     1
 90
       50
176
     1
 90
       50
176
     1
290
     0
176
     1
 90
       50
176
     1
 62
   256
176
     0
 40
1.0
176
     0
 90
        2
176
     1
  1
strokes_ogs.tif
176
     1
290
     0
176
     1
 40
1.0
176
     1
 40
1.0
176
     1
  0
VISUALSTYLE
  5
2C7E
102
{ACAD_REACTORS
330
2C69
102
}
330
2C69
100
AcDbVisualStyle
  2
Sketchy
 70
    24
177
     3
291
     0
 70
    58
 90
        1
176
     1
 90
        2
176
     1
 90
        2
176
     1
 90
        0
176
     1
 40
0.6
176
     1
 40
30.0
176
     1
 62
     7
420
 16777215
176
     1
 90
        2
176
     1
 90
        2
176
     1
 62
     7
176
     1
 62
     7
176
     1
 90
        1
176
     1
 90
        1
176
     1
 40
40.0
176
     1
 90
       11
176
     1
 62
     7
176
     1
 40
1.0
176
     1
 90
        1
176
     1
 90
        6
176
     1
 90
        2
176
     1
 62
     7
176
     1
 90
        6
176
     1
 90
        0
176
     1
 90
        0
176
     1
290
     0
176
     1
 90
        1
176
     1
 40
0.0
176
     1
 90
        0
176
     1
290
     0
176
     1
290
     1
176
     1
290
     1
176
     1
290
     0
176
     1
290
     0
176
     1
290
     0
176
     1
290
     0
176
     1
290
     0
176
     1
290
     0
176
     1
 90
       50
176
     1
 40
0.0
176
     1
 40
1.0
176
     1
 90
        0
176
     1
 62
   178
420
        0
176
     1
 90
       50
176
     1
 90
        3
176
     1
 62
     5
420
      255
176
     1
290
     0
176
     1
 90
       50
176
     1
 90
       50
176
     1
 90
       50
176
     1
290
     0
176
     1
 90
       50
176
     1
 62
   256
176
     0
 40
1.0
176
     0
 90
        2
176
     1
  1
strokes_ogs.tif
176
     1
290
     0
176
     1
 40
1.0
176
     1
 40
1.0
176
     1
  0
VISUALSTYLE
  5
2C76
102
{ACAD_REACTORS
330
2C69
102
}
330
2C69
100
AcDbVisualStyle
  2
Thicken
 70
    13
177
     3
291
     1
 70
    58
 90
        2
176
     1
 90
        2
176
     1
 90
        0
176
     1
 90
        0
176
     1
 40
0.6
176
     1
 40
30.0
176
     1
 62
     7
420
 16777215
176
     1
 90
        1
176
     1
 90
        4
176
     1
 62
     7
176
     1
 62
   257
176
     1
 90
        1
176
     1
 90
        1
176
     1
 40
1.0
176
     1
 90
       12
176
     1
 62
     7
176
     1
 40
1.0
176
     1
 90
        1
176
     1
 90
        6
176
     1
 90
        2
176
     1
 62
     7
176
     1
 90
        5
176
     1
 90
        0
176
     1
 90
        0
176
     1
290
     0
176
     1
 90
        1
176
     1
 40
0.0
176
     1
 90
        0
176
     1
290
     0
176
     1
290
     1
176
     1
290
     1
176
     1
290
     0
176
     1
290
     0
176
     1
290
     0
176
     1
290
     0
176
     1
290
     0
176
     1
290
     0
176
     1
 90
       50
176
     1
 40
0.0
176
     1
 40
1.0
176
     1
 90
        0
176
     1
 62
   178
420
        0
176
     1
 90
       50
176
     1
 90
        3
176
     1
 62
     5
420
      255
176
     1
290
     0
176
     1
 90
       50
176
     1
 90
       50
176
     1
 90
       50
176
     1
290
     0
176
     1
 90
       50
176
     1
 62
   256
176
     0
 40
1.0
176
     0
 90
        2
176
     1
  1
strokes_ogs.tif
176
     1
290
     0
176
     1
 40
1.0
176
     1
 40
1.0
176
     1
  0
VISUALSTYLE
  5
2C6F
102
{ACAD_REACTORS
330
2C69
102
}
330
2C69
100
AcDbVisualStyle
  2
Wireframe
 70
     5
177
     3
291
     0
 70
    58
 90
        0
176
     1
 90
        2
176
     1
 90
        0
176
     1
 90
        0
176
     1
 40
0.6
176
     1
 40
30.0
176
     1
 62
     7
420
 16777215
176
     1
 90
        1
176
     1
 90
        4
176
     1
 62
     7
176
     1
 62
   257
176
     1
 90
        1
176
     1
 90
        1
176
     1
 40
1.0
176
     1
 90
        0
176
     1
 62
   257
176
     1
 40
1.0
176
     1
 90
        1
176
     1
 90
        6
176
     1
 90
        2
176
     1
 62
     7
176
     1
 90
        3
176
     1
 90
        0
176
     1
 90
        0
176
     1
290
     0
176
     1
 90
        1
176
     1
 40
0.0
176
     1
 90
        0
176
     1
290
     0
176
     1
290
     1
176
     1
290
     1
176
     1
290
     0
176
     1
290
     0
176
     1
290
     0
176
     1
290
     0
176
     1
290
     0
176
     1
290
     0
176
     1
 90
       50
176
     1
 40
0.0
176
     1
 40
1.0
176
     1
 90
        0
176
     1
 62
   178
420
        0
176
     1
 90
       50
176
     1
 90
        3
176
     1
 62
     5
420
      255
176
     1
290
     0
176
     1
 90
       50
176
     1
 90
       50
176
     1
 90
       50
176
     1
290
     0
176
     1
 90
       50
176
     1
 62
   256
176
     0
 40
1.0
176
     0
 90
        2
176
     1
  1
strokes_ogs.tif
176
     1
290
     0
176
     1
 40
1.0
176
     1
 40
1.0
176
     1
  0
VISUALSTYLE
  5
2C7F
102
{ACAD_REACTORS
330
2C69
102
}
330
2C69
100
AcDbVisualStyle
  2
X-Ray
 70
    25
177
     3
291
     0
 70
    58
 90
        2
176
     1
 90
        2
176
     1
 90
        1
176
     1
 90
        1
176
     1
 40
0.5
176
     1
 40
30.0
176
     1
 62
     7
420
 16777215
176
     1
 90
        1
176
     1
 90
        0
176
     1
 62
     7
176
     1
 62
   257
176
     1
 90
        1
176
     1
 90
        1
176
     1
 40
1.0
176
     1
 90
        8
176
     1
 62
     7
176
     1
 40
1.0
176
     1
 90
        1
176
     1
 90
        6
176
     1
 90
        2
176
     1
 62
     7
176
     1
 90
        3
176
     1
 90
        0
176
     1
 90
        0
176
     1
290
     0
176
     1
 90
       13
176
     1
 40
0.0
176
     1
 90
        0
176
     1
290
     0
176
     1
290
     1
176
     1
290
     1
176
     1
290
     0
176
     1
290
     0
176
     1
290
     0
176
     1
290
     0
176
     1
290
     0
176
     1
290
     0
176
     1
 90
       50
176
     1
 40
0.0
176
     1
 40
1.0
176
     1
 90
        0
176
     1
 62
   178
420
        0
176
     1
 90
       50
176
     1
 90
        3
176
     1
 62
     5
420
      255
176
     1
290
     0
176
     1
 90
       50
176
     1
 90
       50
176
     1
 90
       50
176
     1
290
     0
176
     1
 90
       50
176
     1
 62
   256
176
     0
 40
1.0
176
     0
 90
        2
176
     1
  1
strokes_ogs.tif
176
     1
290
     0
176
     1
 40
1.0
176
     1
 40
1.0
176
     1
  0
DICTIONARYVAR
  5
2D21
102
{ACAD_REACTORS
330
2D20
102
}
330
2D20
100
DictionaryVariables
280
     0
  1
1:1
  0
DICTIONARYVAR
  5
2D26
102
{ACAD_REACTORS
330
2D20
102
}
330
2D20
100
DictionaryVariables
280
     0
  1
Standard
  0
DICTIONARYVAR
  5
2D25
102
{ACAD_REACTORS
330
2D20
102
}
330
2D20
100
DictionaryVariables
280
     0
  1
Standard
  0
XRECORD
  5
2CB0
102
{ACAD_REACTORS
330
2CAE
102
}
330
2CAE
100
AcDbXrecord
280
     1
1000
#ffffff
  0
XRECORD
  5
2CB1
102
{ACAD_REACTORS
330
2CAE
102
}
330
2CAE
100
AcDbXrecord
280
     1
1000
FullColor
  0
XRECORD
  5
2CB2
102
{ACAD_REACTORS
330
2CAE
102
}
330
2CAE
100
AcDbXrecord
280
     1
290
     1
  0
XRECORD
  5
2CB3
102
{ACAD_REACTORS
330
2CAE
102
}
330
2CAE
100
AcDbXrecord
280
     1
290
     1
  0
XRECORD
  5
2CB4
102
{ACAD_REACTORS
330
2CAE
102
}
330
2CAE
100
AcDbXrecord
280
     1
290
     1
  0
XRECORD
  5
2CB5
102
{ACAD_REACTORS
330
2CAE
102
}
330
2CAE
100
AcDbXrecord
280
     1
290
     1
  0
XRECORD
  5
2CB6
102
{ACAD_REACTORS
330
2CAE
102
}
330
2CAE
100
AcDbXrecord
280
     1
1000
auto
  0
XRECORD
  5
2CB7
102
{ACAD_REACTORS
330
2CAE
102
}
330
2CAE
100
AcDbXrecord
280
     1
1000
auto
  0
XRECORD
  5
2CB8
102
{ACAD_REACTORS
330
2CAE
102
}
330
2CAE
100
AcDbXrecord
280
     1
1000
auto
  0
XRECORD
  5
2CB9
102
{ACAD_REACTORS
330
2CAE
102
}
330
2CAE
100
AcDbXrecord
280
     1
1000
auto
  0
XRECORD
  5
2CBA
102
{ACAD_REACTORS
330
2CAE
102
}
330
2CAE
100
AcDbXrecord
280
     1
1000
auto
  0
XRECORD
  5
2CBB
102
{ACAD_REACTORS
330
2CAE
102
}
330
2CAE
100
AcDbXrecord
280
     1
1000
auto
  0
XRECORD
  5
2CBC
102
{ACAD_REACTORS
330
2CAE
102
}
330
2CAE
100
AcDbXrecord
280
     1
1000
auto
  0
XRECORD
  5
2CBD
102
{ACAD_REACTORS
330
2CAE
102
}
330
2CAE
100
AcDbXrecord
280
     1
1000
auto
  0
XRECORD
  5
2CBE
102
{ACAD_REACTORS
330
2CAE
102
}
330
2CAE
100
AcDbXrecord
280
     1
290
     0
  0
XRECORD
  5
2CBF
102
{ACAD_REACTORS
330
2CAE
102
}
330
2CAE
100
AcDbXrecord
280
     1
290
     0
  0
XRECORD
  5
2CC0
102
{ACAD_REACTORS
330
2CAE
102
}
330
2CAE
100
AcDbXrecord
280
     1
290
     0
  0
XRECORD
  5
2CC1
102
{ACAD_REACTORS
330
2CAE
102
}
330
2CAE
100
AcDbXrecord
280
     1
290
     0
  0
XRECORD
  5
2CC2
102
{ACAD_REACTORS
330
2CAE
102
}
330
2CAE
100
AcDbXrecord
280
     1
 90
    65537
  0
XRECORD
  5
2CC3
102
{ACAD_REACTORS
330
2CAE
102
}
330
2CAE
100
AcDbXrecord
280
     1
 90
    65537
  0
XRECORD
  5
2CC4
102
{ACAD_REACTORS
330
2CAE
102
}
330
2CAE
100
AcDbXrecord
280
     1
 90
    65537
  0
XRECORD
  5
2CC5
102
{ACAD_REACTORS
330
2CAE
102
}
330
2CAE
100
AcDbXrecord
280
     1
 90
    65537
  0
XRECORD
  5
2CC6
102
{ACAD_REACTORS
330
2CAE
102
}
330
2CAE
100
AcDbXrecord
280
     1
1000
auto
  0
XRECORD
  5
2CC7
102
{ACAD_REACTORS
330
2CAE
102
}
330
2CAE
100
AcDbXrecord
280
     1
1000
auto
  0
XRECORD
  5
2CC8
102
{ACAD_REACTORS
330
2CAE
102
}
330
2CAE
100
AcDbXrecord
280
     1
1000
auto
  0
XRECORD
  5
2CC9
102
{ACAD_REACTORS
330
2CAE
102
}
330
2CAE
100
AcDbXrecord
280
     1
1000
auto
  0
XRECORD
  5
2CCA
102
{ACAD_REACTORS
330
2CAE
102
}
330
2CAE
100
AcDbXrecord
280
     1
1000
auto
  0
XRECORD
  5
2CCB
102
{ACAD_REACTORS
330
2CAE
102
}
330
2CAE
100
AcDbXrecord
280
     1
1000
auto
  0
XRECORD
  5
2CCC
102
{ACAD_REACTORS
330
2CAE
102
}
330
2CAE
100
AcDbXrecord
280
     1
1000
auto
  0
XRECORD
  5
2CCD
102
{ACAD_REACTORS
330
2CAE
102
}
330
2CAE
100
AcDbXrecord
280
     1
1000
auto
  0
XRECORD
  5
2CCE
102
{ACAD_REACTORS
330
2CAE
102
}
330
2CAE
100
AcDbXrecord
280
     1
 90
        1
  0
XRECORD
  5
2CCF
102
{ACAD_REACTORS
330
2CAE
102
}
330
2CAE
100
AcDbXrecord
280
     1
 40
10.0
  0
XRECORD
  5
2CD0
102
{ACAD_REACTORS
330
2CAE
102
}
330
2CAE
100
AcDbXrecord
280
     1
 40
10.0
  0
XRECORD
  5
2CD1
102
{ACAD_REACTORS
330
2CAE
102
}
330
2CAE
100
AcDbXrecord
280
     1
 40
10.0
  0
XRECORD
  5
2CD2
102
{ACAD_REACTORS
330
2CAE
102
}
330
2CAE
100
AcDbXrecord
280
     1
 40
10.0
  0
XRECORD
  5
2CD3
102
{ACAD_REACTORS
330
2CAE
102
}
330
2CAE
100
AcDbXrecord
280
     1
290
     0
  0
XRECORD
  5
2CD4
102
{ACAD_REACTORS
330
2CAE
102
}
330
2CAE
100
AcDbXrecord
280
     1
 90
        1
  0
XRECORD
  5
2CD5
102
{ACAD_REACTORS
330
2CAE
102
}
330
2CAE
100
AcDbXrecord
280
     1
 40
0.0
  0
XRECORD
  5
2CD6
102
{ACAD_REACTORS
330
2CAE
102
}
330
2CAE
100
AcDbXrecord
280
     1
 40
0.0
  0
XRECORD
  5
2CD7
102
{ACAD_REACTORS
330
2CAE
102
}
330
2CAE
100
AcDbXrecord
280
     1
1000
Portrait
  0
XRECORD
  5
2CD8
102
{ACAD_REACTORS
330
2CAE
102
}
330
2CAE
100
AcDbXrecord
280
     1
 40
297.0
  0
XRECORD
  5
2CD9
102
{ACAD_REACTORS
330
2CAE
102
}
330
2CAE
100
AcDbXrecord
280
     1
 40
210.0
  0
XRECORD
  5
2CDA
102
{ACAD_REACTORS
330
2CAE
102
}
330
2CAE
100
AcDbXrecord
280
     1
1000
1:1
  0
XRECORD
  5
2CDB
102
{ACAD_REACTORS
330
2CAE
102
}
330
2CAE
100
AcDbXrecord
280
     1
290
     1
  0
XRECORD
  5
2CDC
102
{ACAD_REACTORS
330
2CAE
102
}
330
2CAE
100
AcDbXrecord
280
     1
1000
3.22.0
  0
XRECORD
  5
2CDD
102
{ACAD_REACTORS
330
2CAE
102
}
330
2CAE
100
AcDbXrecord
280
     1
 90
        4
  0
XRECORD
  5
2CDE
102
{ACAD_REACTORS
330
2CAE
102
}
330
2CAE
100
AcDbXrecord
280
     1
  0
XRECORD
  5
2CDF
102
{ACAD_REACTORS
330
2CAE
102
}
330
2CAE
100
AcDbXrecord
280
     1
 40
599.9248408070852
  0
XRECORD
  5
2CE0
102
{ACAD_REACTORS
330
2CAE
102
}
330
2CAE
100
AcDbXrecord
280
     1
 40
1016.108863212
  0
DICTIONARY
  5
2D22
330
2CA9
100
AcDbDictionary
280
     1
281
     1
  3
ACAD_ROUNDTRIP_2008_TABLESTYLE_CELLSTYLEMAP
360
2D23
  0
CELLSTYLEMAP
  5
2D23
102
{ACAD_REACTORS
330
2D22
102
}
330
2D22
100
AcDbCellStyleMap
 90
        3
300
CELLSTYLE
  1
TABLEFORMAT_BEGIN
 90
        5
170
     1
 91
        0
 92
    32768
 62
   257
 93
        1
300
CONTENTFORMAT
  1
CONTENTFORMAT_BEGIN
 90
        0
 91
        0
 92
        4
 93
        0
300

 40
0.0
140
1.0
 94
        5
 62
     0
340
2C51
144
0.25
309
CONTENTFORMAT_END
171
     1
301
MARGIN
  1
CELLMARGIN_BEGIN
 40
0.06
 40
0.06
 40
0.06
 40
0.06
 40
0.06
 40
0.06
309
CELLMARGIN_END
 94
        6
 95
        1
302
GRIDFORMAT
  1
GRIDFORMAT_BEGIN
 90
        0
 91
        1
 62
     0
 92
       -2
340
2C53
 93
        0
 40
0.045
309
GRIDFORMAT_END
 95
        2
302
GRIDFORMAT
  1
GRIDFORMAT_BEGIN
 90
        0
 91
        1
 62
     0
 92
       -2
340
2C53
 93
        0
 40
0.045
309
GRIDFORMAT_END
 95
        4
302
GRIDFORMAT
  1
GRIDFORMAT_BEGIN
 90
        0
 91
        1
 62
     0
 92
       -2
340
2C53
 93
        0
 40
0.045
309
GRIDFORMAT_END
 95
        8
302
GRIDFORMAT
  1
GRIDFORMAT_BEGIN
 90
        0
 91
        1
 62
     0
 92
       -2
340
2C53
 93
        0
 40
0.045
309
GRIDFORMAT_END
 95
       16
302
GRIDFORMAT
  1
GRIDFORMAT_BEGIN
 90
        0
 91
        1
 62
     0
 92
       -2
340
2C53
 93
        0
 40
0.045
309
GRIDFORMAT_END
 95
       32
302
GRIDFORMAT
  1
GRIDFORMAT_BEGIN
 90
        0
 91
        1
 62
     0
 92
       -2
340
2C53
 93
        0
 40
0.045
309
GRIDFORMAT_END
309
TABLEFORMAT_END
  1
CELLSTYLE_BEGIN
 90
        1
 91
        1
300
_TITLE
309
CELLSTYLE_END
300
CELLSTYLE
  1
TABLEFORMAT_BEGIN
 90
        5
170
     1
 91
        0
 92
        0
 62
   257
 93
        1
300
CONTENTFORMAT
  1
CONTENTFORMAT_BEGIN
 90
        0
 91
        0
 92
        4
 93
        0
300

 40
0.0
140
1.0
 94
        5
 62
     0
340
2C51
144
0.18
309
CONTENTFORMAT_END
171
     1
301
MARGIN
  1
CELLMARGIN_BEGIN
 40
0.06
 40
0.06
 40
0.06
 40
0.06
 40
0.06
 40
0.06
309
CELLMARGIN_END
 94
        6
 95
        1
302
GRIDFORMAT
  1
GRIDFORMAT_BEGIN
 90
        0
 91
        1
 62
     0
 92
       -2
340
2C53
 93
        0
 40
0.045
309
GRIDFORMAT_END
 95
        2
302
GRIDFORMAT
  1
GRIDFORMAT_BEGIN
 90
        0
 91
        1
 62
     0
 92
       -2
340
2C53
 93
        0
 40
0.045
309
GRIDFORMAT_END
 95
        4
302
GRIDFORMAT
  1
GRIDFORMAT_BEGIN
 90
        0
 91
        1
 62
     0
 92
       -2
340
2C53
 93
        0
 40
0.045
309
GRIDFORMAT_END
 95
        8
302
GRIDFORMAT
  1
GRIDFORMAT_BEGIN
 90
        0
 91
        1
 62
     0
 92
       -2
340
2C53
 93
        0
 40
0.045
309
GRIDFORMAT_END
 95
       16
302
GRIDFORMAT
  1
GRIDFORMAT_BEGIN
 90
        0
 91
        1
 62
     0
 92
       -2
340
2C53
 93
        0
 40
0.045
309
GRIDFORMAT_END
 95
       32
302
GRIDFORMAT
  1
GRIDFORMAT_BEGIN
 90
        0
 91
        1
 62
     0
 92
       -2
340
2C53
 93
        0
 40
0.045
309
GRIDFORMAT_END
309
TABLEFORMAT_END
  1
CELLSTYLE_BEGIN
 90
        2
 91
        1
300
_HEADER
309
CELLSTYLE_END
300
CELLSTYLE
  1
TABLEFORMAT_BEGIN
 90
        5
170
     1
 91
        0
 92
        0
 62
   257
 93
        1
300
CONTENTFORMAT
  1
CONTENTFORMAT_BEGIN
 90
        0
 91
        0
 92
        4
 93
        0
300

 40
0.0
140
1.0
 94
        2
 62
     0
340
2C51
144
0.18
309
CONTENTFORMAT_END
171
     1
301
MARGIN
  1
CELLMARGIN_BEGIN
 40
0.06
 40
0.06
 40
0.06
 40
0.06
 40
0.06
 40
0.06
309
CELLMARGIN_END
 94
        6
 95
        1
302
GRIDFORMAT
  1
GRIDFORMAT_BEGIN
 90
        0
 91
        1
 62
     0
 92
       -2
340
2C53
 93
        0
 40
0.045
309
GRIDFORMAT_END
 95
        2
302
GRIDFORMAT
  1
GRIDFORMAT_BEGIN
 90
        0
 91
        1
 62
     0
 92
       -2
340
2C53
 93
        0
 40
0.045
309
GRIDFORMAT_END
 95
        4
302
GRIDFORMAT
  1
GRIDFORMAT_BEGIN
 90
        0
 91
        1
 62
     0
 92
       -2
340
2C53
 93
        0
 40
0.045
309
GRIDFORMAT_END
 95
        8
302
GRIDFORMAT
  1
GRIDFORMAT_BEGIN
 90
        0
 91
        1
 62
     0
 92
       -2
340
2C53
 93
        0
 40
0.045
309
GRIDFORMAT_END
 95
       16
302
GRIDFORMAT
  1
GRIDFORMAT_BEGIN
 90
        0
 91
        1
 62
     0
 92
       -2
340
2C53
 93
        0
 40
0.045
309
GRIDFORMAT_END
 95
       32
302
GRIDFORMAT
  1
GRIDFORMAT_BEGIN
 90
        0
 91
        1
 62
     0
 92
       -2
340
2C53
 93
        0
 40
0.045
309
GRIDFORMAT_END
309
TABLEFORMAT_END
  1
CELLSTYLE_BEGIN
 90
        3
 91
        2
300
_DATA
309
CELLSTYLE_END
  0
ENDSEC
  0
EOF
