  0
SECTION
  2
HEADER
  9
$ACADVER
  1
AC1027
  9
$ACADMAINTVER
 70
   105
  9
$DWGCODEPAGE
  3
ANSI_1252
  9
$REQUIREDVERSIONS
160
                 0
  9
$INSBASE
 10
0.0
 20
0.0
 30
0.0
  9
$EXTMIN
 10
1400.0
 20
564.5
 30
0.0
  9
$EXTMAX
 10
0.0
 20
0.0
 30
0.0
  9
$LIMMIN
 10
0.0
 20
0.0
  9
$LIMMAX
 10
12.0
 20
9.0
  9
$ORTHOMODE
 70
     0
  9
$REGENMODE
 70
     1
  9
$FILLMODE
 70
     1
  9
$QTEXTMODE
 70
     0
  9
$MIRRTEXT
 70
     1
  9
$LTSCALE
 40
1.0
  9
$ATTMODE
 70
     1
  9
$TEXTSIZE
 40
0.2
  9
$TRACEWID
 40
0.05
  9
$TEXTSTYLE
  7
Standard
  9
$CLAYER
  8
Base
  9
$CELTYPE
  6
ByLayer
  9
$CECOLOR
 62
   178
  9
$CELTSCALE
 40
1.0
  9
$DISPSILH
 70
     0
  9
$DIMSCALE
 40
1.0
  9
$DIMASZ
 40
2.5
  9
$DIMEXO
 40
0.625
  9
$DIMDLI
 40
5.0
  9
$DIMRND
 40
0.0
  9
$DIMDLE
 40
0.0
  9
$DIMEXE
 40
1.25
  9
$DIMTP
 40
0.0
  9
$DIMTM
 40
0.0
  9
$DIMTXT
 40
2.5
  9
$DIMCEN
 40
0.09
  9
$DIMTSZ
 40
0.0
  9
$DIMTOL
 70
     0
  9
$DIMLIM
 70
     0
  9
$DIMTIH
 70
     1
  9
$DIMTOH
 70
     1
  9
$DIMSE1
 70
     0
  9
$DIMSE2
 70
     0
  9
$DIMTAD
 70
     0
  9
$DIMZIN
 70
     8
  9
$DIMBLK
  1

  9
$DIMASO
 70
     1
  9
$DIMSHO
 70
     1
  9
$DIMPOST
  1

  9
$DIMAPOST
  1

  9
$DIMALT
 70
     0
  9
$DIMALTD
 70
     2
  9
$DIMALTF
 40
25.4
  9
$DIMLFAC
 40
1.0
  9
$DIMTOFL
 70
     0
  9
$DIMTVP
 40
0.0
  9
$DIMTIX
 70
     0
  9
$DIMSOXD
 70
     0
  9
$DIMSAH
 70
     0
  9
$DIMBLK1
  1

  9
$DIMBLK2
  1

  9
$DIMSTYLE
  2
Standard
  9
$DIMCLRD
 70
   178
  9
$DIMCLRE
 70
   178
  9
$DIMCLRT
 70
   178
  9
$DIMTFAC
 40
1.0
  9
$DIMGAP
 40
0.625
  9
$DIMJUST
 70
     0
  9
$DIMSD1
 70
     0
  9
$DIMSD2
 70
     0
  9
$DIMTOLJ
 70
     1
  9
$DIMTZIN
 70
     0
  9
$DIMALTZ
 70
     0
  9
$DIMALTTZ
 70
     0
  9
$DIMUPT
 70
     0
  9
$DIMDEC
 70
     4
  9
$DIMTDEC
 70
     4
  9
$DIMALTU
 70
     2
  9
$DIMALTTD
 70
     2
  9
$DIMTXSTY
  7
Standard
  9
$DIMAUNIT
 70
     0
  9
$DIMADEC
 70
     0
  9
$DIMALTRND
 40
0.0
  9
$DIMAZIN
 70
     2
  9
$DIMDSEP
 70
    46
  9
$DIMATFIT
 70
     3
  9
$DIMFRAC
 70
     0
  9
$DIMLDRBLK
  1

  9
$DIMLUNIT
 70
     2
  9
$DIMLWD
 70
    -2
  9
$DIMLWE
 70
    -2
  9
$DIMTMOVE
 70
     0
  9
$DIMFXL
 40
1.0
  9
$DIMFXLON
 70
     0
  9
$DIMJOGANG
 40
0.7853981633974483
  9
$DIMTFILL
 70
     0
  9
$DIMTFILLCLR
 70
     0
  9
$DIMARCSYM
 70
     0
  9
$DIMLTYPE
  6

  9
$DIMLTEX1
  6

  9
$DIMLTEX2
  6

  9
$DIMTXTDIRECTION
 70
     0
  9
$LUNITS
 70
     2
  9
$LUPREC
 70
     4
  9
$SKETCHINC
 40
0.1
  9
$FILLETRAD
 40
0.5
  9
$AUNITS
 70
     0
  9
$AUPREC
 70
     0
  9
$MENU
  1
.
  9
$ELEVATION
 40
0.0
  9
$PELEVATION
 40
0.0
  9
$THICKNESS
 40
0.0
  9
$LIMCHECK
 70
     0
  9
$CHAMFERA
 40
0.0
  9
$CHAMFERB
 40
0.0
  9
$CHAMFERC
 40
0.0
  9
$CHAMFERD
 40
0.0
  9
$SKPOLY
 70
     0
  9
$TDCREATE
 40
2458622.9226461
  9
$TDUCREATE
 40
2458622.589312766
  9
$TDUPDATE
 40
2458622.92264647
  9
$TDUUPDATE
 40
2458622.589313136
  9
$TDINDWG
 40
0.0000000116
  9
$TDUSRTIMER
 40
0.0000000116
  9
$USRTIMER
 70
     1
  9
$ANGBASE
 50
0.0
  9
$ANGDIR
 70
     0
  9
$PDMODE
 70
     0
  9
$PDSIZE
 40
0.0
  9
$PLINEWID
 40
0.0
  9
$SPLFRAME
 70
     0
  9
$SPLINETYPE
 70
     6
  9
$SPLINESEGS
 70
     8
  9
$HANDSEED
  5
6D4
  9
$SURFTAB1
 70
     6
  9
$SURFTAB2
 70
     6
  9
$SURFTYPE
 70
     6
  9
$SURFU
 70
     6
  9
$SURFV
 70
     6
  9
$UCSBASE
  2

  9
$UCSNAME
  2

  9
$UCSORG
 10
0.0
 20
0.0
 30
0.0
  9
$UCSXDIR
 10
1.0
 20
0.0
 30
0.0
  9
$UCSYDIR
 10
0.0
 20
1.0
 30
0.0
  9
$UCSORTHOREF
  2

  9
$UCSORTHOVIEW
 70
     0
  9
$UCSORGTOP
 10
0.0
 20
0.0
 30
0.0
  9
$UCSORGBOTTOM
 10
0.0
 20
0.0
 30
0.0
  9
$UCSORGLEFT
 10
0.0
 20
0.0
 30
0.0
  9
$UCSORGRIGHT
 10
0.0
 20
0.0
 30
0.0
  9
$UCSORGFRONT
 10
0.0
 20
0.0
 30
0.0
  9
$UCSORGBACK
 10
0.0
 20
0.0
 30
0.0
  9
$PUCSBASE
  2

  9
$PUCSNAME
  2

  9
$PUCSORG
 10
0.0
 20
0.0
 30
0.0
  9
$PUCSXDIR
 10
1.0
 20
0.0
 30
0.0
  9
$PUCSYDIR
 10
0.0
 20
1.0
 30
0.0
  9
$PUCSORTHOREF
  2

  9
$PUCSORTHOVIEW
 70
     0
  9
$PUCSORGTOP
 10
0.0
 20
0.0
 30
0.0
  9
$PUCSORGBOTTOM
 10
0.0
 20
0.0
 30
0.0
  9
$PUCSORGLEFT
 10
0.0
 20
0.0
 30
0.0
  9
$PUCSORGRIGHT
 10
0.0
 20
0.0
 30
0.0
  9
$PUCSORGFRONT
 10
0.0
 20
0.0
 30
0.0
  9
$PUCSORGBACK
 10
0.0
 20
0.0
 30
0.0
  9
$USERI1
 70
     0
  9
$USERI2
 70
     0
  9
$USERI3
 70
     0
  9
$USERI4
 70
     0
  9
$USERI5
 70
     0
  9
$USERR1
 40
0.0
  9
$USERR2
 40
0.0
  9
$USERR3
 40
0.0
  9
$USERR4
 40
0.0
  9
$USERR5
 40
0.0
  9
$WORLDVIEW
 70
     1
  9
$SHADEDGE
 70
     3
  9
$SHADEDIF
 70
    70
  9
$TILEMODE
 70
     1
  9
$MAXACTVP
 70
    64
  9
$PINSBASE
 10
0.0
 20
0.0
 30
0.0
  9
$PLIMCHECK
 70
     0
  9
$PEXTMIN
 10
0.0
 20
0.0
 30
0.0
  9
$PEXTMAX
 10
0.0
 20
0.0
 30
0.0
  9
$PLIMMIN
 10
-20.0
 20
-7.5
  9
$PLIMMAX
 10
277.0
 20
202.5
  9
$UNITMODE
 70
     0
  9
$VISRETAIN
 70
     1
  9
$PLINEGEN
 70
     0
  9
$PSLTSCALE
 70
     1
  9
$TREEDEPTH
 70
  3020
  9
$CMLSTYLE
  2
Standard
  9
$CMLJUST
 70
     0
  9
$CMLSCALE
 40
1.0
  9
$PROXYGRAPHICS
 70
     1
  9
$MEASUREMENT
 70
     1
  9
$CELWEIGHT
370
    -1
  9
$ENDCAPS
280
     0
  9
$JOINSTYLE
280
     0
  9
$LWDISPLAY
290
     0
  9
$INSUNITS
 70
     4
  9
$HYPERLINKBASE
  1

  9
$STYLESHEET
  1

  9
$XEDIT
290
     1
  9
$CEPSNTYPE
380
     0
  9
$PSTYLEMODE
290
     1
  9
$FINGERPRINTGUID
  2
{79617974-70b1-3277-73e3-376373737130}
  9
$VERSIONGUID
  2
{FAEB1C32-E019-11D5-929B-00C0DF256EC4}
  9
$EXTNAMES
290
     1
  9
$PSVPSCALE
 40
0.0
  9
$OLESTARTUP
290
     0
  9
$SORTENTS
280
   127
  9
$INDEXCTL
280
     0
  9
$HIDETEXT
280
     1
  9
$XCLIPFRAME
280
     2
  9
$HALOGAP
280
     0
  9
$OBSCOLOR
 70
   257
  9
$OBSLTYPE
280
     0
  9
$INTERSECTIONDISPLAY
280
     0
  9
$INTERSECTIONCOLOR
 70
   257
  9
$DIMASSOC
280
     2
  9
$PROJECTNAME
  1

  9
$CAMERADISPLAY
290
     0
  9
$LENSLENGTH
 40
50.0
  9
$CAMERAHEIGHT
 40
0.0
  9
$STEPSPERSEC
 40
2.0
  9
$STEPSIZE
 40
6.0
  9
$3DDWFPREC
 40
2.0
  9
$PSOLWIDTH
 40
0.25
  9
$PSOLHEIGHT
 40
4.0
  9
$LOFTANG1
 40
1.570796326794897
  9
$LOFTANG2
 40
1.570796326794897
  9
$LOFTMAG1
 40
0.0
  9
$LOFTMAG2
 40
0.0
  9
$LOFTPARAM
 70
     7
  9
$LOFTNORMALS
280
     1
  9
$LATITUDE
 40
37.795
  9
$LONGITUDE
 40
-122.394
  9
$NORTHDIRECTION
 40
0.0
  9
$TIMEZONE
 70
 -8000
  9
$LIGHTGLYPHDISPLAY
280
     1
  9
$TILEMODELIGHTSYNCH
280
     1
  9
$CMATERIAL
347
61B
  9
$SOLIDHIST
280
     0
  9
$SHOWHIST
280
     1
  9
$DWFFRAME
280
     2
  9
$DGNFRAME
280
     2
  9
$REALWORLDSCALE
290
     1
  9
$INTERFERECOLOR
 62
   256
  9
$CSHADOW
280
     0
  9
$SHADOWPLANELOCATION
 40
0.0
  0
ENDSEC
  0
SECTION
  2
CLASSES
  0
CLASS
  1
ACDBDICTIONARYWDFLT
  2
AcDbDictionaryWithDefault
  3
ObjectDBX Classes
 90
        0
 91
        3
280
     0
281
     0
  0
CLASS
  1
VISUALSTYLE
  2
AcDbVisualStyle
  3
ObjectDBX Classes
 90
     4095
 91
        3
280
     0
281
     0
  0
CLASS
  1
MATERIAL
  2
AcDbMaterial
  3
ObjectDBX Classes
 90
     1153
 91
        3
280
     0
281
     0
  0
CLASS
  1
SCALE
  2
AcDbScale
  3
ObjectDBX Classes
 90
     1153
 91
        3
280
     0
281
     0
  0
CLASS
  1
TABLESTYLE
  2
AcDbTableStyle
  3
ObjectDBX Classes
 90
     4095
 91
        3
280
     0
281
     0
  0
CLASS
  1
MLEADERSTYLE
  2
AcDbMLeaderStyle
  3
ACDB_MLEADERSTYLE_CLASS
 90
     4095
 91
        3
280
     0
281
     0
  0
CLASS
  1
SUN
  2
AcDbSun
  3
SCENEOE
 90
     1153
 91
        3
280
     0
281
     0
  0
CLASS
  1
DICTIONARYVAR
  2
AcDbDictionaryVar
  3
ObjectDBX Classes
 90
        0
 91
        3
280
     0
281
     0
  0
CLASS
  1
CELLSTYLEMAP
  2
AcDbCellStyleMap
  3
ObjectDBX Classes
 90
     1152
 91
        3
280
     0
281
     0
  0
ENDSEC
  0
SECTION
  2
TABLES
  0
TABLE
  2
VPORT
  5
5E0
330
0
100
AcDbSymbolTable
 70
     1
  0
VPORT
  5
600
330
5E0
100
AcDbSymbolTableRecord
100
AcDbViewportTableRecord
  2
*Active
 70
     0
 10
0.0
 20
0.0
 11
1.0
 21
1.0
 12
545.7552283329287
 22
358.8400944336114
 13
0.0
 23
0.0
 14
0.5
 24
0.5
 15
0.5
 25
0.5
 16
0.0
 26
0.0
 36
1.0
 17
0.0
 27
0.0
 37
0.0
 40
1032.211532349602
 41
2.06430155210643
 42
50.0
 43
0.0
 44
0.0
 50
0.0
 51
0.0
 71
     0
 72
   100
 73
     1
 74
     3
 75
     0
 76
     0
 77
     0
 78
     0
281
     0
 65
     1
110
0.0
120
0.0
130
0.0
111
1.0
121
0.0
131
0.0
112
0.0
122
1.0
132
0.0
 79
     0
146
0.0
348
606
 60
     3
 61
     5
292
     1
282
     1
141
0.0
142
0.0
 63
   250
361
644
  0
ENDTAB
  0
TABLE
  2
LTYPE
  5
5DD
330
0
100
AcDbSymbolTable
 70
    48
  0
LTYPE
  5
5EB
330
5DD
100
AcDbSymbolTableRecord
100
AcDbLinetypeTableRecord
  2
ByBlock
 70
     0
  3

 72
    65
 73
     0
 40
0.0
  0
LTYPE
  5
5EC
330
5DD
100
AcDbSymbolTableRecord
100
AcDbLinetypeTableRecord
  2
ByLayer
 70
     0
  3

 72
    65
 73
     0
 40
0.0
  0
LTYPE
  5
5ED
330
5DD
100
AcDbSymbolTableRecord
100
AcDbLinetypeTableRecord
  2
Continuous
 70
     0
  3
Solid line
 72
    65
 73
     0
 40
0.0
  0
LTYPE
  5
67B
330
5DD
100
AcDbSymbolTableRecord
100
AcDbLinetypeTableRecord
  2
ACAD_ISO10W100
 70
     0
  3
ISO dash dot __ . __ . __ . __ . __ . __ . __ . 
 72
    65
 73
     4
 40
18.0
 49
12.0
 74
     0
 49
-3.0
 74
     0
 49
0.0
 74
     0
 49
-3.0
 74
     0
  0
LTYPE
  5
67C
330
5DD
100
AcDbSymbolTableRecord
100
AcDbLinetypeTableRecord
  2
ACAD_ISO11W100
 70
     0
  3
ISO double-dash dot __ __ . __ __ . __ __ . __ _
 72
    65
 73
     6
 40
33.0
 49
12.0
 74
     0
 49
-3.0
 74
     0
 49
12.0
 74
     0
 49
-3.0
 74
     0
 49
0.0
 74
     0
 49
-3.0
 74
     0
  0
LTYPE
  5
67D
330
5DD
100
AcDbSymbolTableRecord
100
AcDbLinetypeTableRecord
  2
ACAD_ISO12W100
 70
     0
  3
ISO dash double-dot __ . . __ . . __ . . __ . . 
 72
    65
 73
     6
 40
21.0
 49
12.0
 74
     0
 49
-3.0
 74
     0
 49
0.0
 74
     0
 49
-3.0
 74
     0
 49
0.0
 74
     0
 49
-3.0
 74
     0
  0
LTYPE
  5
67E
330
5DD
100
AcDbSymbolTableRecord
100
AcDbLinetypeTableRecord
  2
ACAD_ISO13W100
 70
     0
  3
ISO double-dash double-dot __ __ . . __ __ . . _
 72
    65
 73
     8
 40
36.0
 49
12.0
 74
     0
 49
-3.0
 74
     0
 49
12.0
 74
     0
 49
-3.0
 74
     0
 49
0.0
 74
     0
 49
-3.0
 74
     0
 49
0.0
 74
     0
 49
-3.0
 74
     0
  0
LTYPE
  5
67F
330
5DD
100
AcDbSymbolTableRecord
100
AcDbLinetypeTableRecord
  2
ACAD_ISO14W100
 70
     0
  3
ISO dash triple-dot __ . . . __ . . . __ . . . _
 72
    65
 73
     8
 40
24.0
 49
12.0
 74
     0
 49
-3.0
 74
     0
 49
0.0
 74
     0
 49
-3.0
 74
     0
 49
0.0
 74
     0
 49
-3.0
 74
     0
 49
0.0
 74
     0
 49
-3.0
 74
     0
  0
LTYPE
  5
680
330
5DD
100
AcDbSymbolTableRecord
100
AcDbLinetypeTableRecord
  2
ACAD_ISO15W100
 70
     0
  3
ISO double-dash triple-dot __ __ . . . __ __ . .
 72
    65
 73
    10
 40
39.0
 49
12.0
 74
     0
 49
-3.0
 74
     0
 49
12.0
 74
     0
 49
-3.0
 74
     0
 49
0.0
 74
     0
 49
-3.0
 74
     0
 49
0.0
 74
     0
 49
-3.0
 74
     0
 49
0.0
 74
     0
 49
-3.0
 74
     0
  0
LTYPE
  5
683
330
5DD
100
AcDbSymbolTableRecord
100
AcDbLinetypeTableRecord
  2
BATTING
 70
     0
  3
Batting SSSSSSSSSSSSSSSSSSSSSSSSSSSSSSSSSSSSSSSSSSSSSSS
 72
    65
 73
     4
 40
10.16254
 49
0.00254
 74
     0
 49
-2.54
 74
     2
 75
     0
340
681
 46
2.54
 50
0.0
 44
-2.54
 45
0.0
  9
BAT
 49
-5.08
 74
     2
 75
     0
340
682
 46
2.54
 50
180.0
 44
2.54
 45
0.0
  9
BAT
 49
-2.54
 74
     0
  0
LTYPE
  5
684
330
5DD
100
AcDbSymbolTableRecord
100
AcDbLinetypeTableRecord
  2
BORDER
 70
     0
  3
Border __ __ . __ __ . __ __ . __ __ . __ __ .
 72
    65
 73
     6
 40
44.45
 49
12.7
 74
     0
 49
-6.35
 74
     0
 49
12.7
 74
     0
 49
-6.35
 74
     0
 49
0.0
 74
     0
 49
-6.35
 74
     0
  0
LTYPE
  5
685
330
5DD
100
AcDbSymbolTableRecord
100
AcDbLinetypeTableRecord
  2
BORDER2
 70
     0
  3
Border (.5x) __.__.__.__.__.__.__.__.__.__.__.
 72
    65
 73
     6
 40
22.225
 49
6.35
 74
     0
 49
-3.175
 74
     0
 49
6.35
 74
     0
 49
-3.175
 74
     0
 49
0.0
 74
     0
 49
-3.175
 74
     0
  0
LTYPE
  5
686
330
5DD
100
AcDbSymbolTableRecord
100
AcDbLinetypeTableRecord
  2
BORDERX2
 70
     0
  3
Border (2x) ____  ____  .  ____  ____  .  ___
 72
    65
 73
     6
 40
88.89999999999999
 49
25.4
 74
     0
 49
-12.7
 74
     0
 49
25.4
 74
     0
 49
-12.7
 74
     0
 49
0.0
 74
     0
 49
-12.7
 74
     0
  0
LTYPE
  5
687
330
5DD
100
AcDbSymbolTableRecord
100
AcDbLinetypeTableRecord
  2
CENTER
 70
     0
  3
Center ____ _ ____ _ ____ _ ____ _ ____ _ ____
 72
    65
 73
     4
 40
50.8
 49
31.75
 74
     0
 49
-6.35
 74
     0
 49
6.35
 74
     0
 49
-6.35
 74
     0
  0
LTYPE
  5
688
330
5DD
100
AcDbSymbolTableRecord
100
AcDbLinetypeTableRecord
  2
CENTER2
 70
     0
  3
Center (.5x) ___ _ ___ _ ___ _ ___ _ ___ _ ___
 72
    65
 73
     4
 40
28.575
 49
19.05
 74
     0
 49
-3.175
 74
     0
 49
3.175
 74
     0
 49
-3.175
 74
     0
  0
LTYPE
  5
689
330
5DD
100
AcDbSymbolTableRecord
100
AcDbLinetypeTableRecord
  2
CENTERX2
 70
     0
  3
Center (2x) ________  __  ________  __  _____
 72
    65
 73
     4
 40
101.6
 49
63.5
 74
     0
 49
-12.7
 74
     0
 49
12.7
 74
     0
 49
-12.7
 74
     0
  0
LTYPE
  5
68A
330
5DD
100
AcDbSymbolTableRecord
100
AcDbLinetypeTableRecord
  2
DASHDOT
 70
     0
  3
Dash dot __ . __ . __ . __ . __ . __ . __ . __
 72
    65
 73
     4
 40
25.4
 49
12.7
 74
     0
 49
-6.35
 74
     0
 49
0.0
 74
     0
 49
-6.35
 74
     0
  0
LTYPE
  5
68B
330
5DD
100
AcDbSymbolTableRecord
100
AcDbLinetypeTableRecord
  2
DASHDOT2
 70
     0
  3
Dash dot (.5x) _._._._._._._._._._._._._._._.
 72
    65
 73
     4
 40
12.7
 49
6.35
 74
     0
 49
-3.175
 74
     0
 49
0.0
 74
     0
 49
-3.175
 74
     0
  0
LTYPE
  5
68C
330
5DD
100
AcDbSymbolTableRecord
100
AcDbLinetypeTableRecord
  2
DASHDOTX2
 70
     0
  3
Dash dot (2x) ____  .  ____  .  ____  .  ___
 72
    65
 73
     4
 40
50.8
 49
25.4
 74
     0
 49
-12.7
 74
     0
 49
0.0
 74
     0
 49
-12.7
 74
     0
  0
LTYPE
  5
68D
330
5DD
100
AcDbSymbolTableRecord
100
AcDbLinetypeTableRecord
  2
ACAD_ISO02W100
 70
     0
  3
ISO dash __ __ __ __ __ __ __ __ __ __ __ __ __
 72
    65
 73
     2
 40
15.0
 49
12.0
 74
     0
 49
-3.0
 74
     0
  0
LTYPE
  5
68E
330
5DD
100
AcDbSymbolTableRecord
100
AcDbLinetypeTableRecord
  2
ACAD_ISO03W100
 70
     0
  3
ISO dash space __    __    __    __    __    __
 72
    65
 73
     2
 40
30.0
 49
12.0
 74
     0
 49
-18.0
 74
     0
  0
LTYPE
  5
68F
330
5DD
100
AcDbSymbolTableRecord
100
AcDbLinetypeTableRecord
  2
ACAD_ISO04W100
 70
     0
  3
ISO long-dash dot ____ . ____ . ____ . ____ . _
 72
    65
 73
     4
 40
30.0
 49
24.0
 74
     0
 49
-3.0
 74
     0
 49
0.0
 74
     0
 49
-3.0
 74
     0
  0
LTYPE
  5
690
330
5DD
100
AcDbSymbolTableRecord
100
AcDbLinetypeTableRecord
  2
ACAD_ISO05W100
 70
     0
  3
ISO long-dash double-dot ____ .. ____ .. ____ . 
 72
    65
 73
     6
 40
33.0
 49
24.0
 74
     0
 49
-3.0
 74
     0
 49
0.0
 74
     0
 49
-3.0
 74
     0
 49
0.0
 74
     0
 49
-3.0
 74
     0
  0
LTYPE
  5
691
330
5DD
100
AcDbSymbolTableRecord
100
AcDbLinetypeTableRecord
  2
ACAD_ISO06W100
 70
     0
  3
ISO long-dash triple-dot ____ ... ____ ... ____
 72
    65
 73
     8
 40
36.0
 49
24.0
 74
     0
 49
-3.0
 74
     0
 49
0.0
 74
     0
 49
-3.0
 74
     0
 49
0.0
 74
     0
 49
-3.0
 74
     0
 49
0.0
 74
     0
 49
-3.0
 74
     0
  0
LTYPE
  5
692
330
5DD
100
AcDbSymbolTableRecord
100
AcDbLinetypeTableRecord
  2
ACAD_ISO07W100
 70
     0
  3
ISO dot . . . . . . . . . . . . . . . . . . . . 
 72
    65
 73
     2
 40
3.0
 49
0.0
 74
     0
 49
-3.0
 74
     0
  0
LTYPE
  5
693
330
5DD
100
AcDbSymbolTableRecord
100
AcDbLinetypeTableRecord
  2
ACAD_ISO08W100
 70
     0
  3
ISO long-dash short-dash ____ __ ____ __ ____ _
 72
    65
 73
     4
 40
36.0
 49
24.0
 74
     0
 49
-3.0
 74
     0
 49
6.0
 74
     0
 49
-3.0
 74
     0
  0
LTYPE
  5
694
330
5DD
100
AcDbSymbolTableRecord
100
AcDbLinetypeTableRecord
  2
ACAD_ISO09W100
 70
     0
  3
ISO long-dash double-short-dash ____ __ __ ____
 72
    65
 73
     6
 40
45.0
 49
24.0
 74
     0
 49
-3.0
 74
     0
 49
6.0
 74
     0
 49
-3.0
 74
     0
 49
6.0
 74
     0
 49
-3.0
 74
     0
  0
LTYPE
  5
695
330
5DD
100
AcDbSymbolTableRecord
100
AcDbLinetypeTableRecord
  2
HIDDENX2
 70
     0
  3
Hidden (2x) ____ ____ ____ ____ ____ ____ ____ 
 72
    65
 73
     2
 40
19.05
 49
12.7
 74
     0
 49
-6.35
 74
     0
  0
LTYPE
  5
697
330
5DD
100
AcDbSymbolTableRecord
100
AcDbLinetypeTableRecord
  2
HOT_WATER_SUPPLY
 70
     0
  3
Hot water supply ---- HW ---- HW ---- HW ----
 72
    65
 73
     3
 40
22.86
 49
12.7
 74
     0
 49
-5.08
 74
     2
 75
     0
340
696
 46
2.54
 50
0.0
 44
-2.54
 45
-1.27
  9
HW
 49
-5.08
 74
     0
  0
LTYPE
  5
698
330
5DD
100
AcDbSymbolTableRecord
100
AcDbLinetypeTableRecord
  2
PHANTOM
 70
     0
  3
Phantom ______  __  __  ______  __  __  ______ 
 72
    65
 73
     6
 40
63.50000000000001
 49
31.75
 74
     0
 49
-6.35
 74
     0
 49
6.35
 74
     0
 49
-6.35
 74
     0
 49
6.35
 74
     0
 49
-6.35
 74
     0
  0
LTYPE
  5
699
330
5DD
100
AcDbSymbolTableRecord
100
AcDbLinetypeTableRecord
  2
PHANTOM2
 70
     0
  3
Phantom (.5x) ___ _ _ ___ _ _ ___ _ _ ___ _ _
 72
    65
 73
     6
 40
31.75
 49
15.875
 74
     0
 49
-3.175
 74
     0
 49
3.175
 74
     0
 49
-3.175
 74
     0
 49
3.175
 74
     0
 49
-3.175
 74
     0
  0
LTYPE
  5
69A
330
5DD
100
AcDbSymbolTableRecord
100
AcDbLinetypeTableRecord
  2
PHANTOMX2
 70
     0
  3
Phantom (2x) ____________    ____    ____   _
 72
    65
 73
     6
 40
127.0
 49
63.5
 74
     0
 49
-12.7
 74
     0
 49
12.7
 74
     0
 49
-12.7
 74
     0
 49
12.7
 74
     0
 49
-12.7
 74
     0
  0
LTYPE
  5
69C
330
5DD
100
AcDbSymbolTableRecord
100
AcDbLinetypeTableRecord
  2
TRACKS
 70
     0
  3
Tracks -|-|-|-|-|-|-|-|-|-|-|-|-|-|-|-|-|-|-|-|-|-|-|-|-
 72
    65
 73
     2
 40
7.62
 49
3.81
 74
     2
 75
     0
340
69B
 46
6.35
 50
0.0
 44
0.0
 45
0.0
  9
TRACK1
 49
3.81
 74
     0
  0
LTYPE
  5
69F
330
5DD
100
AcDbSymbolTableRecord
100
AcDbLinetypeTableRecord
  2
ZIGZAG
 70
     0
  3
Zig zag /\/\/\/\/\/\/\/\/\/\/\/\/\/\/\/\/\/\/\/\/\/\/\/
 72
    65
 73
     4
 40
20.32254
 49
0.00254
 74
     0
 49
-5.08
 74
     2
 75
     0
340
69D
 46
5.08
 50
0.0
 44
-5.08
 45
0.0
  9
ZIG
 49
-10.16
 74
     2
 75
     0
340
69E
 46
5.08
 50
180.0
 44
5.08
 45
0.0
  9
ZIG
 49
-5.08
 74
     0
  0
LTYPE
  5
6A0
330
5DD
100
AcDbSymbolTableRecord
100
AcDbLinetypeTableRecord
  2
DASHED
 70
     0
  3
Dashed __ __ __ __ __ __ __ __ __ __ __ __ __ _
 72
    65
 73
     2
 40
19.05
 49
12.7
 74
     0
 49
-6.35
 74
     0
  0
LTYPE
  5
6A1
330
5DD
100
AcDbSymbolTableRecord
100
AcDbLinetypeTableRecord
  2
DASHED2
 70
     0
  3
Dashed (.5x) _ _ _ _ _ _ _ _ _ _ _ _ _ _ _ _ _ 
 72
    65
 73
     2
 40
9.524999999999999
 49
6.35
 74
     0
 49
-3.175
 74
     0
  0
LTYPE
  5
6A2
330
5DD
100
AcDbSymbolTableRecord
100
AcDbLinetypeTableRecord
  2
DASHEDX2
 70
     0
  3
Dashed (2x) ____  ____  ____  ____  ____  ___
 72
    65
 73
     2
 40
38.09999999999999
 49
25.4
 74
     0
 49
-12.7
 74
     0
  0
LTYPE
  5
6A3
330
5DD
100
AcDbSymbolTableRecord
100
AcDbLinetypeTableRecord
  2
DIVIDE
 70
     0
  3
Divide ____ . . ____ . . ____ . . ____ . . ____
 72
    65
 73
     6
 40
31.75
 49
12.7
 74
     0
 49
-6.35
 74
     0
 49
0.0
 74
     0
 49
-6.35
 74
     0
 49
0.0
 74
     0
 49
-6.35
 74
     0
  0
LTYPE
  5
6A4
330
5DD
100
AcDbSymbolTableRecord
100
AcDbLinetypeTableRecord
  2
DIVIDE2
 70
     0
  3
Divide (.5x) __..__..__..__..__..__..__..__.._
 72
    65
 73
     6
 40
15.875
 49
6.35
 74
     0
 49
-3.175
 74
     0
 49
0.0
 74
     0
 49
-3.175
 74
     0
 49
0.0
 74
     0
 49
-3.175
 74
     0
  0
LTYPE
  5
6A5
330
5DD
100
AcDbSymbolTableRecord
100
AcDbLinetypeTableRecord
  2
DIVIDEX2
 70
     0
  3
Divide (2x) ________  .  .  ________  .  .  _
 72
    65
 73
     6
 40
63.5
 49
25.4
 74
     0
 49
-12.7
 74
     0
 49
0.0
 74
     0
 49
-12.7
 74
     0
 49
0.0
 74
     0
 49
-12.7
 74
     0
  0
LTYPE
  5
6A6
330
5DD
100
AcDbSymbolTableRecord
100
AcDbLinetypeTableRecord
  2
DOT
 70
     0
  3
Dot . . . . . . . . . . . . . . . . . . . . . . . .
 72
    65
 73
     2
 40
6.35
 49
0.0
 74
     0
 49
-6.35
 74
     0
  0
LTYPE
  5
6A7
330
5DD
100
AcDbSymbolTableRecord
100
AcDbLinetypeTableRecord
  2
DOT2
 70
     0
  3
Dot (.5x) ........................................
 72
    65
 73
     2
 40
3.175
 49
0.0
 74
     0
 49
-3.175
 74
     0
  0
LTYPE
  5
6A8
330
5DD
100
AcDbSymbolTableRecord
100
AcDbLinetypeTableRecord
  2
DOTX2
 70
     0
  3
Dot (2x) .  .  .  .  .  .  .  .  .  .  .  .  .  .
 72
    65
 73
     2
 40
12.7
 49
0.0
 74
     0
 49
-12.7
 74
     0
  0
LTYPE
  5
6AA
330
5DD
100
AcDbSymbolTableRecord
100
AcDbLinetypeTableRecord
  2
DRAINAGE
 70
     0
  3
Drainage ---->---->---->----
 72
    65
 73
     2
 40
10.16
 49
5.08
 74
     2
 75
     0
340
6A9
 46
2.54
 50
180.0
 44
0.0
 45
0.0
  9
RIGHT_ARROW
 49
5.08
 74
     0
  0
LTYPE
  5
6AC
330
5DD
100
AcDbSymbolTableRecord
100
AcDbLinetypeTableRecord
  2
DRAINAGE2
 70
     0
  3
Drainage reversed----<----<----<----
 72
    65
 73
     2
 40
10.16
 49
5.08
 74
     2
 75
     0
340
6AB
 46
2.54
 50
0.0
 44
0.0
 45
0.0
  9
RIGHT_ARROW
 49
5.08
 74
     0
  0
LTYPE
  5
6AE
330
5DD
100
AcDbSymbolTableRecord
100
AcDbLinetypeTableRecord
  2
FENCELINE1
 70
     0
  3
Fenceline circle ----0-----0----0-----0----0-----0--
 72
    65
 73
     4
 40
36.83
 49
6.35
 74
     0
 49
-2.54
 74
     2
 75
     0
340
6AD
 46
2.54
 50
0.0
 44
-2.54
 45
0.0
  9
CIRC1
 49
-2.54
 74
     0
 49
25.4
 74
     0
  0
LTYPE
  5
6B0
330
5DD
100
AcDbSymbolTableRecord
100
AcDbLinetypeTableRecord
  2
FENCELINE2
 70
     0
  3
Fenceline square ----[]-----[]----[]-----[]----[]---
 72
    65
 73
     4
 40
36.83
 49
6.35
 74
     0
 49
-2.54
 74
     2
 75
     0
340
6AF
 46
2.54
 50
0.0
 44
-2.54
 45
0.0
  9
BOX
 49
-2.54
 74
     0
 49
25.4
 74
     0
  0
LTYPE
  5
6B2
330
5DD
100
AcDbSymbolTableRecord
100
AcDbLinetypeTableRecord
  2
GAS_LINE
 70
     0
  3
Gas line ----GAS----GAS----GAS----GAS----GAS----GAS--
 72
    65
 73
     3
 40
24.13
 49
12.7
 74
     0
 49
-5.08
 74
     2
 75
     0
340
6B1
 46
2.54
 50
0.0
 44
-2.54
 45
-1.27
  9
GAS
 49
-6.35
 74
     0
  0
LTYPE
  5
6B3
330
5DD
100
AcDbSymbolTableRecord
100
AcDbLinetypeTableRecord
  2
HIDDEN
 70
     0
  3
Hidden __ __ __ __ __ __ __ __ __ __ __ __ __ __
 72
    65
 73
     2
 40
9.524999999999999
 49
6.35
 74
     0
 49
-3.175
 74
     0
  0
LTYPE
  5
6B4
330
5DD
100
AcDbSymbolTableRecord
100
AcDbLinetypeTableRecord
  2
HIDDEN2
 70
     0
  3
Hidden (.5x) _ _ _ _ _ _ _ _ _ _ _ _ _ _ _ _ _ 
 72
    65
 73
     2
 40
4.762499999999999
 49
3.175
 74
     0
 49
-1.5875
 74
     0
  0
ENDTAB
  0
TABLE
  2
LAYER
  5
5DB
330
0
100
AcDbSymbolTable
 70
     4
  0
LAYER
  5
5E8
330
5DB
100
AcDbSymbolTableRecord
100
AcDbLayerTableRecord
  2
0
 70
     0
 62
     7
420
 16777215
  6
Continuous
370
    25
390
5E7
347
61D
348
0
  0
LAYER
  5
6B5
330
5DB
100
AcDbSymbolTableRecord
100
AcDbLayerTableRecord
  2
Base
 70
     0
 62
   178
420
        0
  6
Continuous
370
    25
390
5E7
347
61D
348
0
  0
LAYER
  5
6B6
330
5DB
100
AcDbSymbolTableRecord
100
AcDbLayerTableRecord
  2
CNC_Limits
 70
     0
 62
     7
420
 16777215
  6
Continuous
370
    -3
390
5E7
347
61D
348
0
  0
LAYER
  5
6B7
330
5DB
100
AcDbSymbolTableRecord
100
AcDbLayerTableRecord
  2
CNC
 70
     0
 62
     1
420
 16711680
  6
Continuous
370
    25
390
5E7
347
61D
348
0
  0
ENDTAB
  0
TABLE
  2
STYLE
  5
5DC
330
0
100
AcDbSymbolTable
 70
    30
  0
STYLE
  5
5E9
330
5DC
100
AcDbSymbolTableRecord
100
AcDbTextStyleTableRecord
  2
Standard
 70
     0
 40
0.0
 41
1.0
 50
0.0
 71
     0
 42
0.2
  3
txt
  4

  0
STYLE
  5
679
330
5DC
100
AcDbSymbolTableRecord
100
AcDbTextStyleTableRecord
  2
QCADDimTextStyle
 70
     0
 40
0.0
 41
1.0
 50
0.0
 71
     0
 42
0.2
  3
txt
  4

  0
STYLE
  5
681
330
5DC
100
AcDbSymbolTableRecord
100
AcDbTextStyleTableRecord
  2
textstyle0
 70
     0
 40
0.0
 41
1.0
 50
0.0
 71
     0
 42
0.2
  3
ltypeshp.shx
  4

  0
STYLE
  5
682
330
5DC
100
AcDbSymbolTableRecord
100
AcDbTextStyleTableRecord
  2
textstyle1
 70
     0
 40
0.0
 41
1.0
 50
0.0
 71
     0
 42
0.2
  3
ltypeshp.shx
  4

  0
STYLE
  5
696
330
5DC
100
AcDbSymbolTableRecord
100
AcDbTextStyleTableRecord
  2
textstyle2
 70
     0
 40
0.0
 41
1.0
 50
0.0
 71
     0
 42
0.2
  3
STANDARD
  4

  0
STYLE
  5
69B
330
5DC
100
AcDbSymbolTableRecord
100
AcDbTextStyleTableRecord
  2
textstyle3
 70
     0
 40
0.0
 41
1.0
 50
0.0
 71
     0
 42
0.2
  3
ltypeshp.shx
  4

  0
STYLE
  5
69D
330
5DC
100
AcDbSymbolTableRecord
100
AcDbTextStyleTableRecord
  2
textstyle4
 70
     0
 40
0.0
 41
1.0
 50
0.0
 71
     0
 42
0.2
  3
ltypeshp.shx
  4

  0
STYLE
  5
69E
330
5DC
100
AcDbSymbolTableRecord
100
AcDbTextStyleTableRecord
  2
textstyle5
 70
     0
 40
0.0
 41
1.0
 50
0.0
 71
     0
 42
0.2
  3
ltypeshp.shx
  4

  0
STYLE
  5
6A9
330
5DC
100
AcDbSymbolTableRecord
100
AcDbTextStyleTableRecord
  2
textstyle6
 70
     0
 40
0.0
 41
1.0
 50
0.0
 71
     0
 42
0.2
  3
qcadshp.shx
  4

  0
STYLE
  5
6AB
330
5DC
100
AcDbSymbolTableRecord
100
AcDbTextStyleTableRecord
  2
textstyle7
 70
     0
 40
0.0
 41
1.0
 50
0.0
 71
     0
 42
0.2
  3
qcadshp.shx
  4

  0
STYLE
  5
6AD
330
5DC
100
AcDbSymbolTableRecord
100
AcDbTextStyleTableRecord
  2
textstyle8
 70
     0
 40
0.0
 41
1.0
 50
0.0
 71
     0
 42
0.2
  3
ltypeshp.shx
  4

  0
STYLE
  5
6AF
330
5DC
100
AcDbSymbolTableRecord
100
AcDbTextStyleTableRecord
  2
textstyle9
 70
     0
 40
0.0
 41
1.0
 50
0.0
 71
     0
 42
0.2
  3
ltypeshp.shx
  4

  0
STYLE
  5
6B1
330
5DC
100
AcDbSymbolTableRecord
100
AcDbTextStyleTableRecord
  2
textstyle10
 70
     0
 40
0.0
 41
1.0
 50
0.0
 71
     0
 42
0.2
  3
STANDARD
  4

  0
STYLE
  5
6BA
330
5DC
100
AcDbSymbolTableRecord
100
AcDbTextStyleTableRecord
  2
textstyle11
 70
     0
 40
0.0
 41
1.0
 50
0.0
 71
     0
 42
0.2
  3

  4

1001
ACAD
1000
Liberation Sans
1071
        0
  0
STYLE
  5
6BB
330
5DC
100
AcDbSymbolTableRecord
100
AcDbTextStyleTableRecord
  2
textstyle12
 70
     0
 40
0.0
 41
1.0
 50
0.0
 71
     0
 42
0.2
  3

  4

1001
ACAD
1000
Liberation Sans
1071
        0
  0
STYLE
  5
6BC
330
5DC
100
AcDbSymbolTableRecord
100
AcDbTextStyleTableRecord
  2
textstyle13
 70
     0
 40
0.0
 41
1.0
 50
0.0
 71
     0
 42
0.2
  3

  4

1001
ACAD
1000
Liberation Sans
1071
        0
  0
STYLE
  5
6BD
330
5DC
100
AcDbSymbolTableRecord
100
AcDbTextStyleTableRecord
  2
textstyle14
 70
     0
 40
0.0
 41
1.0
 50
0.0
 71
     0
 42
0.2
  3

  4

1001
ACAD
1000
Liberation Sans
1071
        0
  0
STYLE
  5
6BE
330
5DC
100
AcDbSymbolTableRecord
100
AcDbTextStyleTableRecord
  2
textstyle15
 70
     0
 40
0.0
 41
1.0
 50
0.0
 71
     0
 42
0.2
  3

  4

1001
ACAD
1000
Liberation Sans
1071
        0
  0
STYLE
  5
6BF
330
5DC
100
AcDbSymbolTableRecord
100
AcDbTextStyleTableRecord
  2
textstyle16
 70
     0
 40
0.0
 41
1.0
 50
0.0
 71
     0
 42
0.2
  3

  4

1001
ACAD
1000
Liberation Sans
1071
        0
  0
STYLE
  5
6C0
330
5DC
100
AcDbSymbolTableRecord
100
AcDbTextStyleTableRecord
  2
textstyle17
 70
     0
 40
0.0
 41
1.0
 50
0.0
 71
     0
 42
0.2
  3

  4

1001
ACAD
1000
Liberation Sans
1071
        0
  0
STYLE
  5
6C1
330
5DC
100
AcDbSymbolTableRecord
100
AcDbTextStyleTableRecord
  2
textstyle18
 70
     0
 40
0.0
 41
1.0
 50
0.0
 71
     0
 42
0.2
  3

  4

1001
ACAD
1000
Liberation Sans
1071
        0
  0
STYLE
  5
6C2
330
5DC
100
AcDbSymbolTableRecord
100
AcDbTextStyleTableRecord
  2
textstyle19
 70
     0
 40
0.0
 41
1.0
 50
0.0
 71
     0
 42
0.2
  3

  4

1001
ACAD
1000
Liberation Sans
1071
        0
  0
STYLE
  5
6C3
330
5DC
100
AcDbSymbolTableRecord
100
AcDbTextStyleTableRecord
  2
textstyle20
 70
     0
 40
0.0
 41
1.0
 50
0.0
 71
     0
 42
0.2
  3

  4

1001
ACAD
1000
Liberation Sans
1071
        0
  0
STYLE
  5
6C4
330
5DC
100
AcDbSymbolTableRecord
100
AcDbTextStyleTableRecord
  2
textstyle21
 70
     0
 40
0.0
 41
1.0
 50
0.0
 71
     0
 42
0.2
  3

  4

1001
ACAD
1000
Liberation Sans
1071
        0
  0
STYLE
  5
6C5
330
5DC
100
AcDbSymbolTableRecord
100
AcDbTextStyleTableRecord
  2
textstyle22
 70
     0
 40
0.0
 41
1.0
 50
0.0
 71
     0
 42
0.2
  3

  4

1001
ACAD
1000
Liberation Sans
1071
        0
  0
STYLE
  5
6C6
330
5DC
100
AcDbSymbolTableRecord
100
AcDbTextStyleTableRecord
  2
textstyle23
 70
     0
 40
0.0
 41
1.0
 50
0.0
 71
     0
 42
0.2
  3

  4

1001
ACAD
1000
Liberation Sans
1071
        0
  0
STYLE
  5
6C7
330
5DC
100
AcDbSymbolTableRecord
100
AcDbTextStyleTableRecord
  2
textstyle24
 70
     0
 40
0.0
 41
1.0
 50
0.0
 71
     0
 42
0.2
  3

  4

1001
ACAD
1000
Liberation Sans
1071
        0
  0
STYLE
  5
6C8
330
5DC
100
AcDbSymbolTableRecord
100
AcDbTextStyleTableRecord
  2
textstyle25
 70
     0
 40
0.0
 41
1.0
 50
0.0
 71
     0
 42
0.2
  3

  4

1001
ACAD
1000
Liberation Sans
1071
        0
  0
STYLE
  5
6C9
330
5DC
100
AcDbSymbolTableRecord
100
AcDbTextStyleTableRecord
  2
textstyle26
 70
     0
 40
0.0
 41
1.0
 50
0.0
 71
     0
 42
0.2
  3

  4

1001
ACAD
1000
Liberation Sans
1071
        0
  0
STYLE
  5
6CA
330
5DC
100
AcDbSymbolTableRecord
100
AcDbTextStyleTableRecord
  2
textstyle27
 70
     0
 40
0.0
 41
1.0
 50
0.0
 71
     0
 42
0.2
  3

  4

1001
ACAD
1000
Liberation Sans
1071
        0
  0
ENDTAB
  0
TABLE
  2
VIEW
  5
5DE
330
0
100
AcDbSymbolTable
 70
     0
  0
ENDTAB
  0
TABLE
  2
UCS
  5
5DF
330
0
100
AcDbSymbolTable
 70
     0
  0
ENDTAB
  0
TABLE
  2
APPID
  5
5E1
330
0
100
AcDbSymbolTable
 70
     2
  0
APPID
  5
5EA
330
5E1
100
AcDbSymbolTableRecord
100
AcDbRegAppTableRecord
  2
ACAD
 70
     0
  0
APPID
  5
645
330
5E1
100
AcDbSymbolTableRecord
100
AcDbRegAppTableRecord
  2
QCAD
 70
     0
  0
ENDTAB
  0
TABLE
  2
DIMSTYLE
  5
5E2
330
0
100
AcDbSymbolTable
 70
     2
100
AcDbDimStyleTable
  0
DIMSTYLE
105
5FE
330
5E2
100
AcDbSymbolTableRecord
100
AcDbDimStyleTableRecord
  2
Standard
 70
     0
178
     0
340
5E9
  0
DIMSTYLE
105
67A
330
5E2
100
AcDbSymbolTableRecord
100
AcDbDimStyleTableRecord
  2
QCADDimStyle
 70
     0
 41
2.5
 42
0.625
 44
1.25
 73
     0
 77
     1
140
2.5
147
0.625
178
     0
340
679
  0
ENDTAB
  0
TABLE
  2
BLOCK_RECORD
  5
5DA
330
0
100
AcDbSymbolTable
 70
     0
  0
BLOCK_RECORD
  5
5F6
330
5DA
100
AcDbSymbolTableRecord
100
AcDbBlockTableRecord
  2
*Model_Space
340
5F9
 70
     0
280
     1
281
     0
  0
BLOCK_RECORD
  5
5F2
330
5DA
100
AcDbSymbolTableRecord
100
AcDbBlockTableRecord
  2
*Paper_Space
340
5F5
 70
     0
280
     1
281
     0
  0
ENDTAB
  0
ENDSEC
  0
SECTION
  2
BLOCKS
  0
BLOCK
  5
5F7
330
5F6
100
AcDbEntity
  8
0
100
AcDbBlockBegin
  2
*Model_Space
 70
     0
 10
0.0
 20
0.0
 30
0.0
  3
*Model_Space
  1

  0
ENDBLK
  5
5F8
330
5F6
100
AcDbEntity
  8
0
100
AcDbBlockEnd
  0
BLOCK
  5
5F3
330
5F2
100
AcDbEntity
 67
     1
  8
0
100
AcDbBlockBegin
  2
*Paper_Space
 70
     0
 10
0.0
 20
0.0
 30
0.0
  3
*Paper_Space
  1

  0
ENDBLK
  5
5F4
330
5F2
100
AcDbEntity
 67
     1
  8
0
100
AcDbBlockEnd
  0
ENDSEC
  0
SECTION
  2
ENTITIES
  0
LWPOLYLINE
  5
39
330
5F6
100
AcDbEntity
  8
CNC_Limits
 62
     3
420
    65280
370
    -3
100
AcDbPolyline
 90
        4
 70
   129
 43
0.0
 10
0.0
 20
0.0
 10
390.5
 20
0.0
 10
390.5
 20
264.5
 10
0.0
 20
264.5
  0
LWPOLYLINE
  5
51A
330
5F6
100
AcDbEntity
  8
CNC_Limits
 62
     3
420
    65280
370
    -3
100
AcDbPolyline
 90
        4
 70
   129
 43
0.0
 10
0.0
 20
300.0
 10
390.5
 20
300.0
 10
390.5
 20
564.5
 10
0.0
 20
564.5
  0
LWPOLYLINE
  5
3A
330
5F6
100
AcDbEntity
  8
CNC_Limits
 62
     3
420
    65280
370
    -3
100
AcDbPolyline
 90
        4
 70
   129
 43
0.0
 10
10.0
 20
10.0
 10
195.0
 20
10.0
 10
195.0
 20
132.5
 10
10.0
 20
132.5
  0
POINT
  5
11B
330
5F6
100
AcDbEntity
  8
CNC
100
AcDbPoint
 10
70.0
 20
70.0
 30
0.0
  0
LWPOLYLINE
  5
51B
330
5F6
100
AcDbEntity
  8
CNC_Limits
 62
     3
420
    65280
370
    -3
100
AcDbPolyline
 90
        4
 70
   129
 43
0.0
 10
10.0
 20
310.0
 10
195.0
 20
310.0
 10
195.0
 20
432.5
 10
10.0
 20
432.5
  0
LWPOLYLINE
  5
3B
330
5F6
100
AcDbEntity
  8
CNC_Limits
 62
     3
420
    65280
370
    -3
100
AcDbPolyline
 90
        4
 70
   129
 43
0.0
 10
195.0
 20
10.0
 10
380.0
 20
10.0
 10
380.0
 20
132.5
 10
195.0
 20
132.5
  0
LWPOLYLINE
  5
51C
330
5F6
100
AcDbEntity
  8
CNC_Limits
 62
     3
420
    65280
370
    -3
100
AcDbPolyline
 90
        4
 70
   129
 43
0.0
 10
195.0
 20
310.0
 10
380.0
 20
310.0
 10
380.0
 20
432.5
 10
195.0
 20
432.5
  0
LWPOLYLINE
  5
3C
330
5F6
100
AcDbEntity
  8
CNC_Limits
 62
     3
420
    65280
370
    -3
100
AcDbPolyline
 90
        4
 70
   129
 43
0.0
 10
10.0
 20
132.5
 10
195.0
 20
132.5
 10
195.0
 20
255.0
 10
10.0
 20
255.0
  0
LWPOLYLINE
  5
51D
330
5F6
100
AcDbEntity
  8
CNC_Limits
 62
     3
420
    65280
370
    -3
100
AcDbPolyline
 90
        4
 70
   129
 43
0.0
 10
10.0
 20
432.5
 10
195.0
 20
432.5
 10
195.0
 20
555.0
 10
10.0
 20
555.0
  0
LWPOLYLINE
  5
3D
330
5F6
100
AcDbEntity
  8
CNC_Limits
 62
     3
420
    65280
370
    -3
100
AcDbPolyline
 90
        4
 70
   129
 43
0.0
 10
195.0
 20
132.5
 10
380.0
 20
132.5
 10
380.0
 20
255.0
 10
195.0
 20
255.0
  0
LWPOLYLINE
  5
51E
330
5F6
100
AcDbEntity
  8
CNC_Limits
 62
     3
420
    65280
370
    -3
100
AcDbPolyline
 90
        4
 70
   129
 43
0.0
 10
195.0
 20
432.5
 10
380.0
 20
432.5
 10
380.0
 20
555.0
 10
195.0
 20
555.0
  0
LWPOLYLINE
  5
51F
330
5F6
100
AcDbEntity
  8
CNC
100
AcDbPolyline
 90
     1400
 70
   129
 43
0.0
 10
250.2446
 20
368.045
 10
250.2206
 20
368.212
 10
250.1505999999999
 20
368.367
 10
250.0406
 20
368.496
 10
249.8986
 20
368.588
 10
248.7072000000001
 20
369.141
 10
248.6122
 20
369.203
 10
248.5382
 20
369.29
 10
248.4911999999999
 20
369.394
 10
248.4762000000001
 20
369.507
 10
248.4762000000001
 20
370.493
 10
248.4911999999999
 20
370.606
 10
248.5382
 20
370.71
 10
248.6122
 20
370.797
 10
248.7072000000001
 20
370.859
 10
249.8986
 20
371.412
 10
250.0406
 20
371.504
 10
250.1505999999999
 20
371.633
 10
250.2206
 20
371.788
 10
250.2446
 20
371.955
 10
250.1975
 20
373.005
 10
250.1586
 20
373.1691
 10
250.075
 20
373.3172
 10
249.9539
 20
373.4359
 10
249.8042
 20
373.5148
 10
248.568
 20
373.9587
 10
248.4678
 20
374.012
 10
248.3863
 20
374.092
 10
248.3302
 20
374.1914
 10
248.3051
 20
374.3026
 10
248.2168
 20
375.2846
 10
248.2216
 20
375.3985
 10
248.2591
 20
375.5063
 10
248.325
 20
375.5996
 10
248.414
 20
375.6698
 10
249.5509999999999
 20
376.3274
 10
249.6842
 20
376.4317
 10
249.7822
 20
376.5701
 10
249.8380999999999
 20
376.7307
 10
249.847
 20
376.8992
 10
249.7059
 20
377.9407
 10
249.6525
 20
378.1008
 10
249.5559000000001
 20
378.2408
 10
249.4246000000001
 20
378.3481
 10
249.2685
 20
378.4132
 10
247.9974999999999
 20
378.7446
 10
247.893
 20
378.7886
 10
247.8045999999999
 20
378.861
 10
247.7398000000001
 20
378.955
 10
247.7049
 20
379.0635
 10
247.5288
 20
380.0336
 10
247.5234
 20
380.1475
 10
247.5511
 20
380.2582
 10
247.6083
 20
380.357
 10
247.6908
 20
380.435
 10
248.7642
 20
381.1918
 10
248.8875
 20
381.3077
 10
248.9728
 20
381.4543
 10
249.014
 20
381.6193
 10
249.0078
 20
381.7879
 10
248.7739
 20
382.8126
 10
248.7063000000001
 20
382.9672
 10
248.5976000000001
 20
383.0979
 10
248.4572000000001
 20
383.193
 10
248.2959
 20
383.2439
 10
247.0003
 20
383.4601
 10
246.8922
 20
383.4946
 10
246.7978000000001
 20
383.5587
 10
246.7248
 20
383.6465
 10
246.6803
 20
383.7514
 10
246.4179
 20
384.7019
 10
246.4023
 20
384.8148
 10
246.42
 20
384.9276
 10
246.4682
 20
385.0311
 10
246.5432000000001
 20
385.1161
 10
247.5445999999999
 20
385.9662
 10
247.657
 20
386.0926
 10
247.7287
 20
386.2463
 10
247.755
 20
386.4143
 10
247.7337
 20
386.5817
 10
247.4089
 20
387.5812
 10
247.3277
 20
387.7292
 10
247.2076999999999
 20
387.8497
 10
247.0594
 20
387.9318
 10
246.8941
 20
387.968
 10
245.5844
 20
388.0671
 10
245.4737
 20
388.0918
 10
245.3738
 20
388.1473
 10
245.2933
 20
388.2281
 10
245.2395
 20
388.3286
 10
244.8931
 20
389.2518
 10
244.8674
 20
389.3628
 10
244.8749
 20
389.4767
 10
244.9136
 20
389.5842
 10
244.9808
 20
389.6756
 10
245.9018
 20
390.6119
 10
246.0025000000001
 20
390.748
 10
246.0601
 20
390.9074
 10
246.0712
 20
391.0771
 10
246.035
 20
391.2419
 10
245.6219
 20
392.2084
 10
245.5279
 20
392.3484
 10
245.3975
 20
392.4577
 10
245.2424
 20
392.5262
 10
245.0746
 20
392.5474
 10
243.7612
 20
392.5288
 10
243.6487999999999
 20
392.5434
 10
243.5443
 20
392.5897
 10
243.4569
 20
392.663
 10
243.3942999999999
 20
392.7583
 10
242.9665
 20
393.6466
 10
242.931
 20
393.755
 10
242.9282000000001
 20
393.8691
 10
242.9571
 20
393.9795
 10
243.0158
 20
394.0766
 10
243.8493
 20
395.0918
 10
243.9373000000001
 20
395.2363
 10
243.9805
 20
395.4002
 10
243.9763
 20
395.5703
 10
243.9255000000001
 20
395.7311
 10
243.4274
 20
396.6567
 10
243.3212
 20
396.7877
 10
243.1816
 20
396.8849
 10
243.021
 20
396.9392
 10
242.8519
 20
396.9453
 10
241.5454999999999
 20
396.809
 10
241.4321
 20
396.8135
 10
241.3240000000001
 20
396.8502
 10
241.2302999999999
 20
396.9154
 10
241.1595
 20
397.0047
 10
240.6537
 20
397.8511
 10
240.6087
 20
397.9558
 10
240.5957
 20
398.0692
 10
240.6146
 20
398.1819
 10
240.6643
 20
398.2838
 10
241.4034
 20
399.3696
 10
241.4782
 20
399.5214
 10
241.5064
 20
399.6886
 10
241.487
 20
399.8575
 10
241.422
 20
400.0132
 10
240.843
 20
400.8904
 10
240.7254
 20
401.0114
 10
240.5777
 20
401.0956
 10
240.4128000000001
 20
401.1353
 10
240.2438999999999
 20
401.1263
 10
238.955
 20
400.8734
 10
238.8416999999999
 20
400.8677
 10
238.7307000000001
 20
400.8946
 10
238.6315
 20
400.9511
 10
238.553
 20
401.0337
 10
237.9734
 20
401.8314
 10
237.9191
 20
401.9316
 10
237.896
 20
402.0434
 10
237.9047
 20
402.1573
 10
237.9452
 20
402.2633
 10
238.5839
 20
403.4109
 10
238.6448
 20
403.5688
 10
238.6579
 20
403.7379
 10
238.6235
 20
403.9044
 10
238.5447
 20
404.0536
 10
237.8894
 20
404.8753
 10
237.7615000000001
 20
404.9853
 10
237.6068
 20
405.056
 10
237.4391000000001
 20
405.0807
 10
237.2716
 20
405.0566
 10
236.0106000000001
 20
404.6892
 10
235.8982
 20
404.6734
 10
235.7852
 20
404.6902
 10
235.6813999999999
 20
404.7376
 10
235.5958000000001
 20
404.8128
 10
234.9471
 20
405.5553
 10
234.884
 20
405.6503
 10
234.851
 20
405.7596
 10
234.8495
 20
405.8738
 10
234.8802000000001
 20
405.983
 10
235.4136
 20
407.1833
 10
235.46
 20
407.346
 10
235.458
 20
407.5155
 10
235.4087
 20
407.6783
 10
235.3169
 20
407.8198
 10
234.5906
 20
408.5795
 10
234.4533
 20
408.6776
 10
234.2929
 20
408.7341
 10
234.1236
 20
408.7437
 10
233.9590000000001
 20
408.7046
 10
232.7359
 20
408.2257
 10
232.6255
 20
408.1999
 10
232.5115000000001
 20
408.2065
 10
232.4038
 20
408.2444
 10
232.3117999999999
 20
408.3117
 10
231.5991
 20
408.993
 10
231.5278000000001
 20
409.082
 10
231.4851
 20
409.1878
 10
231.4733
 20
409.3014
 10
231.4942
 20
409.4129
 10
231.9177999999999
 20
410.6562
 10
231.9494
 20
410.8224
 10
231.9322
 20
410.9911
 10
231.8686
 20
411.1488
 10
231.7644
 20
411.2816
 10
230.973
 20
411.9731
 10
230.8274
 20
412.0584
 10
230.6626
 20
412.1003
 10
230.4931
 20
412.0948
 10
230.3326999999999
 20
412.0411
 10
229.1575
 20
411.4544
 10
229.0498
 20
411.4188
 10
228.9356
 20
411.4152
 10
228.825
 20
411.4433
 10
228.7273
 20
411.502
 10
227.9564
 20
412.1168
 10
227.8774
 20
412.199
 10
227.8253999999999
 20
412.3006
 10
227.8036
 20
412.4127
 10
227.8143
 20
412.5256
 10
228.1248000000001
 20
413.8018
 10
228.1414
 20
413.9702
 10
228.1091
 20
414.1367
 10
228.0316
 20
414.288
 10
227.9159999999999
 20
414.4109
 10
227.0657
 20
415.0287
 10
226.9131
 20
415.1007
 10
226.7452000000001
 20
415.1276
 10
226.5769
 20
415.1069
 10
226.4219000000001
 20
415.039
 10
225.304
 20
414.3494
 10
225.2
 20
414.3043
 10
225.0866
 20
414.2904
 10
224.9739
 20
414.3085
 10
224.8713
 20
414.3582
 10
224.0484
 20
414.9014
 10
223.9624
 20
414.9762
 10
223.9014999999999
 20
415.0727
 10
223.8697
 20
415.1824
 10
223.8703
 20
415.2958
 10
224.0651
 20
416.5948
 10
224.0665
 20
416.764
 10
224.0195
 20
416.9269
 10
223.9286999999999
 20
417.0707
 10
223.8025
 20
417.1827
 10
222.9003
 20
417.7218
 10
222.7418
 20
417.7798
 10
222.5722000000001
 20
417.7916
 10
222.4064
 20
417.7558
 10
222.2581
 20
417.6744
 10
221.2066
 20
416.8873
 10
221.107
 20
416.833
 10
220.9953
 20
416.8091
 10
220.8815
 20
416.817
 10
220.7748
 20
416.8573
 10
219.9066
 20
417.3245
 10
219.8142
 20
417.3913
 10
219.7449
 20
417.482
 10
219.7033
 20
417.5884
 10
219.6937
 20
417.7014
 10
219.7713
 20
419.0126
 10
219.7576
 20
419.1812
 10
219.6961
 20
419.3392
 10
219.5928
 20
419.4743
 10
219.4571
 20
419.5746
 10
218.5101999999999
 20
420.0306
 10
218.3471999999999
 20
420.0742
 10
218.1772
 20
420.0707
 10
218.0153
 20
420.0203
 10
217.8749
 20
419.9258
 10
216.8982
 20
419.0477
 10
216.8038
 20
418.9847
 10
216.6947
 20
418.9508
 10
216.5806
 20
418.9485
 10
216.4708000000001
 20
418.9791
 10
215.5642
 20
419.3666
 10
215.4662
 20
419.4248
 10
215.389
 20
419.5089
 10
215.3380999999999
 20
419.6112
 10
215.3184
 20
419.7229
 10
215.2782
 20
421.0357
 10
215.2494
 20
421.2025
 10
215.174
 20
421.3543
 10
215.059
 20
421.4796
 10
214.9149
 20
421.5673
 10
213.9308
 20
421.9366
 10
213.7646
 20
421.9654
 10
213.5956
 20
421.9467
 10
213.4389
 20
421.882
 10
213.3075
 20
421.7753
 10
212.4134
 20
420.8132
 10
212.3251
 20
420.742
 10
212.2195
 20
420.6985
 10
212.106
 20
420.6859
 10
211.9938999999999
 20
420.7066
 10
211.0562
 20
421.0113
 10
210.9534
 20
421.0604
 10
210.869
 20
421.1373
 10
210.8090999999999
 20
421.2345
 10
210.7795
 20
421.3441
 10
210.6217
 20
422.648
 10
210.5780999999999
 20
422.8115
 10
210.4893999999999
 20
422.956
 10
210.3636
 20
423.0705
 10
210.2121999999999
 20
423.1449
 10
209.1991
 20
423.4245
 10
209.0309
 20
423.4383
 10
208.8642
 20
423.4045
 10
208.7139999999999
 20
423.326
 10
208.5927
 20
423.208
 10
207.7884
 20
422.1695
 10
207.7069
 20
422.0907
 10
207.6056
 20
422.0379
 10
207.4937
 20
422.0152
 10
207.3802000000001
 20
422.0258
 10
206.4189
 20
422.2452
 10
206.3121
 20
422.2849
 10
206.2212
 20
422.3539
 10
206.1528000000001
 20
422.4454
 10
206.1134999999999
 20
422.5518
 10
205.8395
 20
423.8364
 10
205.7814
 20
423.9953
 10
205.6801
 20
424.1313
 10
205.5445999999999
 20
424.234
 10
205.3871
 20
424.2946
 10
204.3530000000001
 20
424.4822
 10
204.1843
 20
424.4809
 10
204.0213
 20
424.4323
 10
203.8787
 20
424.3406
 10
203.7684
 20
424.2122
 10
203.0605
 20
423.1059
 10
202.9863
 20
423.02
 10
202.8902
 20
422.9584
 10
202.7808
 20
422.9258
 10
202.6668
 20
422.9261
 10
201.6898
 20
423.0584
 10
201.5798
 20
423.0885
 10
201.4829999999999
 20
423.149
 10
201.4068
 20
423.234
 10
201.3581
 20
423.3365
 10
200.97
 20
424.5913
 10
200.8978999999999
 20
424.7444
 10
200.7848
 20
424.8707
 10
200.6405999999999
 20
424.9609
 10
200.4784
 20
425.0071
 10
199.4316
 20
425.1013
 10
199.2637
 20
425.0848
 10
199.1057000000001
 20
425.0218
 10
198.9719
 20
424.9177
 10
198.8736
 20
424.78
 10
198.2677
 20
423.6146
 10
198.2015
 20
423.5225
 10
198.1113
 20
423.4525
 10
198.0053
 20
423.4102
 10
197.8917
 20
423.4003
 10
196.9067
 20
423.4445
 10
196.7945
 20
423.4646
 10
196.6927000000001
 20
423.5162
 10
196.6091
 20
423.594
 10
196.5514000000001
 20
423.6917
 10
196.0524
 20
424.9067
 10
195.9669
 20
425.0527
 10
195.843
 20
425.1684
 10
195.6913
 20
425.2453
 10
195.5255
 20
425.2767
 10
194.4745
 20
425.2767
 10
194.3087
 20
425.2453
 10
194.157
 20
425.1684
 10
194.0331
 20
425.0527
 10
193.9476
 20
424.9067
 10
193.4485999999999
 20
423.6917
 10
193.3909
 20
423.594
 10
193.3072999999999
 20
423.5162
 10
193.2055
 20
423.4646
 10
193.0933
 20
423.4445
 10
192.1083
 20
423.4003
 10
191.9947
 20
423.4102
 10
191.8887
 20
423.4525
 10
191.7985
 20
423.5225
 10
191.7323
 20
423.6146
 10
191.1264
 20
424.78
 10
191.0281
 20
424.9177
 10
190.8942999999999
 20
425.0218
 10
190.7363
 20
425.0848
 10
190.5684
 20
425.1013
 10
189.5216
 20
425.0071
 10
189.3594000000001
 20
424.9609
 10
189.2152
 20
424.8707
 10
189.1021000000001
 20
424.7444
 10
189.03
 20
424.5913
 10
188.6419
 20
423.3365
 10
188.5932
 20
423.234
 10
188.5170000000001
 20
423.149
 10
188.4202
 20
423.0885
 10
188.3102
 20
423.0584
 10
187.3332
 20
422.9261
 10
187.2192
 20
422.9258
 10
187.1098
 20
422.9584
 10
187.0137
 20
423.02
 10
186.9395
 20
423.1059
 10
186.2316
 20
424.2122
 10
186.1213
 20
424.3406
 10
185.9787
 20
424.4323
 10
185.8157
 20
424.4809
 10
185.6469999999999
 20
424.4822
 10
184.6129
 20
424.2946
 10
184.4554000000001
 20
424.234
 10
184.3199
 20
424.1313
 10
184.2186
 20
423.9953
 10
184.1605
 20
423.8364
 10
183.8865000000001
 20
422.5518
 10
183.8471999999999
 20
422.4454
 10
183.7788
 20
422.3539
 10
183.6879
 20
422.2849
 10
183.5811
 20
422.2452
 10
182.6197999999999
 20
422.0258
 10
182.5063
 20
422.0152
 10
182.3944
 20
422.0379
 10
182.2931
 20
422.0907
 10
182.2116
 20
422.1695
 10
181.4073
 20
423.208
 10
181.2860000000001
 20
423.326
 10
181.1358
 20
423.4045
 10
180.9691
 20
423.4383
 10
180.8009
 20
423.4245
 10
179.7878000000001
 20
423.1449
 10
179.6364
 20
423.0705
 10
179.5106000000001
 20
422.956
 10
179.4219000000001
 20
422.8115
 10
179.3783
 20
422.648
 10
179.2205
 20
421.3441
 10
179.1909000000001
 20
421.2345
 10
179.131
 20
421.1373
 10
179.0466
 20
421.0604
 10
178.9438
 20
421.0113
 10
178.0061000000001
 20
420.7066
 10
177.894
 20
420.6859
 10
177.7805
 20
420.6985
 10
177.6749
 20
420.742
 10
177.5866
 20
420.8132
 10
176.6925
 20
421.7753
 10
176.5611
 20
421.882
 10
176.4044
 20
421.9467
 10
176.2354
 20
421.9654
 10
176.0692
 20
421.9366
 10
175.0851
 20
421.5673
 10
174.941
 20
421.4796
 10
174.826
 20
421.3543
 10
174.7506
 20
421.2025
 10
174.7218
 20
421.0357
 10
174.6816
 20
419.7229
 10
174.6619000000001
 20
419.6112
 10
174.611
 20
419.5089
 10
174.5338
 20
419.4248
 10
174.4358
 20
419.3666
 10
173.5291999999999
 20
418.9791
 10
173.4194
 20
418.9485
 10
173.3053
 20
418.9508
 10
173.1962
 20
418.9847
 10
173.1018
 20
419.0477
 10
172.1251
 20
419.9258
 10
171.9847
 20
420.0203
 10
171.8228
 20
420.0707
 10
171.6528000000001
 20
420.0742
 10
171.4898000000001
 20
420.0306
 10
170.5429
 20
419.5746
 10
170.4072
 20
419.4743
 10
170.3039
 20
419.3392
 10
170.2424
 20
419.1812
 10
170.2287
 20
419.0126
 10
170.3063
 20
417.7014
 10
170.2967
 20
417.5884
 10
170.2551
 20
417.482
 10
170.1858
 20
417.3913
 10
170.0934
 20
417.3245
 10
169.2252
 20
416.8573
 10
169.1185
 20
416.817
 10
169.0047
 20
416.8091
 10
168.893
 20
416.833
 10
168.7934
 20
416.8873
 10
167.7419
 20
417.6744
 10
167.5936
 20
417.7558
 10
167.4277999999999
 20
417.7916
 10
167.2582
 20
417.7798
 10
167.0997
 20
417.7218
 10
166.1975
 20
417.1827
 10
166.0713000000001
 20
417.0707
 10
165.9805
 20
416.9269
 10
165.9335
 20
416.764
 10
165.9349
 20
416.5948
 10
166.1297
 20
415.2958
 10
166.1303
 20
415.1824
 10
166.0985000000001
 20
415.0727
 10
166.0376
 20
414.9762
 10
165.9516
 20
414.9014
 10
165.1287
 20
414.3582
 10
165.0261
 20
414.3085
 10
164.9134
 20
414.2904
 10
164.8
 20
414.3043
 10
164.696
 20
414.3494
 10
163.5780999999999
 20
415.039
 10
163.4231
 20
415.1069
 10
163.2547999999999
 20
415.1276
 10
163.0869
 20
415.1007
 10
162.9343
 20
415.0287
 10
162.0840000000001
 20
414.4109
 10
161.9684
 20
414.288
 10
161.8909
 20
414.1367
 10
161.8586
 20
413.9702
 10
161.8751999999999
 20
413.8018
 10
162.1857
 20
412.5256
 10
162.1964
 20
412.4127
 10
162.1746000000001
 20
412.3006
 10
162.1226
 20
412.199
 10
162.0436
 20
412.1168
 10
161.2727
 20
411.502
 10
161.175
 20
411.4433
 10
161.0644
 20
411.4152
 10
160.9502
 20
411.4188
 10
160.8425
 20
411.4544
 10
159.6673000000001
 20
412.0411
 10
159.5069
 20
412.0948
 10
159.3374
 20
412.1003
 10
159.1726
 20
412.0584
 10
159.027
 20
411.9731
 10
158.2356
 20
411.2816
 10
158.1314
 20
411.1488
 10
158.0678
 20
410.9911
 10
158.0506
 20
410.8224
 10
158.0822000000001
 20
410.6562
 10
158.5058
 20
409.4129
 10
158.5267
 20
409.3014
 10
158.5149
 20
409.1878
 10
158.4721999999999
 20
409.082
 10
158.4009
 20
408.993
 10
157.6882000000001
 20
408.3117
 10
157.5962
 20
408.2444
 10
157.4885
 20
408.2065
 10
157.3745
 20
408.1999
 10
157.2641
 20
408.2257
 10
156.0409999999999
 20
408.7046
 10
155.8764
 20
408.7437
 10
155.7071
 20
408.7341
 10
155.5467
 20
408.6776
 10
155.4094
 20
408.5795
 10
154.6831
 20
407.8198
 10
154.5913
 20
407.6783
 10
154.542
 20
407.5155
 10
154.54
 20
407.346
 10
154.5864
 20
407.1833
 10
155.1197999999999
 20
405.983
 10
155.1505
 20
405.8738
 10
155.149
 20
405.7596
 10
155.116
 20
405.6503
 10
155.0529
 20
405.5553
 10
154.4041999999999
 20
404.8128
 10
154.3186000000001
 20
404.7376
 10
154.2148
 20
404.6902
 10
154.1018
 20
404.6734
 10
153.9894
 20
404.6892
 10
152.7284
 20
405.0566
 10
152.5608999999999
 20
405.0807
 10
152.3932
 20
405.056
 10
152.2385
 20
404.9853
 10
152.1106
 20
404.8753
 10
151.4553
 20
404.0536
 10
151.3765
 20
403.9044
 10
151.3421
 20
403.7379
 10
151.3552
 20
403.5688
 10
151.4161
 20
403.4109
 10
152.0548
 20
402.2633
 10
152.0953
 20
402.1573
 10
152.104
 20
402.0434
 10
152.0809
 20
401.9316
 10
152.0266
 20
401.8314
 10
151.447
 20
401.0337
 10
151.3685
 20
400.9511
 10
151.2693
 20
400.8946
 10
151.1583000000001
 20
400.8677
 10
151.045
 20
400.8734
 10
149.7561000000001
 20
401.1263
 10
149.5871999999999
 20
401.1353
 10
149.4223
 20
401.0956
 10
149.2746
 20
401.0114
 10
149.157
 20
400.8904
 10
148.578
 20
400.0132
 10
148.513
 20
399.8575
 10
148.4936
 20
399.6886
 10
148.5218
 20
399.5214
 10
148.5966
 20
399.3696
 10
149.3357
 20
398.2838
 10
149.3854
 20
398.1819
 10
149.4043
 20
398.0692
 10
149.3913
 20
397.9558
 10
149.3463
 20
397.8511
 10
148.8405
 20
397.0047
 10
148.7697000000001
 20
396.9154
 10
148.676
 20
396.8502
 10
148.5679
 20
396.8135
 10
148.4545000000001
 20
396.809
 10
147.1481
 20
396.9453
 10
146.979
 20
396.9392
 10
146.8184
 20
396.8849
 10
146.6788
 20
396.7877
 10
146.5726
 20
396.6567
 10
146.0744999999999
 20
395.7311
 10
146.0237
 20
395.5703
 10
146.0195
 20
395.4002
 10
146.0626999999999
 20
395.2363
 10
146.1507
 20
395.0918
 10
146.9842
 20
394.0766
 10
147.0429
 20
393.9795
 10
147.0717999999999
 20
393.8691
 10
147.069
 20
393.755
 10
147.0335
 20
393.6466
 10
146.6057
 20
392.7583
 10
146.5431
 20
392.663
 10
146.4557
 20
392.5897
 10
146.3512000000001
 20
392.5434
 10
146.2388
 20
392.5288
 10
144.9254
 20
392.5474
 10
144.7576
 20
392.5262
 10
144.6025
 20
392.4577
 10
144.4721
 20
392.3484
 10
144.3781
 20
392.2084
 10
143.965
 20
391.2419
 10
143.9288
 20
391.0771
 10
143.9399
 20
390.9074
 10
143.9974999999999
 20
390.748
 10
144.0982
 20
390.6119
 10
145.0192
 20
389.6756
 10
145.0864
 20
389.5842
 10
145.1251
 20
389.4767
 10
145.1326
 20
389.3628
 10
145.1069
 20
389.2518
 10
144.7605
 20
388.3286
 10
144.7067
 20
388.2281
 10
144.6262
 20
388.1473
 10
144.5263
 20
388.0918
 10
144.4156
 20
388.0671
 10
143.1059
 20
387.968
 10
142.9406
 20
387.9318
 10
142.7923
 20
387.8497
 10
142.6723
 20
387.7292
 10
142.5911
 20
387.5812
 10
142.2663
 20
386.5817
 10
142.245
 20
386.4143
 10
142.2713
 20
386.2463
 10
142.343
 20
386.0926
 10
142.4554000000001
 20
385.9662
 10
143.4568
 20
385.1161
 10
143.5318
 20
385.0311
 10
143.58
 20
384.9276
 10
143.5977
 20
384.8148
 10
143.5821
 20
384.7019
 10
143.3197
 20
383.7514
 10
143.2752
 20
383.6465
 10
143.2021999999999
 20
383.5587
 10
143.1078
 20
383.4946
 10
142.9997
 20
383.4601
 10
141.7041
 20
383.2439
 10
141.5427999999999
 20
383.193
 10
141.4023999999999
 20
383.0979
 10
141.2936999999999
 20
382.9672
 10
141.2261
 20
382.8126
 10
140.9922
 20
381.7879
 10
140.986
 20
381.6193
 10
141.0272
 20
381.4543
 10
141.1125
 20
381.3077
 10
141.2358
 20
381.1918
 10
142.3092
 20
380.435
 10
142.3917
 20
380.357
 10
142.4489
 20
380.2582
 10
142.4766
 20
380.1475
 10
142.4712
 20
380.0336
 10
142.2951
 20
379.0635
 10
142.2601999999999
 20
378.955
 10
142.1954000000001
 20
378.861
 10
142.107
 20
378.7886
 10
142.0025000000001
 20
378.7446
 10
140.7315
 20
378.4132
 10
140.5753999999999
 20
378.3481
 10
140.4441
 20
378.2408
 10
140.3475
 20
378.1008
 10
140.2941
 20
377.9407
 10
140.153
 20
376.8992
 10
140.1619000000001
 20
376.7307
 10
140.2178
 20
376.5701
 10
140.3158
 20
376.4317
 10
140.449
 20
376.3274
 10
141.586
 20
375.6698
 10
141.675
 20
375.5996
 10
141.7409
 20
375.5063
 10
141.7784
 20
375.3985
 10
141.7832
 20
375.2846
 10
141.6949
 20
374.3026
 10
141.6698
 20
374.1914
 10
141.6137
 20
374.092
 10
141.5322
 20
374.012
 10
141.432
 20
373.9587
 10
140.1958
 20
373.5148
 10
140.0461
 20
373.4359
 10
139.925
 20
373.3172
 10
139.8414
 20
373.1691
 10
139.8025
 20
373.005
 10
139.7554
 20
371.955
 10
139.7794
 20
371.788
 10
139.8494000000001
 20
371.633
 10
139.9594
 20
371.504
 10
140.1014
 20
371.412
 10
141.2927999999999
 20
370.859
 10
141.3878
 20
370.797
 10
141.4618
 20
370.71
 10
141.5088
 20
370.606
 10
141.5237999999999
 20
370.493
 10
141.5237999999999
 20
369.507
 10
141.5088
 20
369.394
 10
141.4618
 20
369.29
 10
141.3878
 20
369.203
 10
141.2927999999999
 20
369.141
 10
140.1014
 20
368.588
 10
139.9594
 20
368.496
 10
139.8494000000001
 20
368.367
 10
139.7794
 20
368.212
 10
139.7554
 20
368.045
 10
139.8025
 20
366.995
 10
139.8414
 20
366.8309
 10
139.925
 20
366.6828
 10
140.0461
 20
366.5641
 10
140.1958
 20
366.4852
 10
141.432
 20
366.0413
 10
141.5322
 20
365.988
 10
141.6137
 20
365.908
 10
141.6698
 20
365.8086
 10
141.6949
 20
365.6974
 10
141.7832
 20
364.7154
 10
141.7784
 20
364.6015
 10
141.7409
 20
364.4937
 10
141.675
 20
364.4004
 10
141.586
 20
364.3302
 10
140.449
 20
363.6726
 10
140.3158
 20
363.5683
 10
140.2178
 20
363.4299
 10
140.1619000000001
 20
363.2693
 10
140.153
 20
363.1008
 10
140.2941
 20
362.0593
 10
140.3475
 20
361.8992
 10
140.4441
 20
361.7592
 10
140.5753999999999
 20
361.6519
 10
140.7315
 20
361.5868
 10
142.0025000000001
 20
361.2554
 10
142.107
 20
361.2114
 10
142.1954000000001
 20
361.139
 10
142.2601999999999
 20
361.045
 10
142.2951
 20
360.9365
 10
142.4712
 20
359.9664
 10
142.4766
 20
359.8525
 10
142.4489
 20
359.7418
 10
142.3917
 20
359.643
 10
142.3092
 20
359.565
 10
141.2358
 20
358.8082
 10
141.1125
 20
358.6923
 10
141.0272
 20
358.5457
 10
140.986
 20
358.3807
 10
140.9922
 20
358.2121
 10
141.2261
 20
357.1874
 10
141.2936999999999
 20
357.0328
 10
141.4023999999999
 20
356.9021
 10
141.5427999999999
 20
356.807
 10
141.7041
 20
356.7561
 10
142.9997
 20
356.5399
 10
143.1078
 20
356.5054
 10
143.2021999999999
 20
356.4413
 10
143.2752
 20
356.3535
 10
143.3197
 20
356.2486
 10
143.5821
 20
355.2981
 10
143.5977
 20
355.1852
 10
143.58
 20
355.0724
 10
143.5318
 20
354.9689
 10
143.4568
 20
354.8839
 10
142.4554000000001
 20
354.0338
 10
142.343
 20
353.9074
 10
142.2713
 20
353.7537
 10
142.245
 20
353.5857
 10
142.2663
 20
353.4183
 10
142.5911
 20
352.4188
 10
142.6723
 20
352.2708
 10
142.7923
 20
352.1503
 10
142.9406
 20
352.0682
 10
143.1059
 20
352.032
 10
144.4156
 20
351.9329
 10
144.5263
 20
351.9082
 10
144.6262
 20
351.8527
 10
144.7067
 20
351.7719
 10
144.7605
 20
351.6714
 10
145.1069
 20
350.7482
 10
145.1326
 20
350.6372
 10
145.1251
 20
350.5233
 10
145.0864
 20
350.4158
 10
145.0192
 20
350.3244
 10
144.0982
 20
349.3881
 10
143.9974999999999
 20
349.252
 10
143.9399
 20
349.0926
 10
143.9288
 20
348.9229
 10
143.965
 20
348.7581
 10
144.3781
 20
347.7916
 10
144.4721
 20
347.6516
 10
144.6025
 20
347.5423
 10
144.7576
 20
347.4738
 10
144.9254
 20
347.4526
 10
146.2388
 20
347.4712
 10
146.3512000000001
 20
347.4566
 10
146.4557
 20
347.4103
 10
146.5431
 20
347.337
 10
146.6057
 20
347.2417
 10
147.0335
 20
346.3534
 10
147.069
 20
346.245
 10
147.0717999999999
 20
346.1309
 10
147.0429
 20
346.0205
 10
146.9842
 20
345.9234
 10
146.1507
 20
344.9082
 10
146.0626999999999
 20
344.7637
 10
146.0195
 20
344.5998
 10
146.0237
 20
344.4297
 10
146.0744999999999
 20
344.2689
 10
146.5726
 20
343.3433
 10
146.6788
 20
343.2123
 10
146.8184
 20
343.1151
 10
146.979
 20
343.0608
 10
147.1481
 20
343.0547
 10
148.4545000000001
 20
343.191
 10
148.5679
 20
343.1865
 10
148.676
 20
343.1498
 10
148.7697000000001
 20
343.0846
 10
148.8405
 20
342.9953
 10
149.3463
 20
342.1489
 10
149.3913
 20
342.0442
 10
149.4043
 20
341.9308
 10
149.3854
 20
341.8181
 10
149.3357
 20
341.7162
 10
148.5966
 20
340.6304
 10
148.5218
 20
340.4786
 10
148.4936
 20
340.3114
 10
148.513
 20
340.1425
 10
148.578
 20
339.9868
 10
149.157
 20
339.1096
 10
149.2746
 20
338.9886
 10
149.4223
 20
338.9044
 10
149.5871999999999
 20
338.8647
 10
149.7561000000001
 20
338.8737
 10
151.045
 20
339.1266
 10
151.1583000000001
 20
339.1323
 10
151.2693
 20
339.1054
 10
151.3685
 20
339.0489
 10
151.447
 20
338.9663
 10
152.0266
 20
338.1686
 10
152.0809
 20
338.0684
 10
152.104
 20
337.9566
 10
152.0953
 20
337.8427
 10
152.0548
 20
337.7367
 10
151.4161
 20
336.5891
 10
151.3552
 20
336.4312
 10
151.3421
 20
336.2621
 10
151.3765
 20
336.0956
 10
151.4553
 20
335.9464
 10
152.1106
 20
335.1247
 10
152.2385
 20
335.0147
 10
152.3932
 20
334.944
 10
152.5608999999999
 20
334.9193
 10
152.7284
 20
334.9434
 10
153.9894
 20
335.3108
 10
154.1018
 20
335.3266
 10
154.2148
 20
335.3098
 10
154.3186000000001
 20
335.2624
 10
154.4041999999999
 20
335.1872
 10
155.0529
 20
334.4447
 10
155.116
 20
334.3497
 10
155.149
 20
334.2404
 10
155.1505
 20
334.1262
 10
155.1197999999999
 20
334.017
 10
154.5864
 20
332.8167
 10
154.54
 20
332.654
 10
154.542
 20
332.4845
 10
154.5913
 20
332.3217
 10
154.6831
 20
332.1802
 10
155.4094
 20
331.4205
 10
155.5467
 20
331.3224
 10
155.7071
 20
331.2659
 10
155.8764
 20
331.2563
 10
156.0409999999999
 20
331.2954
 10
157.2641
 20
331.7743
 10
157.3745
 20
331.8001
 10
157.4885
 20
331.7935
 10
157.5962
 20
331.7556
 10
157.6882000000001
 20
331.6883
 10
158.4009
 20
331.007
 10
158.4721999999999
 20
330.918
 10
158.5149
 20
330.8122
 10
158.5267
 20
330.6986
 10
158.5058
 20
330.5871
 10
158.0822000000001
 20
329.3438
 10
158.0506
 20
329.1776
 10
158.0678
 20
329.0089
 10
158.1314
 20
328.8512
 10
158.2356
 20
328.7184
 10
159.027
 20
328.0269
 10
159.1726
 20
327.9416
 10
159.3374
 20
327.8997
 10
159.5069
 20
327.9052
 10
159.6673000000001
 20
327.9589
 10
160.8425
 20
328.5456
 10
160.9502
 20
328.5812
 10
161.0644
 20
328.5848
 10
161.175
 20
328.5567
 10
161.2727
 20
328.498
 10
162.0436
 20
327.8832
 10
162.1226
 20
327.801
 10
162.1746000000001
 20
327.6994
 10
162.1964
 20
327.5873
 10
162.1857
 20
327.4744
 10
161.8751999999999
 20
326.1982
 10
161.8586
 20
326.0298
 10
161.8909
 20
325.8633
 10
161.9684
 20
325.712
 10
162.0840000000001
 20
325.5891
 10
162.9343
 20
324.9713
 10
163.0869
 20
324.8993
 10
163.2547999999999
 20
324.8724
 10
163.4231
 20
324.8931
 10
163.5780999999999
 20
324.961
 10
164.696
 20
325.6506
 10
164.8
 20
325.6957
 10
164.9134
 20
325.7096
 10
165.0261
 20
325.6915
 10
165.1287
 20
325.6418
 10
165.9516
 20
325.0986
 10
166.0376
 20
325.0238
 10
166.0985000000001
 20
324.9273
 10
166.1303
 20
324.8176
 10
166.1297
 20
324.7042
 10
165.9349
 20
323.4052
 10
165.9335
 20
323.236
 10
165.9805
 20
323.0731
 10
166.0713000000001
 20
322.9293
 10
166.1975
 20
322.8173
 10
167.0997
 20
322.2782
 10
167.2582
 20
322.2202
 10
167.4277999999999
 20
322.2084
 10
167.5936
 20
322.2442
 10
167.7419
 20
322.3256
 10
168.7934
 20
323.1127
 10
168.893
 20
323.167
 10
169.0047
 20
323.1909
 10
169.1185
 20
323.183
 10
169.2252
 20
323.1427
 10
170.0934
 20
322.6755
 10
170.1858
 20
322.6087
 10
170.2551
 20
322.518
 10
170.2967
 20
322.4116
 10
170.3063
 20
322.2986
 10
170.2287
 20
320.9874
 10
170.2424
 20
320.8188
 10
170.3039
 20
320.6608
 10
170.4072
 20
320.5257
 10
170.5429
 20
320.4254
 10
171.4898000000001
 20
319.9694
 10
171.6528000000001
 20
319.9258
 10
171.8228
 20
319.9293
 10
171.9847
 20
319.9797
 10
172.1251
 20
320.0742
 10
173.1018
 20
320.9523
 10
173.1962
 20
321.0153
 10
173.3053
 20
321.0492
 10
173.4194
 20
321.0515
 10
173.5291999999999
 20
321.0209
 10
174.4358
 20
320.6334
 10
174.5338
 20
320.5752
 10
174.611
 20
320.4911
 10
174.6619000000001
 20
320.3888
 10
174.6816
 20
320.2771
 10
174.7218
 20
318.9643
 10
174.7506
 20
318.7975
 10
174.826
 20
318.6457
 10
174.941
 20
318.5204
 10
175.0851
 20
318.4327
 10
176.0692
 20
318.0634
 10
176.2354
 20
318.0346
 10
176.4044
 20
318.0533
 10
176.5611
 20
318.118
 10
176.6925
 20
318.2247
 10
177.5866
 20
319.1868
 10
177.6749
 20
319.258
 10
177.7805
 20
319.3015
 10
177.894
 20
319.3141
 10
178.0061000000001
 20
319.2934
 10
178.9438
 20
318.9887
 10
179.0466
 20
318.9396
 10
179.131
 20
318.8627
 10
179.1909000000001
 20
318.7655
 10
179.2205
 20
318.6559
 10
179.3783
 20
317.352
 10
179.4219000000001
 20
317.1885
 10
179.5106000000001
 20
317.044
 10
179.6364
 20
316.9295
 10
179.7878000000001
 20
316.8551
 10
180.8009
 20
316.5755
 10
180.9691
 20
316.5617
 10
181.1358
 20
316.5955
 10
181.2860000000001
 20
316.674
 10
181.4073
 20
316.792
 10
182.2116
 20
317.8305
 10
182.2931
 20
317.9093
 10
182.3944
 20
317.9621
 10
182.5063
 20
317.9848
 10
182.6197999999999
 20
317.9742
 10
183.5811
 20
317.7548
 10
183.6879
 20
317.7151
 10
183.7788
 20
317.6461
 10
183.8471999999999
 20
317.5546
 10
183.8865000000001
 20
317.4482
 10
184.1605
 20
316.1636
 10
184.2186
 20
316.0047
 10
184.3199
 20
315.8687
 10
184.4554000000001
 20
315.766
 10
184.6129
 20
315.7054
 10
185.6469999999999
 20
315.5178
 10
185.8157
 20
315.5191
 10
185.9787
 20
315.5677
 10
186.1213
 20
315.6594
 10
186.2316
 20
315.7878
 10
186.9395
 20
316.8941
 10
187.0137
 20
316.98
 10
187.1098
 20
317.0416
 10
187.2192
 20
317.0742
 10
187.3332
 20
317.0739
 10
188.3102
 20
316.9416
 10
188.4202
 20
316.9115
 10
188.5170000000001
 20
316.851
 10
188.5932
 20
316.766
 10
188.6419
 20
316.6635
 10
189.03
 20
315.4087
 10
189.1021000000001
 20
315.2556
 10
189.2152
 20
315.1293
 10
189.3594000000001
 20
315.0391
 10
189.5216
 20
314.9929
 10
190.5684
 20
314.8987
 10
190.7363
 20
314.9152
 10
190.8942999999999
 20
314.9782
 10
191.0281
 20
315.0823
 10
191.1264
 20
315.22
 10
191.7323
 20
316.3854
 10
191.7985
 20
316.4775
 10
191.8887
 20
316.5475
 10
191.9947
 20
316.5898
 10
192.1083
 20
316.5997
 10
193.0933
 20
316.5555
 10
193.2055
 20
316.5354
 10
193.3072999999999
 20
316.4838
 10
193.3909
 20
316.406
 10
193.4485999999999
 20
316.3083
 10
193.9476
 20
315.0933
 10
194.0331
 20
314.9473
 10
194.157
 20
314.8316
 10
194.3087
 20
314.7547
 10
194.4745
 20
314.7233
 10
195.5255
 20
314.7233
 10
195.6913
 20
314.7547
 10
195.843
 20
314.8316
 10
195.9669
 20
314.9473
 10
196.0524
 20
315.0933
 10
196.5514000000001
 20
316.3083
 10
196.6091
 20
316.406
 10
196.6927000000001
 20
316.4838
 10
196.7945
 20
316.5354
 10
196.9067
 20
316.5555
 10
197.8917
 20
316.5997
 10
198.0053
 20
316.5898
 10
198.1113
 20
316.5475
 10
198.2015
 20
316.4775
 10
198.2677
 20
316.3854
 10
198.8736
 20
315.22
 10
198.9719
 20
315.0823
 10
199.1057000000001
 20
314.9782
 10
199.2637
 20
314.9152
 10
199.4316
 20
314.8987
 10
200.4784
 20
314.9929
 10
200.6405999999999
 20
315.0391
 10
200.7848
 20
315.1293
 10
200.8978999999999
 20
315.2556
 10
200.97
 20
315.4087
 10
201.3581
 20
316.6635
 10
201.4068
 20
316.766
 10
201.4829999999999
 20
316.851
 10
201.5798
 20
316.9115
 10
201.6898
 20
316.9416
 10
202.6668
 20
317.0739
 10
202.7808
 20
317.0742
 10
202.8902
 20
317.0416
 10
202.9863
 20
316.98
 10
203.0605
 20
316.8941
 10
203.7684
 20
315.7878
 10
203.8787
 20
315.6594
 10
204.0213
 20
315.5677
 10
204.1843
 20
315.5191
 10
204.3530000000001
 20
315.5178
 10
205.3871
 20
315.7054
 10
205.5445999999999
 20
315.766
 10
205.6801
 20
315.8687
 10
205.7814
 20
316.0047
 10
205.8395
 20
316.1636
 10
206.1134999999999
 20
317.4482
 10
206.1528000000001
 20
317.5546
 10
206.2212
 20
317.6461
 10
206.3121
 20
317.7151
 10
206.4189
 20
317.7548
 10
207.3802000000001
 20
317.9742
 10
207.4937
 20
317.9848
 10
207.6056
 20
317.9621
 10
207.7069
 20
317.9093
 10
207.7884
 20
317.8305
 10
208.5927
 20
316.792
 10
208.7139999999999
 20
316.674
 10
208.8642
 20
316.5955
 10
209.0309
 20
316.5617
 10
209.1991
 20
316.5755
 10
210.2121999999999
 20
316.8551
 10
210.3636
 20
316.9295
 10
210.4893999999999
 20
317.044
 10
210.5780999999999
 20
317.1885
 10
210.6217
 20
317.352
 10
210.7795
 20
318.6559
 10
210.8090999999999
 20
318.7655
 10
210.869
 20
318.8627
 10
210.9534
 20
318.9396
 10
211.0562
 20
318.9887
 10
211.9938999999999
 20
319.2934
 10
212.106
 20
319.3141
 10
212.2195
 20
319.3015
 10
212.3251
 20
319.258
 10
212.4134
 20
319.1868
 10
213.3075
 20
318.2247
 10
213.4389
 20
318.118
 10
213.5956
 20
318.0533
 10
213.7646
 20
318.0346
 10
213.9308
 20
318.0634
 10
214.9149
 20
318.4327
 10
215.059
 20
318.5204
 10
215.174
 20
318.6457
 10
215.2494
 20
318.7975
 10
215.2782
 20
318.9643
 10
215.3184
 20
320.2771
 10
215.3380999999999
 20
320.3888
 10
215.389
 20
320.4911
 10
215.4662
 20
320.5752
 10
215.5642
 20
320.6334
 10
216.4708000000001
 20
321.0209
 10
216.5806
 20
321.0515
 10
216.6947
 20
321.0492
 10
216.8038
 20
321.0153
 10
216.8982
 20
320.9523
 10
217.8749
 20
320.0742
 10
218.0153
 20
319.9797
 10
218.1772
 20
319.9293
 10
218.3471999999999
 20
319.9258
 10
218.5101999999999
 20
319.9694
 10
219.4571
 20
320.4254
 10
219.5928
 20
320.5257
 10
219.6961
 20
320.6608
 10
219.7576
 20
320.8188
 10
219.7713
 20
320.9874
 10
219.6937
 20
322.2986
 10
219.7033
 20
322.4116
 10
219.7449
 20
322.518
 10
219.8142
 20
322.6087
 10
219.9066
 20
322.6755
 10
220.7748
 20
323.1427
 10
220.8815
 20
323.183
 10
220.9953
 20
323.1909
 10
221.107
 20
323.167
 10
221.2066
 20
323.1127
 10
222.2581
 20
322.3256
 10
222.4064
 20
322.2442
 10
222.5722000000001
 20
322.2084
 10
222.7418
 20
322.2202
 10
222.9003
 20
322.2782
 10
223.8025
 20
322.8173
 10
223.9286999999999
 20
322.9293
 10
224.0195
 20
323.0731
 10
224.0665
 20
323.236
 10
224.0651
 20
323.4052
 10
223.8703
 20
324.7042
 10
223.8697
 20
324.8176
 10
223.9014999999999
 20
324.9273
 10
223.9624
 20
325.0238
 10
224.0484
 20
325.0986
 10
224.8713
 20
325.6418
 10
224.9739
 20
325.6915
 10
225.0866
 20
325.7096
 10
225.2
 20
325.6957
 10
225.304
 20
325.6506
 10
226.4219000000001
 20
324.961
 10
226.5769
 20
324.8931
 10
226.7452000000001
 20
324.8724
 10
226.9131
 20
324.8993
 10
227.0657
 20
324.9713
 10
227.9159999999999
 20
325.5891
 10
228.0316
 20
325.712
 10
228.1091
 20
325.8633
 10
228.1414
 20
326.0298
 10
228.1248000000001
 20
326.1982
 10
227.8143
 20
327.4744
 10
227.8036
 20
327.5873
 10
227.8253999999999
 20
327.6994
 10
227.8774
 20
327.801
 10
227.9564
 20
327.8832
 10
228.7273
 20
328.498
 10
228.825
 20
328.5567
 10
228.9356
 20
328.5848
 10
229.0498
 20
328.5812
 10
229.1575
 20
328.5456
 10
230.3326999999999
 20
327.9589
 10
230.4931
 20
327.9052
 10
230.6626
 20
327.8997
 10
230.8274
 20
327.9416
 10
230.973
 20
328.0269
 10
231.7644
 20
328.7184
 10
231.8686
 20
328.8512
 10
231.9322
 20
329.0089
 10
231.9494
 20
329.1776
 10
231.9177999999999
 20
329.3438
 10
231.4942
 20
330.5871
 10
231.4733
 20
330.6986
 10
231.4851
 20
330.8122
 10
231.5278000000001
 20
330.918
 10
231.5991
 20
331.007
 10
232.3117999999999
 20
331.6883
 10
232.4038
 20
331.7556
 10
232.5115000000001
 20
331.7935
 10
232.6255
 20
331.8001
 10
232.7359
 20
331.7743
 10
233.9590000000001
 20
331.2954
 10
234.1236
 20
331.2563
 10
234.2929
 20
331.2659
 10
234.4533
 20
331.3224
 10
234.5906
 20
331.4205
 10
235.3169
 20
332.1802
 10
235.4087
 20
332.3217
 10
235.458
 20
332.4845
 10
235.46
 20
332.654
 10
235.4136
 20
332.8167
 10
234.8802000000001
 20
334.017
 10
234.8495
 20
334.1262
 10
234.851
 20
334.2404
 10
234.884
 20
334.3497
 10
234.9471
 20
334.4447
 10
235.5958000000001
 20
335.1872
 10
235.6813999999999
 20
335.2624
 10
235.7852
 20
335.3098
 10
235.8982
 20
335.3266
 10
236.0106000000001
 20
335.3108
 10
237.2716
 20
334.9434
 10
237.4391000000001
 20
334.9193
 10
237.6068
 20
334.944
 10
237.7615000000001
 20
335.0147
 10
237.8894
 20
335.1247
 10
238.5447
 20
335.9464
 10
238.6235
 20
336.0956
 10
238.6579
 20
336.2621
 10
238.6448
 20
336.4312
 10
238.5839
 20
336.5891
 10
237.9452
 20
337.7367
 10
237.9047
 20
337.8427
 10
237.896
 20
337.9566
 10
237.9191
 20
338.0684
 10
237.9734
 20
338.1686
 10
238.553
 20
338.9663
 10
238.6315
 20
339.0489
 10
238.7307000000001
 20
339.1054
 10
238.8416999999999
 20
339.1323
 10
238.955
 20
339.1266
 10
240.2438999999999
 20
338.8737
 10
240.4128000000001
 20
338.8647
 10
240.5777
 20
338.9044
 10
240.7254
 20
338.9886
 10
240.843
 20
339.1096
 10
241.422
 20
339.9868
 10
241.487
 20
340.1425
 10
241.5064
 20
340.3114
 10
241.4782
 20
340.4786
 10
241.4034
 20
340.6304
 10
240.6643
 20
341.7162
 10
240.6146
 20
341.8181
 10
240.5957
 20
341.9308
 10
240.6087
 20
342.0442
 10
240.6537
 20
342.1489
 10
241.1595
 20
342.9953
 10
241.2302999999999
 20
343.0846
 10
241.3240000000001
 20
343.1498
 10
241.4321
 20
343.1865
 10
241.5454999999999
 20
343.191
 10
242.8519
 20
343.0547
 10
243.021
 20
343.0608
 10
243.1816
 20
343.1151
 10
243.3212
 20
343.2123
 10
243.4274
 20
343.3433
 10
243.9255000000001
 20
344.2689
 10
243.9763
 20
344.4297
 10
243.9805
 20
344.5998
 10
243.9373000000001
 20
344.7637
 10
243.8493
 20
344.9082
 10
243.0158
 20
345.9234
 10
242.9571
 20
346.0205
 10
242.9282000000001
 20
346.1309
 10
242.931
 20
346.245
 10
242.9665
 20
346.3534
 10
243.3942999999999
 20
347.2417
 10
243.4569
 20
347.337
 10
243.5443
 20
347.4103
 10
243.6487999999999
 20
347.4566
 10
243.7612
 20
347.4712
 10
245.0746
 20
347.4526
 10
245.2424
 20
347.4738
 10
245.3975
 20
347.5423
 10
245.5279
 20
347.6516
 10
245.6219
 20
347.7916
 10
246.035
 20
348.7581
 10
246.0712
 20
348.9229
 10
246.0601
 20
349.0926
 10
246.0025000000001
 20
349.252
 10
245.9018
 20
349.3881
 10
244.9808
 20
350.3244
 10
244.9136
 20
350.4158
 10
244.8749
 20
350.5233
 10
244.8674
 20
350.6372
 10
244.8931
 20
350.7482
 10
245.2395
 20
351.6714
 10
245.2933
 20
351.7719
 10
245.3738
 20
351.8527
 10
245.4737
 20
351.9082
 10
245.5844
 20
351.9329
 10
246.8941
 20
352.032
 10
247.0594
 20
352.0682
 10
247.2076999999999
 20
352.1503
 10
247.3277
 20
352.2708
 10
247.4089
 20
352.4188
 10
247.7337
 20
353.4183
 10
247.755
 20
353.5857
 10
247.7287
 20
353.7537
 10
247.657
 20
353.9074
 10
247.5445999999999
 20
354.0338
 10
246.5432000000001
 20
354.8839
 10
246.4682
 20
354.9689
 10
246.42
 20
355.0724
 10
246.4023
 20
355.1852
 10
246.4179
 20
355.2981
 10
246.6803
 20
356.2486
 10
246.7248
 20
356.3535
 10
246.7978000000001
 20
356.4413
 10
246.8922
 20
356.5054
 10
247.0003
 20
356.5399
 10
248.2959
 20
356.7561
 10
248.4572000000001
 20
356.807
 10
248.5976000000001
 20
356.9021
 10
248.7063000000001
 20
357.0328
 10
248.7739
 20
357.1874
 10
249.0078
 20
358.2121
 10
249.014
 20
358.3807
 10
248.9728
 20
358.5457
 10
248.8875
 20
358.6923
 10
248.7642
 20
358.8082
 10
247.6908
 20
359.565
 10
247.6083
 20
359.643
 10
247.5511
 20
359.7418
 10
247.5234
 20
359.8525
 10
247.5288
 20
359.9664
 10
247.7049
 20
360.9365
 10
247.7398000000001
 20
361.045
 10
247.8045999999999
 20
361.139
 10
247.893
 20
361.2114
 10
247.9974999999999
 20
361.2554
 10
249.2685
 20
361.5868
 10
249.4246000000001
 20
361.6519
 10
249.5559000000001
 20
361.7592
 10
249.6525
 20
361.8992
 10
249.7059
 20
362.0593
 10
249.847
 20
363.1008
 10
249.8380999999999
 20
363.2693
 10
249.7822
 20
363.4299
 10
249.6842
 20
363.5683
 10
249.5509999999999
 20
363.6726
 10
248.414
 20
364.3302
 10
248.325
 20
364.4004
 10
248.2591
 20
364.4937
 10
248.2216
 20
364.6015
 10
248.2168
 20
364.7154
 10
248.3051
 20
365.6974
 10
248.3302
 20
365.8086
 10
248.3863
 20
365.908
 10
248.4678
 20
365.988
 10
248.568
 20
366.0413
 10
249.8042
 20
366.4852
 10
249.9539
 20
366.5641
 10
250.075
 20
366.6828
 10
250.1586
 20
366.8309
 10
250.1975
 20
366.995
  0
LWPOLYLINE
  5
520
330
5F6
100
AcDbEntity
  8
CNC
100
AcDbPolyline
 90
     1400
 70
   129
 43
0.0
 10
250.2446
 20
494.045
 10
250.2206
 20
494.212
 10
250.1505999999999
 20
494.367
 10
250.0406
 20
494.496
 10
249.8986
 20
494.588
 10
248.7072000000001
 20
495.141
 10
248.6122
 20
495.203
 10
248.5382
 20
495.29
 10
248.4911999999999
 20
495.394
 10
248.4762000000001
 20
495.507
 10
248.4762000000001
 20
496.493
 10
248.4911999999999
 20
496.606
 10
248.5382
 20
496.71
 10
248.6122
 20
496.797
 10
248.7072000000001
 20
496.859
 10
249.8986
 20
497.412
 10
250.0406
 20
497.504
 10
250.1505999999999
 20
497.633
 10
250.2206
 20
497.788
 10
250.2446
 20
497.955
 10
250.1975
 20
499.005
 10
250.1586
 20
499.1691
 10
250.075
 20
499.3172
 10
249.9539
 20
499.4359
 10
249.8042
 20
499.5148
 10
248.568
 20
499.9587
 10
248.4678
 20
500.012
 10
248.3863
 20
500.092
 10
248.3302
 20
500.1914
 10
248.3051
 20
500.3026
 10
248.2168
 20
501.2846
 10
248.2216
 20
501.3985
 10
248.2591
 20
501.5063
 10
248.325
 20
501.5996
 10
248.414
 20
501.6698
 10
249.5509999999999
 20
502.3274
 10
249.6842
 20
502.4317
 10
249.7822
 20
502.5701
 10
249.8380999999999
 20
502.7307
 10
249.847
 20
502.8992
 10
249.7059
 20
503.9407
 10
249.6525
 20
504.1008
 10
249.5559000000001
 20
504.2408
 10
249.4246000000001
 20
504.3481
 10
249.2685
 20
504.4132
 10
247.9974999999999
 20
504.7446
 10
247.893
 20
504.7886
 10
247.8045999999999
 20
504.861
 10
247.7398000000001
 20
504.955
 10
247.7049
 20
505.0635
 10
247.5288
 20
506.0336
 10
247.5234
 20
506.1475
 10
247.5511
 20
506.2582
 10
247.6083
 20
506.357
 10
247.6908
 20
506.435
 10
248.7642
 20
507.1918
 10
248.8875
 20
507.3077
 10
248.9728
 20
507.4543
 10
249.014
 20
507.6193
 10
249.0078
 20
507.7879
 10
248.7739
 20
508.8126
 10
248.7063000000001
 20
508.9672
 10
248.5976000000001
 20
509.0979
 10
248.4572000000001
 20
509.193
 10
248.2959
 20
509.2439
 10
247.0003
 20
509.4601
 10
246.8922
 20
509.4946
 10
246.7978000000001
 20
509.5587
 10
246.7248
 20
509.6465
 10
246.6803
 20
509.7514
 10
246.4179
 20
510.7019
 10
246.4023
 20
510.8148
 10
246.42
 20
510.9276
 10
246.4682
 20
511.0311
 10
246.5432000000001
 20
511.1161
 10
247.5445999999999
 20
511.9662
 10
247.657
 20
512.0926
 10
247.7287
 20
512.2463
 10
247.755
 20
512.4143
 10
247.7337
 20
512.5817
 10
247.4089
 20
513.5812
 10
247.3277
 20
513.7292
 10
247.2076999999999
 20
513.8497
 10
247.0594
 20
513.9318000000001
 10
246.8941
 20
513.968
 10
245.5844
 20
514.0671
 10
245.4737
 20
514.0918
 10
245.3738
 20
514.1473
 10
245.2933
 20
514.2281
 10
245.2395
 20
514.3286
 10
244.8931
 20
515.2518
 10
244.8674
 20
515.3628
 10
244.8749
 20
515.4766999999999
 10
244.9136
 20
515.5842
 10
244.9808
 20
515.6756
 10
245.9018
 20
516.6119
 10
246.0025000000001
 20
516.748
 10
246.0601
 20
516.9074
 10
246.0712
 20
517.0771
 10
246.035
 20
517.2419
 10
245.6219
 20
518.2084
 10
245.5279
 20
518.3484
 10
245.3975
 20
518.4576999999999
 10
245.2424
 20
518.5262
 10
245.0746
 20
518.5474
 10
243.7612
 20
518.5288
 10
243.6487999999999
 20
518.5434
 10
243.5443
 20
518.5897
 10
243.4569
 20
518.663
 10
243.3942999999999
 20
518.7583
 10
242.9665
 20
519.6466
 10
242.931
 20
519.755
 10
242.9282000000001
 20
519.8691
 10
242.9571
 20
519.9795
 10
243.0158
 20
520.0766
 10
243.8493
 20
521.0918
 10
243.9373000000001
 20
521.2363
 10
243.9805
 20
521.4002
 10
243.9763
 20
521.5703
 10
243.9255000000001
 20
521.7311
 10
243.4274
 20
522.6567
 10
243.3212
 20
522.7877
 10
243.1816
 20
522.8849
 10
243.021
 20
522.9392
 10
242.8519
 20
522.9453
 10
241.5454999999999
 20
522.809
 10
241.4321
 20
522.8135
 10
241.3240000000001
 20
522.8502
 10
241.2302999999999
 20
522.9154
 10
241.1595
 20
523.0047
 10
240.6537
 20
523.8511
 10
240.6087
 20
523.9558
 10
240.5957
 20
524.0692
 10
240.6146
 20
524.1819
 10
240.6643
 20
524.2838
 10
241.4034
 20
525.3696
 10
241.4782
 20
525.5214
 10
241.5064
 20
525.6886
 10
241.487
 20
525.8575
 10
241.422
 20
526.0132
 10
240.843
 20
526.8904
 10
240.7254
 20
527.0114
 10
240.5777
 20
527.0956
 10
240.4128000000001
 20
527.1353
 10
240.2438999999999
 20
527.1263
 10
238.955
 20
526.8734
 10
238.8416999999999
 20
526.8677
 10
238.7307000000001
 20
526.8946
 10
238.6315
 20
526.9511
 10
238.553
 20
527.0337
 10
237.9734
 20
527.8314
 10
237.9191
 20
527.9316
 10
237.896
 20
528.0434
 10
237.9047
 20
528.1573
 10
237.9452
 20
528.2633
 10
238.5839
 20
529.4109
 10
238.6448
 20
529.5688
 10
238.6579
 20
529.7379
 10
238.6235
 20
529.9044
 10
238.5447
 20
530.0536
 10
237.8894
 20
530.8753
 10
237.7615000000001
 20
530.9853
 10
237.6068
 20
531.056
 10
237.4391000000001
 20
531.0807
 10
237.2716
 20
531.0566
 10
236.0106000000001
 20
530.6892
 10
235.8982
 20
530.6734
 10
235.7852
 20
530.6902
 10
235.6813999999999
 20
530.7375999999999
 10
235.5958000000001
 20
530.8128
 10
234.9471
 20
531.5553
 10
234.884
 20
531.6503
 10
234.851
 20
531.7596
 10
234.8495
 20
531.8738
 10
234.8802000000001
 20
531.983
 10
235.4136
 20
533.1833
 10
235.46
 20
533.346
 10
235.458
 20
533.5155
 10
235.4087
 20
533.6783
 10
235.3169
 20
533.8198
 10
234.5906
 20
534.5795
 10
234.4533
 20
534.6776
 10
234.2929
 20
534.7341
 10
234.1236
 20
534.7437
 10
233.9590000000001
 20
534.7046
 10
232.7359
 20
534.2257
 10
232.6255
 20
534.1999000000001
 10
232.5115000000001
 20
534.2065
 10
232.4038
 20
534.2444
 10
232.3117999999999
 20
534.3117
 10
231.5991
 20
534.9929999999999
 10
231.5278000000001
 20
535.082
 10
231.4851
 20
535.1878
 10
231.4733
 20
535.3014000000001
 10
231.4942
 20
535.4129
 10
231.9177999999999
 20
536.6562
 10
231.9494
 20
536.8224
 10
231.9322
 20
536.9911
 10
231.8686
 20
537.1487999999999
 10
231.7644
 20
537.2816
 10
230.973
 20
537.9730999999999
 10
230.8274
 20
538.0584
 10
230.6626
 20
538.1003000000001
 10
230.4931
 20
538.0948
 10
230.3326999999999
 20
538.0411
 10
229.1575
 20
537.4544
 10
229.0498
 20
537.4188
 10
228.9356
 20
537.4152
 10
228.825
 20
537.4433
 10
228.7273
 20
537.502
 10
227.9564
 20
538.1168
 10
227.8774
 20
538.1990000000001
 10
227.8253999999999
 20
538.3006
 10
227.8036
 20
538.4127
 10
227.8143
 20
538.5255999999999
 10
228.1248000000001
 20
539.8018
 10
228.1414
 20
539.9702
 10
228.1091
 20
540.1367
 10
228.0316
 20
540.288
 10
227.9159999999999
 20
540.4109
 10
227.0657
 20
541.0287
 10
226.9131
 20
541.1007
 10
226.7452000000001
 20
541.1276
 10
226.5769
 20
541.1069
 10
226.4219000000001
 20
541.039
 10
225.304
 20
540.3494000000001
 10
225.2
 20
540.3043
 10
225.0866
 20
540.2904
 10
224.9739
 20
540.3085
 10
224.8713
 20
540.3582
 10
224.0484
 20
540.9014
 10
223.9624
 20
540.9762000000001
 10
223.9014999999999
 20
541.0726999999999
 10
223.8697
 20
541.1824
 10
223.8703
 20
541.2958
 10
224.0651
 20
542.5948
 10
224.0665
 20
542.764
 10
224.0195
 20
542.9268999999999
 10
223.9286999999999
 20
543.0707
 10
223.8025
 20
543.1827000000001
 10
222.9003
 20
543.7218
 10
222.7418
 20
543.7798
 10
222.5722000000001
 20
543.7916
 10
222.4064
 20
543.7558
 10
222.2581
 20
543.6744
 10
221.2066
 20
542.8873
 10
221.107
 20
542.833
 10
220.9953
 20
542.8091
 10
220.8815
 20
542.817
 10
220.7748
 20
542.8573
 10
219.9066
 20
543.3245
 10
219.8142
 20
543.3913
 10
219.7449
 20
543.482
 10
219.7033
 20
543.5884
 10
219.6937
 20
543.7014
 10
219.7713
 20
545.0126
 10
219.7576
 20
545.1812
 10
219.6961
 20
545.3392
 10
219.5928
 20
545.4743
 10
219.4571
 20
545.5746
 10
218.5101999999999
 20
546.0306
 10
218.3471999999999
 20
546.0742
 10
218.1772
 20
546.0707
 10
218.0153
 20
546.0203
 10
217.8749
 20
545.9258
 10
216.8982
 20
545.0477
 10
216.8038
 20
544.9847
 10
216.6947
 20
544.9508
 10
216.5806
 20
544.9485
 10
216.4708000000001
 20
544.9791
 10
215.5642
 20
545.3666000000001
 10
215.4662
 20
545.4248
 10
215.389
 20
545.5089
 10
215.3380999999999
 20
545.6112
 10
215.3184
 20
545.7229
 10
215.2782
 20
547.0357
 10
215.2494
 20
547.2025
 10
215.174
 20
547.3543
 10
215.059
 20
547.4796
 10
214.9149
 20
547.5672999999999
 10
213.9308
 20
547.9366
 10
213.7646
 20
547.9654
 10
213.5956
 20
547.9467
 10
213.4389
 20
547.8820000000001
 10
213.3075
 20
547.7753
 10
212.4134
 20
546.8132
 10
212.3251
 20
546.742
 10
212.2195
 20
546.6985
 10
212.106
 20
546.6859
 10
211.9938999999999
 20
546.7066
 10
211.0562
 20
547.0113
 10
210.9534
 20
547.0604
 10
210.869
 20
547.1373
 10
210.8090999999999
 20
547.2345
 10
210.7795
 20
547.3441
 10
210.6217
 20
548.648
 10
210.5780999999999
 20
548.8115
 10
210.4893999999999
 20
548.956
 10
210.3636
 20
549.0705
 10
210.2121999999999
 20
549.1449
 10
209.1991
 20
549.4245
 10
209.0309
 20
549.4383
 10
208.8642
 20
549.4045
 10
208.7139999999999
 20
549.326
 10
208.5927
 20
549.208
 10
207.7884
 20
548.1695
 10
207.7069
 20
548.0907
 10
207.6056
 20
548.0379
 10
207.4937
 20
548.0152
 10
207.3802000000001
 20
548.0258
 10
206.4189
 20
548.2452000000001
 10
206.3121
 20
548.2849
 10
206.2212
 20
548.3539000000001
 10
206.1528000000001
 20
548.4454000000001
 10
206.1134999999999
 20
548.5518
 10
205.8395
 20
549.8364
 10
205.7814
 20
549.9953
 10
205.6801
 20
550.1313
 10
205.5445999999999
 20
550.234
 10
205.3871
 20
550.2946
 10
204.3530000000001
 20
550.4822
 10
204.1843
 20
550.4809
 10
204.0213
 20
550.4322999999999
 10
203.8787
 20
550.3406
 10
203.7684
 20
550.2121999999999
 10
203.0605
 20
549.1059
 10
202.9863
 20
549.02
 10
202.8902
 20
548.9584
 10
202.7808
 20
548.9258
 10
202.6668
 20
548.9261
 10
201.6898
 20
549.0584
 10
201.5798
 20
549.0885000000001
 10
201.4829999999999
 20
549.149
 10
201.4068
 20
549.234
 10
201.3581
 20
549.3365
 10
200.97
 20
550.5913
 10
200.8978999999999
 20
550.7444
 10
200.7848
 20
550.8706999999999
 10
200.6405999999999
 20
550.9609
 10
200.4784
 20
551.0071
 10
199.4316
 20
551.1013
 10
199.2637
 20
551.0848
 10
199.1057000000001
 20
551.0218
 10
198.9719
 20
550.9177
 10
198.8736
 20
550.78
 10
198.2677
 20
549.6146
 10
198.2015
 20
549.5225
 10
198.1113
 20
549.4525
 10
198.0053
 20
549.4102
 10
197.8917
 20
549.4003
 10
196.9067
 20
549.4445000000001
 10
196.7945
 20
549.4646
 10
196.6927000000001
 20
549.5162
 10
196.6091
 20
549.594
 10
196.5514000000001
 20
549.6917
 10
196.0524
 20
550.9067
 10
195.9669
 20
551.0527
 10
195.843
 20
551.1684
 10
195.6913
 20
551.2453
 10
195.5255
 20
551.2767
 10
194.4745
 20
551.2767
 10
194.3087
 20
551.2453
 10
194.157
 20
551.1684
 10
194.0331
 20
551.0527
 10
193.9476
 20
550.9067
 10
193.4485999999999
 20
549.6917
 10
193.3909
 20
549.594
 10
193.3072999999999
 20
549.5162
 10
193.2055
 20
549.4646
 10
193.0933
 20
549.4445000000001
 10
192.1083
 20
549.4003
 10
191.9947
 20
549.4102
 10
191.8887
 20
549.4525
 10
191.7985
 20
549.5225
 10
191.7323
 20
549.6146
 10
191.1264
 20
550.78
 10
191.0281
 20
550.9177
 10
190.8942999999999
 20
551.0218
 10
190.7363
 20
551.0848
 10
190.5684
 20
551.1013
 10
189.5216
 20
551.0071
 10
189.3594000000001
 20
550.9609
 10
189.2152
 20
550.8706999999999
 10
189.1021000000001
 20
550.7444
 10
189.03
 20
550.5913
 10
188.6419
 20
549.3365
 10
188.5932
 20
549.234
 10
188.5170000000001
 20
549.149
 10
188.4202
 20
549.0885000000001
 10
188.3102
 20
549.0584
 10
187.3332
 20
548.9261
 10
187.2192
 20
548.9258
 10
187.1098
 20
548.9584
 10
187.0137
 20
549.02
 10
186.9395
 20
549.1059
 10
186.2316
 20
550.2121999999999
 10
186.1213
 20
550.3406
 10
185.9787
 20
550.4322999999999
 10
185.8157
 20
550.4809
 10
185.6469999999999
 20
550.4822
 10
184.6129
 20
550.2946
 10
184.4554000000001
 20
550.234
 10
184.3199
 20
550.1313
 10
184.2186
 20
549.9953
 10
184.1605
 20
549.8364
 10
183.8865000000001
 20
548.5518
 10
183.8471999999999
 20
548.4454000000001
 10
183.7788
 20
548.3539000000001
 10
183.6879
 20
548.2849
 10
183.5811
 20
548.2452000000001
 10
182.6197999999999
 20
548.0258
 10
182.5063
 20
548.0152
 10
182.3944
 20
548.0379
 10
182.2931
 20
548.0907
 10
182.2116
 20
548.1695
 10
181.4073
 20
549.208
 10
181.2860000000001
 20
549.326
 10
181.1358
 20
549.4045
 10
180.9691
 20
549.4383
 10
180.8009
 20
549.4245
 10
179.7878000000001
 20
549.1449
 10
179.6364
 20
549.0705
 10
179.5106000000001
 20
548.956
 10
179.4219000000001
 20
548.8115
 10
179.3783
 20
548.648
 10
179.2205
 20
547.3441
 10
179.1909000000001
 20
547.2345
 10
179.131
 20
547.1373
 10
179.0466
 20
547.0604
 10
178.9438
 20
547.0113
 10
178.0061000000001
 20
546.7066
 10
177.894
 20
546.6859
 10
177.7805
 20
546.6985
 10
177.6749
 20
546.742
 10
177.5866
 20
546.8132
 10
176.6925
 20
547.7753
 10
176.5611
 20
547.8820000000001
 10
176.4044
 20
547.9467
 10
176.2354
 20
547.9654
 10
176.0692
 20
547.9366
 10
175.0851
 20
547.5672999999999
 10
174.941
 20
547.4796
 10
174.826
 20
547.3543
 10
174.7506
 20
547.2025
 10
174.7218
 20
547.0357
 10
174.6816
 20
545.7229
 10
174.6619000000001
 20
545.6112
 10
174.611
 20
545.5089
 10
174.5338
 20
545.4248
 10
174.4358
 20
545.3666000000001
 10
173.5291999999999
 20
544.9791
 10
173.4194
 20
544.9485
 10
173.3053
 20
544.9508
 10
173.1962
 20
544.9847
 10
173.1018
 20
545.0477
 10
172.1251
 20
545.9258
 10
171.9847
 20
546.0203
 10
171.8228
 20
546.0707
 10
171.6528000000001
 20
546.0742
 10
171.4898000000001
 20
546.0306
 10
170.5429
 20
545.5746
 10
170.4072
 20
545.4743
 10
170.3039
 20
545.3392
 10
170.2424
 20
545.1812
 10
170.2287
 20
545.0126
 10
170.3063
 20
543.7014
 10
170.2967
 20
543.5884
 10
170.2551
 20
543.482
 10
170.1858
 20
543.3913
 10
170.0934
 20
543.3245
 10
169.2252
 20
542.8573
 10
169.1185
 20
542.817
 10
169.0047
 20
542.8091
 10
168.893
 20
542.833
 10
168.7934
 20
542.8873
 10
167.7419
 20
543.6744
 10
167.5936
 20
543.7558
 10
167.4277999999999
 20
543.7916
 10
167.2582
 20
543.7798
 10
167.0997
 20
543.7218
 10
166.1975
 20
543.1827000000001
 10
166.0713000000001
 20
543.0707
 10
165.9805
 20
542.9268999999999
 10
165.9335
 20
542.764
 10
165.9349
 20
542.5948
 10
166.1297
 20
541.2958
 10
166.1303
 20
541.1824
 10
166.0985000000001
 20
541.0726999999999
 10
166.0376
 20
540.9762000000001
 10
165.9516
 20
540.9014
 10
165.1287
 20
540.3582
 10
165.0261
 20
540.3085
 10
164.9134
 20
540.2904
 10
164.8
 20
540.3043
 10
164.696
 20
540.3494000000001
 10
163.5780999999999
 20
541.039
 10
163.4231
 20
541.1069
 10
163.2547999999999
 20
541.1276
 10
163.0869
 20
541.1007
 10
162.9343
 20
541.0287
 10
162.0840000000001
 20
540.4109
 10
161.9684
 20
540.288
 10
161.8909
 20
540.1367
 10
161.8586
 20
539.9702
 10
161.8751999999999
 20
539.8018
 10
162.1857
 20
538.5255999999999
 10
162.1964
 20
538.4127
 10
162.1746000000001
 20
538.3006
 10
162.1226
 20
538.1990000000001
 10
162.0436
 20
538.1168
 10
161.2727
 20
537.502
 10
161.175
 20
537.4433
 10
161.0644
 20
537.4152
 10
160.9502
 20
537.4188
 10
160.8425
 20
537.4544
 10
159.6673000000001
 20
538.0411
 10
159.5069
 20
538.0948
 10
159.3374
 20
538.1003000000001
 10
159.1726
 20
538.0584
 10
159.027
 20
537.9730999999999
 10
158.2356
 20
537.2816
 10
158.1314
 20
537.1487999999999
 10
158.0678
 20
536.9911
 10
158.0506
 20
536.8224
 10
158.0822000000001
 20
536.6562
 10
158.5058
 20
535.4129
 10
158.5267
 20
535.3014000000001
 10
158.5149
 20
535.1878
 10
158.4721999999999
 20
535.082
 10
158.4009
 20
534.9929999999999
 10
157.6882000000001
 20
534.3117
 10
157.5962
 20
534.2444
 10
157.4885
 20
534.2065
 10
157.3745
 20
534.1999000000001
 10
157.2641
 20
534.2257
 10
156.0409999999999
 20
534.7046
 10
155.8764
 20
534.7437
 10
155.7071
 20
534.7341
 10
155.5467
 20
534.6776
 10
155.4094
 20
534.5795
 10
154.6831
 20
533.8198
 10
154.5913
 20
533.6783
 10
154.542
 20
533.5155
 10
154.54
 20
533.346
 10
154.5864
 20
533.1833
 10
155.1197999999999
 20
531.983
 10
155.1505
 20
531.8738
 10
155.149
 20
531.7596
 10
155.116
 20
531.6503
 10
155.0529
 20
531.5553
 10
154.4041999999999
 20
530.8128
 10
154.3186000000001
 20
530.7375999999999
 10
154.2148
 20
530.6902
 10
154.1018
 20
530.6734
 10
153.9894
 20
530.6892
 10
152.7284
 20
531.0566
 10
152.5608999999999
 20
531.0807
 10
152.3932
 20
531.056
 10
152.2385
 20
530.9853
 10
152.1106
 20
530.8753
 10
151.4553
 20
530.0536
 10
151.3765
 20
529.9044
 10
151.3421
 20
529.7379
 10
151.3552
 20
529.5688
 10
151.4161
 20
529.4109
 10
152.0548
 20
528.2633
 10
152.0953
 20
528.1573
 10
152.104
 20
528.0434
 10
152.0809
 20
527.9316
 10
152.0266
 20
527.8314
 10
151.447
 20
527.0337
 10
151.3685
 20
526.9511
 10
151.2693
 20
526.8946
 10
151.1583000000001
 20
526.8677
 10
151.045
 20
526.8734
 10
149.7561000000001
 20
527.1263
 10
149.5871999999999
 20
527.1353
 10
149.4223
 20
527.0956
 10
149.2746
 20
527.0114
 10
149.157
 20
526.8904
 10
148.578
 20
526.0132
 10
148.513
 20
525.8575
 10
148.4936
 20
525.6886
 10
148.5218
 20
525.5214
 10
148.5966
 20
525.3696
 10
149.3357
 20
524.2838
 10
149.3854
 20
524.1819
 10
149.4043
 20
524.0692
 10
149.3913
 20
523.9558
 10
149.3463
 20
523.8511
 10
148.8405
 20
523.0047
 10
148.7697000000001
 20
522.9154
 10
148.676
 20
522.8502
 10
148.5679
 20
522.8135
 10
148.4545000000001
 20
522.809
 10
147.1481
 20
522.9453
 10
146.979
 20
522.9392
 10
146.8184
 20
522.8849
 10
146.6788
 20
522.7877
 10
146.5726
 20
522.6567
 10
146.0744999999999
 20
521.7311
 10
146.0237
 20
521.5703
 10
146.0195
 20
521.4002
 10
146.0626999999999
 20
521.2363
 10
146.1507
 20
521.0918
 10
146.9842
 20
520.0766
 10
147.0429
 20
519.9795
 10
147.0717999999999
 20
519.8691
 10
147.069
 20
519.755
 10
147.0335
 20
519.6466
 10
146.6057
 20
518.7583
 10
146.5431
 20
518.663
 10
146.4557
 20
518.5897
 10
146.3512000000001
 20
518.5434
 10
146.2388
 20
518.5288
 10
144.9254
 20
518.5474
 10
144.7576
 20
518.5262
 10
144.6025
 20
518.4576999999999
 10
144.4721
 20
518.3484
 10
144.3781
 20
518.2084
 10
143.965
 20
517.2419
 10
143.9288
 20
517.0771
 10
143.9399
 20
516.9074
 10
143.9974999999999
 20
516.748
 10
144.0982
 20
516.6119
 10
145.0192
 20
515.6756
 10
145.0864
 20
515.5842
 10
145.1251
 20
515.4766999999999
 10
145.1326
 20
515.3628
 10
145.1069
 20
515.2518
 10
144.7605
 20
514.3286
 10
144.7067
 20
514.2281
 10
144.6262
 20
514.1473
 10
144.5263
 20
514.0918
 10
144.4156
 20
514.0671
 10
143.1059
 20
513.968
 10
142.9406
 20
513.9318000000001
 10
142.7923
 20
513.8497
 10
142.6723
 20
513.7292
 10
142.5911
 20
513.5812
 10
142.2663
 20
512.5817
 10
142.245
 20
512.4143
 10
142.2713
 20
512.2463
 10
142.343
 20
512.0926
 10
142.4554000000001
 20
511.9662
 10
143.4568
 20
511.1161
 10
143.5318
 20
511.0311
 10
143.58
 20
510.9276
 10
143.5977
 20
510.8148
 10
143.5821
 20
510.7019
 10
143.3197
 20
509.7514
 10
143.2752
 20
509.6465
 10
143.2021999999999
 20
509.5587
 10
143.1078
 20
509.4946
 10
142.9997
 20
509.4601
 10
141.7041
 20
509.2439
 10
141.5427999999999
 20
509.193
 10
141.4023999999999
 20
509.0979
 10
141.2936999999999
 20
508.9672
 10
141.2261
 20
508.8126
 10
140.9922
 20
507.7879
 10
140.986
 20
507.6193
 10
141.0272
 20
507.4543
 10
141.1125
 20
507.3077
 10
141.2358
 20
507.1918
 10
142.3092
 20
506.435
 10
142.3917
 20
506.357
 10
142.4489
 20
506.2582
 10
142.4766
 20
506.1475
 10
142.4712
 20
506.0336
 10
142.2951
 20
505.0635
 10
142.2601999999999
 20
504.955
 10
142.1954000000001
 20
504.861
 10
142.107
 20
504.7886
 10
142.0025000000001
 20
504.7446
 10
140.7315
 20
504.4132
 10
140.5753999999999
 20
504.3481
 10
140.4441
 20
504.2408
 10
140.3475
 20
504.1008
 10
140.2941
 20
503.9407
 10
140.153
 20
502.8992
 10
140.1619000000001
 20
502.7307
 10
140.2178
 20
502.5701
 10
140.3158
 20
502.4317
 10
140.449
 20
502.3274
 10
141.586
 20
501.6698
 10
141.675
 20
501.5996
 10
141.7409
 20
501.5063
 10
141.7784
 20
501.3985
 10
141.7832
 20
501.2846
 10
141.6949
 20
500.3026
 10
141.6698
 20
500.1914
 10
141.6137
 20
500.092
 10
141.5322
 20
500.012
 10
141.432
 20
499.9587
 10
140.1958
 20
499.5148
 10
140.0461
 20
499.4359
 10
139.925
 20
499.3172
 10
139.8414
 20
499.1691
 10
139.8025
 20
499.005
 10
139.7554
 20
497.955
 10
139.7794
 20
497.788
 10
139.8494000000001
 20
497.633
 10
139.9594
 20
497.504
 10
140.1014
 20
497.412
 10
141.2927999999999
 20
496.859
 10
141.3878
 20
496.797
 10
141.4618
 20
496.71
 10
141.5088
 20
496.606
 10
141.5237999999999
 20
496.493
 10
141.5237999999999
 20
495.507
 10
141.5088
 20
495.394
 10
141.4618
 20
495.29
 10
141.3878
 20
495.203
 10
141.2927999999999
 20
495.141
 10
140.1014
 20
494.588
 10
139.9594
 20
494.496
 10
139.8494000000001
 20
494.367
 10
139.7794
 20
494.212
 10
139.7554
 20
494.045
 10
139.8025
 20
492.995
 10
139.8414
 20
492.8309
 10
139.925
 20
492.6828
 10
140.0461
 20
492.5641
 10
140.1958
 20
492.4852
 10
141.432
 20
492.0413
 10
141.5322
 20
491.988
 10
141.6137
 20
491.908
 10
141.6698
 20
491.8086
 10
141.6949
 20
491.6974
 10
141.7832
 20
490.7154
 10
141.7784
 20
490.6015
 10
141.7409
 20
490.4937
 10
141.675
 20
490.4004
 10
141.586
 20
490.3302
 10
140.449
 20
489.6726
 10
140.3158
 20
489.5683
 10
140.2178
 20
489.4299
 10
140.1619000000001
 20
489.2693
 10
140.153
 20
489.1008
 10
140.2941
 20
488.0593
 10
140.3475
 20
487.8992
 10
140.4441
 20
487.7592
 10
140.5753999999999
 20
487.6519
 10
140.7315
 20
487.5868
 10
142.0025000000001
 20
487.2554
 10
142.107
 20
487.2114
 10
142.1954000000001
 20
487.139
 10
142.2601999999999
 20
487.045
 10
142.2951
 20
486.9365
 10
142.4712
 20
485.9664
 10
142.4766
 20
485.8525
 10
142.4489
 20
485.7418
 10
142.3917
 20
485.643
 10
142.3092
 20
485.565
 10
141.2358
 20
484.8082
 10
141.1125
 20
484.6923
 10
141.0272
 20
484.5457
 10
140.986
 20
484.3807
 10
140.9922
 20
484.2121
 10
141.2261
 20
483.1874
 10
141.2936999999999
 20
483.0328
 10
141.4023999999999
 20
482.9021
 10
141.5427999999999
 20
482.807
 10
141.7041
 20
482.7561
 10
142.9997
 20
482.5399
 10
143.1078
 20
482.5054
 10
143.2021999999999
 20
482.4413
 10
143.2752
 20
482.3535
 10
143.3197
 20
482.2486
 10
143.5821
 20
481.2981
 10
143.5977
 20
481.1852
 10
143.58
 20
481.0724
 10
143.5318
 20
480.9689
 10
143.4568
 20
480.8839
 10
142.4554000000001
 20
480.0338
 10
142.343
 20
479.9074
 10
142.2713
 20
479.7537
 10
142.245
 20
479.5857
 10
142.2663
 20
479.4183
 10
142.5911
 20
478.4188
 10
142.6723
 20
478.2708
 10
142.7923
 20
478.1503
 10
142.9406
 20
478.0682
 10
143.1059
 20
478.032
 10
144.4156
 20
477.9329
 10
144.5263
 20
477.9082
 10
144.6262
 20
477.8527
 10
144.7067
 20
477.7719
 10
144.7605
 20
477.6714
 10
145.1069
 20
476.7482
 10
145.1326
 20
476.6372
 10
145.1251
 20
476.5233
 10
145.0864
 20
476.4158
 10
145.0192
 20
476.3244
 10
144.0982
 20
475.3881
 10
143.9974999999999
 20
475.252
 10
143.9399
 20
475.0926
 10
143.9288
 20
474.9229
 10
143.965
 20
474.7581
 10
144.3781
 20
473.7916
 10
144.4721
 20
473.6516
 10
144.6025
 20
473.5423
 10
144.7576
 20
473.4738
 10
144.9254
 20
473.4526
 10
146.2388
 20
473.4712
 10
146.3512000000001
 20
473.4566
 10
146.4557
 20
473.4103
 10
146.5431
 20
473.337
 10
146.6057
 20
473.2417
 10
147.0335
 20
472.3534
 10
147.069
 20
472.245
 10
147.0717999999999
 20
472.1309
 10
147.0429
 20
472.0205
 10
146.9842
 20
471.9234
 10
146.1507
 20
470.9082
 10
146.0626999999999
 20
470.7637
 10
146.0195
 20
470.5998
 10
146.0237
 20
470.4297
 10
146.0744999999999
 20
470.2689
 10
146.5726
 20
469.3433
 10
146.6788
 20
469.2123
 10
146.8184
 20
469.1151
 10
146.979
 20
469.0608
 10
147.1481
 20
469.0547
 10
148.4545000000001
 20
469.191
 10
148.5679
 20
469.1865
 10
148.676
 20
469.1498
 10
148.7697000000001
 20
469.0846
 10
148.8405
 20
468.9953
 10
149.3463
 20
468.1489
 10
149.3913
 20
468.0442
 10
149.4043
 20
467.9308
 10
149.3854
 20
467.8181
 10
149.3357
 20
467.7162
 10
148.5966
 20
466.6304
 10
148.5218
 20
466.4786
 10
148.4936
 20
466.3114
 10
148.513
 20
466.1425
 10
148.578
 20
465.9868
 10
149.157
 20
465.1096
 10
149.2746
 20
464.9886
 10
149.4223
 20
464.9044
 10
149.5871999999999
 20
464.8647
 10
149.7561000000001
 20
464.8737
 10
151.045
 20
465.1266
 10
151.1583000000001
 20
465.1323
 10
151.2693
 20
465.1054
 10
151.3685
 20
465.0489
 10
151.447
 20
464.9663
 10
152.0266
 20
464.1686
 10
152.0809
 20
464.0684
 10
152.104
 20
463.9566
 10
152.0953
 20
463.8427
 10
152.0548
 20
463.7367
 10
151.4161
 20
462.5891
 10
151.3552
 20
462.4312
 10
151.3421
 20
462.2621
 10
151.3765
 20
462.0956
 10
151.4553
 20
461.9464
 10
152.1106
 20
461.1247
 10
152.2385
 20
461.0147
 10
152.3932
 20
460.944
 10
152.5608999999999
 20
460.9193
 10
152.7284
 20
460.9434
 10
153.9894
 20
461.3108
 10
154.1018
 20
461.3266
 10
154.2148
 20
461.3098
 10
154.3186000000001
 20
461.2624
 10
154.4041999999999
 20
461.1872
 10
155.0529
 20
460.4447
 10
155.116
 20
460.3497
 10
155.149
 20
460.2404
 10
155.1505
 20
460.1262
 10
155.1197999999999
 20
460.017
 10
154.5864
 20
458.8167
 10
154.54
 20
458.654
 10
154.542
 20
458.4845
 10
154.5913
 20
458.3217
 10
154.6831
 20
458.1802
 10
155.4094
 20
457.4205
 10
155.5467
 20
457.3224
 10
155.7071
 20
457.2659
 10
155.8764
 20
457.2563
 10
156.0409999999999
 20
457.2954
 10
157.2641
 20
457.7743
 10
157.3745
 20
457.8001
 10
157.4885
 20
457.7935
 10
157.5962
 20
457.7556
 10
157.6882000000001
 20
457.6883
 10
158.4009
 20
457.007
 10
158.4721999999999
 20
456.918
 10
158.5149
 20
456.8122
 10
158.5267
 20
456.6986
 10
158.5058
 20
456.5871
 10
158.0822000000001
 20
455.3438
 10
158.0506
 20
455.1776
 10
158.0678
 20
455.0089
 10
158.1314
 20
454.8512
 10
158.2356
 20
454.7184
 10
159.027
 20
454.0269
 10
159.1726
 20
453.9416
 10
159.3374
 20
453.8997
 10
159.5069
 20
453.9052
 10
159.6673000000001
 20
453.9589
 10
160.8425
 20
454.5456
 10
160.9502
 20
454.5812
 10
161.0644
 20
454.5848
 10
161.175
 20
454.5567
 10
161.2727
 20
454.498
 10
162.0436
 20
453.8832
 10
162.1226
 20
453.801
 10
162.1746000000001
 20
453.6994
 10
162.1964
 20
453.5873
 10
162.1857
 20
453.4744
 10
161.8751999999999
 20
452.1982
 10
161.8586
 20
452.0298
 10
161.8909
 20
451.8633
 10
161.9684
 20
451.712
 10
162.0840000000001
 20
451.5891
 10
162.9343
 20
450.9713
 10
163.0869
 20
450.8993
 10
163.2547999999999
 20
450.8724
 10
163.4231
 20
450.8931
 10
163.5780999999999
 20
450.961
 10
164.696
 20
451.6506
 10
164.8
 20
451.6957
 10
164.9134
 20
451.7096
 10
165.0261
 20
451.6915
 10
165.1287
 20
451.6418
 10
165.9516
 20
451.0986
 10
166.0376
 20
451.0238
 10
166.0985000000001
 20
450.9273
 10
166.1303
 20
450.8176
 10
166.1297
 20
450.7042
 10
165.9349
 20
449.4052
 10
165.9335
 20
449.236
 10
165.9805
 20
449.0731
 10
166.0713000000001
 20
448.9293
 10
166.1975
 20
448.8173
 10
167.0997
 20
448.2782
 10
167.2582
 20
448.2202
 10
167.4277999999999
 20
448.2084
 10
167.5936
 20
448.2442
 10
167.7419
 20
448.3256
 10
168.7934
 20
449.1127
 10
168.893
 20
449.167
 10
169.0047
 20
449.1909
 10
169.1185
 20
449.183
 10
169.2252
 20
449.1427
 10
170.0934
 20
448.6755
 10
170.1858
 20
448.6087
 10
170.2551
 20
448.518
 10
170.2967
 20
448.4116
 10
170.3063
 20
448.2986
 10
170.2287
 20
446.9874
 10
170.2424
 20
446.8188
 10
170.3039
 20
446.6608
 10
170.4072
 20
446.5257
 10
170.5429
 20
446.4254
 10
171.4898000000001
 20
445.9694
 10
171.6528000000001
 20
445.9258
 10
171.8228
 20
445.9293
 10
171.9847
 20
445.9797
 10
172.1251
 20
446.0742
 10
173.1018
 20
446.9523
 10
173.1962
 20
447.0153
 10
173.3053
 20
447.0492
 10
173.4194
 20
447.0515
 10
173.5291999999999
 20
447.0209
 10
174.4358
 20
446.6334
 10
174.5338
 20
446.5752
 10
174.611
 20
446.4911
 10
174.6619000000001
 20
446.3888
 10
174.6816
 20
446.2771
 10
174.7218
 20
444.9643
 10
174.7506
 20
444.7975
 10
174.826
 20
444.6457
 10
174.941
 20
444.5204
 10
175.0851
 20
444.4327
 10
176.0692
 20
444.0634
 10
176.2354
 20
444.0346
 10
176.4044
 20
444.0533
 10
176.5611
 20
444.118
 10
176.6925
 20
444.2247
 10
177.5866
 20
445.1868
 10
177.6749
 20
445.258
 10
177.7805
 20
445.3015
 10
177.894
 20
445.3141
 10
178.0061000000001
 20
445.2934
 10
178.9438
 20
444.9887
 10
179.0466
 20
444.9396
 10
179.131
 20
444.8627
 10
179.1909000000001
 20
444.7655
 10
179.2205
 20
444.6559
 10
179.3783
 20
443.352
 10
179.4219000000001
 20
443.1885
 10
179.5106000000001
 20
443.044
 10
179.6364
 20
442.9295
 10
179.7878000000001
 20
442.8551
 10
180.8009
 20
442.5755
 10
180.9691
 20
442.5617
 10
181.1358
 20
442.5955
 10
181.2860000000001
 20
442.674
 10
181.4073
 20
442.792
 10
182.2116
 20
443.8305
 10
182.2931
 20
443.9093
 10
182.3944
 20
443.9621
 10
182.5063
 20
443.9848
 10
182.6197999999999
 20
443.9742
 10
183.5811
 20
443.7548
 10
183.6879
 20
443.7151
 10
183.7788
 20
443.6461
 10
183.8471999999999
 20
443.5546
 10
183.8865000000001
 20
443.4482
 10
184.1605
 20
442.1636
 10
184.2186
 20
442.0047
 10
184.3199
 20
441.8687
 10
184.4554000000001
 20
441.766
 10
184.6129
 20
441.7054
 10
185.6469999999999
 20
441.5178
 10
185.8157
 20
441.5191
 10
185.9787
 20
441.5677
 10
186.1213
 20
441.6594
 10
186.2316
 20
441.7878
 10
186.9395
 20
442.8941
 10
187.0137
 20
442.98
 10
187.1098
 20
443.0416
 10
187.2192
 20
443.0742
 10
187.3332
 20
443.0739
 10
188.3102
 20
442.9416
 10
188.4202
 20
442.9115
 10
188.5170000000001
 20
442.851
 10
188.5932
 20
442.766
 10
188.6419
 20
442.6635
 10
189.03
 20
441.4087
 10
189.1021000000001
 20
441.2556
 10
189.2152
 20
441.1293
 10
189.3594000000001
 20
441.0391
 10
189.5216
 20
440.9929
 10
190.5684
 20
440.8987
 10
190.7363
 20
440.9152
 10
190.8942999999999
 20
440.9782
 10
191.0281
 20
441.0823
 10
191.1264
 20
441.22
 10
191.7323
 20
442.3854
 10
191.7985
 20
442.4775
 10
191.8887
 20
442.5475
 10
191.9947
 20
442.5898
 10
192.1083
 20
442.5997
 10
193.0933
 20
442.5555
 10
193.2055
 20
442.5354
 10
193.3072999999999
 20
442.4838
 10
193.3909
 20
442.406
 10
193.4485999999999
 20
442.3083
 10
193.9476
 20
441.0933
 10
194.0331
 20
440.9473
 10
194.157
 20
440.8316
 10
194.3087
 20
440.7547
 10
194.4745
 20
440.7233
 10
195.5255
 20
440.7233
 10
195.6913
 20
440.7547
 10
195.843
 20
440.8316
 10
195.9669
 20
440.9473
 10
196.0524
 20
441.0933
 10
196.5514000000001
 20
442.3083
 10
196.6091
 20
442.406
 10
196.6927000000001
 20
442.4838
 10
196.7945
 20
442.5354
 10
196.9067
 20
442.5555
 10
197.8917
 20
442.5997
 10
198.0053
 20
442.5898
 10
198.1113
 20
442.5475
 10
198.2015
 20
442.4775
 10
198.2677
 20
442.3854
 10
198.8736
 20
441.22
 10
198.9719
 20
441.0823
 10
199.1057000000001
 20
440.9782
 10
199.2637
 20
440.9152
 10
199.4316
 20
440.8987
 10
200.4784
 20
440.9929
 10
200.6405999999999
 20
441.0391
 10
200.7848
 20
441.1293
 10
200.8978999999999
 20
441.2556
 10
200.97
 20
441.4087
 10
201.3581
 20
442.6635
 10
201.4068
 20
442.766
 10
201.4829999999999
 20
442.851
 10
201.5798
 20
442.9115
 10
201.6898
 20
442.9416
 10
202.6668
 20
443.0739
 10
202.7808
 20
443.0742
 10
202.8902
 20
443.0416
 10
202.9863
 20
442.98
 10
203.0605
 20
442.8941
 10
203.7684
 20
441.7878
 10
203.8787
 20
441.6594
 10
204.0213
 20
441.5677
 10
204.1843
 20
441.5191
 10
204.3530000000001
 20
441.5178
 10
205.3871
 20
441.7054
 10
205.5445999999999
 20
441.766
 10
205.6801
 20
441.8687
 10
205.7814
 20
442.0047
 10
205.8395
 20
442.1636
 10
206.1134999999999
 20
443.4482
 10
206.1528000000001
 20
443.5546
 10
206.2212
 20
443.6461
 10
206.3121
 20
443.7151
 10
206.4189
 20
443.7548
 10
207.3802000000001
 20
443.9742
 10
207.4937
 20
443.9848
 10
207.6056
 20
443.9621
 10
207.7069
 20
443.9093
 10
207.7884
 20
443.8305
 10
208.5927
 20
442.792
 10
208.7139999999999
 20
442.674
 10
208.8642
 20
442.5955
 10
209.0309
 20
442.5617
 10
209.1991
 20
442.5755
 10
210.2121999999999
 20
442.8551
 10
210.3636
 20
442.9295
 10
210.4893999999999
 20
443.044
 10
210.5780999999999
 20
443.1885
 10
210.6217
 20
443.352
 10
210.7795
 20
444.6559
 10
210.8090999999999
 20
444.7655
 10
210.869
 20
444.8627
 10
210.9534
 20
444.9396
 10
211.0562
 20
444.9887
 10
211.9938999999999
 20
445.2934
 10
212.106
 20
445.3141
 10
212.2195
 20
445.3015
 10
212.3251
 20
445.258
 10
212.4134
 20
445.1868
 10
213.3075
 20
444.2247
 10
213.4389
 20
444.118
 10
213.5956
 20
444.0533
 10
213.7646
 20
444.0346
 10
213.9308
 20
444.0634
 10
214.9149
 20
444.4327
 10
215.059
 20
444.5204
 10
215.174
 20
444.6457
 10
215.2494
 20
444.7975
 10
215.2782
 20
444.9643
 10
215.3184
 20
446.2771
 10
215.3380999999999
 20
446.3888
 10
215.389
 20
446.4911
 10
215.4662
 20
446.5752
 10
215.5642
 20
446.6334
 10
216.4708000000001
 20
447.0209
 10
216.5806
 20
447.0515
 10
216.6947
 20
447.0492
 10
216.8038
 20
447.0153
 10
216.8982
 20
446.9523
 10
217.8749
 20
446.0742
 10
218.0153
 20
445.9797
 10
218.1772
 20
445.9293
 10
218.3471999999999
 20
445.9258
 10
218.5101999999999
 20
445.9694
 10
219.4571
 20
446.4254
 10
219.5928
 20
446.5257
 10
219.6961
 20
446.6608
 10
219.7576
 20
446.8188
 10
219.7713
 20
446.9874
 10
219.6937
 20
448.2986
 10
219.7033
 20
448.4116
 10
219.7449
 20
448.518
 10
219.8142
 20
448.6087
 10
219.9066
 20
448.6755
 10
220.7748
 20
449.1427
 10
220.8815
 20
449.183
 10
220.9953
 20
449.1909
 10
221.107
 20
449.167
 10
221.2066
 20
449.1127
 10
222.2581
 20
448.3256
 10
222.4064
 20
448.2442
 10
222.5722000000001
 20
448.2084
 10
222.7418
 20
448.2202
 10
222.9003
 20
448.2782
 10
223.8025
 20
448.8173
 10
223.9286999999999
 20
448.9293
 10
224.0195
 20
449.0731
 10
224.0665
 20
449.236
 10
224.0651
 20
449.4052
 10
223.8703
 20
450.7042
 10
223.8697
 20
450.8176
 10
223.9014999999999
 20
450.9273
 10
223.9624
 20
451.0238
 10
224.0484
 20
451.0986
 10
224.8713
 20
451.6418
 10
224.9739
 20
451.6915
 10
225.0866
 20
451.7096
 10
225.2
 20
451.6957
 10
225.304
 20
451.6506
 10
226.4219000000001
 20
450.961
 10
226.5769
 20
450.8931
 10
226.7452000000001
 20
450.8724
 10
226.9131
 20
450.8993
 10
227.0657
 20
450.9713
 10
227.9159999999999
 20
451.5891
 10
228.0316
 20
451.712
 10
228.1091
 20
451.8633
 10
228.1414
 20
452.0298
 10
228.1248000000001
 20
452.1982
 10
227.8143
 20
453.4744
 10
227.8036
 20
453.5873
 10
227.8253999999999
 20
453.6994
 10
227.8774
 20
453.801
 10
227.9564
 20
453.8832
 10
228.7273
 20
454.498
 10
228.825
 20
454.5567
 10
228.9356
 20
454.5848
 10
229.0498
 20
454.5812
 10
229.1575
 20
454.5456
 10
230.3326999999999
 20
453.9589
 10
230.4931
 20
453.9052
 10
230.6626
 20
453.8997
 10
230.8274
 20
453.9416
 10
230.973
 20
454.0269
 10
231.7644
 20
454.7184
 10
231.8686
 20
454.8512
 10
231.9322
 20
455.0089
 10
231.9494
 20
455.1776
 10
231.9177999999999
 20
455.3438
 10
231.4942
 20
456.5871
 10
231.4733
 20
456.6986
 10
231.4851
 20
456.8122
 10
231.5278000000001
 20
456.918
 10
231.5991
 20
457.007
 10
232.3117999999999
 20
457.6883
 10
232.4038
 20
457.7556
 10
232.5115000000001
 20
457.7935
 10
232.6255
 20
457.8001
 10
232.7359
 20
457.7743
 10
233.9590000000001
 20
457.2954
 10
234.1236
 20
457.2563
 10
234.2929
 20
457.2659
 10
234.4533
 20
457.3224
 10
234.5906
 20
457.4205
 10
235.3169
 20
458.1802
 10
235.4087
 20
458.3217
 10
235.458
 20
458.4845
 10
235.46
 20
458.654
 10
235.4136
 20
458.8167
 10
234.8802000000001
 20
460.017
 10
234.8495
 20
460.1262
 10
234.851
 20
460.2404
 10
234.884
 20
460.3497
 10
234.9471
 20
460.4447
 10
235.5958000000001
 20
461.1872
 10
235.6813999999999
 20
461.2624
 10
235.7852
 20
461.3098
 10
235.8982
 20
461.3266
 10
236.0106000000001
 20
461.3108
 10
237.2716
 20
460.9434
 10
237.4391000000001
 20
460.9193
 10
237.6068
 20
460.944
 10
237.7615000000001
 20
461.0147
 10
237.8894
 20
461.1247
 10
238.5447
 20
461.9464
 10
238.6235
 20
462.0956
 10
238.6579
 20
462.2621
 10
238.6448
 20
462.4312
 10
238.5839
 20
462.5891
 10
237.9452
 20
463.7367
 10
237.9047
 20
463.8427
 10
237.896
 20
463.9566
 10
237.9191
 20
464.0684
 10
237.9734
 20
464.1686
 10
238.553
 20
464.9663
 10
238.6315
 20
465.0489
 10
238.7307000000001
 20
465.1054
 10
238.8416999999999
 20
465.1323
 10
238.955
 20
465.1266
 10
240.2438999999999
 20
464.8737
 10
240.4128000000001
 20
464.8647
 10
240.5777
 20
464.9044
 10
240.7254
 20
464.9886
 10
240.843
 20
465.1096
 10
241.422
 20
465.9868
 10
241.487
 20
466.1425
 10
241.5064
 20
466.3114
 10
241.4782
 20
466.4786
 10
241.4034
 20
466.6304
 10
240.6643
 20
467.7162
 10
240.6146
 20
467.8181
 10
240.5957
 20
467.9308
 10
240.6087
 20
468.0442
 10
240.6537
 20
468.1489
 10
241.1595
 20
468.9953
 10
241.2302999999999
 20
469.0846
 10
241.3240000000001
 20
469.1498
 10
241.4321
 20
469.1865
 10
241.5454999999999
 20
469.191
 10
242.8519
 20
469.0547
 10
243.021
 20
469.0608
 10
243.1816
 20
469.1151
 10
243.3212
 20
469.2123
 10
243.4274
 20
469.3433
 10
243.9255000000001
 20
470.2689
 10
243.9763
 20
470.4297
 10
243.9805
 20
470.5998
 10
243.9373000000001
 20
470.7637
 10
243.8493
 20
470.9082
 10
243.0158
 20
471.9234
 10
242.9571
 20
472.0205
 10
242.9282000000001
 20
472.1309
 10
242.931
 20
472.245
 10
242.9665
 20
472.3534
 10
243.3942999999999
 20
473.2417
 10
243.4569
 20
473.337
 10
243.5443
 20
473.4103
 10
243.6487999999999
 20
473.4566
 10
243.7612
 20
473.4712
 10
245.0746
 20
473.4526
 10
245.2424
 20
473.4738
 10
245.3975
 20
473.5423
 10
245.5279
 20
473.6516
 10
245.6219
 20
473.7916
 10
246.035
 20
474.7581
 10
246.0712
 20
474.9229
 10
246.0601
 20
475.0926
 10
246.0025000000001
 20
475.252
 10
245.9018
 20
475.3881
 10
244.9808
 20
476.3244
 10
244.9136
 20
476.4158
 10
244.8749
 20
476.5233
 10
244.8674
 20
476.6372
 10
244.8931
 20
476.7482
 10
245.2395
 20
477.6714
 10
245.2933
 20
477.7719
 10
245.3738
 20
477.8527
 10
245.4737
 20
477.9082
 10
245.5844
 20
477.9329
 10
246.8941
 20
478.032
 10
247.0594
 20
478.0682
 10
247.2076999999999
 20
478.1503
 10
247.3277
 20
478.2708
 10
247.4089
 20
478.4188
 10
247.7337
 20
479.4183
 10
247.755
 20
479.5857
 10
247.7287
 20
479.7537
 10
247.657
 20
479.9074
 10
247.5445999999999
 20
480.0338
 10
246.5432000000001
 20
480.8839
 10
246.4682
 20
480.9689
 10
246.42
 20
481.0724
 10
246.4023
 20
481.1852
 10
246.4179
 20
481.2981
 10
246.6803
 20
482.2486
 10
246.7248
 20
482.3535
 10
246.7978000000001
 20
482.4413
 10
246.8922
 20
482.5054
 10
247.0003
 20
482.5399
 10
248.2959
 20
482.7561
 10
248.4572000000001
 20
482.807
 10
248.5976000000001
 20
482.9021
 10
248.7063000000001
 20
483.0328
 10
248.7739
 20
483.1874
 10
249.0078
 20
484.2121
 10
249.014
 20
484.3807
 10
248.9728
 20
484.5457
 10
248.8875
 20
484.6923
 10
248.7642
 20
484.8082
 10
247.6908
 20
485.565
 10
247.6083
 20
485.643
 10
247.5511
 20
485.7418
 10
247.5234
 20
485.8525
 10
247.5288
 20
485.9664
 10
247.7049
 20
486.9365
 10
247.7398000000001
 20
487.045
 10
247.8045999999999
 20
487.139
 10
247.893
 20
487.2114
 10
247.9974999999999
 20
487.2554
 10
249.2685
 20
487.5868
 10
249.4246000000001
 20
487.6519
 10
249.5559000000001
 20
487.7592
 10
249.6525
 20
487.8992
 10
249.7059
 20
488.0593
 10
249.847
 20
489.1008
 10
249.8380999999999
 20
489.2693
 10
249.7822
 20
489.4299
 10
249.6842
 20
489.5683
 10
249.5509999999999
 20
489.6726
 10
248.414
 20
490.3302
 10
248.325
 20
490.4004
 10
248.2591
 20
490.4937
 10
248.2216
 20
490.6015
 10
248.2168
 20
490.7154
 10
248.3051
 20
491.6974
 10
248.3302
 20
491.8086
 10
248.3863
 20
491.908
 10
248.4678
 20
491.988
 10
248.568
 20
492.0413
 10
249.8042
 20
492.4852
 10
249.9539
 20
492.5641
 10
250.075
 20
492.6828
 10
250.1586
 20
492.8309
 10
250.1975
 20
492.995
  0
CIRCLE
  5
126
330
5F6
100
AcDbEntity
  8
CNC
100
AcDbCircle
 10
154.7123486365046
 20
24.80151534345368
 30
0.0
 40
1.5
  0
CIRCLE
  5
127
330
5F6
100
AcDbEntity
  8
CNC
100
AcDbCircle
 10
162.1326587897933
 20
40.30151519016501
 30
0.0
 40
1.5
  0
CIRCLE
  5
128
330
5F6
100
AcDbEntity
  8
CNC
100
AcDbCircle
 10
159.9640745450958
 20
48.6900546594718
 30
0.0
 40
1.5
  0
CIRCLE
  5
129
330
5F6
100
AcDbEntity
  8
CNC
100
AcDbCircle
 10
158.9640745450958
 20
31.91297572085818
 30
0.0
 40
1.5
  0
CIRCLE
  5
12A
330
5F6
100
AcDbEntity
  8
CNC
100
AcDbCircle
 10
142.8673412102067
 20
99.69848480983494
 30
0.0
 40
1.5
  0
CIRCLE
  5
12B
330
5F6
100
AcDbEntity
  8
CNC
100
AcDbCircle
 10
150.2876513634954
 20
115.1984846565463
 30
0.0
 40
1.5
  0
CIRCLE
  5
12C
330
5F6
100
AcDbEntity
  8
CNC
100
AcDbCircle
 10
146.0359254549042
 20
108.0870242791418
 30
0.0
 40
1.5
  0
CIRCLE
  5
12D
330
5F6
100
AcDbEntity
  8
CNC
100
AcDbCircle
 10
145.0359254549042
 20
91.30994534052815
 30
0.0
 40
1.5
  0
CIRCLE
  5
12E
330
5F6
100
AcDbEntity
  8
CNC
100
AcDbCircle
 10
123.712348943082
 20
24.80151534345374
 30
0.0
 40
1.5
  0
CIRCLE
  5
12F
330
5F6
100
AcDbEntity
  8
CNC
100
AcDbCircle
 10
140.2123487897933
 20
62.22182519016503
 30
0.0
 40
1.5
  0
CIRCLE
  5
130
330
5F6
100
AcDbEntity
  8
CNC
100
AcDbCircle
 10
131.3238093204865
 20
60.55324094546754
 30
0.0
 40
1.5
  0
CIRCLE
  5
131
330
5F6
100
AcDbEntity
  8
CNC
100
AcDbCircle
 10
147.1008882591001
 20
60.55324094546754
 30
0.0
 40
1.5
  0
CIRCLE
  5
132
330
5F6
100
AcDbEntity
  8
CNC
100
AcDbCircle
 10
157.8991117408999
 20
79.44675905453242
 30
0.0
 40
1.5
  0
CIRCLE
  5
133
330
5F6
100
AcDbEntity
  8
CNC
100
AcDbCircle
 10
173.6761906795136
 20
79.44675905453242
 30
0.0
 40
1.5
  0
CIRCLE
  5
134
330
5F6
100
AcDbEntity
  8
CNC
100
AcDbCircle
 10
164.7876512102067
 20
77.77817480983491
 30
0.0
 40
1.5
  0
CIRCLE
  5
135
330
5F6
100
AcDbEntity
  8
CNC
100
AcDbCircle
 10
181.287651056918
 20
115.1984846565462
 30
0.0
 40
1.5
  0
CIRCLE
  5
136
330
5F6
100
AcDbEntity
  8
CNC
100
AcDbCircle
 10
118.2920387897935
 20
40.30151519016501
 30
0.0
 40
1.5
  0
CIRCLE
  5
137
330
5F6
100
AcDbEntity
  8
CNC
100
AcDbCircle
 10
119.4606230344911
 20
31.91297572085815
 30
0.0
 40
1.5
  0
CIRCLE
  5
138
330
5F6
100
AcDbEntity
  8
CNC
100
AcDbCircle
 10
118.4606230344909
 20
48.69005465947163
 30
0.0
 40
1.5
  0
CIRCLE
  5
139
330
5F6
100
AcDbEntity
  8
CNC
100
AcDbCircle
 10
123.7123489430822
 20
55.80151503687624
 30
0.0
 40
1.5
  0
CIRCLE
  5
13A
330
5F6
100
AcDbEntity
  8
CNC
100
AcDbCircle
 10
185.5393769655089
 20
108.0870242791418
 30
0.0
 40
1.5
  0
CIRCLE
  5
13B
330
5F6
100
AcDbEntity
  8
CNC
100
AcDbCircle
 10
186.7079612102065
 20
99.69848480983495
 30
0.0
 40
1.5
  0
CIRCLE
  5
13C
330
5F6
100
AcDbEntity
  8
CNC
100
AcDbCircle
 10
181.2876510569178
 20
84.19848496312373
 30
0.0
 40
1.5
  0
CIRCLE
  5
13D
330
5F6
100
AcDbEntity
  8
CNC
100
AcDbCircle
 10
186.5393769655091
 20
91.30994534052832
 30
0.0
 40
1.5
  0
CIRCLE
  5
13E
330
5F6
100
AcDbEntity
  8
CNC
100
AcDbCircle
 10
164.7876512102069
 20
121.6187948098348
 30
0.0
 40
1.5
  0
CIRCLE
  5
13F
330
5F6
100
AcDbEntity
  8
CNC
100
AcDbCircle
 10
154.7123486365043
 20
55.80151503687638
 30
0.0
 40
1.5
  0
CIRCLE
  5
140
330
5F6
100
AcDbEntity
  8
CNC
100
AcDbCircle
 10
140.2123487897931
 20
18.38120519016513
 30
0.0
 40
1.5
  0
CIRCLE
  5
141
330
5F6
100
AcDbEntity
  8
CNC
100
AcDbCircle
 10
148.1008882590998
 20
20.04978943486262
 30
0.0
 40
1.5
  0
CIRCLE
  5
142
330
5F6
100
AcDbEntity
  8
CNC
100
AcDbCircle
 10
130.3238093204863
 20
20.04978943486286
 30
0.0
 40
1.5
  0
CIRCLE
  5
143
330
5F6
100
AcDbEntity
  8
CNC
100
AcDbCircle
 10
150.2876513634957
 20
84.19848496312358
 30
0.0
 40
1.5
  0
CIRCLE
  5
144
330
5F6
100
AcDbEntity
  8
CNC
100
AcDbCircle
 10
174.6761906795137
 20
119.9502105651371
 30
0.0
 40
1.5
  0
CIRCLE
  5
145
330
5F6
100
AcDbEntity
  8
CNC
100
AcDbCircle
 10
156.8991117409002
 20
119.9502105651373
 30
0.0
 40
1.5
  0
CIRCLE
  5
521
330
5F6
100
AcDbEntity
  8
CNC
 62
     5
420
      255
100
AcDbCircle
 10
195.0
 20
370.0
 30
0.0
 40
26.0
  0
CIRCLE
  5
522
330
5F6
100
AcDbEntity
  8
CNC
 62
     5
420
      255
100
AcDbCircle
 10
195.0
 20
496.0
 30
0.0
 40
26.0
  0
CIRCLE
  5
523
330
5F6
100
AcDbEntity
  8
CNC
 62
     5
420
      255
100
AcDbCircle
 10
320.0
 20
495.0
 30
0.0
 40
26.0
  0
CIRCLE
  5
340
330
5F6
100
AcDbEntity
  8
CNC
 62
     5
420
      255
100
AcDbCircle
 10
80.0
 20
195.0
 30
0.0
 40
26.0
  0
CIRCLE
  5
359
330
5F6
100
AcDbEntity
  8
CNC
 62
     5
420
      255
100
AcDbCircle
 10
340.0
 20
50.0
 30
0.0
 40
26.0
  0
CIRCLE
  5
370
330
5F6
100
AcDbEntity
  8
CNC
 62
     5
420
      255
100
AcDbCircle
 10
340.0
 20
140.0
 30
0.0
 40
26.0
  0
CIRCLE
  5
524
330
5F6
100
AcDbEntity
  8
CNC
 62
     5
420
      255
100
AcDbCircle
 10
70.0
 20
495.0
 30
0.0
 40
20.0
  0
CIRCLE
  5
525
330
5F6
100
AcDbEntity
  8
CNC
 62
     5
420
      255
100
AcDbCircle
 10
70.0
 20
370.0
 30
0.0
 40
20.0
  0
CIRCLE
  5
526
330
5F6
100
AcDbEntity
  8
CNC
 62
     5
420
      255
100
AcDbCircle
 10
358.0
 20
332.0
 30
0.0
 40
20.0
  0
CIRCLE
  5
527
330
5F6
100
AcDbEntity
  8
CNC
 62
     5
420
      255
100
AcDbCircle
 10
303.0
 20
332.0
 30
0.0
 40
20.0
  0
CIRCLE
  5
528
330
5F6
100
AcDbEntity
  8
CNC
 62
     5
420
      255
100
AcDbCircle
 10
358.0
 20
384.0
 30
0.0
 40
20.0
  0
CIRCLE
  5
529
330
5F6
100
AcDbEntity
  8
CNC
 62
     5
420
      255
100
AcDbCircle
 10
303.0
 20
384.0
 30
0.0
 40
20.0
  0
CIRCLE
  5
52A
330
5F6
100
AcDbEntity
  8
CNC
100
AcDbCircle
 10
70.0
 20
495.0
 30
0.0
 40
22.0
  0
CIRCLE
  5
52B
330
5F6
100
AcDbEntity
  8
CNC
100
AcDbCircle
 10
70.0
 20
370.0
 30
0.0
 40
22.0
  0
CIRCLE
  5
52C
330
5F6
100
AcDbEntity
  8
CNC
100
AcDbCircle
 10
358.0
 20
332.0
 30
0.0
 40
22.0
  0
CIRCLE
  5
52D
330
5F6
100
AcDbEntity
  8
CNC
100
AcDbCircle
 10
303.0
 20
332.0
 30
0.0
 40
22.0
  0
CIRCLE
  5
52E
330
5F6
100
AcDbEntity
  8
CNC
100
AcDbCircle
 10
358.0
 20
384.0
 30
0.0
 40
22.0
  0
CIRCLE
  5
52F
330
5F6
100
AcDbEntity
  8
CNC
100
AcDbCircle
 10
303.0
 20
384.0
 30
0.0
 40
22.0
  0
CIRCLE
  5
1F4
330
5F6
100
AcDbEntity
  8
CNC
100
AcDbCircle
 10
80.0
 20
195.0
 30
0.0
 40
24.0
  0
CIRCLE
  5
530
330
5F6
100
AcDbEntity
  8
CNC
100
AcDbCircle
 10
195.0
 20
370.0
 30
0.0
 40
24.0
  0
CIRCLE
  5
531
330
5F6
100
AcDbEntity
  8
CNC
100
AcDbCircle
 10
195.0
 20
496.0
 30
0.0
 40
24.0
  0
CIRCLE
  5
532
330
5F6
100
AcDbEntity
  8
CNC
100
AcDbCircle
 10
320.0
 20
495.0
 30
0.0
 40
24.0
  0
CIRCLE
  5
35A
330
5F6
100
AcDbEntity
  8
CNC
100
AcDbCircle
 10
340.0
 20
50.0
 30
0.0
 40
24.0
  0
CIRCLE
  5
371
330
5F6
100
AcDbEntity
  8
CNC
100
AcDbCircle
 10
340.0
 20
140.0
 30
0.0
 40
24.0
  0
CIRCLE
  5
245
330
5F6
100
AcDbEntity
  8
Base
 62
     5
420
      255
100
AcDbCircle
 10
1060.0
 20
60.0
 30
0.0
 40
40.0
  0
CIRCLE
  5
533
330
5F6
100
AcDbEntity
  8
CNC
100
AcDbCircle
 10
70.0
 20
370.0
 30
0.0
 40
40.0
  0
CIRCLE
  5
534
330
5F6
100
AcDbEntity
  8
CNC
100
AcDbCircle
 10
70.0
 20
495.0
 30
0.0
 40
40.0
  0
CIRCLE
  5
35B
330
5F6
100
AcDbEntity
  8
CNC
100
AcDbCircle
 10
340.0
 20
50.0
 30
0.0
 40
40.0
  0
CIRCLE
  5
372
330
5F6
100
AcDbEntity
  8
CNC
100
AcDbCircle
 10
340.0
 20
140.0
 30
0.0
 40
40.0
  0
CIRCLE
  5
1F6
330
5F6
100
AcDbEntity
  8
CNC
100
AcDbCircle
 10
53.15321248268239
 20
179.5
 30
0.0
 40
1.5
  0
CIRCLE
  5
535
330
5F6
100
AcDbEntity
  8
CNC
100
AcDbCircle
 10
168.1532124826824
 20
354.5
 30
0.0
 40
1.5
  0
CIRCLE
  5
536
330
5F6
100
AcDbEntity
  8
CNC
100
AcDbCircle
 10
168.1532124826824
 20
480.5
 30
0.0
 40
1.5
  0
CIRCLE
  5
537
330
5F6
100
AcDbEntity
  8
CNC
100
AcDbCircle
 10
289.0
 20
495.0
 30
0.0
 40
1.5
  0
CIRCLE
  5
35C
330
5F6
100
AcDbEntity
  8
CNC
100
AcDbCircle
 10
309.0
 20
49.99999999999997
 30
0.0
 40
1.5
  0
CIRCLE
  5
373
330
5F6
100
AcDbEntity
  8
CNC
100
AcDbCircle
 10
309.0
 20
140.0
 30
0.0
 40
1.5
  0
CIRCLE
  5
1F7
330
5F6
100
AcDbEntity
  8
CNC
100
AcDbCircle
 10
80.0
 20
164.0
 30
0.0
 40
1.5
  0
CIRCLE
  5
538
330
5F6
100
AcDbEntity
  8
CNC
100
AcDbCircle
 10
195.0
 20
339.0
 30
0.0
 40
1.5
  0
CIRCLE
  5
539
330
5F6
100
AcDbEntity
  8
CNC
100
AcDbCircle
 10
195.0
 20
465.0
 30
0.0
 40
1.5
  0
CIRCLE
  5
53A
330
5F6
100
AcDbEntity
  8
CNC
100
AcDbCircle
 10
304.5
 20
468.1532124826824
 30
0.0
 40
1.5
  0
CIRCLE
  5
35D
330
5F6
100
AcDbEntity
  8
CNC
100
AcDbCircle
 10
324.5
 20
23.15321248268236
 30
0.0
 40
1.5
  0
CIRCLE
  5
374
330
5F6
100
AcDbEntity
  8
CNC
100
AcDbCircle
 10
324.5
 20
113.1532124826824
 30
0.0
 40
1.5
  0
CIRCLE
  5
1F8
330
5F6
100
AcDbEntity
  8
CNC
100
AcDbCircle
 10
106.8467875173176
 20
179.5
 30
0.0
 40
1.5
  0
CIRCLE
  5
53B
330
5F6
100
AcDbEntity
  8
CNC
100
AcDbCircle
 10
221.8467875173176
 20
354.5
 30
0.0
 40
1.5
  0
CIRCLE
  5
53C
330
5F6
100
AcDbEntity
  8
CNC
100
AcDbCircle
 10
221.8467875173176
 20
480.5
 30
0.0
 40
1.5
  0
CIRCLE
  5
53D
330
5F6
100
AcDbEntity
  8
CNC
100
AcDbCircle
 10
335.5
 20
468.1532124826824
 30
0.0
 40
1.5
  0
CIRCLE
  5
35E
330
5F6
100
AcDbEntity
  8
CNC
100
AcDbCircle
 10
355.5
 20
23.15321248268236
 30
0.0
 40
1.5
  0
CIRCLE
  5
375
330
5F6
100
AcDbEntity
  8
CNC
100
AcDbCircle
 10
355.5
 20
113.1532124826824
 30
0.0
 40
1.5
  0
CIRCLE
  5
1F9
330
5F6
100
AcDbEntity
  8
CNC
100
AcDbCircle
 10
106.8467875173176
 20
210.5
 30
0.0
 40
1.5
  0
CIRCLE
  5
53E
330
5F6
100
AcDbEntity
  8
CNC
100
AcDbCircle
 10
221.8467875173176
 20
385.5
 30
0.0
 40
1.5
  0
CIRCLE
  5
53F
330
5F6
100
AcDbEntity
  8
CNC
100
AcDbCircle
 10
221.8467875173176
 20
511.5
 30
0.0
 40
1.5
  0
CIRCLE
  5
540
330
5F6
100
AcDbEntity
  8
CNC
100
AcDbCircle
 10
351.0
 20
494.9999999999999
 30
0.0
 40
1.5
  0
CIRCLE
  5
35F
330
5F6
100
AcDbEntity
  8
CNC
100
AcDbCircle
 10
371.0
 20
49.99999999999991
 30
0.0
 40
1.5
  0
CIRCLE
  5
376
330
5F6
100
AcDbEntity
  8
CNC
100
AcDbCircle
 10
371.0
 20
139.9999999999999
 30
0.0
 40
1.5
  0
CIRCLE
  5
1FA
330
5F6
100
AcDbEntity
  8
CNC
100
AcDbCircle
 10
80.0
 20
226.0
 30
0.0
 40
1.5
  0
CIRCLE
  5
541
330
5F6
100
AcDbEntity
  8
CNC
100
AcDbCircle
 10
195.0
 20
401.0
 30
0.0
 40
1.5
  0
CIRCLE
  5
542
330
5F6
100
AcDbEntity
  8
CNC
100
AcDbCircle
 10
195.0
 20
527.0
 30
0.0
 40
1.5
  0
CIRCLE
  5
543
330
5F6
100
AcDbEntity
  8
CNC
100
AcDbCircle
 10
335.5
 20
521.8467875173176
 30
0.0
 40
1.5
  0
CIRCLE
  5
360
330
5F6
100
AcDbEntity
  8
CNC
100
AcDbCircle
 10
355.5
 20
76.84678751731755
 30
0.0
 40
1.5
  0
CIRCLE
  5
377
330
5F6
100
AcDbEntity
  8
CNC
100
AcDbCircle
 10
355.5
 20
166.8467875173176
 30
0.0
 40
1.5
  0
CIRCLE
  5
1FB
330
5F6
100
AcDbEntity
  8
CNC
100
AcDbCircle
 10
53.1532124826824
 20
210.5
 30
0.0
 40
1.5
  0
CIRCLE
  5
544
330
5F6
100
AcDbEntity
  8
CNC
100
AcDbCircle
 10
168.1532124826824
 20
385.5
 30
0.0
 40
1.5
  0
CIRCLE
  5
545
330
5F6
100
AcDbEntity
  8
CNC
100
AcDbCircle
 10
168.1532124826824
 20
511.5
 30
0.0
 40
1.5
  0
CIRCLE
  5
546
330
5F6
100
AcDbEntity
  8
CNC
100
AcDbCircle
 10
304.5000000000001
 20
521.8467875173176
 30
0.0
 40
1.5
  0
CIRCLE
  5
361
330
5F6
100
AcDbEntity
  8
CNC
100
AcDbCircle
 10
324.5000000000001
 20
76.84678751731761
 30
0.0
 40
1.5
  0
CIRCLE
  5
378
330
5F6
100
AcDbEntity
  8
CNC
100
AcDbCircle
 10
324.5000000000001
 20
166.8467875173176
 30
0.0
 40
1.5
  0
CIRCLE
  5
15F
330
5F6
100
AcDbEntity
  8
CNC
100
AcDbCircle
 10
247.9903810567666
 20
77.49999999999996
 30
0.0
 40
1.5
  0
CIRCLE
  5
160
330
5F6
100
AcDbEntity
  8
CNC
100
AcDbCircle
 10
82.99038105676658
 20
77.5
 30
0.0
 40
1.5
  0
CIRCLE
  5
547
330
5F6
100
AcDbEntity
  8
CNC
100
AcDbCircle
 10
85.0
 20
495.0
 30
0.0
 40
1.5
  0
CIRCLE
  5
548
330
5F6
100
AcDbEntity
  8
CNC
100
AcDbCircle
 10
85.0
 20
370.0
 30
0.0
 40
1.5
  0
CIRCLE
  5
549
330
5F6
100
AcDbEntity
  8
CNC
100
AcDbCircle
 10
373.0
 20
332.0
 30
0.0
 40
1.5
  0
CIRCLE
  5
54A
330
5F6
100
AcDbEntity
  8
CNC
100
AcDbCircle
 10
318.0
 20
332.0
 30
0.0
 40
1.5
  0
CIRCLE
  5
54B
330
5F6
100
AcDbEntity
  8
CNC
100
AcDbCircle
 10
373.0
 20
384.0
 30
0.0
 40
1.5
  0
CIRCLE
  5
54C
330
5F6
100
AcDbEntity
  8
CNC
100
AcDbCircle
 10
318.0
 20
384.0
 30
0.0
 40
1.5
  0
CIRCLE
  5
161
330
5F6
100
AcDbEntity
  8
CNC
100
AcDbCircle
 10
235.0
 20
84.99999999999996
 30
0.0
 40
1.5
  0
CIRCLE
  5
162
330
5F6
100
AcDbEntity
  8
CNC
100
AcDbCircle
 10
70.00000000000004
 20
84.99999999999993
 30
0.0
 40
1.5
  0
CIRCLE
  5
54D
330
5F6
100
AcDbEntity
  8
CNC
100
AcDbCircle
 10
77.5
 20
507.9903810567665
 30
0.0
 40
1.5
  0
CIRCLE
  5
54E
330
5F6
100
AcDbEntity
  8
CNC
100
AcDbCircle
 10
77.5
 20
382.9903810567665
 30
0.0
 40
1.5
  0
CIRCLE
  5
54F
330
5F6
100
AcDbEntity
  8
CNC
100
AcDbCircle
 10
365.5
 20
344.9903810567665
 30
0.0
 40
1.5
  0
CIRCLE
  5
550
330
5F6
100
AcDbEntity
  8
CNC
100
AcDbCircle
 10
310.5
 20
344.9903810567665
 30
0.0
 40
1.5
  0
CIRCLE
  5
551
330
5F6
100
AcDbEntity
  8
CNC
100
AcDbCircle
 10
365.5
 20
396.9903810567665
 30
0.0
 40
1.5
  0
CIRCLE
  5
552
330
5F6
100
AcDbEntity
  8
CNC
100
AcDbCircle
 10
310.5
 20
396.9903810567665
 30
0.0
 40
1.5
  0
CIRCLE
  5
163
330
5F6
100
AcDbEntity
  8
CNC
100
AcDbCircle
 10
222.0096189432334
 20
77.49999999999996
 30
0.0
 40
1.5
  0
CIRCLE
  5
164
330
5F6
100
AcDbEntity
  8
CNC
100
AcDbCircle
 10
57.00961894323352
 20
77.50000000000006
 30
0.0
 40
1.5
  0
CIRCLE
  5
553
330
5F6
100
AcDbEntity
  8
CNC
100
AcDbCircle
 10
62.50000000000011
 20
507.9903810567666
 30
0.0
 40
1.5
  0
CIRCLE
  5
554
330
5F6
100
AcDbEntity
  8
CNC
100
AcDbCircle
 10
62.50000000000011
 20
382.9903810567666
 30
0.0
 40
1.5
  0
CIRCLE
  5
555
330
5F6
100
AcDbEntity
  8
CNC
100
AcDbCircle
 10
350.5000000000001
 20
344.9903810567666
 30
0.0
 40
1.5
  0
CIRCLE
  5
556
330
5F6
100
AcDbEntity
  8
CNC
100
AcDbCircle
 10
295.5000000000001
 20
344.9903810567666
 30
0.0
 40
1.5
  0
CIRCLE
  5
557
330
5F6
100
AcDbEntity
  8
CNC
100
AcDbCircle
 10
350.5000000000001
 20
396.9903810567666
 30
0.0
 40
1.5
  0
CIRCLE
  5
558
330
5F6
100
AcDbEntity
  8
CNC
100
AcDbCircle
 10
295.5000000000001
 20
396.9903810567666
 30
0.0
 40
1.5
  0
CIRCLE
  5
165
330
5F6
100
AcDbEntity
  8
CNC
100
AcDbCircle
 10
222.0096189432334
 20
62.49999999999996
 30
0.0
 40
1.5
  0
CIRCLE
  5
166
330
5F6
100
AcDbEntity
  8
CNC
100
AcDbCircle
 10
57.00961894323342
 20
62.50000000000001
 30
0.0
 40
1.5
  0
CIRCLE
  5
559
330
5F6
100
AcDbEntity
  8
CNC
100
AcDbCircle
 10
55.0
 20
495.0
 30
0.0
 40
1.5
  0
CIRCLE
  5
55A
330
5F6
100
AcDbEntity
  8
CNC
100
AcDbCircle
 10
55.0
 20
370.0
 30
0.0
 40
1.5
  0
CIRCLE
  5
55B
330
5F6
100
AcDbEntity
  8
CNC
100
AcDbCircle
 10
343.0
 20
332.0
 30
0.0
 40
1.5
  0
CIRCLE
  5
55C
330
5F6
100
AcDbEntity
  8
CNC
100
AcDbCircle
 10
288.0
 20
332.0
 30
0.0
 40
1.5
  0
CIRCLE
  5
55D
330
5F6
100
AcDbEntity
  8
CNC
100
AcDbCircle
 10
343.0
 20
384.0
 30
0.0
 40
1.5
  0
CIRCLE
  5
55E
330
5F6
100
AcDbEntity
  8
CNC
100
AcDbCircle
 10
288.0
 20
384.0
 30
0.0
 40
1.5
  0
CIRCLE
  5
167
330
5F6
100
AcDbEntity
  8
CNC
100
AcDbCircle
 10
235.0
 20
54.99999999999996
 30
0.0
 40
1.5
  0
CIRCLE
  5
168
330
5F6
100
AcDbEntity
  8
CNC
100
AcDbCircle
 10
70.00000000000001
 20
54.99999999999997
 30
0.0
 40
1.5
  0
CIRCLE
  5
55F
330
5F6
100
AcDbEntity
  8
CNC
100
AcDbCircle
 10
62.5
 20
482.0096189432334
 30
0.0
 40
1.5
  0
CIRCLE
  5
560
330
5F6
100
AcDbEntity
  8
CNC
100
AcDbCircle
 10
62.5
 20
357.0096189432334
 30
0.0
 40
1.5
  0
CIRCLE
  5
561
330
5F6
100
AcDbEntity
  8
CNC
100
AcDbCircle
 10
350.5
 20
319.0096189432334
 30
0.0
 40
1.5
  0
CIRCLE
  5
562
330
5F6
100
AcDbEntity
  8
CNC
100
AcDbCircle
 10
295.5
 20
319.0096189432334
 30
0.0
 40
1.5
  0
CIRCLE
  5
563
330
5F6
100
AcDbEntity
  8
CNC
100
AcDbCircle
 10
350.5
 20
371.0096189432334
 30
0.0
 40
1.5
  0
CIRCLE
  5
564
330
5F6
100
AcDbEntity
  8
CNC
100
AcDbCircle
 10
295.5
 20
371.0096189432334
 30
0.0
 40
1.5
  0
CIRCLE
  5
169
330
5F6
100
AcDbEntity
  8
CNC
100
AcDbCircle
 10
247.9903810567666
 20
62.49999999999994
 30
0.0
 40
1.5
  0
CIRCLE
  5
16A
330
5F6
100
AcDbEntity
  8
CNC
100
AcDbCircle
 10
82.99038105676651
 20
62.49999999999989
 30
0.0
 40
1.5
  0
CIRCLE
  5
565
330
5F6
100
AcDbEntity
  8
CNC
100
AcDbCircle
 10
77.49999999999989
 20
482.0096189432334
 30
0.0
 40
1.5
  0
CIRCLE
  5
566
330
5F6
100
AcDbEntity
  8
CNC
100
AcDbCircle
 10
77.49999999999989
 20
357.0096189432334
 30
0.0
 40
1.5
  0
CIRCLE
  5
567
330
5F6
100
AcDbEntity
  8
CNC
100
AcDbCircle
 10
365.4999999999999
 20
319.0096189432334
 30
0.0
 40
1.5
  0
CIRCLE
  5
568
330
5F6
100
AcDbEntity
  8
CNC
100
AcDbCircle
 10
310.4999999999999
 20
319.0096189432334
 30
0.0
 40
1.5
  0
CIRCLE
  5
569
330
5F6
100
AcDbEntity
  8
CNC
100
AcDbCircle
 10
365.4999999999999
 20
371.0096189432334
 30
0.0
 40
1.5
  0
CIRCLE
  5
56A
330
5F6
100
AcDbEntity
  8
CNC
100
AcDbCircle
 10
310.4999999999999
 20
371.0096189432334
 30
0.0
 40
1.5
  0
CIRCLE
  5
20E
330
5F6
100
AcDbEntity
  8
CNC
100
AcDbCircle
 10
64.49999999999999
 20
168.1532124826824
 30
0.0
 40
0.5
  0
CIRCLE
  5
56B
330
5F6
100
AcDbEntity
  8
CNC
100
AcDbCircle
 10
179.5
 20
343.1532124826824
 30
0.0
 40
0.5
  0
CIRCLE
  5
56C
330
5F6
100
AcDbEntity
  8
CNC
100
AcDbCircle
 10
179.5
 20
469.1532124826824
 30
0.0
 40
0.5
  0
CIRCLE
  5
56D
330
5F6
100
AcDbEntity
  8
CNC
100
AcDbCircle
 10
293.1532124826824
 20
479.5
 30
0.0
 40
0.5
  0
CIRCLE
  5
362
330
5F6
100
AcDbEntity
  8
CNC
100
AcDbCircle
 10
313.1532124826824
 20
34.5
 30
0.0
 40
0.5
  0
CIRCLE
  5
379
330
5F6
100
AcDbEntity
  8
CNC
100
AcDbCircle
 10
313.1532124826824
 20
124.5
 30
0.0
 40
0.5
  0
CIRCLE
  5
20F
330
5F6
100
AcDbEntity
  8
CNC
100
AcDbCircle
 10
95.49999999999991
 20
168.1532124826824
 30
0.0
 40
0.5
  0
CIRCLE
  5
56E
330
5F6
100
AcDbEntity
  8
CNC
100
AcDbCircle
 10
210.4999999999999
 20
343.1532124826824
 30
0.0
 40
0.5
  0
CIRCLE
  5
56F
330
5F6
100
AcDbEntity
  8
CNC
100
AcDbCircle
 10
210.4999999999999
 20
469.1532124826824
 30
0.0
 40
0.5
  0
CIRCLE
  5
570
330
5F6
100
AcDbEntity
  8
CNC
100
AcDbCircle
 10
320.0
 20
463.9999999999999
 30
0.0
 40
0.5
  0
CIRCLE
  5
363
330
5F6
100
AcDbEntity
  8
CNC
100
AcDbCircle
 10
340.0
 20
18.99999999999994
 30
0.0
 40
0.5
  0
CIRCLE
  5
37A
330
5F6
100
AcDbEntity
  8
CNC
100
AcDbCircle
 10
340.0
 20
108.9999999999999
 30
0.0
 40
0.5
  0
CIRCLE
  5
210
330
5F6
100
AcDbEntity
  8
CNC
100
AcDbCircle
 10
111.0
 20
195.0
 30
0.0
 40
0.5
  0
CIRCLE
  5
571
330
5F6
100
AcDbEntity
  8
CNC
100
AcDbCircle
 10
226.0
 20
370.0
 30
0.0
 40
0.5
  0
CIRCLE
  5
572
330
5F6
100
AcDbEntity
  8
CNC
100
AcDbCircle
 10
226.0
 20
496.0
 30
0.0
 40
0.5
  0
CIRCLE
  5
573
330
5F6
100
AcDbEntity
  8
CNC
100
AcDbCircle
 10
346.8467875173176
 20
479.4999999999999
 30
0.0
 40
0.5
  0
CIRCLE
  5
364
330
5F6
100
AcDbEntity
  8
CNC
100
AcDbCircle
 10
366.8467875173176
 20
34.49999999999994
 30
0.0
 40
0.5
  0
CIRCLE
  5
37B
330
5F6
100
AcDbEntity
  8
CNC
100
AcDbCircle
 10
366.8467875173176
 20
124.4999999999999
 30
0.0
 40
0.5
  0
CIRCLE
  5
211
330
5F6
100
AcDbEntity
  8
CNC
100
AcDbCircle
 10
95.50000000000003
 20
221.8467875173176
 30
0.0
 40
0.5
  0
CIRCLE
  5
574
330
5F6
100
AcDbEntity
  8
CNC
100
AcDbCircle
 10
210.5
 20
396.8467875173176
 30
0.0
 40
0.5
  0
CIRCLE
  5
575
330
5F6
100
AcDbEntity
  8
CNC
100
AcDbCircle
 10
210.5
 20
522.8467875173176
 30
0.0
 40
0.5
  0
CIRCLE
  5
576
330
5F6
100
AcDbEntity
  8
CNC
100
AcDbCircle
 10
346.8467875173176
 20
510.5
 30
0.0
 40
0.5
  0
CIRCLE
  5
365
330
5F6
100
AcDbEntity
  8
CNC
100
AcDbCircle
 10
366.8467875173176
 20
65.49999999999997
 30
0.0
 40
0.5
  0
CIRCLE
  5
37C
330
5F6
100
AcDbEntity
  8
CNC
100
AcDbCircle
 10
366.8467875173176
 20
155.5
 30
0.0
 40
0.5
  0
CIRCLE
  5
212
330
5F6
100
AcDbEntity
  8
CNC
100
AcDbCircle
 10
64.5000000000001
 20
221.8467875173177
 30
0.0
 40
0.5
  0
CIRCLE
  5
577
330
5F6
100
AcDbEntity
  8
CNC
100
AcDbCircle
 10
179.5000000000001
 20
396.8467875173177
 30
0.0
 40
0.5
  0
CIRCLE
  5
578
330
5F6
100
AcDbEntity
  8
CNC
100
AcDbCircle
 10
179.5000000000001
 20
522.8467875173177
 30
0.0
 40
0.5
  0
CIRCLE
  5
579
330
5F6
100
AcDbEntity
  8
CNC
100
AcDbCircle
 10
320.0000000000001
 20
526.0
 30
0.0
 40
0.5
  0
CIRCLE
  5
366
330
5F6
100
AcDbEntity
  8
CNC
100
AcDbCircle
 10
340.0000000000001
 20
80.99999999999997
 30
0.0
 40
0.5
  0
CIRCLE
  5
37D
330
5F6
100
AcDbEntity
  8
CNC
100
AcDbCircle
 10
340.0000000000001
 20
171.0
 30
0.0
 40
0.5
  0
CIRCLE
  5
213
330
5F6
100
AcDbEntity
  8
CNC
100
AcDbCircle
 10
48.99999999999996
 20
195.0000000000001
 30
0.0
 40
0.5
  0
CIRCLE
  5
57A
330
5F6
100
AcDbEntity
  8
CNC
100
AcDbCircle
 10
164.0
 20
370.0000000000001
 30
0.0
 40
0.5
  0
CIRCLE
  5
57B
330
5F6
100
AcDbEntity
  8
CNC
100
AcDbCircle
 10
164.0
 20
496.0000000000001
 30
0.0
 40
0.5
  0
CIRCLE
  5
57C
330
5F6
100
AcDbEntity
  8
CNC
100
AcDbCircle
 10
293.1532124826825
 20
510.5
 30
0.0
 40
0.5
  0
CIRCLE
  5
367
330
5F6
100
AcDbEntity
  8
CNC
100
AcDbCircle
 10
313.1532124826825
 20
65.50000000000003
 30
0.0
 40
0.5
  0
CIRCLE
  5
37E
330
5F6
100
AcDbEntity
  8
CNC
100
AcDbCircle
 10
313.1532124826825
 20
155.5
 30
0.0
 40
0.5
  0
CIRCLE
  5
18F
330
5F6
100
AcDbEntity
  8
CNC
100
AcDbCircle
 10
242.5
 20
57.00961894323338
 30
0.0
 40
0.5
  0
CIRCLE
  5
190
330
5F6
100
AcDbEntity
  8
CNC
100
AcDbCircle
 10
77.50000000000001
 20
57.0096189432334
 30
0.0
 40
0.5
  0
CIRCLE
  5
57D
330
5F6
100
AcDbEntity
  8
CNC
100
AcDbCircle
 10
70.0
 20
480.0
 30
0.0
 40
0.5
  0
CIRCLE
  5
57E
330
5F6
100
AcDbEntity
  8
CNC
100
AcDbCircle
 10
70.0
 20
355.0
 30
0.0
 40
0.5
  0
CIRCLE
  5
57F
330
5F6
100
AcDbEntity
  8
CNC
100
AcDbCircle
 10
358.0
 20
317.0
 30
0.0
 40
0.5
  0
CIRCLE
  5
580
330
5F6
100
AcDbEntity
  8
CNC
100
AcDbCircle
 10
303.0
 20
317.0
 30
0.0
 40
0.5
  0
CIRCLE
  5
581
330
5F6
100
AcDbEntity
  8
CNC
100
AcDbCircle
 10
358.0
 20
369.0
 30
0.0
 40
0.5
  0
CIRCLE
  5
582
330
5F6
100
AcDbEntity
  8
CNC
100
AcDbCircle
 10
303.0
 20
369.0
 30
0.0
 40
0.5
  0
CIRCLE
  5
191
330
5F6
100
AcDbEntity
  8
CNC
100
AcDbCircle
 10
250.0
 20
69.99999999999996
 30
0.0
 40
0.5
  0
CIRCLE
  5
192
330
5F6
100
AcDbEntity
  8
CNC
100
AcDbCircle
 10
85.00000000000003
 20
70.00000000000001
 30
0.0
 40
0.5
  0
CIRCLE
  5
193
330
5F6
100
AcDbEntity
  8
CNC
100
AcDbCircle
 10
242.5
 20
82.99038105676654
 30
0.0
 40
0.5
  0
CIRCLE
  5
194
330
5F6
100
AcDbEntity
  8
CNC
100
AcDbCircle
 10
77.50000000000009
 20
82.99038105676651
 30
0.0
 40
0.5
  0
CIRCLE
  5
583
330
5F6
100
AcDbEntity
  8
CNC
100
AcDbCircle
 10
82.99038105676664
 20
502.4999999999999
 30
0.0
 40
0.5
  0
CIRCLE
  5
584
330
5F6
100
AcDbEntity
  8
CNC
100
AcDbCircle
 10
82.99038105676664
 20
377.4999999999999
 30
0.0
 40
0.5
  0
CIRCLE
  5
585
330
5F6
100
AcDbEntity
  8
CNC
100
AcDbCircle
 10
370.9903810567666
 20
339.4999999999999
 30
0.0
 40
0.5
  0
CIRCLE
  5
586
330
5F6
100
AcDbEntity
  8
CNC
100
AcDbCircle
 10
315.9903810567666
 20
339.4999999999999
 30
0.0
 40
0.5
  0
CIRCLE
  5
587
330
5F6
100
AcDbEntity
  8
CNC
100
AcDbCircle
 10
370.9903810567666
 20
391.4999999999999
 30
0.0
 40
0.5
  0
CIRCLE
  5
588
330
5F6
100
AcDbEntity
  8
CNC
100
AcDbCircle
 10
315.9903810567666
 20
391.4999999999999
 30
0.0
 40
0.5
  0
CIRCLE
  5
195
330
5F6
100
AcDbEntity
  8
CNC
100
AcDbCircle
 10
227.5
 20
82.99038105676654
 30
0.0
 40
0.5
  0
CIRCLE
  5
196
330
5F6
100
AcDbEntity
  8
CNC
100
AcDbCircle
 10
62.5000000000001
 20
82.99038105676664
 30
0.0
 40
0.5
  0
CIRCLE
  5
589
330
5F6
100
AcDbEntity
  8
CNC
100
AcDbCircle
 10
70.00000000000011
 20
510.0
 30
0.0
 40
0.5
  0
CIRCLE
  5
58A
330
5F6
100
AcDbEntity
  8
CNC
100
AcDbCircle
 10
70.00000000000011
 20
385.0
 30
0.0
 40
0.5
  0
CIRCLE
  5
58B
330
5F6
100
AcDbEntity
  8
CNC
100
AcDbCircle
 10
358.0000000000001
 20
347.0
 30
0.0
 40
0.5
  0
CIRCLE
  5
58C
330
5F6
100
AcDbEntity
  8
CNC
100
AcDbCircle
 10
303.0000000000001
 20
347.0
 30
0.0
 40
0.5
  0
CIRCLE
  5
58D
330
5F6
100
AcDbEntity
  8
CNC
100
AcDbCircle
 10
358.0000000000001
 20
399.0
 30
0.0
 40
0.5
  0
CIRCLE
  5
58E
330
5F6
100
AcDbEntity
  8
CNC
100
AcDbCircle
 10
303.0000000000001
 20
399.0
 30
0.0
 40
0.5
  0
CIRCLE
  5
197
330
5F6
100
AcDbEntity
  8
CNC
100
AcDbCircle
 10
220.0
 20
69.99999999999996
 30
0.0
 40
0.5
  0
CIRCLE
  5
198
330
5F6
100
AcDbEntity
  8
CNC
100
AcDbCircle
 10
54.99999999999999
 20
69.99999999999996
 30
0.0
 40
0.5
  0
CIRCLE
  5
58F
330
5F6
100
AcDbEntity
  8
CNC
100
AcDbCircle
 10
57.00961894323336
 20
502.5
 30
0.0
 40
0.5
  0
CIRCLE
  5
590
330
5F6
100
AcDbEntity
  8
CNC
100
AcDbCircle
 10
57.00961894323336
 20
377.5
 30
0.0
 40
0.5
  0
CIRCLE
  5
591
330
5F6
100
AcDbEntity
  8
CNC
100
AcDbCircle
 10
345.0096189432334
 20
339.5
 30
0.0
 40
0.5
  0
CIRCLE
  5
592
330
5F6
100
AcDbEntity
  8
CNC
100
AcDbCircle
 10
290.0096189432334
 20
339.5
 30
0.0
 40
0.5
  0
CIRCLE
  5
593
330
5F6
100
AcDbEntity
  8
CNC
100
AcDbCircle
 10
345.0096189432334
 20
391.5
 30
0.0
 40
0.5
  0
CIRCLE
  5
594
330
5F6
100
AcDbEntity
  8
CNC
100
AcDbCircle
 10
290.0096189432334
 20
391.5
 30
0.0
 40
0.5
  0
CIRCLE
  5
199
330
5F6
100
AcDbEntity
  8
CNC
100
AcDbCircle
 10
227.5
 20
57.00961894323338
 30
0.0
 40
0.5
  0
CIRCLE
  5
19A
330
5F6
100
AcDbEntity
  8
CNC
100
AcDbCircle
 10
62.49999999999999
 20
57.00961894323338
 30
0.0
 40
0.5
  0
CIRCLE
  5
595
330
5F6
100
AcDbEntity
  8
CNC
100
AcDbCircle
 10
57.00961894323336
 20
487.5
 30
0.0
 40
0.5
  0
CIRCLE
  5
596
330
5F6
100
AcDbEntity
  8
CNC
100
AcDbCircle
 10
57.00961894323336
 20
362.5
 30
0.0
 40
0.5
  0
CIRCLE
  5
597
330
5F6
100
AcDbEntity
  8
CNC
100
AcDbCircle
 10
345.0096189432334
 20
324.5
 30
0.0
 40
0.5
  0
CIRCLE
  5
598
330
5F6
100
AcDbEntity
  8
CNC
100
AcDbCircle
 10
290.0096189432334
 20
324.5
 30
0.0
 40
0.5
  0
CIRCLE
  5
599
330
5F6
100
AcDbEntity
  8
CNC
100
AcDbCircle
 10
345.0096189432334
 20
376.5
 30
0.0
 40
0.5
  0
CIRCLE
  5
59A
330
5F6
100
AcDbEntity
  8
CNC
100
AcDbCircle
 10
290.0096189432334
 20
376.5
 30
0.0
 40
0.5
  0
LWPOLYLINE
  5
19D
330
5F6
100
AcDbEntity
  8
CNC
 62
     5
420
      255
100
AcDbPolyline
 90
        4
 70
   129
 43
0.0
 10
160.2123487897932
 20
61.30151519016501
 10
118.2123487897932
 20
61.30151519016492
 10
118.2123487897933
 20
19.301515190165
 10
160.2123487897933
 20
19.30151519016501
  0
LWPOLYLINE
  5
19E
330
5F6
100
AcDbEntity
  8
CNC
 62
     5
420
      255
100
AcDbPolyline
 90
        4
 70
   129
 43
0.0
 10
144.7876512102068
 20
78.69848480983495
 10
186.7876512102068
 20
78.69848480983507
 10
186.7876512102067
 20
120.698484809835
 10
144.7876512102067
 20
120.6984848098349
  0
CIRCLE
  5
1E3
330
5F6
100
AcDbEntity
  8
CNC
100
AcDbCircle
 10
223.0000000000001
 20
183.0
 30
0.0
 40
1.5
  0
CIRCLE
  5
1E4
330
5F6
100
AcDbEntity
  8
CNC
100
AcDbCircle
 10
247.0000000000001
 20
183.0
 30
0.0
 40
1.5
  0
CIRCLE
  5
1E5
330
5F6
100
AcDbEntity
  8
CNC
100
AcDbCircle
 10
247.0000000000001
 20
207.0
 30
0.0
 40
1.5
  0
CIRCLE
  5
1E6
330
5F6
100
AcDbEntity
  8
CNC
100
AcDbCircle
 10
223.0000000000001
 20
207.0
 30
0.0
 40
1.5
  0
CIRCLE
  5
1E7
330
5F6
100
AcDbEntity
  8
CNC
100
AcDbCircle
 10
235.0
 20
195.0
 30
0.0
 40
10.0
  0
LINE
  5
1A5
330
5F6
100
AcDbEntity
  8
CNC
100
AcDbLine
 10
70.00000000000001
 20
129.9999999999999
 30
0.0
 11
235.0
 21
129.9999999999999
 31
0.0
  0
LINE
  5
1A6
330
5F6
100
AcDbEntity
  8
CNC
100
AcDbLine
 10
70.0
 20
9.999999999999957
 30
0.0
 11
235.0
 21
9.999999999999957
 31
0.0
  0
ARC
  5
1A7
330
5F6
100
AcDbEntity
  8
CNC
100
AcDbCircle
 10
70.0
 20
70.0
 30
0.0
 40
60.0
100
AcDbArc
 50
90.00000000000006
 51
270.0
1001
QCAD
1000
reversed:1
  0
LINE
  5
1E9
330
5F6
100
AcDbEntity
  8
CNC
100
AcDbLine
 10
240.4545454545454
 20
224.499964981069
 30
0.0
 11
80.9090909090909
 21
253.999929962138
 31
0.0
  0
LINE
  5
1EA
330
5F6
100
AcDbEntity
  8
CNC
100
AcDbLine
 10
240.4545454545454
 20
165.500035018931
 30
0.0
 11
80.9090909090909
 21
136.000070037862
 31
0.0
  0
ARC
  5
1EB
330
5F6
100
AcDbEntity
  8
CNC
100
AcDbCircle
 10
235.0
 20
195.0
 30
0.0
 40
30.0
100
AcDbArc
 50
280.4756816963899
 51
79.52431830361013
1001
QCAD
1000
reversed:1
  0
LWPOLYLINE
  5
1AB
330
5F6
100
AcDbEntity
  8
CNC
 62
     5
420
      255
100
AcDbPolyline
 90
        4
 70
   129
 43
0.0
 10
160.2123487897933
 20
61.30151519016501
 10
118.2123487897933
 20
61.30151519016509
 10
118.2123487897933
 20
19.301515190165
 10
160.2123487897933
 20
19.30151519016496
  0
LWPOLYLINE
  5
1AC
330
5F6
100
AcDbEntity
  8
CNC
 62
     5
420
      255
100
AcDbPolyline
 90
        4
 70
   129
 43
0.0
 10
166.6501710521972
 20
51.66663329323517
 10
127.8472306867232
 20
67.73933745256899
 10
111.7745265273894
 20
28.93639708709485
 10
150.5774668928634
 20
12.86369292776107
  0
LWPOLYLINE
  5
1AD
330
5F6
100
AcDbEntity
  8
CNC
 62
     5
420
      255
100
AcDbPolyline
 90
        4
 70
   129
 43
0.0
 10
168.9108335996283
 20
40.30151519016501
 10
139.2123487897933
 20
70.00000000000007
 10
109.5138639799583
 20
40.30151519016498
 10
139.2123487897933
 20
10.60303038032999
  0
LWPOLYLINE
  5
1AE
330
5F6
100
AcDbEntity
  8
CNC
 62
     5
420
      255
100
AcDbPolyline
 90
        4
 70
   129
 43
0.0
 10
166.6501710521972
 20
28.93639708709487
 10
150.5774668928635
 20
67.73933745256895
 10
111.7745265273894
 20
51.66663329323511
 10
127.8472306867232
 20
12.86369292776109
  0
LWPOLYLINE
  5
1AF
330
5F6
100
AcDbEntity
  8
CNC
 62
     5
420
      255
100
AcDbPolyline
 90
        4
 70
   129
 43
0.0
 10
136.0891664003717
 20
99.69848480983494
 10
165.7876512102067
 20
70.0
 10
195.4861360200417
 20
99.69848480983495
 10
165.7876512102067
 20
129.39696961967
  0
LWPOLYLINE
  5
1B0
330
5F6
100
AcDbEntity
  8
CNC
 62
     5
420
      255
100
AcDbPolyline
 90
        4
 70
   129
 43
0.0
 10
138.3498289478028
 20
88.33336670676479
 10
177.1527693132768
 20
72.26066254743094
 10
193.2254734726106
 20
111.0636029129051
 10
154.4225331071366
 20
127.1363070722389
  0
LWPOLYLINE
  5
1B1
330
5F6
100
AcDbEntity
  8
CNC
 62
     5
420
      255
100
AcDbPolyline
 90
        4
 70
   129
 43
0.0
 10
144.7876512102067
 20
78.69848480983495
 10
186.7876512102067
 20
78.69848480983485
 10
186.7876512102067
 20
120.698484809835
 10
144.7876512102067
 20
120.698484809835
  0
LWPOLYLINE
  5
1B2
330
5F6
100
AcDbEntity
  8
CNC
 62
     5
420
      255
100
AcDbPolyline
 90
        4
 70
   129
 43
0.0
 10
138.3498289478028
 20
111.0636029129051
 10
154.4225331071365
 20
72.26066254743101
 10
193.2254734726106
 20
88.33336670676485
 10
177.1527693132768
 20
127.1363070722388
  0
CIRCLE
  5
1B3
330
5F6
100
AcDbEntity
  8
CNC
100
AcDbCircle
 10
235.0
 20
69.99999999999996
 30
0.0
 40
5.0
  0
CIRCLE
  5
1B4
330
5F6
100
AcDbEntity
  8
CNC
100
AcDbCircle
 10
70.0
 20
70.0
 30
0.0
 40
5.0
  0
CIRCLE
  5
246
330
5F6
100
AcDbEntity
  8
Base
 62
     1
420
 16711680
100
AcDbCircle
 10
1060.0
 20
60.0
 30
0.0
 40
5.0
  0
CIRCLE
  5
59B
330
5F6
100
AcDbEntity
  8
CNC
100
AcDbCircle
 10
70.0
 20
495.0
 30
0.0
 40
5.0
  0
CIRCLE
  5
59C
330
5F6
100
AcDbEntity
  8
CNC
100
AcDbCircle
 10
70.0
 20
370.0
 30
0.0
 40
5.0
  0
CIRCLE
  5
59D
330
5F6
100
AcDbEntity
  8
CNC
100
AcDbCircle
 10
358.0
 20
332.0
 30
0.0
 40
5.0
  0
CIRCLE
  5
59E
330
5F6
100
AcDbEntity
  8
CNC
100
AcDbCircle
 10
303.0
 20
332.0
 30
0.0
 40
5.0
  0
CIRCLE
  5
59F
330
5F6
100
AcDbEntity
  8
CNC
100
AcDbCircle
 10
358.0
 20
384.0
 30
0.0
 40
5.0
  0
CIRCLE
  5
5A0
330
5F6
100
AcDbEntity
  8
CNC
100
AcDbCircle
 10
303.0
 20
384.0
 30
0.0
 40
5.0
  0
LINE
  5
1B5
330
5F6
100
AcDbEntity
  8
CNC
100
AcDbLine
 10
140.2123487897933
 20
29.30151519016502
 30
0.0
 11
138.7123487897933
 21
29.30151519016498
 31
0.0
  0
LINE
  5
1B6
330
5F6
100
AcDbEntity
  8
CNC
100
AcDbLine
 10
164.7876512102067
 20
110.6984848098349
 30
0.0
 11
166.2876512102067
 21
110.698484809835
 31
0.0
  0
LINE
  5
1B7
330
5F6
100
AcDbEntity
  8
CNC
100
AcDbLine
 10
140.2123487897933
 20
51.30151519016496
 30
0.0
 11
138.7123487897933
 21
51.30151519016495
 31
0.0
  0
LINE
  5
1B8
330
5F6
100
AcDbEntity
  8
CNC
100
AcDbLine
 10
164.7876512102067
 20
88.698484809835
 30
0.0
 11
166.2876512102067
 21
88.69848480983501
 31
0.0
  0
ARC
  5
1B9
330
5F6
100
AcDbEntity
  8
CNC
100
AcDbCircle
 10
140.2123487897933
 20
40.30151519016503
 30
0.0
 40
11.0
100
AcDbArc
 50
270.0
 51
89.99999999999999
  0
ARC
  5
1BA
330
5F6
100
AcDbEntity
  8
CNC
100
AcDbCircle
 10
164.7876512102067
 20
99.69848480983495
 30
0.0
 40
11.0
100
AcDbArc
 50
90.00000000000001
 51
270.0
  0
ARC
  5
1BB
330
5F6
100
AcDbEntity
  8
CNC
100
AcDbCircle
 10
138.7123487897933
 20
40.30151519016502
 30
0.0
 40
11.0
100
AcDbArc
 50
89.99999999999999
 51
270.0
1001
QCAD
1000
reversed:1
  0
ARC
  5
1BC
330
5F6
100
AcDbEntity
  8
CNC
100
AcDbCircle
 10
166.2876512102067
 20
99.69848480983495
 30
0.0
 40
11.0
100
AcDbArc
 50
270.0
 51
90.00000000000001
1001
QCAD
1000
reversed:1
  0
TEXT
  5
1BD
330
5F6
100
AcDbEntity
  8
CNC
 62
     5
420
      255
100
AcDbText
 10
150.5774668928635
 20
66.7393374525691
 30
0.0
 40
2.0
  1
-0.5
  7
textstyle11
 11
150.5774668928635
 21
67.7393374525691
 31
0.0
100
AcDbText
 73
     2
  0
TEXT
  5
1BE
330
5F6
100
AcDbEntity
  8
CNC
 62
     5
420
      255
100
AcDbText
 10
177.1527693132768
 20
126.1363070722389
 30
0.0
 40
2.0
  1
-0.5
  7
textstyle12
 11
177.1527693132768
 21
127.1363070722389
 31
0.0
100
AcDbText
 73
     2
  0
TEXT
  5
1BF
330
5F6
100
AcDbEntity
  8
CNC
 62
     5
420
      255
100
AcDbText
 10
160.2123487897933
 20
60.301515190165
 30
0.0
 40
2.0
  1
+0.0
  7
textstyle13
 11
160.2123487897933
 21
61.301515190165
 31
0.0
100
AcDbText
 73
     2
  0
TEXT
  5
1C0
330
5F6
100
AcDbEntity
  8
CNC
 62
     5
420
      255
100
AcDbText
 10
186.7876512102067
 20
119.698484809835
 30
0.0
 40
2.0
  1
+0.0
  7
textstyle14
 11
186.7876512102067
 21
120.698484809835
 31
0.0
100
AcDbText
 73
     2
  0
TEXT
  5
1C1
330
5F6
100
AcDbEntity
  8
CNC
 62
     5
420
      255
100
AcDbText
 10
166.6501710521972
 20
50.66663329323515
 30
0.0
 40
2.0
  1
+0.5
  7
textstyle15
 11
166.6501710521972
 21
51.66663329323515
 31
0.0
100
AcDbText
 73
     2
  0
TEXT
  5
1C2
330
5F6
100
AcDbEntity
  8
CNC
 62
     5
420
      255
100
AcDbText
 10
193.2254734726106
 20
110.0636029129051
 30
0.0
 40
2.0
  1
+0.5
  7
textstyle16
 11
193.2254734726106
 21
111.0636029129051
 31
0.0
100
AcDbText
 73
     2
  0
TEXT
  5
1C3
330
5F6
100
AcDbEntity
  8
CNC
 62
     5
420
      255
100
AcDbText
 10
168.9108335996283
 20
39.30151519016506
 30
0.0
 40
2.0
  1
+1.0
  7
textstyle17
 11
168.9108335996283
 21
40.30151519016506
 31
0.0
100
AcDbText
 73
     2
  0
POINT
  5
1C9
330
5F6
100
AcDbEntity
  8
CNC
100
AcDbPoint
 10
70.0
 20
70.0
 30
0.0
  0
CIRCLE
  5
247
330
5F6
100
AcDbEntity
  8
Base
 62
     5
420
      255
100
AcDbCircle
 10
1060.0
 20
60.0
 30
0.0
 40
60.0
  0
CIRCLE
  5
5A1
330
5F6
100
AcDbEntity
  8
CNC
100
AcDbCircle
 10
70.0
 20
370.0
 30
0.0
 40
60.0
  0
CIRCLE
  5
5A2
330
5F6
100
AcDbEntity
  8
CNC
100
AcDbCircle
 10
70.0
 20
495.0
 30
0.0
 40
60.0
  0
CIRCLE
  5
5A3
330
5F6
100
AcDbEntity
  8
CNC
100
AcDbCircle
 10
320.0
 20
495.0
 30
0.0
 40
60.0
  0
LWPOLYLINE
  5
248
330
5F6
100
AcDbEntity
  8
Base
 62
     5
420
      255
100
AcDbPolyline
 90
        5
 70
     0
 43
0.0
 10
1137.961316611628
 20
380.6587486911617
 10
1259.310032651395
 20
259.3100326513946
 10
1139.808986630868
 20
139.8089866308681
 10
1018.460270591101
 20
261.1577026706351
 10
1137.961316611628
 20
380.6587486911616
  0
LWPOLYLINE
  5
249
330
5F6
100
AcDbEntity
  8
Base
 62
     5
420
      255
100
AcDbPolyline
 90
        5
 70
     0
 43
0.0
 10
1259.310032651395
 20
259.3100326513946
 10
1380.658748691162
 20
137.9613166116276
 10
1261.157702670635
 20
18.46027059110116
 10
1139.808986630868
 20
139.8089866308681
 10
1259.310032651395
 20
259.3100326513947
  0
LWPOLYLINE
  5
24A
330
5F6
100
AcDbEntity
  8
Base
 62
     1
420
 16711680
100
AcDbPolyline
 90
        4
 70
   129
 43
0.0
 10
1000.0
 20
0.0
 10
1400.0
 20
0.0
 10
1400.0
 20
400.0
 10
1000.0
 20
400.0
  0
CIRCLE
  5
24B
330
5F6
100
AcDbEntity
  8
Base
 62
     1
420
 16711680
100
AcDbCircle
 10
1011.703708685547
 20
47.05904774487402
 30
0.0
 40
1.5
  0
CIRCLE
  5
24C
330
5F6
100
AcDbEntity
  8
Base
 62
     1
420
 16711680
100
AcDbCircle
 10
1047.059047744874
 20
11.70370868554659
 30
0.0
 40
1.5
  0
CIRCLE
  5
24D
330
5F6
100
AcDbEntity
  8
Base
 62
     1
420
 16711680
100
AcDbCircle
 10
1095.355339059327
 20
24.64466094067259
 30
0.0
 40
1.5
  0
CIRCLE
  5
24E
330
5F6
100
AcDbEntity
  8
Base
 62
     1
420
 16711680
100
AcDbCircle
 10
1108.296291314453
 20
72.94095225512604
 30
0.0
 40
1.5
  0
CIRCLE
  5
24F
330
5F6
100
AcDbEntity
  8
Base
 62
     1
420
 16711680
100
AcDbCircle
 10
1072.940952255126
 20
108.2962913144534
 30
0.0
 40
1.5
  0
CIRCLE
  5
250
330
5F6
100
AcDbEntity
  8
Base
 62
     1
420
 16711680
100
AcDbCircle
 10
1024.644660940673
 20
95.35533905932743
 30
0.0
 40
1.5
  0
CIRCLE
  5
251
330
5F6
100
AcDbEntity
  8
Base
 62
     1
420
 16711680
100
AcDbCircle
 10
1011.703708685547
 20
47.05904774487405
 30
0.0
 40
1.5
  0
CIRCLE
  5
5A4
330
5F6
100
AcDbEntity
  8
CNC
100
AcDbCircle
 10
70.0
 20
320.0
 30
0.0
 40
1.5
  0
CIRCLE
  5
5A5
330
5F6
100
AcDbEntity
  8
CNC
100
AcDbCircle
 10
113.3012701892219
 20
345.0
 30
0.0
 40
1.5
  0
CIRCLE
  5
5A6
330
5F6
100
AcDbEntity
  8
CNC
100
AcDbCircle
 10
113.3012701892219
 20
394.9999999999999
 30
0.0
 40
1.5
  0
CIRCLE
  5
5A7
330
5F6
100
AcDbEntity
  8
CNC
100
AcDbCircle
 10
70.0
 20
420.0
 30
0.0
 40
1.5
  0
CIRCLE
  5
5A8
330
5F6
100
AcDbEntity
  8
CNC
100
AcDbCircle
 10
26.6987298107781
 20
395.0000000000001
 30
0.0
 40
1.5
  0
CIRCLE
  5
5A9
330
5F6
100
AcDbEntity
  8
CNC
100
AcDbCircle
 10
26.6987298107781
 20
345.0000000000001
 30
0.0
 40
1.5
  0
CIRCLE
  5
5AA
330
5F6
100
AcDbEntity
  8
CNC
100
AcDbCircle
 10
70.0
 20
445.0
 30
0.0
 40
1.5
  0
CIRCLE
  5
5AB
330
5F6
100
AcDbEntity
  8
CNC
100
AcDbCircle
 10
113.3012701892219
 20
470.0
 30
0.0
 40
1.5
  0
CIRCLE
  5
5AC
330
5F6
100
AcDbEntity
  8
CNC
100
AcDbCircle
 10
113.3012701892219
 20
519.9999999999999
 30
0.0
 40
1.5
  0
CIRCLE
  5
5AD
330
5F6
100
AcDbEntity
  8
CNC
100
AcDbCircle
 10
70.0
 20
545.0
 30
0.0
 40
1.5
  0
CIRCLE
  5
5AE
330
5F6
100
AcDbEntity
  8
CNC
100
AcDbCircle
 10
26.6987298107781
 20
520.0000000000001
 30
0.0
 40
1.5
  0
CIRCLE
  5
5AF
330
5F6
100
AcDbEntity
  8
CNC
100
AcDbCircle
 10
26.6987298107781
 20
470.0000000000001
 30
0.0
 40
1.5
  0
CIRCLE
  5
5B0
330
5F6
100
AcDbEntity
  8
CNC
100
AcDbCircle
 10
320.0
 20
445.0
 30
0.0
 40
1.5
  0
CIRCLE
  5
5B1
330
5F6
100
AcDbEntity
  8
CNC
100
AcDbCircle
 10
363.3012701892219
 20
470.0
 30
0.0
 40
1.5
  0
CIRCLE
  5
5B2
330
5F6
100
AcDbEntity
  8
CNC
100
AcDbCircle
 10
363.3012701892219
 20
520.0
 30
0.0
 40
1.5
  0
CIRCLE
  5
5B3
330
5F6
100
AcDbEntity
  8
CNC
100
AcDbCircle
 10
320.0
 20
545.0
 30
0.0
 40
1.5
  0
CIRCLE
  5
5B4
330
5F6
100
AcDbEntity
  8
CNC
100
AcDbCircle
 10
276.6987298107781
 20
520.0000000000001
 30
0.0
 40
1.5
  0
CIRCLE
  5
5B5
330
5F6
100
AcDbEntity
  8
CNC
100
AcDbCircle
 10
276.6987298107781
 20
470.0000000000001
 30
0.0
 40
1.5
  0
CIRCLE
  5
252
330
5F6
100
AcDbEntity
  8
Base
 62
     5
420
      255
100
AcDbCircle
 10
1011.703708685547
 20
47.05904774487402
 30
0.0
 40
3.0
  0
CIRCLE
  5
253
330
5F6
100
AcDbEntity
  8
Base
 62
     5
420
      255
100
AcDbCircle
 10
1047.059047744874
 20
11.70370868554659
 30
0.0
 40
3.0
  0
CIRCLE
  5
254
330
5F6
100
AcDbEntity
  8
Base
 62
     5
420
      255
100
AcDbCircle
 10
1095.355339059327
 20
24.64466094067259
 30
0.0
 40
3.0
  0
CIRCLE
  5
255
330
5F6
100
AcDbEntity
  8
Base
 62
     5
420
      255
100
AcDbCircle
 10
1108.296291314453
 20
72.94095225512604
 30
0.0
 40
3.0
  0
CIRCLE
  5
256
330
5F6
100
AcDbEntity
  8
Base
 62
     5
420
      255
100
AcDbCircle
 10
1072.940952255126
 20
108.2962913144534
 30
0.0
 40
3.0
  0
CIRCLE
  5
257
330
5F6
100
AcDbEntity
  8
Base
 62
     5
420
      255
100
AcDbCircle
 10
1024.644660940673
 20
95.35533905932743
 30
0.0
 40
3.0
  0
CIRCLE
  5
259
330
5F6
100
AcDbEntity
  8
Base
 62
     1
420
 16711680
100
AcDbCircle
 10
1024.644660940673
 20
24.64466094067265
 30
0.0
 40
0.5
  0
CIRCLE
  5
25A
330
5F6
100
AcDbEntity
  8
Base
 62
     1
420
 16711680
100
AcDbCircle
 10
1072.940952255126
 20
11.70370868554659
 30
0.0
 40
0.5
  0
CIRCLE
  5
25B
330
5F6
100
AcDbEntity
  8
Base
 62
     1
420
 16711680
100
AcDbCircle
 10
1108.296291314453
 20
47.05904774487396
 30
0.0
 40
0.5
  0
CIRCLE
  5
25C
330
5F6
100
AcDbEntity
  8
Base
 62
     1
420
 16711680
100
AcDbCircle
 10
1095.355339059327
 20
95.3553390593274
 30
0.0
 40
0.5
  0
CIRCLE
  5
25D
330
5F6
100
AcDbEntity
  8
Base
 62
     1
420
 16711680
100
AcDbCircle
 10
1047.059047744874
 20
108.2962913144534
 30
0.0
 40
0.5
  0
CIRCLE
  5
25E
330
5F6
100
AcDbEntity
  8
Base
 62
     1
420
 16711680
100
AcDbCircle
 10
1011.703708685547
 20
72.94095225512606
 30
0.0
 40
0.5
  0
CIRCLE
  5
25F
330
5F6
100
AcDbEntity
  8
Base
 62
     1
420
 16711680
100
AcDbCircle
 10
1024.644660940673
 20
24.64466094067265
 30
0.0
 40
0.5
  0
CIRCLE
  5
5B6
330
5F6
100
AcDbEntity
  8
CNC
100
AcDbCircle
 10
95.0
 20
326.6987298107781
 30
0.0
 40
0.5
  0
CIRCLE
  5
5B7
330
5F6
100
AcDbEntity
  8
CNC
100
AcDbCircle
 10
120.0
 20
370.0
 30
0.0
 40
0.5
  0
CIRCLE
  5
5B8
330
5F6
100
AcDbEntity
  8
CNC
100
AcDbCircle
 10
95.0
 20
413.3012701892219
 30
0.0
 40
0.5
  0
CIRCLE
  5
5B9
330
5F6
100
AcDbEntity
  8
CNC
100
AcDbCircle
 10
45.0
 20
413.3012701892219
 30
0.0
 40
0.5
  0
CIRCLE
  5
5BA
330
5F6
100
AcDbEntity
  8
CNC
100
AcDbCircle
 10
20.0
 20
370.0
 30
0.0
 40
0.5
  0
CIRCLE
  5
5BB
330
5F6
100
AcDbEntity
  8
CNC
100
AcDbCircle
 10
45.0
 20
326.698729810778
 30
0.0
 40
0.5
  0
CIRCLE
  5
5BC
330
5F6
100
AcDbEntity
  8
CNC
100
AcDbCircle
 10
95.0
 20
451.6987298107781
 30
0.0
 40
0.5
  0
CIRCLE
  5
5BD
330
5F6
100
AcDbEntity
  8
CNC
100
AcDbCircle
 10
120.0
 20
495.0
 30
0.0
 40
0.5
  0
CIRCLE
  5
5BE
330
5F6
100
AcDbEntity
  8
CNC
100
AcDbCircle
 10
95.0
 20
538.301270189222
 30
0.0
 40
0.5
  0
CIRCLE
  5
5BF
330
5F6
100
AcDbEntity
  8
CNC
100
AcDbCircle
 10
45.0
 20
538.3012701892219
 30
0.0
 40
0.5
  0
CIRCLE
  5
5C0
330
5F6
100
AcDbEntity
  8
CNC
100
AcDbCircle
 10
20.0
 20
495.0
 30
0.0
 40
0.5
  0
CIRCLE
  5
5C1
330
5F6
100
AcDbEntity
  8
CNC
100
AcDbCircle
 10
45.0
 20
451.6987298107781
 30
0.0
 40
0.5
  0
CIRCLE
  5
5C2
330
5F6
100
AcDbEntity
  8
CNC
100
AcDbCircle
 10
345.0
 20
451.6987298107781
 30
0.0
 40
0.5
  0
CIRCLE
  5
5C3
330
5F6
100
AcDbEntity
  8
CNC
100
AcDbCircle
 10
370.0
 20
495.0
 30
0.0
 40
0.5
  0
CIRCLE
  5
5C4
330
5F6
100
AcDbEntity
  8
CNC
100
AcDbCircle
 10
345.0
 20
538.301270189222
 30
0.0
 40
0.5
  0
CIRCLE
  5
5C5
330
5F6
100
AcDbEntity
  8
CNC
100
AcDbCircle
 10
295.0
 20
538.3012701892219
 30
0.0
 40
0.5
  0
CIRCLE
  5
5C6
330
5F6
100
AcDbEntity
  8
CNC
100
AcDbCircle
 10
270.0
 20
495.0
 30
0.0
 40
0.5
  0
ARC
  5
1EC
330
5F6
100
AcDbEntity
  8
CNC
100
AcDbCircle
 10
235.0
 20
69.99999999999996
 30
0.0
 40
59.99999999999999
100
AcDbArc
 50
270.0
 51
90.0
1001
QCAD
1000
reversed:1
  0
ARC
  5
1ED
330
5F6
100
AcDbEntity
  8
CNC
100
AcDbCircle
 10
80.0
 20
195.0
 30
0.0
 40
59.00693333683916
100
AcDbArc
 50
89.1172370748916
 51
270.8827629251084
1001
QCAD
1000
reversed:1
  0
CIRCLE
  5
368
330
5F6
100
AcDbEntity
  8
CNC
100
AcDbCircle
 10
360.0
 20
235.0
 30
0.0
 40
20.0
  0
CIRCLE
  5
36A
330
5F6
100
AcDbEntity
  8
CNC
100
AcDbCircle
 10
280.0
 20
235.0
 30
0.0
 40
20.0
  0
CIRCLE
  5
36C
330
5F6
100
AcDbEntity
  8
CNC
100
AcDbCircle
 10
270.0
 20
150.0
 30
0.0
 40
20.0
  0
CIRCLE
  5
36E
330
5F6
100
AcDbEntity
  8
CNC
100
AcDbCircle
 10
320.0
 20
210.0
 30
0.0
 40
20.0
  0
CIRCLE
  5
5C7
330
5F6
100
AcDbEntity
  8
CNC
100
AcDbCircle
 10
265.0
 20
420.0
 30
0.0
 40
20.0
  0
CIRCLE
  5
369
330
5F6
100
AcDbEntity
  8
CNC
100
AcDbCircle
 10
360.0
 20
235.0
 30
0.0
 40
0.5
  0
CIRCLE
  5
36B
330
5F6
100
AcDbEntity
  8
CNC
100
AcDbCircle
 10
280.0
 20
235.0
 30
0.0
 40
0.5
  0
CIRCLE
  5
36D
330
5F6
100
AcDbEntity
  8
CNC
100
AcDbCircle
 10
270.0
 20
150.0
 30
0.0
 40
0.5
  0
CIRCLE
  5
36F
330
5F6
100
AcDbEntity
  8
CNC
100
AcDbCircle
 10
320.0
 20
210.0
 30
0.0
 40
0.5
  0
CIRCLE
  5
5C8
330
5F6
100
AcDbEntity
  8
CNC
100
AcDbCircle
 10
265.0
 20
420.0
 30
0.0
 40
0.5
  0
TEXT
  5
3E3
330
5F6
100
AcDbEntity
  8
0
100
AcDbText
 10
115.2731142129954
 20
217.4637621192235
 30
0.0
 40
3.0
  1
One side -3.5 mm
  7
textstyle18
 11
115.2731142129954
 21
218.9637621192235
 31
0.0
100
AcDbText
 73
     2
  0
TEXT
  5
5C9
330
5F6
100
AcDbEntity
  8
0
100
AcDbText
 10
230.2731142129954
 20
518.4637621192236
 30
0.0
 40
3.0
  1
One side -3.5 mm
  7
textstyle19
 11
230.2731142129954
 21
519.9637621192236
 31
0.0
100
AcDbText
 73
     2
  0
TEXT
  5
5CA
330
5F6
100
AcDbEntity
  8
0
100
AcDbText
 10
225.2731142129953
 20
392.4637621192231
 30
0.0
 40
3.0
  1
One side -3.5 mm
  7
textstyle20
 11
225.2731142129953
 21
393.9637621192231
 31
0.0
100
AcDbText
 73
     2
  0
TEXT
  5
3EA
330
5F6
100
AcDbEntity
  8
0
100
AcDbText
 10
342.1298113749787
 20
91.2513974168428
 30
0.0
 40
3.0
  1
Both sides -3.5 mm
  7
textstyle21
 11
342.1298113749787
 21
92.7513974168428
 31
0.0
100
AcDbText
 73
     2
  0
TEXT
  5
3EE
330
5F6
100
AcDbEntity
  8
0
100
AcDbText
 10
342.1298113749787
 20
181.2513974168427
 30
0.0
 40
3.0
  1
Both sides -3.5 mm
  7
textstyle22
 11
342.1298113749787
 21
182.7513974168427
 31
0.0
100
AcDbText
 73
     2
  0
TEXT
  5
5CB
330
5F6
100
AcDbEntity
  8
0
100
AcDbText
 10
91.12981137497876
 20
530.2513974168429
 30
0.0
 40
3.0
  1
Both sides -3.5 mm
  7
textstyle23
 11
91.12981137497876
 21
531.7513974168429
 31
0.0
100
AcDbText
 73
     2
  0
TEXT
  5
5CC
330
5F6
100
AcDbEntity
  8
0
100
AcDbText
 10
91.12981137497877
 20
405.251397416843
 30
0.0
 40
3.0
  1
Both sides -3.5 mm
  7
textstyle24
 11
91.12981137497877
 21
406.751397416843
 31
0.0
100
AcDbText
 73
     2
  0
TEXT
  5
5CD
330
5F6
100
AcDbEntity
  8
0
100
AcDbText
 10
323.0
 20
417.5
 30
0.0
 40
3.0
  1
One side -3.5 mm
  7
textstyle25
 11
323.0
 21
419.0
 31
0.0
100
AcDbText
 73
     2
  0
TEXT
  5
5CE
330
5F6
100
AcDbEntity
  8
0
100
AcDbText
 10
338.2731142129957
 20
526.4637621192244
 30
0.0
 40
3.0
  1
One side -3.5 mm
  7
textstyle26
 11
338.2731142129957
 21
527.9637621192244
 31
0.0
100
AcDbText
 73
     2
  0
TEXT
  5
5CF
330
5F6
100
AcDbEntity
  8
0
100
AcDbText
 10
333.0
 20
356.4999999999991
 30
0.0
 40
3.0
  1
One side -3.5 mm
  7
textstyle27
 11
333.0
 21
357.9999999999991
 31
0.0
100
AcDbText
 73
     2
  0
LEADER
  5
3E5
330
5F6
100
AcDbEntity
  8
0
100
AcDbLeader
  3
QCADDimStyle
 76
     2
 10
100.0
 20
212.0
 30
0.0
 10
115.2731142129954
 20
218.9637621192235
 30
0.0
  0
LEADER
  5
5D0
330
5F6
100
AcDbEntity
  8
0
100
AcDbLeader
  3
QCADDimStyle
 76
     2
 10
215.0000000000001
 20
513.0
 30
0.0
 10
230.2731142129954
 20
519.9637621192235
 30
0.0
  0
LEADER
  5
5D1
330
5F6
100
AcDbEntity
  8
0
100
AcDbLeader
  3
QCADDimStyle
 76
     2
 10
215.0
 20
387.0
 30
0.0
 10
230.2731142129953
 20
393.9637621192235
 30
0.0
  0
LEADER
  5
3EB
330
5F6
100
AcDbEntity
  8
0
100
AcDbLeader
  3
QCADDimStyle
 76
     2
 10
330.0
 20
74.0
 30
0.0
 10
342.0
 20
91.0
 30
0.0
  0
LEADER
  5
3EF
330
5F6
100
AcDbEntity
  8
0
100
AcDbLeader
  3
QCADDimStyle
 76
     2
 10
330.0
 20
164.0
 30
0.0
 10
342.0
 20
181.0
 30
0.0
  0
LEADER
  5
5D2
330
5F6
100
AcDbEntity
  8
0
100
AcDbLeader
  3
QCADDimStyle
 76
     2
 10
79.0
 20
513.0
 30
0.0
 10
91.0
 20
530.0
 30
0.0
  0
LEADER
  5
5D3
330
5F6
100
AcDbEntity
  8
0
100
AcDbLeader
  3
QCADDimStyle
 76
     2
 10
79.0
 20
388.0
 30
0.0
 10
91.0
 20
405.0
 30
0.0
  0
LEADER
  5
5D4
330
5F6
100
AcDbEntity
  8
0
100
AcDbLeader
  3
QCADDimStyle
 76
     2
 10
302.9999999999999
 20
404.0
 30
0.0
 10
323.0
 20
417.0
 30
0.0
  0
LEADER
  5
5D5
330
5F6
100
AcDbEntity
  8
0
100
AcDbLeader
  3
QCADDimStyle
 76
     2
 10
343.0
 20
397.0
 30
0.0
 10
323.0
 20
417.0
 30
0.0
  0
LEADER
  5
5D6
330
5F6
100
AcDbEntity
  8
0
100
AcDbLeader
  3
QCADDimStyle
 76
     2
 10
323.0000000000003
 20
521.0000000000003
 30
0.0
 10
338.2731142129957
 20
527.9637621192238
 30
0.0
  0
LEADER
  5
5D7
330
5F6
100
AcDbEntity
  8
0
100
AcDbLeader
  3
QCADDimStyle
 76
     2
 10
318.0
 20
345.0
 30
0.0
 10
333.0
 20
356.0
 30
0.0
  0
LEADER
  5
5D8
330
5F6
100
AcDbEntity
  8
0
100
AcDbLeader
  3
QCADDimStyle
 76
     2
 10
343.1230437889214
 20
344.9120839489869
 30
0.0
 10
333.0
 20
356.0
 30
0.0
  0
LINE
  5
4DD
330
5F6
100
AcDbEntity
  8
Base
 62
     5
420
      255
100
AcDbLine
 10
1078.651283960233
 20
321.3487160397669
 30
0.0
 11
1321.348716039767
 21
78.65128396023286
 31
0.0
  0
LINE
  5
4E1
330
5F6
100
AcDbEntity
  8
0
100
AcDbLine
 10
1018.460270591101
 20
261.1577026706351
 30
0.0
 11
1137.961316611628
 21
380.6587486911616
 31
0.0
  0
LINE
  5
4E2
330
5F6
100
AcDbEntity
  8
0
100
AcDbLine
 10
1137.961316611628
 20
380.6587486911616
 30
0.0
 11
1259.310032651395
 21
259.3100326513947
 31
0.0
  0
LINE
  5
4E3
330
5F6
100
AcDbEntity
  8
0
100
AcDbLine
 10
1259.310032651395
 20
259.3100326513947
 30
0.0
 11
1380.658748691162
 21
137.9613166116276
 31
0.0
  0
LINE
  5
4E4
330
5F6
100
AcDbEntity
  8
0
100
AcDbLine
 10
1380.658748691162
 20
137.9613166116276
 30
0.0
 11
1321.348716039767
 21
78.65128396023272
 31
0.0
  0
LINE
  5
4E5
330
5F6
100
AcDbEntity
  8
0
100
AcDbLine
 10
1321.348716039767
 20
78.65128396023272
 30
0.0
 11
1261.157702670635
 21
18.46027059110116
 31
0.0
  0
LINE
  5
4E6
330
5F6
100
AcDbEntity
  8
0
100
AcDbLine
 10
1261.157702670635
 20
18.46027059110116
 30
0.0
 11
1139.808986630868
 21
139.8089866308682
 31
0.0
  0
LINE
  5
4E7
330
5F6
100
AcDbEntity
  8
0
100
AcDbLine
 10
1139.808986630868
 20
139.8089866308682
 30
0.0
 11
1018.460270591101
 21
261.1577026706352
 31
0.0
  0
LINE
  5
4E8
330
5F6
100
AcDbEntity
  8
0
100
AcDbLine
 10
1077.590623788453
 20
322.4093762115466
 30
0.0
 11
1322.409376211547
 21
77.59062378845289
 31
0.0
  0
LINE
  5
4E9
330
5F6
100
AcDbEntity
  8
0
100
AcDbLine
 10
1138.748326459088
 20
138.7483264590882
 30
0.0
 11
1260.370692823175
 21
260.3706928231746
 31
0.0
  0
LINE
  5
4EA
330
5F6
100
AcDbEntity
  8
0
100
AcDbLine
 10
1260.370692823175
 20
260.3706928231746
 30
0.0
 11
1381.719408862942
 21
139.0219767834074
 31
0.0
  0
LINE
  5
4EB
330
5F6
100
AcDbEntity
  8
0
100
AcDbLine
 10
1381.719408862942
 20
136.9006564398478
 30
0.0
 11
1322.409376211547
 21
77.5906237884529
 31
0.0
  0
LINE
  5
4EC
330
5F6
100
AcDbEntity
  8
0
100
AcDbLine
 10
1322.409376211547
 20
77.59062378845289
 30
0.0
 11
1262.218362842415
 21
17.39961041932133
 31
0.0
  0
LINE
  5
4ED
330
5F6
100
AcDbEntity
  8
0
100
AcDbLine
 10
1260.097042498855
 20
17.39961041932134
 30
0.0
 11
1138.748326459088
 21
138.7483264590883
 31
0.0
  0
LINE
  5
4EE
330
5F6
100
AcDbEntity
  8
0
100
AcDbLine
 10
1138.748326459088
 20
138.7483264590883
 30
0.0
 11
1017.399610419321
 21
260.0970424988554
 31
0.0
  0
LINE
  5
4EF
330
5F6
100
AcDbEntity
  8
0
100
AcDbLine
 10
1017.399610419321
 20
262.2183628424149
 30
0.0
 11
1136.900656439848
 21
381.7194088629414
 31
0.0
  0
LINE
  5
4F0
330
5F6
100
AcDbEntity
  8
0
100
AcDbLine
 10
1139.021976783408
 20
381.7194088629414
 30
0.0
 11
1260.370692823175
 21
260.3706928231746
 31
0.0
  0
LINE
  5
4F1
330
5F6
100
AcDbEntity
  8
0
100
AcDbLine
 10
1167.03259770655
 20
110.4640552116263
 30
0.0
 11
1288.654964070637
 21
232.0864215757127
 31
0.0
  0
LINE
  5
4F2
330
5F6
100
AcDbEntity
  8
0
100
AcDbLine
 10
1195.316868954012
 20
82.17978396416444
 30
0.0
 11
1316.939235318099
 21
203.8021503282509
 31
0.0
  0
LINE
  5
4F3
330
5F6
100
AcDbEntity
  8
0
100
AcDbLine
 10
1223.601140201474
 20
53.89551271670241
 30
0.0
 11
1345.22350656556
 21
175.5178790807889
 31
0.0
  0
LINE
  5
4F4
330
5F6
100
AcDbEntity
  8
0
100
AcDbLine
 10
1251.885411448936
 20
25.61124146924066
 30
0.0
 11
1373.507777813023
 21
147.2336078333273
 31
0.0
  0
LINE
  5
4F5
330
5F6
100
AcDbEntity
  8
0
100
AcDbLine
 10
1110.464055211627
 20
167.0325977065502
 30
0.0
 11
1232.086421575713
 21
288.6549640706365
 31
0.0
  0
LINE
  5
4F6
330
5F6
100
AcDbEntity
  8
0
100
AcDbLine
 10
1082.179783964165
 20
195.3168689540121
 30
0.0
 11
1203.802150328251
 21
316.9392353180986
 31
0.0
  0
LINE
  5
4F7
330
5F6
100
AcDbEntity
  8
0
100
AcDbLine
 10
1053.895512716703
 20
223.601140201474
 30
0.0
 11
1175.517879080789
 21
345.2235065655603
 31
0.0
  0
LINE
  5
4F8
330
5F6
100
AcDbEntity
  8
0
100
AcDbLine
 10
1025.611241469241
 20
251.8854114489358
 30
0.0
 11
1147.233607833327
 21
373.5077778130221
 31
0.0
  0
LINE
  5
4F9
330
5F6
100
AcDbEntity
  8
0
100
AcDbLine
 10
1103.046467911169
 20
347.8652203342621
 30
0.0
 11
1347.865220334262
 21
103.0464679111686
 31
0.0
  0
LINE
  5
4FA
330
5F6
100
AcDbEntity
  8
0
100
AcDbLine
 10
1128.502312033884
 20
373.3210644569779
 30
0.0
 11
1373.321064456979
 21
128.502312033884
 31
0.0
  0
LINE
  5
4FB
330
5F6
100
AcDbEntity
  8
0
100
AcDbLine
 10
1052.134779665737
 20
296.953532088831
 30
0.0
 11
1296.953532088831
 21
52.13477966573731
 31
0.0
  0
LINE
  5
4FC
330
5F6
100
AcDbEntity
  8
0
100
AcDbLine
 10
1026.678935543022
 20
271.4976879661153
 30
0.0
 11
1271.497687966115
 21
26.67893554302159
 31
0.0
  0
CIRCLE
  5
4FE
330
5F6
100
AcDbEntity
  8
Base
 62
     1
420
 16711680
100
AcDbCircle
 10
1373.321064456978
 20
128.5023120338843
 30
0.0
 40
1.5
  0
CIRCLE
  5
4FF
330
5F6
100
AcDbEntity
  8
Base
 62
     1
420
 16711680
100
AcDbCircle
 10
1347.865220334263
 20
103.0464679111685
 30
0.0
 40
1.5
  0
CIRCLE
  5
500
330
5F6
100
AcDbEntity
  8
Base
 62
     1
420
 16711680
100
AcDbCircle
 10
1322.409376211546
 20
77.59062378845279
 30
0.0
 40
1.5
  0
CIRCLE
  5
501
330
5F6
100
AcDbEntity
  8
Base
 62
     1
420
 16711680
100
AcDbCircle
 10
1296.953532088831
 20
52.13477966573725
 30
0.0
 40
1.5
  0
CIRCLE
  5
502
330
5F6
100
AcDbEntity
  8
Base
 62
     1
420
 16711680
100
AcDbCircle
 10
1271.497687966115
 20
26.67893554302183
 30
0.0
 40
1.5
  0
CIRCLE
  5
503
330
5F6
100
AcDbEntity
  8
Base
 62
     1
420
 16711680
100
AcDbCircle
 10
1251.885411448936
 20
25.61124146924046
 30
0.0
 40
1.5
  0
CIRCLE
  5
504
330
5F6
100
AcDbEntity
  8
Base
 62
     1
420
 16711680
100
AcDbCircle
 10
1223.601140201474
 20
53.89551271670248
 30
0.0
 40
1.5
  0
CIRCLE
  5
505
330
5F6
100
AcDbEntity
  8
Base
 62
     1
420
 16711680
100
AcDbCircle
 10
1195.316868954012
 20
82.17978396416443
 30
0.0
 40
1.5
  0
CIRCLE
  5
506
330
5F6
100
AcDbEntity
  8
Base
 62
     1
420
 16711680
100
AcDbCircle
 10
1167.03259770655
 20
110.4640552116264
 30
0.0
 40
1.5
  0
CIRCLE
  5
507
330
5F6
100
AcDbEntity
  8
Base
 62
     1
420
 16711680
100
AcDbCircle
 10
1138.748326459088
 20
138.7483264590882
 30
0.0
 40
1.5
  0
CIRCLE
  5
508
330
5F6
100
AcDbEntity
  8
Base
 62
     1
420
 16711680
100
AcDbCircle
 10
1110.464055211627
 20
167.0325977065501
 30
0.0
 40
1.5
  0
CIRCLE
  5
509
330
5F6
100
AcDbEntity
  8
Base
 62
     1
420
 16711680
100
AcDbCircle
 10
1082.179783964165
 20
195.316868954012
 30
0.0
 40
1.5
  0
CIRCLE
  5
50A
330
5F6
100
AcDbEntity
  8
Base
 62
     1
420
 16711680
100
AcDbCircle
 10
1053.895512716703
 20
223.6011402014739
 30
0.0
 40
1.5
  0
CIRCLE
  5
50B
330
5F6
100
AcDbEntity
  8
Base
 62
     1
420
 16711680
100
AcDbCircle
 10
1025.611241469241
 20
251.8854114489359
 30
0.0
 40
1.5
  0
CIRCLE
  5
50C
330
5F6
100
AcDbEntity
  8
Base
 62
     1
420
 16711680
100
AcDbCircle
 10
1026.678935543022
 20
271.4976879661153
 30
0.0
 40
1.5
  0
CIRCLE
  5
50D
330
5F6
100
AcDbEntity
  8
Base
 62
     1
420
 16711680
100
AcDbCircle
 10
1052.134779665737
 20
296.9535320888309
 30
0.0
 40
1.5
  0
CIRCLE
  5
50E
330
5F6
100
AcDbEntity
  8
Base
 62
     1
420
 16711680
100
AcDbCircle
 10
1077.590623788453
 20
322.4093762115464
 30
0.0
 40
1.5
  0
CIRCLE
  5
50F
330
5F6
100
AcDbEntity
  8
Base
 62
     1
420
 16711680
100
AcDbCircle
 10
1103.046467911169
 20
347.8652203342622
 30
0.0
 40
1.5
  0
CIRCLE
  5
510
330
5F6
100
AcDbEntity
  8
Base
 62
     1
420
 16711680
100
AcDbCircle
 10
1128.502312033885
 20
373.3210644569779
 30
0.0
 40
1.5
  0
CIRCLE
  5
511
330
5F6
100
AcDbEntity
  8
Base
 62
     1
420
 16711680
100
AcDbCircle
 10
1147.233607833327
 20
373.5077778130223
 30
0.0
 40
1.5
  0
CIRCLE
  5
512
330
5F6
100
AcDbEntity
  8
Base
 62
     1
420
 16711680
100
AcDbCircle
 10
1175.517879080789
 20
345.2235065655603
 30
0.0
 40
1.5
  0
CIRCLE
  5
513
330
5F6
100
AcDbEntity
  8
Base
 62
     1
420
 16711680
100
AcDbCircle
 10
1203.802150328251
 20
316.9392353180984
 30
0.0
 40
1.5
  0
CIRCLE
  5
514
330
5F6
100
AcDbEntity
  8
Base
 62
     1
420
 16711680
100
AcDbCircle
 10
1232.086421575713
 20
288.6549640706365
 30
0.0
 40
1.5
  0
CIRCLE
  5
515
330
5F6
100
AcDbEntity
  8
Base
 62
     1
420
 16711680
100
AcDbCircle
 10
1260.370692823175
 20
260.3706928231745
 30
0.0
 40
1.5
  0
CIRCLE
  5
516
330
5F6
100
AcDbEntity
  8
Base
 62
     1
420
 16711680
100
AcDbCircle
 10
1288.654964070637
 20
232.0864215757128
 30
0.0
 40
1.5
  0
CIRCLE
  5
517
330
5F6
100
AcDbEntity
  8
Base
 62
     1
420
 16711680
100
AcDbCircle
 10
1316.939235318098
 20
203.8021503282509
 30
0.0
 40
1.5
  0
CIRCLE
  5
518
330
5F6
100
AcDbEntity
  8
Base
 62
     1
420
 16711680
100
AcDbCircle
 10
1345.22350656556
 20
175.5178790807888
 30
0.0
 40
1.5
  0
CIRCLE
  5
519
330
5F6
100
AcDbEntity
  8
Base
 62
     1
420
 16711680
100
AcDbCircle
 10
1373.507777813022
 20
147.2336078333269
 30
0.0
 40
1.5
  0
VIEWPORT
  5
6B8
330
5F2
100
AcDbEntity
 67
     1
  8
0
 62
   178
420
        0
100
AcDbViewport
 10
128.5
 20
97.5
 30
0.0
 40
314.226
 41
222.18
 68
     1
 69
     1
 12
128.5
 22
97.5
 13
0.0
 23
0.0
 14
10.0
 24
10.0
 15
10.0
 25
10.0
 16
0.0
 26
0.0
 36
1.0
 17
0.0
 27
0.0
 37
0.0
 42
50.0
 43
0.0
 44
0.0
 45
222.18
 50
0.0
 51
0.0
 72
   100
 90
   557152
  1

281
     0
 71
     1
 74
     0
110
0.0
120
0.0
130
0.0
111
1.0
121
0.0
131
0.0
112
0.0
122
1.0
132
0.0
 79
     0
146
0.0
170
     0
 61
     5
348
606
292
     1
282
     1
141
0.0
142
0.0
 63
   256
361
6B9
  0
ENDSEC
  0
SECTION
  2
OBJECTS
  0
DICTIONARY
  5
5E4
330
0
100
AcDbDictionary
281
     1
  3
ACAD_DETAILVIEWSTYLE
350
6D2
  3
ACAD_GROUP
350
5E5
  3
ACAD_LAYOUT
350
5F1
  3
ACAD_MATERIAL
350
61A
  3
ACAD_MLEADERSTYLE
350
642
  3
ACAD_MLINESTYLE
350
5EE
  3
ACAD_PLOTSETTINGS
350
5F0
  3
ACAD_PLOTSTYLENAME
350
5E6
  3
ACAD_SCALELIST
350
61E
  3
ACAD_SECTIONVIEWSTYLE
350
6D3
  3
ACAD_TABLESTYLE
350
640
  3
ACAD_VISUALSTYLE
350
601
  3
ACDB_RECOMPOSE_DATA
350
6CF
  3
AcDbVariableDictionary
350
6CB
  3
QCAD_OBJECTS
350
646
  0
SUN
  5
644
330
600
100
AcDbSun
 90
        1
290
     0
 63
     7
421
 16777215
 40
1.0
291
     1
 91
  2455826
 92
 54000000
292
     0
 70
     2
 71
   256
280
     1
  0
SUN
  5
6B9
330
6B8
100
AcDbSun
 90
        1
290
     0
 63
     7
421
 16777215
 40
1.0
291
     1
 91
  2455826
 92
 54000000
292
     0
 70
     2
 71
   256
280
     1
  0
DICTIONARY
  5
6D2
102
{ACAD_REACTORS
330
5E4
102
}
330
5E4
100
AcDbDictionary
281
     1
  0
DICTIONARY
  5
5E5
102
{ACAD_REACTORS
330
5E4
102
}
330
5E4
100
AcDbDictionary
281
     1
  0
DICTIONARY
  5
5F1
102
{ACAD_REACTORS
330
5E4
102
}
330
5E4
100
AcDbDictionary
281
     1
  3
Layout1
350
5F5
  3
Model
350
5F9
  0
DICTIONARY
  5
61A
102
{ACAD_REACTORS
330
5E4
102
}
330
5E4
100
AcDbDictionary
281
     1
  3
ByBlock
350
61C
  3
ByLayer
350
61B
  3
Global
350
61D
  0
DICTIONARY
  5
642
102
{ACAD_REACTORS
330
5E4
102
}
330
5E4
100
AcDbDictionary
281
     1
  3
Standard
350
643
  0
DICTIONARY
  5
5EE
102
{ACAD_REACTORS
330
5E4
102
}
330
5E4
100
AcDbDictionary
281
     1
  3
Standard
350
5EF
  0
DICTIONARY
  5
5F0
102
{ACAD_REACTORS
330
5E4
102
}
330
5E4
100
AcDbDictionary
281
     1
  0
ACDBDICTIONARYWDFLT
  5
5E6
102
{ACAD_REACTORS
330
5E4
102
}
330
5E4
100
AcDbDictionary
281
     1
  3
Normal
350
5E7
100
AcDbDictionaryWithDefault
340
5E7
  0
DICTIONARY
  5
61E
102
{ACAD_REACTORS
330
5E4
102
}
330
5E4
100
AcDbDictionary
281
     1
  3
A0
350
61F
  3
A1
350
620
  3
A2
350
621
  3
A3
350
622
  3
A4
350
623
  3
A5
350
624
  3
A6
350
625
  3
A7
350
626
  3
A8
350
627
  3
A9
350
628
  3
B0
350
629
  3
B1
350
62A
  3
B2
350
62B
  3
B3
350
62C
  3
B4
350
62D
  3
B5
350
62E
  3
B6
350
62F
  3
B7
350
630
  3
B8
350
631
  3
B9
350
632
  3
C0
350
633
  3
C1
350
634
  3
C2
350
635
  3
C3
350
636
  3
C4
350
637
  3
C5
350
638
  3
C6
350
639
  3
C7
350
63A
  3
C8
350
63B
  3
C9
350
63C
  3
D0
350
63D
  3
D1
350
63E
  3
D2
350
63F
  0
DICTIONARY
  5
6D3
102
{ACAD_REACTORS
330
5E4
102
}
330
5E4
100
AcDbDictionary
281
     1
  0
DICTIONARY
  5
640
102
{ACAD_REACTORS
330
5E4
102
}
330
5E4
100
AcDbDictionary
281
     1
  3
Standard
350
641
  0
DICTIONARY
  5
601
102
{ACAD_REACTORS
330
5E4
102
}
330
5E4
100
AcDbDictionary
281
     1
  3
2dWireframe
350
606
  3
Basic
350
609
  3
Brighten
350
60D
  3
ColorChange
350
611
  3
Conceptual
350
60B
  3
Dim
350
60C
  3
EdgeColorOff
350
614
  3
Facepattern
350
610
  3
Flat
350
602
  3
FlatWithEdges
350
603
  3
Gouraud
350
604
  3
GouraudWithEdges
350
605
  3
Hidden
350
608
  3
JitterOff
350
612
  3
Linepattern
350
60F
  3
OverhangOff
350
613
  3
Realistic
350
60A
  3
Shaded
350
619
  3
Shaded with edges
350
618
  3
Shades of Gray
350
615
  3
Sketchy
350
616
  3
Thicken
350
60E
  3
Wireframe
350
607
  3
X-Ray
350
617
  0
XRECORD
  5
6CF
102
{ACAD_REACTORS
330
5E4
102
}
330
5E4
100
AcDbXrecord
280
     1
 90
        1
330
641
  0
DICTIONARY
  5
6CB
102
{ACAD_REACTORS
330
5E4
102
}
330
5E4
100
AcDbDictionary
281
     1
  3
CANNOSCALE
350
6CC
  3
CMLEADERSTYLE
350
6D1
  3
CTABLESTYLE
350
6D0
  0
DICTIONARY
  5
646
102
{ACAD_REACTORS
330
5E4
102
}
330
5E4
100
AcDbDictionary
281
     1
  3
ColorSettings/BackgroundColor
350
648
  3
ColorSettings/ColorMode
350
649
  3
Grid/DisplayGrid00
350
64A
  3
Grid/DisplayGrid01
350
64B
  3
Grid/DisplayGrid02
350
64C
  3
Grid/DisplayGrid03
350
64D
  3
Grid/GridSpacingX00
350
64E
  3
Grid/GridSpacingX01
350
64F
  3
Grid/GridSpacingX02
350
650
  3
Grid/GridSpacingX03
350
651
  3
Grid/GridSpacingY00
350
652
  3
Grid/GridSpacingY01
350
653
  3
Grid/GridSpacingY02
350
654
  3
Grid/GridSpacingY03
350
655
  3
Grid/IsometricGrid00
350
656
  3
Grid/IsometricGrid01
350
657
  3
Grid/IsometricGrid02
350
658
  3
Grid/IsometricGrid03
350
659
  3
Grid/IsometricProjection00
350
65A
  3
Grid/IsometricProjection01
350
65B
  3
Grid/IsometricProjection02
350
65C
  3
Grid/IsometricProjection03
350
65D
  3
Grid/MetaGridSpacingX00
350
65E
  3
Grid/MetaGridSpacingX01
350
65F
  3
Grid/MetaGridSpacingX02
350
660
  3
Grid/MetaGridSpacingX03
350
661
  3
Grid/MetaGridSpacingY00
350
662
  3
Grid/MetaGridSpacingY01
350
663
  3
Grid/MetaGridSpacingY02
350
664
  3
Grid/MetaGridSpacingY03
350
665
  3
MultiPageSettings/Columns
350
666
  3
MultiPageSettings/GlueMarginsBottom
350
667
  3
MultiPageSettings/GlueMarginsLeft
350
668
  3
MultiPageSettings/GlueMarginsRight
350
669
  3
MultiPageSettings/GlueMarginsTop
350
66A
  3
MultiPageSettings/PrintCropMarks
350
66B
  3
MultiPageSettings/Rows
350
66C
  3
PageSettings/OffsetX
350
66D
  3
PageSettings/OffsetY
350
66E
  3
PageSettings/PageOrientation
350
66F
  3
PageSettings/PaperHeight
350
670
  3
PageSettings/PaperWidth
350
671
  3
PageSettings/Scale
350
672
  3
PageSettings/ShowPaperBorders
350
673
  3
QCADVersion
350
674
  3
UnitSettings/PaperUnit
350
675
  3
ViewportCenter
350
676
  3
ViewportHeight
350
677
  3
ViewportWidth
350
678
  0
LAYOUT
  5
5F5
102
{ACAD_REACTORS
330
5F1
102
}
330
5F1
100
AcDbPlotSettings
  1

  2
none_device
  4
ISO_A4_(210.00_x_297.00_MM)
  6

 40
7.5
 41
20.0
 42
7.5
 43
20.0
 44
210.0
 45
297.0
 46
0.0
 47
0.0
 48
0.0
 49
0.0
140
0.0
141
0.0
142
1.0
143
1.0
 70
   688
 72
     1
 73
     1
 74
     5
  7

 75
    16
 76
     0
 77
     2
 78
   300
147
1.0
148
0.0
149
0.0
100
AcDbLayout
  1
Layout1
 70
     1
 71
     0
 10
-20.0
 20
-7.5
 11
277.0
 21
202.5
 12
0.0
 22
0.0
 32
0.0
 14
0.0
 24
0.0
 34
0.0
 15
0.0
 25
0.0
 35
0.0
146
0.0
 13
0.0
 23
0.0
 33
0.0
 16
1.0
 26
0.0
 36
0.0
 17
0.0
 27
1.0
 37
0.0
 76
     0
330
5F2
331
6B8
  0
LAYOUT
  5
5F9
102
{ACAD_REACTORS
330
5F1
102
}
330
5F1
100
AcDbPlotSettings
  1

  2
none_device
  4
Letter_(8.50_x_11.00_Inches)
  6

 40
6.35
 41
6.35
 42
6.35000508
 43
6.35000508
 44
215.9
 45
279.4
 46
0.0
 47
0.0
 48
0.0
 49
0.0
140
0.0
141
0.0
142
1.0
143
1.0
 70
  1712
 72
     0
 73
     0
 74
     0
  7

 75
     0
 76
     0
 77
     2
 78
   300
147
1.0
148
0.0
149
0.0
100
AcDbLayout
  1
Model
 70
     1
 71
     0
 10
0.0
 20
0.0
 11
12.0
 21
9.0
 12
0.0
 22
0.0
 32
0.0
 14
1400.0
 24
564.5
 34
0.0
 15
0.0
 25
0.0
 35
0.0
146
0.0
 13
0.0
 23
0.0
 33
0.0
 16
1.0
 26
0.0
 36
0.0
 17
0.0
 27
1.0
 37
0.0
 76
     0
330
5F6
331
600
  0
MATERIAL
  5
61C
102
{ACAD_REACTORS
330
61A
102
}
330
61A
100
AcDbMaterial
  1
ByBlock
 72
     1
 94
      127
  0
MATERIAL
  5
61B
102
{ACAD_REACTORS
330
61A
102
}
330
61A
100
AcDbMaterial
  1
ByLayer
 72
     1
 94
      127
  0
MATERIAL
  5
61D
102
{ACAD_REACTORS
330
61A
102
}
330
61A
100
AcDbMaterial
  1
Global
 72
     1
 94
      127
  0
MLEADERSTYLE
  5
643
102
{ACAD_REACTORS
330
642
102
}
330
642
100
AcDbMLeaderStyle
179
     2
170
     2
171
     1
172
     0
 90
        2
 40
0.0
 41
0.0
173
     1
 91
-1056964608
340
5EB
 92
       -2
290
     1
 42
0.09
291
     1
 43
0.36
  3
Standard
341
0
 44
0.18
300

342
5E9
174
     1
178
     6
175
     1
176
     0
 93
-1056964608
 45
0.18
292
     0
297
     0
 46
0.18
343
0
 94
-1056964608
 47
1.0
 49
1.0
140
1.0
293
     1
141
0.0
294
     1
177
     0
142
1.0
295
     0
296
     0
143
0.125
271
     0
272
     9
273
     9
298
     0
  0
MLINESTYLE
  5
5EF
102
{ACAD_REACTORS
330
5EE
102
}
330
5EE
100
AcDbMlineStyle
  2
Standard
 70
     0
  3

 62
   256
 51
90.0
 52
90.0
 71
     2
 49
0.5
 62
   256
  6
BYLAYER
 49
-0.5
 62
   256
  6
BYLAYER
  0
ACDBPLACEHOLDER
  5
5E7
102
{ACAD_REACTORS
330
5E6
102
}
330
5E6
  0
SCALE
  5
61F
102
{ACAD_REACTORS
330
61E
102
}
330
61E
100
AcDbScale
 70
     0
300
1:1
140
1.0
141
1.0
290
     1
  0
SCALE
  5
620
102
{ACAD_REACTORS
330
61E
102
}
330
61E
100
AcDbScale
 70
     0
300
1:2
140
1.0
141
2.0
290
     0
  0
SCALE
  5
621
102
{ACAD_REACTORS
330
61E
102
}
330
61E
100
AcDbScale
 70
     0
300
1:4
140
1.0
141
4.0
290
     0
  0
SCALE
  5
622
102
{ACAD_REACTORS
330
61E
102
}
330
61E
100
AcDbScale
 70
     0
300
1:5
140
1.0
141
5.0
290
     0
  0
SCALE
  5
623
102
{ACAD_REACTORS
330
61E
102
}
330
61E
100
AcDbScale
 70
     0
300
1:8
140
1.0
141
8.0
290
     0
  0
SCALE
  5
624
102
{ACAD_REACTORS
330
61E
102
}
330
61E
100
AcDbScale
 70
     0
300
1:10
140
1.0
141
10.0
290
     0
  0
SCALE
  5
625
102
{ACAD_REACTORS
330
61E
102
}
330
61E
100
AcDbScale
 70
     0
300
1:16
140
1.0
141
16.0
290
     0
  0
SCALE
  5
626
102
{ACAD_REACTORS
330
61E
102
}
330
61E
100
AcDbScale
 70
     0
300
1:20
140
1.0
141
20.0
290
     0
  0
SCALE
  5
627
102
{ACAD_REACTORS
330
61E
102
}
330
61E
100
AcDbScale
 70
     0
300
1:30
140
1.0
141
30.0
290
     0
  0
SCALE
  5
628
102
{ACAD_REACTORS
330
61E
102
}
330
61E
100
AcDbScale
 70
     0
300
1:40
140
1.0
141
40.0
290
     0
  0
SCALE
  5
629
102
{ACAD_REACTORS
330
61E
102
}
330
61E
100
AcDbScale
 70
     0
300
1:50
140
1.0
141
50.0
290
     0
  0
SCALE
  5
62A
102
{ACAD_REACTORS
330
61E
102
}
330
61E
100
AcDbScale
 70
     0
300
1:100
140
1.0
141
100.0
290
     0
  0
SCALE
  5
62B
102
{ACAD_REACTORS
330
61E
102
}
330
61E
100
AcDbScale
 70
     0
300
2:1
140
2.0
141
1.0
290
     0
  0
SCALE
  5
62C
102
{ACAD_REACTORS
330
61E
102
}
330
61E
100
AcDbScale
 70
     0
300
4:1
140
4.0
141
1.0
290
     0
  0
SCALE
  5
62D
102
{ACAD_REACTORS
330
61E
102
}
330
61E
100
AcDbScale
 70
     0
300
8:1
140
8.0
141
1.0
290
     0
  0
SCALE
  5
62E
102
{ACAD_REACTORS
330
61E
102
}
330
61E
100
AcDbScale
 70
     0
300
10:1
140
10.0
141
1.0
290
     0
  0
SCALE
  5
62F
102
{ACAD_REACTORS
330
61E
102
}
330
61E
100
AcDbScale
 70
     0
300
100:1
140
100.0
141
1.0
290
     0
  0
SCALE
  5
630
102
{ACAD_REACTORS
330
61E
102
}
330
61E
100
AcDbScale
 70
     0
300
1/128" = 1'-0"
140
0.0078125
141
12.0
290
     0
  0
SCALE
  5
631
102
{ACAD_REACTORS
330
61E
102
}
330
61E
100
AcDbScale
 70
     0
300
1/64" = 1'-0"
140
0.015625
141
12.0
290
     0
  0
SCALE
  5
632
102
{ACAD_REACTORS
330
61E
102
}
330
61E
100
AcDbScale
 70
     0
300
1/32" = 1'-0"
140
0.03125
141
12.0
290
     0
  0
SCALE
  5
633
102
{ACAD_REACTORS
330
61E
102
}
330
61E
100
AcDbScale
 70
     0
300
1/16" = 1'-0"
140
0.0625
141
12.0
290
     0
  0
SCALE
  5
634
102
{ACAD_REACTORS
330
61E
102
}
330
61E
100
AcDbScale
 70
     0
300
3/32" = 1'-0"
140
0.09375
141
12.0
290
     0
  0
SCALE
  5
635
102
{ACAD_REACTORS
330
61E
102
}
330
61E
100
AcDbScale
 70
     0
300
1/8" = 1'-0"
140
0.125
141
12.0
290
     0
  0
SCALE
  5
636
102
{ACAD_REACTORS
330
61E
102
}
330
61E
100
AcDbScale
 70
     0
300
3/16" = 1'-0"
140
0.1875
141
12.0
290
     0
  0
SCALE
  5
637
102
{ACAD_REACTORS
330
61E
102
}
330
61E
100
AcDbScale
 70
     0
300
1/4" = 1'-0"
140
0.25
141
12.0
290
     0
  0
SCALE
  5
638
102
{ACAD_REACTORS
330
61E
102
}
330
61E
100
AcDbScale
 70
     0
300
3/8" = 1'-0"
140
0.375
141
12.0
290
     0
  0
SCALE
  5
639
102
{ACAD_REACTORS
330
61E
102
}
330
61E
100
AcDbScale
 70
     0
300
1/2" = 1'-0"
140
0.5
141
12.0
290
     0
  0
SCALE
  5
63A
102
{ACAD_REACTORS
330
61E
102
}
330
61E
100
AcDbScale
 70
     0
300
3/4" = 1'-0"
140
0.75
141
12.0
290
     0
  0
SCALE
  5
63B
102
{ACAD_REACTORS
330
61E
102
}
330
61E
100
AcDbScale
 70
     0
300
1" = 1'-0"
140
1.0
141
12.0
290
     0
  0
SCALE
  5
63C
102
{ACAD_REACTORS
330
61E
102
}
330
61E
100
AcDbScale
 70
     0
300
1-1/2" = 1'-0"
140
1.5
141
12.0
290
     0
  0
SCALE
  5
63D
102
{ACAD_REACTORS
330
61E
102
}
330
61E
100
AcDbScale
 70
     0
300
3" = 1'-0"
140
3.0
141
12.0
290
     0
  0
SCALE
  5
63E
102
{ACAD_REACTORS
330
61E
102
}
330
61E
100
AcDbScale
 70
     0
300
6" = 1'-0"
140
6.0
141
12.0
290
     0
  0
SCALE
  5
63F
102
{ACAD_REACTORS
330
61E
102
}
330
61E
100
AcDbScale
 70
     0
300
1'-0" = 1'-0"
140
12.0
141
12.0
290
     0
  0
TABLESTYLE
  5
641
102
{ACAD_REACTORS
330
640
102
}
102
{ACAD_XDICTIONARY
360
6CD
102
}
330
640
100
AcDbTableStyle
  3
Standard
 70
     0
 71
     0
 40
0.06
 41
0.06
280
     0
281
     0
  7
Standard
140
0.18
170
     2
 62
     0
 63
   257
283
     0
 90
        4
 91
        0
  1

274
    -2
284
     1
 64
     0
275
    -2
285
     1
 65
     0
276
    -2
286
     1
 66
     0
277
    -2
287
     1
 67
     0
278
    -2
288
     1
 68
     0
279
    -2
289
     1
 69
     0
  7
Standard
140
0.25
170
     5
 62
     0
 63
   257
283
     0
 90
        4
 91
        0
  1

274
    -2
284
     1
 64
     0
275
    -2
285
     1
 65
     0
276
    -2
286
     1
 66
     0
277
    -2
287
     1
 67
     0
278
    -2
288
     1
 68
     0
279
    -2
289
     1
 69
     0
  7
Standard
140
0.18
170
     5
 62
     0
 63
   257
283
     0
 90
        4
 91
        0
  1

274
    -2
284
     1
 64
     0
275
    -2
285
     1
 65
     0
276
    -2
286
     1
 66
     0
277
    -2
287
     1
 67
     0
278
    -2
288
     1
 68
     0
279
    -2
289
     1
 69
     0
  0
VISUALSTYLE
  5
606
102
{ACAD_REACTORS
330
601
102
}
330
601
100
AcDbVisualStyle
  2
2dWireframe
 70
     4
177
     3
291
     0
 70
    58
 90
        0
176
     1
 90
        2
176
     1
 90
        0
176
     1
 90
        0
176
     1
 40
0.6
176
     1
 40
30.0
176
     1
 62
     7
420
 16777215
176
     1
 90
        1
176
     1
 90
        4
176
     1
 62
     7
176
     1
 62
   257
176
     1
 90
        1
176
     1
 90
        1
176
     1
 40
1.0
176
     1
 90
        0
176
     1
 62
   257
176
     1
 40
1.0
176
     1
 90
        1
176
     1
 90
        6
176
     1
 90
        2
176
     1
 62
     7
176
     1
 90
        5
176
     1
 90
        0
176
     1
 90
        0
176
     1
290
     0
176
     1
 90
        1
176
     1
 40
0.0
176
     1
 90
        0
176
     1
290
     1
176
     1
290
     1
176
     1
290
     0
176
     1
290
     0
176
     1
290
     0
176
     1
290
     0
176
     1
290
     0
176
     1
290
     0
176
     1
290
     0
176
     1
 90
       50
176
     1
 40
0.0
176
     1
 40
1.0
176
     1
 90
        0
176
     1
 62
   178
420
        0
176
     1
 90
       50
176
     1
 90
        3
176
     1
 62
     5
420
      255
176
     1
290
     0
176
     1
 90
       50
176
     1
 90
       50
176
     1
 90
       50
176
     1
290
     0
176
     1
 90
       50
176
     1
 62
   256
176
     0
 40
1.0
176
     0
 90
        2
176
     1
  1
strokes_ogs.tif
176
     1
290
     0
176
     1
 40
1.0
176
     1
 40
1.0
176
     1
  0
VISUALSTYLE
  5
609
102
{ACAD_REACTORS
330
601
102
}
330
601
100
AcDbVisualStyle
  2
Basic
 70
     7
177
     3
291
     1
 70
    58
 90
        1
176
     1
 90
        0
176
     1
 90
        1
176
     1
 90
        0
176
     1
 40
0.6
176
     1
 40
30.0
176
     1
 62
     7
420
 16777215
176
     1
 90
        0
176
     1
 90
        4
176
     1
 62
     7
176
     1
 62
   257
176
     1
 90
        1
176
     1
 90
        1
176
     1
 40
1.0
176
     1
 90
        8
176
     1
 62
     7
176
     1
 40
1.0
176
     1
 90
        1
176
     1
 90
        6
176
     1
 90
        2
176
     1
 62
     7
176
     1
 90
        5
176
     1
 90
        0
176
     1
 90
        0
176
     1
290
     0
176
     1
 90
        1
176
     1
 40
0.0
176
     1
 90
        0
176
     1
290
     0
176
     1
290
     1
176
     1
290
     1
176
     1
290
     0
176
     1
290
     0
176
     1
290
     0
176
     1
290
     0
176
     1
290
     0
176
     1
290
     0
176
     1
 90
       50
176
     1
 40
0.0
176
     1
 40
1.0
176
     1
 90
        0
176
     1
 62
   178
420
        0
176
     1
 90
       50
176
     1
 90
        3
176
     1
 62
     5
420
      255
176
     1
290
     0
176
     1
 90
       50
176
     1
 90
       50
176
     1
 90
       50
176
     1
290
     0
176
     1
 90
       50
176
     1
 62
   256
176
     0
 40
1.0
176
     0
 90
        2
176
     1
  1
strokes_ogs.tif
176
     1
290
     0
176
     1
 40
1.0
176
     1
 40
1.0
176
     1
  0
VISUALSTYLE
  5
60D
102
{ACAD_REACTORS
330
601
102
}
330
601
100
AcDbVisualStyle
  2
Brighten
 70
    12
177
     3
291
     1
 70
    58
 90
        2
176
     1
 90
        2
176
     1
 90
        0
176
     1
 90
        0
176
     1
 40
0.6
176
     1
 40
30.0
176
     1
 62
     7
420
 16777215
176
     1
 90
        1
176
     1
 90
        4
176
     1
 62
     7
176
     1
 62
   257
176
     1
 90
        1
176
     1
 90
        1
176
     1
 40
1.0
176
     1
 90
        8
176
     1
 62
     7
176
     1
 40
1.0
176
     1
 90
        1
176
     1
 90
        6
176
     1
 90
        2
176
     1
 62
     7
176
     1
 90
        5
176
     1
 90
        0
176
     1
 90
        0
176
     1
290
     0
176
     1
 90
        1
176
     1
 40
50.0
176
     1
 90
        0
176
     1
290
     0
176
     1
290
     1
176
     1
290
     1
176
     1
290
     0
176
     1
290
     0
176
     1
290
     0
176
     1
290
     0
176
     1
290
     0
176
     1
290
     0
176
     1
 90
       50
176
     1
 40
0.0
176
     1
 40
1.0
176
     1
 90
        0
176
     1
 62
   178
420
        0
176
     1
 90
       50
176
     1
 90
        3
176
     1
 62
     5
420
      255
176
     1
290
     0
176
     1
 90
       50
176
     1
 90
       50
176
     1
 90
       50
176
     1
290
     0
176
     1
 90
       50
176
     1
 62
   256
176
     0
 40
1.0
176
     0
 90
        2
176
     1
  1
strokes_ogs.tif
176
     1
290
     0
176
     1
 40
1.0
176
     1
 40
1.0
176
     1
  0
VISUALSTYLE
  5
611
102
{ACAD_REACTORS
330
601
102
}
330
601
100
AcDbVisualStyle
  2
ColorChange
 70
    16
177
     3
291
     1
 70
    58
 90
        2
176
     1
 90
        2
176
     1
 90
        3
176
     1
 90
        0
176
     1
 40
0.6
176
     1
 40
30.0
176
     1
 62
     8
420
  8421504
176
     1
 90
        1
176
     1
 90
        4
176
     1
 62
     7
176
     1
 62
   257
176
     1
 90
        1
176
     1
 90
        1
176
     1
 40
1.0
176
     1
 90
        8
176
     1
 62
     8
420
  8421504
176
     1
 40
1.0
176
     1
 90
        1
176
     1
 90
        6
176
     1
 90
        2
176
     1
 62
     7
176
     1
 90
        5
176
     1
 90
        0
176
     1
 90
        0
176
     1
290
     0
176
     1
 90
        1
176
     1
 40
0.0
176
     1
 90
        0
176
     1
290
     0
176
     1
290
     1
176
     1
290
     1
176
     1
290
     0
176
     1
290
     0
176
     1
290
     0
176
     1
290
     0
176
     1
290
     0
176
     1
290
     0
176
     1
 90
       50
176
     1
 40
0.0
176
     1
 40
1.0
176
     1
 90
        0
176
     1
 62
   178
420
        0
176
     1
 90
       50
176
     1
 90
        3
176
     1
 62
     5
420
      255
176
     1
290
     0
176
     1
 90
       50
176
     1
 90
       50
176
     1
 90
       50
176
     1
290
     0
176
     1
 90
       50
176
     1
 62
   256
176
     0
 40
1.0
176
     0
 90
        2
176
     1
  1
strokes_ogs.tif
176
     1
290
     0
176
     1
 40
1.0
176
     1
 40
1.0
176
     1
  0
VISUALSTYLE
  5
60B
102
{ACAD_REACTORS
330
601
102
}
330
601
100
AcDbVisualStyle
  2
Conceptual
 70
     9
177
     3
291
     0
 70
    58
 90
        3
176
     1
 90
        2
176
     1
 90
        0
176
     1
 90
        0
176
     1
 40
0.6
176
     1
 40
30.0
176
     1
 62
     7
420
 16777215
176
     1
 90
        2
176
     1
 90
        2
176
     1
 62
     7
176
     1
 62
   257
176
     1
 90
        1
176
     1
 90
        1
176
     1
 40
179.0
176
     1
 90
        8
176
     1
 62
     7
176
     1
 40
1.0
176
     1
 90
        1
176
     1
 90
        6
176
     1
 90
        2
176
     1
 62
     7
176
     1
 90
        3
176
     1
 90
        0
176
     1
 90
        0
176
     1
290
     0
176
     1
 90
        1
176
     1
 40
0.0
176
     1
 90
        0
176
     1
290
     0
176
     1
290
     1
176
     1
290
     1
176
     1
290
     0
176
     1
290
     0
176
     1
290
     0
176
     1
290
     0
176
     1
290
     0
176
     1
290
     0
176
     1
 90
       50
176
     1
 40
0.0
176
     1
 40
1.0
176
     1
 90
        0
176
     1
 62
   178
420
        0
176
     1
 90
       50
176
     1
 90
        3
176
     1
 62
     5
420
      255
176
     1
290
     0
176
     1
 90
       50
176
     1
 90
       50
176
     1
 90
       50
176
     1
290
     0
176
     1
 90
       50
176
     1
 62
   256
176
     0
 40
1.0
176
     0
 90
        2
176
     1
  1
strokes_ogs.tif
176
     1
290
     0
176
     1
 40
1.0
176
     1
 40
1.0
176
     1
  0
VISUALSTYLE
  5
60C
102
{ACAD_REACTORS
330
601
102
}
330
601
100
AcDbVisualStyle
  2
Dim
 70
    11
177
     3
291
     1
 70
    58
 90
        2
176
     1
 90
        2
176
     1
 90
        0
176
     1
 90
        0
176
     1
 40
0.6
176
     1
 40
30.0
176
     1
 62
     7
420
 16777215
176
     1
 90
        1
176
     1
 90
        4
176
     1
 62
     7
176
     1
 62
   257
176
     1
 90
        1
176
     1
 90
        1
176
     1
 40
1.0
176
     1
 90
        8
176
     1
 62
     7
176
     1
 40
1.0
176
     1
 90
        1
176
     1
 90
        6
176
     1
 90
        2
176
     1
 62
     7
176
     1
 90
        5
176
     1
 90
        0
176
     1
 90
        0
176
     1
290
     0
176
     1
 90
        1
176
     1
 40
-50.0
176
     1
 90
        0
176
     1
290
     0
176
     1
290
     1
176
     1
290
     1
176
     1
290
     0
176
     1
290
     0
176
     1
290
     0
176
     1
290
     0
176
     1
290
     0
176
     1
290
     0
176
     1
 90
       50
176
     1
 40
0.0
176
     1
 40
1.0
176
     1
 90
        0
176
     1
 62
   178
420
        0
176
     1
 90
       50
176
     1
 90
        3
176
     1
 62
     5
420
      255
176
     1
290
     0
176
     1
 90
       50
176
     1
 90
       50
176
     1
 90
       50
176
     1
290
     0
176
     1
 90
       50
176
     1
 62
   256
176
     0
 40
1.0
176
     0
 90
        2
176
     1
  1
strokes_ogs.tif
176
     1
290
     0
176
     1
 40
1.0
176
     1
 40
1.0
176
     1
  0
VISUALSTYLE
  5
614
102
{ACAD_REACTORS
330
601
102
}
330
601
100
AcDbVisualStyle
  2
EdgeColorOff
 70
    22
177
     3
291
     1
 70
    58
 90
        2
176
     0
 90
        2
176
     0
 90
        0
176
     0
 90
        0
176
     0
 40
0.6
176
     0
 40
30.0
176
     0
 62
     7
420
 16777215
176
     0
 90
        1
176
     0
 90
        4
176
     0
 62
     7
176
     0
 62
   257
176
     0
 90
        1
176
     0
 90
        1
176
     0
 40
1.0
176
     0
 90
        8
176
     2
 62
     7
176
     0
 40
1.0
176
     0
 90
        1
176
     0
 90
        6
176
     0
 90
        2
176
     0
 62
     7
176
     0
 90
        5
176
     0
 90
        0
176
     0
 90
        0
176
     0
290
     0
176
     0
 90
        1
176
     0
 40
0.0
176
     0
 90
        0
176
     0
290
     0
176
     0
290
     1
176
     0
290
     1
176
     0
290
     0
176
     0
290
     0
176
     0
290
     0
176
     0
290
     0
176
     0
290
     0
176
     0
290
     0
176
     0
 90
       50
176
     0
 40
0.0
176
     0
 40
1.0
176
     0
 90
        0
176
     0
 62
   178
420
        0
176
     0
 90
       50
176
     0
 90
        3
176
     0
 62
     5
420
      255
176
     0
290
     0
176
     0
 90
       50
176
     0
 90
       50
176
     0
 90
       50
176
     0
290
     0
176
     0
 90
       50
176
     0
 62
   256
176
     0
 40
1.0
176
     0
 90
        2
176
     0
  1
strokes_ogs.tif
176
     0
290
     0
176
     0
 40
1.0
176
     0
 40
1.0
176
     0
  0
VISUALSTYLE
  5
610
102
{ACAD_REACTORS
330
601
102
}
330
601
100
AcDbVisualStyle
  2
Facepattern
 70
    15
177
     3
291
     1
 70
    58
 90
        2
176
     1
 90
        2
176
     1
 90
        0
176
     1
 90
        0
176
     1
 40
0.6
176
     1
 40
30.0
176
     1
 62
     7
420
 16777215
176
     1
 90
        1
176
     1
 90
        4
176
     1
 62
     7
176
     1
 62
   257
176
     1
 90
        1
176
     1
 90
        1
176
     1
 40
1.0
176
     1
 90
        8
176
     1
 62
     7
176
     1
 40
1.0
176
     1
 90
        1
176
     1
 90
        6
176
     1
 90
        2
176
     1
 62
     7
176
     1
 90
        5
176
     1
 90
        0
176
     1
 90
        0
176
     1
290
     0
176
     1
 90
        1
176
     1
 40
0.0
176
     1
 90
        0
176
     1
290
     0
176
     1
290
     1
176
     1
290
     1
176
     1
290
     0
176
     1
290
     0
176
     1
290
     0
176
     1
290
     0
176
     1
290
     0
176
     1
290
     0
176
     1
 90
       50
176
     1
 40
0.0
176
     1
 40
1.0
176
     1
 90
        0
176
     1
 62
   178
420
        0
176
     1
 90
       50
176
     1
 90
        3
176
     1
 62
     5
420
      255
176
     1
290
     0
176
     1
 90
       50
176
     1
 90
       50
176
     1
 90
       50
176
     1
290
     0
176
     1
 90
       50
176
     1
 62
   256
176
     0
 40
1.0
176
     0
 90
        2
176
     1
  1
strokes_ogs.tif
176
     1
290
     0
176
     1
 40
1.0
176
     1
 40
1.0
176
     1
  0
VISUALSTYLE
  5
602
102
{ACAD_REACTORS
330
601
102
}
330
601
100
AcDbVisualStyle
  2
Flat
 70
     0
177
     3
291
     1
 70
    58
 90
        2
176
     1
 90
        1
176
     1
 90
        1
176
     1
 90
        2
176
     1
 40
0.6
176
     1
 40
30.0
176
     1
 62
     7
420
 16777215
176
     1
 90
        0
176
     1
 90
        0
176
     1
 62
     7
176
     1
 62
   257
176
     1
 90
        1
176
     1
 90
        1
176
     1
 40
1.0
176
     1
 90
        8
176
     1
 62
     7
176
     1
 40
1.0
176
     1
 90
        1
176
     1
 90
        6
176
     1
 90
        2
176
     1
 62
     7
176
     1
 90
        5
176
     1
 90
        0
176
     1
 90
        0
176
     1
290
     0
176
     1
 90
       13
176
     1
 40
0.0
176
     1
 90
        0
176
     1
290
     0
176
     1
290
     1
176
     1
290
     1
176
     1
290
     0
176
     1
290
     0
176
     1
290
     0
176
     1
290
     0
176
     1
290
     0
176
     1
290
     0
176
     1
 90
       50
176
     1
 40
0.0
176
     1
 40
1.0
176
     1
 90
        0
176
     1
 62
   178
420
        0
176
     1
 90
       50
176
     1
 90
        3
176
     1
 62
     5
420
      255
176
     1
290
     0
176
     1
 90
       50
176
     1
 90
       50
176
     1
 90
       50
176
     1
290
     0
176
     1
 90
       50
176
     1
 62
   256
176
     0
 40
1.0
176
     0
 90
        2
176
     1
  1
strokes_ogs.tif
176
     1
290
     0
176
     1
 40
1.0
176
     1
 40
1.0
176
     1
  0
VISUALSTYLE
  5
603
102
{ACAD_REACTORS
330
601
102
}
330
601
100
AcDbVisualStyle
  2
FlatWithEdges
 70
     1
177
     3
291
     1
 70
    58
 90
        2
176
     1
 90
        1
176
     1
 90
        1
176
     1
 90
        2
176
     1
 40
0.6
176
     1
 40
30.0
176
     1
 62
     7
420
 16777215
176
     1
 90
        1
176
     1
 90
        0
176
     1
 62
     7
176
     1
 62
   257
176
     1
 90
        1
176
     1
 90
        1
176
     1
 40
1.0
176
     1
 90
        0
176
     1
 62
   257
176
     1
 40
1.0
176
     1
 90
        1
176
     1
 90
        6
176
     1
 90
        2
176
     1
 62
     7
176
     1
 90
        5
176
     1
 90
        0
176
     1
 90
        0
176
     1
290
     0
176
     1
 90
       13
176
     1
 40
0.0
176
     1
 90
        0
176
     1
290
     0
176
     1
290
     1
176
     1
290
     1
176
     1
290
     0
176
     1
290
     0
176
     1
290
     0
176
     1
290
     0
176
     1
290
     0
176
     1
290
     0
176
     1
 90
       50
176
     1
 40
0.0
176
     1
 40
1.0
176
     1
 90
        0
176
     1
 62
   178
420
        0
176
     1
 90
       50
176
     1
 90
        3
176
     1
 62
     5
420
      255
176
     1
290
     0
176
     1
 90
       50
176
     1
 90
       50
176
     1
 90
       50
176
     1
290
     0
176
     1
 90
       50
176
     1
 62
   256
176
     0
 40
1.0
176
     0
 90
        2
176
     1
  1
strokes_ogs.tif
176
     1
290
     0
176
     1
 40
1.0
176
     1
 40
1.0
176
     1
  0
VISUALSTYLE
  5
604
102
{ACAD_REACTORS
330
601
102
}
330
601
100
AcDbVisualStyle
  2
Gouraud
 70
     2
177
     3
291
     1
 70
    58
 90
        2
176
     1
 90
        2
176
     1
 90
        1
176
     1
 90
        2
176
     1
 40
0.6
176
     1
 40
30.0
176
     1
 62
     7
420
 16777215
176
     1
 90
        0
176
     1
 90
        0
176
     1
 62
     7
176
     1
 62
   257
176
     1
 90
        1
176
     1
 90
        1
176
     1
 40
1.0
176
     1
 90
        0
176
     1
 62
     7
176
     1
 40
1.0
176
     1
 90
        1
176
     1
 90
        6
176
     1
 90
        2
176
     1
 62
     7
176
     1
 90
        5
176
     1
 90
        0
176
     1
 90
        0
176
     1
290
     0
176
     1
 90
       13
176
     1
 40
0.0
176
     1
 90
        0
176
     1
290
     0
176
     1
290
     1
176
     1
290
     1
176
     1
290
     0
176
     1
290
     0
176
     1
290
     0
176
     1
290
     0
176
     1
290
     0
176
     1
290
     0
176
     1
 90
       50
176
     1
 40
0.0
176
     1
 40
1.0
176
     1
 90
        0
176
     1
 62
   178
420
        0
176
     1
 90
       50
176
     1
 90
        3
176
     1
 62
     5
420
      255
176
     1
290
     0
176
     1
 90
       50
176
     1
 90
       50
176
     1
 90
       50
176
     1
290
     0
176
     1
 90
       50
176
     1
 62
   256
176
     0
 40
1.0
176
     0
 90
        2
176
     1
  1
strokes_ogs.tif
176
     1
290
     0
176
     1
 40
1.0
176
     1
 40
1.0
176
     1
  0
VISUALSTYLE
  5
605
102
{ACAD_REACTORS
330
601
102
}
330
601
100
AcDbVisualStyle
  2
GouraudWithEdges
 70
     3
177
     3
291
     1
 70
    58
 90
        2
176
     1
 90
        2
176
     1
 90
        1
176
     1
 90
        2
176
     1
 40
0.6
176
     1
 40
30.0
176
     1
 62
     7
420
 16777215
176
     1
 90
        1
176
     1
 90
        0
176
     1
 62
     7
176
     1
 62
   257
176
     1
 90
        1
176
     1
 90
        1
176
     1
 40
1.0
176
     1
 90
        0
176
     1
 62
   257
176
     1
 40
1.0
176
     1
 90
        1
176
     1
 90
        6
176
     1
 90
        2
176
     1
 62
     7
176
     1
 90
        5
176
     1
 90
        0
176
     1
 90
        0
176
     1
290
     0
176
     1
 90
       13
176
     1
 40
0.0
176
     1
 90
        0
176
     1
290
     0
176
     1
290
     1
176
     1
290
     1
176
     1
290
     0
176
     1
290
     0
176
     1
290
     0
176
     1
290
     0
176
     1
290
     0
176
     1
290
     0
176
     1
 90
       50
176
     1
 40
0.0
176
     1
 40
1.0
176
     1
 90
        0
176
     1
 62
   178
420
        0
176
     1
 90
       50
176
     1
 90
        3
176
     1
 62
     5
420
      255
176
     1
290
     0
176
     1
 90
       50
176
     1
 90
       50
176
     1
 90
       50
176
     1
290
     0
176
     1
 90
       50
176
     1
 62
   256
176
     0
 40
1.0
176
     0
 90
        2
176
     1
  1
strokes_ogs.tif
176
     1
290
     0
176
     1
 40
1.0
176
     1
 40
1.0
176
     1
  0
VISUALSTYLE
  5
608
102
{ACAD_REACTORS
330
601
102
}
330
601
100
AcDbVisualStyle
  2
Hidden
 70
     6
177
     3
291
     0
 70
    58
 90
        1
176
     1
 90
        2
176
     1
 90
        2
176
     1
 90
        0
176
     1
 40
0.6
176
     1
 40
30.0
176
     1
 62
     7
420
 16777215
176
     1
 90
        2
176
     1
 90
        2
176
     1
 62
     7
176
     1
 62
   257
176
     1
 90
        2
176
     1
 90
        1
176
     1
 40
40.0
176
     1
 90
        0
176
     1
 62
   257
176
     1
 40
1.0
176
     1
 90
        1
176
     1
 90
        6
176
     1
 90
        2
176
     1
 62
     7
176
     1
 90
        3
176
     1
 90
        0
176
     1
 90
        0
176
     1
290
     0
176
     1
 90
        1
176
     1
 40
0.0
176
     1
 90
        0
176
     1
290
     0
176
     1
290
     1
176
     1
290
     1
176
     1
290
     0
176
     1
290
     0
176
     1
290
     0
176
     1
290
     0
176
     1
290
     0
176
     1
290
     0
176
     1
 90
       50
176
     1
 40
0.0
176
     1
 40
1.0
176
     1
 90
        0
176
     1
 62
   178
420
        0
176
     1
 90
       50
176
     1
 90
        3
176
     1
 62
     5
420
      255
176
     1
290
     0
176
     1
 90
       50
176
     1
 90
       50
176
     1
 90
       50
176
     1
290
     0
176
     1
 90
       50
176
     1
 62
   256
176
     0
 40
1.0
176
     0
 90
        2
176
     1
  1
strokes_ogs.tif
176
     1
290
     0
176
     1
 40
1.0
176
     1
 40
1.0
176
     1
  0
VISUALSTYLE
  5
612
102
{ACAD_REACTORS
330
601
102
}
330
601
100
AcDbVisualStyle
  2
JitterOff
 70
    20
177
     3
291
     1
 70
    58
 90
        2
176
     0
 90
        2
176
     0
 90
        0
176
     0
 90
        0
176
     0
 40
0.6
176
     0
 40
30.0
176
     0
 62
     7
420
 16777215
176
     0
 90
        1
176
     0
 90
        4
176
     0
 62
     7
176
     0
 62
   257
176
     0
 90
        1
176
     0
 90
        1
176
     0
 40
1.0
176
     0
 90
       10
176
     2
 62
     7
176
     0
 40
1.0
176
     0
 90
        1
176
     0
 90
        6
176
     0
 90
        2
176
     0
 62
     7
176
     0
 90
        5
176
     0
 90
        0
176
     0
 90
        0
176
     0
290
     0
176
     0
 90
        1
176
     0
 40
0.0
176
     0
 90
        0
176
     0
290
     0
176
     0
290
     1
176
     0
290
     1
176
     0
290
     0
176
     0
290
     0
176
     0
290
     0
176
     0
290
     0
176
     0
290
     0
176
     0
290
     0
176
     0
 90
       50
176
     0
 40
0.0
176
     0
 40
1.0
176
     0
 90
        0
176
     0
 62
   178
420
        0
176
     0
 90
       50
176
     0
 90
        3
176
     0
 62
     5
420
      255
176
     0
290
     0
176
     0
 90
       50
176
     0
 90
       50
176
     0
 90
       50
176
     0
290
     0
176
     0
 90
       50
176
     0
 62
   256
176
     0
 40
1.0
176
     0
 90
        2
176
     0
  1
strokes_ogs.tif
176
     0
290
     0
176
     0
 40
1.0
176
     0
 40
1.0
176
     0
  0
VISUALSTYLE
  5
60F
102
{ACAD_REACTORS
330
601
102
}
330
601
100
AcDbVisualStyle
  2
Linepattern
 70
    14
177
     3
291
     1
 70
    58
 90
        2
176
     1
 90
        2
176
     1
 90
        0
176
     1
 90
        0
176
     1
 40
0.6
176
     1
 40
30.0
176
     1
 62
     7
420
 16777215
176
     1
 90
        1
176
     1
 90
        4
176
     1
 62
     7
176
     1
 62
   257
176
     1
 90
        7
176
     1
 90
        7
176
     1
 40
1.0
176
     1
 90
        8
176
     1
 62
     7
176
     1
 40
1.0
176
     1
 90
        1
176
     1
 90
        6
176
     1
 90
        2
176
     1
 62
     7
176
     1
 90
        5
176
     1
 90
        0
176
     1
 90
        0
176
     1
290
     0
176
     1
 90
        1
176
     1
 40
0.0
176
     1
 90
        0
176
     1
290
     0
176
     1
290
     1
176
     1
290
     1
176
     1
290
     0
176
     1
290
     0
176
     1
290
     0
176
     1
290
     0
176
     1
290
     0
176
     1
290
     0
176
     1
 90
       50
176
     1
 40
0.0
176
     1
 40
1.0
176
     1
 90
        0
176
     1
 62
   178
420
        0
176
     1
 90
       50
176
     1
 90
        3
176
     1
 62
     5
420
      255
176
     1
290
     0
176
     1
 90
       50
176
     1
 90
       50
176
     1
 90
       50
176
     1
290
     0
176
     1
 90
       50
176
     1
 62
   256
176
     0
 40
1.0
176
     0
 90
        2
176
     1
  1
strokes_ogs.tif
176
     1
290
     0
176
     1
 40
1.0
176
     1
 40
1.0
176
     1
  0
VISUALSTYLE
  5
613
102
{ACAD_REACTORS
330
601
102
}
330
601
100
AcDbVisualStyle
  2
OverhangOff
 70
    21
177
     3
291
     1
 70
    58
 90
        2
176
     0
 90
        2
176
     0
 90
        0
176
     0
 90
        0
176
     0
 40
0.6
176
     0
 40
30.0
176
     0
 62
     7
420
 16777215
176
     0
 90
        1
176
     0
 90
        4
176
     0
 62
     7
176
     0
 62
   257
176
     0
 90
        1
176
     0
 90
        1
176
     0
 40
1.0
176
     0
 90
        9
176
     2
 62
     7
176
     0
 40
1.0
176
     0
 90
        1
176
     0
 90
        6
176
     0
 90
        2
176
     0
 62
     7
176
     0
 90
        5
176
     0
 90
        0
176
     0
 90
        0
176
     0
290
     0
176
     0
 90
        1
176
     0
 40
0.0
176
     0
 90
        0
176
     0
290
     0
176
     0
290
     1
176
     0
290
     1
176
     0
290
     0
176
     0
290
     0
176
     0
290
     0
176
     0
290
     0
176
     0
290
     0
176
     0
290
     0
176
     0
 90
       50
176
     0
 40
0.0
176
     0
 40
1.0
176
     0
 90
        0
176
     0
 62
   178
420
        0
176
     0
 90
       50
176
     0
 90
        3
176
     0
 62
     5
420
      255
176
     0
290
     0
176
     0
 90
       50
176
     0
 90
       50
176
     0
 90
       50
176
     0
290
     0
176
     0
 90
       50
176
     0
 62
   256
176
     0
 40
1.0
176
     0
 90
        2
176
     0
  1
strokes_ogs.tif
176
     0
290
     0
176
     0
 40
1.0
176
     0
 40
1.0
176
     0
  0
VISUALSTYLE
  5
60A
102
{ACAD_REACTORS
330
601
102
}
330
601
100
AcDbVisualStyle
  2
Realistic
 70
     8
177
     3
291
     0
 70
    58
 90
        2
176
     1
 90
        3
176
     1
 90
        0
176
     1
 90
        2
176
     1
 40
0.6
176
     1
 40
30.0
176
     1
 62
     7
420
 16777215
176
     1
 90
        0
176
     1
 90
        0
176
     1
 62
     7
176
     1
 62
   257
176
     1
 90
        1
176
     1
 90
        1
176
     1
 40
1.0
176
     1
 90
        8
176
     1
 62
   257
176
     1
 40
1.0
176
     1
 90
        1
176
     1
 90
        6
176
     1
 90
        2
176
     1
 62
     7
176
     1
 90
        3
176
     1
 90
        0
176
     1
 90
        0
176
     1
290
     0
176
     1
 90
       13
176
     1
 40
0.0
176
     1
 90
        0
176
     1
290
     0
176
     1
290
     1
176
     1
290
     1
176
     1
290
     0
176
     1
290
     0
176
     1
290
     0
176
     1
290
     0
176
     1
290
     0
176
     1
290
     0
176
     1
 90
       50
176
     1
 40
0.0
176
     1
 40
1.0
176
     1
 90
        0
176
     1
 62
   178
420
        0
176
     1
 90
       50
176
     1
 90
        3
176
     1
 62
     5
420
      255
176
     1
290
     0
176
     1
 90
       50
176
     1
 90
       50
176
     1
 90
       50
176
     1
290
     0
176
     1
 90
       50
176
     1
 62
   256
176
     0
 40
1.0
176
     0
 90
        2
176
     1
  1
strokes_ogs.tif
176
     1
290
     0
176
     1
 40
1.0
176
     1
 40
1.0
176
     1
  0
VISUALSTYLE
  5
619
102
{ACAD_REACTORS
330
601
102
}
330
601
100
AcDbVisualStyle
  2
Shaded
 70
    27
177
     3
291
     0
 70
    58
 90
        2
176
     1
 90
        2
176
     1
 90
        1
176
     1
 90
        2
176
     1
 40
0.6
176
     1
 40
30.0
176
     1
 62
     7
420
 16777215
176
     1
 90
        0
176
     1
 90
        4
176
     1
 62
     7
176
     1
 62
   257
176
     1
 90
        1
176
     1
 90
        1
176
     1
 40
1.0
176
     1
 90
        8
176
     1
 62
   257
176
     1
 40
1.0
176
     1
 90
        1
176
     1
 90
        6
176
     1
 90
        2
176
     1
 62
     8
420
  7895160
176
     1
 90
        3
176
     1
 90
        0
176
     1
 90
        0
176
     1
290
     0
176
     1
 90
        5
176
     1
 40
0.0
176
     1
 90
        0
176
     1
290
     0
176
     1
290
     1
176
     1
290
     1
176
     1
290
     0
176
     1
290
     0
176
     1
290
     0
176
     1
290
     0
176
     1
290
     0
176
     1
290
     0
176
     1
 90
       50
176
     1
 40
0.0
176
     1
 40
1.0
176
     1
 90
        0
176
     1
 62
   178
420
        0
176
     1
 90
       50
176
     1
 90
        3
176
     1
 62
     5
420
      255
176
     1
290
     0
176
     1
 90
       50
176
     1
 90
       50
176
     1
 90
       50
176
     1
290
     0
176
     1
 90
       50
176
     1
 62
   256
176
     0
 40
1.0
176
     0
 90
        2
176
     1
  1
strokes_ogs.tif
176
     1
290
     0
176
     1
 40
1.0
176
     1
 40
1.0
176
     1
  0
VISUALSTYLE
  5
618
102
{ACAD_REACTORS
330
601
102
}
330
601
100
AcDbVisualStyle
  2
Shaded with edges
 70
    26
177
     3
291
     0
 70
    58
 90
        2
176
     1
 90
        2
176
     1
 90
        1
176
     1
 90
        2
176
     1
 40
0.6
176
     1
 40
30.0
176
     1
 62
     7
420
 16777215
176
     1
 90
        1
176
     1
 90
       10
176
     1
 62
     7
176
     1
 62
   257
176
     1
 90
        2
176
     1
 90
        1
176
     1
 40
1.0
176
     1
 90
        8
176
     1
 62
   257
176
     1
 40
1.0
176
     1
 90
        1
176
     1
 90
        6
176
     1
 90
        2
176
     1
 62
     7
176
     1
 90
        3
176
     1
 90
        0
176
     1
 90
        0
176
     1
290
     0
176
     1
 90
        5
176
     1
 40
0.0
176
     1
 90
        0
176
     1
290
     0
176
     1
290
     1
176
     1
290
     1
176
     1
290
     0
176
     1
290
     0
176
     1
290
     0
176
     1
290
     0
176
     1
290
     0
176
     1
290
     0
176
     1
 90
       50
176
     1
 40
0.0
176
     1
 40
1.0
176
     1
 90
        0
176
     1
 62
   178
420
        0
176
     1
 90
       50
176
     1
 90
        3
176
     1
 62
     5
420
      255
176
     1
290
     0
176
     1
 90
       50
176
     1
 90
       50
176
     1
 90
       50
176
     1
290
     0
176
     1
 90
       50
176
     1
 62
   256
176
     0
 40
1.0
176
     0
 90
        2
176
     1
  1
strokes_ogs.tif
176
     1
290
     0
176
     1
 40
1.0
176
     1
 40
1.0
176
     1
  0
VISUALSTYLE
  5
615
102
{ACAD_REACTORS
330
601
102
}
330
601
100
AcDbVisualStyle
  2
Shades of Gray
 70
    23
177
     3
291
     0
 70
    58
 90
        2
176
     1
 90
        2
176
     1
 90
        3
176
     1
 90
        0
176
     1
 40
0.6
176
     1
 40
30.0
176
     1
 62
     7
420
 16777215
176
     1
 90
        2
176
     1
 90
        2
176
     1
 62
     7
176
     1
 62
     7
176
     1
 90
        1
176
     1
 90
        1
176
     1
 40
40.0
176
     1
 90
        8
176
     1
 62
     7
176
     1
 40
1.0
176
     1
 90
        1
176
     1
 90
        6
176
     1
 90
        2
176
     1
 62
     7
176
     1
 90
        3
176
     1
 90
        0
176
     1
 90
        0
176
     1
290
     0
176
     1
 90
        1
176
     1
 40
0.0
176
     1
 90
        0
176
     1
290
     0
176
     1
290
     1
176
     1
290
     1
176
     1
290
     0
176
     1
290
     0
176
     1
290
     0
176
     1
290
     0
176
     1
290
     0
176
     1
290
     0
176
     1
 90
       50
176
     1
 40
0.0
176
     1
 40
1.0
176
     1
 90
        0
176
     1
 62
   178
420
        0
176
     1
 90
       50
176
     1
 90
        3
176
     1
 62
     5
420
      255
176
     1
290
     0
176
     1
 90
       50
176
     1
 90
       50
176
     1
 90
       50
176
     1
290
     0
176
     1
 90
       50
176
     1
 62
   256
176
     0
 40
1.0
176
     0
 90
        2
176
     1
  1
strokes_ogs.tif
176
     1
290
     0
176
     1
 40
1.0
176
     1
 40
1.0
176
     1
  0
VISUALSTYLE
  5
616
102
{ACAD_REACTORS
330
601
102
}
330
601
100
AcDbVisualStyle
  2
Sketchy
 70
    24
177
     3
291
     0
 70
    58
 90
        1
176
     1
 90
        2
176
     1
 90
        2
176
     1
 90
        0
176
     1
 40
0.6
176
     1
 40
30.0
176
     1
 62
     7
420
 16777215
176
     1
 90
        2
176
     1
 90
        2
176
     1
 62
     7
176
     1
 62
     7
176
     1
 90
        1
176
     1
 90
        1
176
     1
 40
40.0
176
     1
 90
       11
176
     1
 62
     7
176
     1
 40
1.0
176
     1
 90
        1
176
     1
 90
        6
176
     1
 90
        2
176
     1
 62
     7
176
     1
 90
        6
176
     1
 90
        0
176
     1
 90
        0
176
     1
290
     0
176
     1
 90
        1
176
     1
 40
0.0
176
     1
 90
        0
176
     1
290
     0
176
     1
290
     1
176
     1
290
     1
176
     1
290
     0
176
     1
290
     0
176
     1
290
     0
176
     1
290
     0
176
     1
290
     0
176
     1
290
     0
176
     1
 90
       50
176
     1
 40
0.0
176
     1
 40
1.0
176
     1
 90
        0
176
     1
 62
   178
420
        0
176
     1
 90
       50
176
     1
 90
        3
176
     1
 62
     5
420
      255
176
     1
290
     0
176
     1
 90
       50
176
     1
 90
       50
176
     1
 90
       50
176
     1
290
     0
176
     1
 90
       50
176
     1
 62
   256
176
     0
 40
1.0
176
     0
 90
        2
176
     1
  1
strokes_ogs.tif
176
     1
290
     0
176
     1
 40
1.0
176
     1
 40
1.0
176
     1
  0
VISUALSTYLE
  5
60E
102
{ACAD_REACTORS
330
601
102
}
330
601
100
AcDbVisualStyle
  2
Thicken
 70
    13
177
     3
291
     1
 70
    58
 90
        2
176
     1
 90
        2
176
     1
 90
        0
176
     1
 90
        0
176
     1
 40
0.6
176
     1
 40
30.0
176
     1
 62
     7
420
 16777215
176
     1
 90
        1
176
     1
 90
        4
176
     1
 62
     7
176
     1
 62
   257
176
     1
 90
        1
176
     1
 90
        1
176
     1
 40
1.0
176
     1
 90
       12
176
     1
 62
     7
176
     1
 40
1.0
176
     1
 90
        1
176
     1
 90
        6
176
     1
 90
        2
176
     1
 62
     7
176
     1
 90
        5
176
     1
 90
        0
176
     1
 90
        0
176
     1
290
     0
176
     1
 90
        1
176
     1
 40
0.0
176
     1
 90
        0
176
     1
290
     0
176
     1
290
     1
176
     1
290
     1
176
     1
290
     0
176
     1
290
     0
176
     1
290
     0
176
     1
290
     0
176
     1
290
     0
176
     1
290
     0
176
     1
 90
       50
176
     1
 40
0.0
176
     1
 40
1.0
176
     1
 90
        0
176
     1
 62
   178
420
        0
176
     1
 90
       50
176
     1
 90
        3
176
     1
 62
     5
420
      255
176
     1
290
     0
176
     1
 90
       50
176
     1
 90
       50
176
     1
 90
       50
176
     1
290
     0
176
     1
 90
       50
176
     1
 62
   256
176
     0
 40
1.0
176
     0
 90
        2
176
     1
  1
strokes_ogs.tif
176
     1
290
     0
176
     1
 40
1.0
176
     1
 40
1.0
176
     1
  0
VISUALSTYLE
  5
607
102
{ACAD_REACTORS
330
601
102
}
330
601
100
AcDbVisualStyle
  2
Wireframe
 70
     5
177
     3
291
     0
 70
    58
 90
        0
176
     1
 90
        2
176
     1
 90
        0
176
     1
 90
        0
176
     1
 40
0.6
176
     1
 40
30.0
176
     1
 62
     7
420
 16777215
176
     1
 90
        1
176
     1
 90
        4
176
     1
 62
     7
176
     1
 62
   257
176
     1
 90
        1
176
     1
 90
        1
176
     1
 40
1.0
176
     1
 90
        0
176
     1
 62
   257
176
     1
 40
1.0
176
     1
 90
        1
176
     1
 90
        6
176
     1
 90
        2
176
     1
 62
     7
176
     1
 90
        3
176
     1
 90
        0
176
     1
 90
        0
176
     1
290
     0
176
     1
 90
        1
176
     1
 40
0.0
176
     1
 90
        0
176
     1
290
     0
176
     1
290
     1
176
     1
290
     1
176
     1
290
     0
176
     1
290
     0
176
     1
290
     0
176
     1
290
     0
176
     1
290
     0
176
     1
290
     0
176
     1
 90
       50
176
     1
 40
0.0
176
     1
 40
1.0
176
     1
 90
        0
176
     1
 62
   178
420
        0
176
     1
 90
       50
176
     1
 90
        3
176
     1
 62
     5
420
      255
176
     1
290
     0
176
     1
 90
       50
176
     1
 90
       50
176
     1
 90
       50
176
     1
290
     0
176
     1
 90
       50
176
     1
 62
   256
176
     0
 40
1.0
176
     0
 90
        2
176
     1
  1
strokes_ogs.tif
176
     1
290
     0
176
     1
 40
1.0
176
     1
 40
1.0
176
     1
  0
VISUALSTYLE
  5
617
102
{ACAD_REACTORS
330
601
102
}
330
601
100
AcDbVisualStyle
  2
X-Ray
 70
    25
177
     3
291
     0
 70
    58
 90
        2
176
     1
 90
        2
176
     1
 90
        1
176
     1
 90
        1
176
     1
 40
0.5
176
     1
 40
30.0
176
     1
 62
     7
420
 16777215
176
     1
 90
        1
176
     1
 90
        0
176
     1
 62
     7
176
     1
 62
   257
176
     1
 90
        1
176
     1
 90
        1
176
     1
 40
1.0
176
     1
 90
        8
176
     1
 62
     7
176
     1
 40
1.0
176
     1
 90
        1
176
     1
 90
        6
176
     1
 90
        2
176
     1
 62
     7
176
     1
 90
        3
176
     1
 90
        0
176
     1
 90
        0
176
     1
290
     0
176
     1
 90
       13
176
     1
 40
0.0
176
     1
 90
        0
176
     1
290
     0
176
     1
290
     1
176
     1
290
     1
176
     1
290
     0
176
     1
290
     0
176
     1
290
     0
176
     1
290
     0
176
     1
290
     0
176
     1
290
     0
176
     1
 90
       50
176
     1
 40
0.0
176
     1
 40
1.0
176
     1
 90
        0
176
     1
 62
   178
420
        0
176
     1
 90
       50
176
     1
 90
        3
176
     1
 62
     5
420
      255
176
     1
290
     0
176
     1
 90
       50
176
     1
 90
       50
176
     1
 90
       50
176
     1
290
     0
176
     1
 90
       50
176
     1
 62
   256
176
     0
 40
1.0
176
     0
 90
        2
176
     1
  1
strokes_ogs.tif
176
     1
290
     0
176
     1
 40
1.0
176
     1
 40
1.0
176
     1
  0
DICTIONARYVAR
  5
6CC
102
{ACAD_REACTORS
330
6CB
102
}
330
6CB
100
DictionaryVariables
280
     0
  1
1:1
  0
DICTIONARYVAR
  5
6D1
102
{ACAD_REACTORS
330
6CB
102
}
330
6CB
100
DictionaryVariables
280
     0
  1
Standard
  0
DICTIONARYVAR
  5
6D0
102
{ACAD_REACTORS
330
6CB
102
}
330
6CB
100
DictionaryVariables
280
     0
  1
Standard
  0
XRECORD
  5
648
102
{ACAD_REACTORS
330
646
102
}
330
646
100
AcDbXrecord
280
     1
1000
#ffffff
  0
XRECORD
  5
649
102
{ACAD_REACTORS
330
646
102
}
330
646
100
AcDbXrecord
280
     1
1000
FullColor
  0
XRECORD
  5
64A
102
{ACAD_REACTORS
330
646
102
}
330
646
100
AcDbXrecord
280
     1
290
     1
  0
XRECORD
  5
64B
102
{ACAD_REACTORS
330
646
102
}
330
646
100
AcDbXrecord
280
     1
290
     1
  0
XRECORD
  5
64C
102
{ACAD_REACTORS
330
646
102
}
330
646
100
AcDbXrecord
280
     1
290
     1
  0
XRECORD
  5
64D
102
{ACAD_REACTORS
330
646
102
}
330
646
100
AcDbXrecord
280
     1
290
     1
  0
XRECORD
  5
64E
102
{ACAD_REACTORS
330
646
102
}
330
646
100
AcDbXrecord
280
     1
1000
auto
  0
XRECORD
  5
64F
102
{ACAD_REACTORS
330
646
102
}
330
646
100
AcDbXrecord
280
     1
1000
auto
  0
XRECORD
  5
650
102
{ACAD_REACTORS
330
646
102
}
330
646
100
AcDbXrecord
280
     1
1000
auto
  0
XRECORD
  5
651
102
{ACAD_REACTORS
330
646
102
}
330
646
100
AcDbXrecord
280
     1
1000
auto
  0
XRECORD
  5
652
102
{ACAD_REACTORS
330
646
102
}
330
646
100
AcDbXrecord
280
     1
1000
auto
  0
XRECORD
  5
653
102
{ACAD_REACTORS
330
646
102
}
330
646
100
AcDbXrecord
280
     1
1000
auto
  0
XRECORD
  5
654
102
{ACAD_REACTORS
330
646
102
}
330
646
100
AcDbXrecord
280
     1
1000
auto
  0
XRECORD
  5
655
102
{ACAD_REACTORS
330
646
102
}
330
646
100
AcDbXrecord
280
     1
1000
auto
  0
XRECORD
  5
656
102
{ACAD_REACTORS
330
646
102
}
330
646
100
AcDbXrecord
280
     1
290
     0
  0
XRECORD
  5
657
102
{ACAD_REACTORS
330
646
102
}
330
646
100
AcDbXrecord
280
     1
290
     0
  0
XRECORD
  5
658
102
{ACAD_REACTORS
330
646
102
}
330
646
100
AcDbXrecord
280
     1
290
     0
  0
XRECORD
  5
659
102
{ACAD_REACTORS
330
646
102
}
330
646
100
AcDbXrecord
280
     1
290
     0
  0
XRECORD
  5
65A
102
{ACAD_REACTORS
330
646
102
}
330
646
100
AcDbXrecord
280
     1
 90
    65537
  0
XRECORD
  5
65B
102
{ACAD_REACTORS
330
646
102
}
330
646
100
AcDbXrecord
280
     1
 90
    65537
  0
XRECORD
  5
65C
102
{ACAD_REACTORS
330
646
102
}
330
646
100
AcDbXrecord
280
     1
 90
    65537
  0
XRECORD
  5
65D
102
{ACAD_REACTORS
330
646
102
}
330
646
100
AcDbXrecord
280
     1
 90
    65537
  0
XRECORD
  5
65E
102
{ACAD_REACTORS
330
646
102
}
330
646
100
AcDbXrecord
280
     1
1000
auto
  0
XRECORD
  5
65F
102
{ACAD_REACTORS
330
646
102
}
330
646
100
AcDbXrecord
280
     1
1000
auto
  0
XRECORD
  5
660
102
{ACAD_REACTORS
330
646
102
}
330
646
100
AcDbXrecord
280
     1
1000
auto
  0
XRECORD
  5
661
102
{ACAD_REACTORS
330
646
102
}
330
646
100
AcDbXrecord
280
     1
1000
auto
  0
XRECORD
  5
662
102
{ACAD_REACTORS
330
646
102
}
330
646
100
AcDbXrecord
280
     1
1000
auto
  0
XRECORD
  5
663
102
{ACAD_REACTORS
330
646
102
}
330
646
100
AcDbXrecord
280
     1
1000
auto
  0
XRECORD
  5
664
102
{ACAD_REACTORS
330
646
102
}
330
646
100
AcDbXrecord
280
     1
1000
auto
  0
XRECORD
  5
665
102
{ACAD_REACTORS
330
646
102
}
330
646
100
AcDbXrecord
280
     1
1000
auto
  0
XRECORD
  5
666
102
{ACAD_REACTORS
330
646
102
}
330
646
100
AcDbXrecord
280
     1
 90
        1
  0
XRECORD
  5
667
102
{ACAD_REACTORS
330
646
102
}
330
646
100
AcDbXrecord
280
     1
 40
10.0
  0
XRECORD
  5
668
102
{ACAD_REACTORS
330
646
102
}
330
646
100
AcDbXrecord
280
     1
 40
10.0
  0
XRECORD
  5
669
102
{ACAD_REACTORS
330
646
102
}
330
646
100
AcDbXrecord
280
     1
 40
10.0
  0
XRECORD
  5
66A
102
{ACAD_REACTORS
330
646
102
}
330
646
100
AcDbXrecord
280
     1
 40
10.0
  0
XRECORD
  5
66B
102
{ACAD_REACTORS
330
646
102
}
330
646
100
AcDbXrecord
280
     1
290
     0
  0
XRECORD
  5
66C
102
{ACAD_REACTORS
330
646
102
}
330
646
100
AcDbXrecord
280
     1
 90
        1
  0
XRECORD
  5
66D
102
{ACAD_REACTORS
330
646
102
}
330
646
100
AcDbXrecord
280
     1
 40
0.0
  0
XRECORD
  5
66E
102
{ACAD_REACTORS
330
646
102
}
330
646
100
AcDbXrecord
280
     1
 40
0.0
  0
XRECORD
  5
66F
102
{ACAD_REACTORS
330
646
102
}
330
646
100
AcDbXrecord
280
     1
1000
Portrait
  0
XRECORD
  5
670
102
{ACAD_REACTORS
330
646
102
}
330
646
100
AcDbXrecord
280
     1
 40
297.0
  0
XRECORD
  5
671
102
{ACAD_REACTORS
330
646
102
}
330
646
100
AcDbXrecord
280
     1
 40
210.0
  0
XRECORD
  5
672
102
{ACAD_REACTORS
330
646
102
}
330
646
100
AcDbXrecord
280
     1
1000
1:1
  0
XRECORD
  5
673
102
{ACAD_REACTORS
330
646
102
}
330
646
100
AcDbXrecord
280
     1
290
     1
  0
XRECORD
  5
674
102
{ACAD_REACTORS
330
646
102
}
330
646
100
AcDbXrecord
280
     1
1000
3.22.0
  0
XRECORD
  5
675
102
{ACAD_REACTORS
330
646
102
}
330
646
100
AcDbXrecord
280
     1
 90
        4
  0
XRECORD
  5
676
102
{ACAD_REACTORS
330
646
102
}
330
646
100
AcDbXrecord
280
     1
  0
XRECORD
  5
677
102
{ACAD_REACTORS
330
646
102
}
330
646
100
AcDbXrecord
280
     1
 40
1032.211532349602
  0
XRECORD
  5
678
102
{ACAD_REACTORS
330
646
102
}
330
646
100
AcDbXrecord
280
     1
 40
2130.795868331441
  0
DICTIONARY
  5
6CD
330
641
100
AcDbDictionary
280
     1
281
     1
  3
ACAD_ROUNDTRIP_2008_TABLESTYLE_CELLSTYLEMAP
360
6CE
  0
CELLSTYLEMAP
  5
6CE
102
{ACAD_REACTORS
330
6CD
102
}
330
6CD
100
AcDbCellStyleMap
 90
        3
300
CELLSTYLE
  1
TABLEFORMAT_BEGIN
 90
        5
170
     1
 91
        0
 92
    32768
 62
   257
 93
        1
300
CONTENTFORMAT
  1
CONTENTFORMAT_BEGIN
 90
        0
 91
        0
 92
        4
 93
        0
300

 40
0.0
140
1.0
 94
        5
 62
     0
340
5E9
144
0.25
309
CONTENTFORMAT_END
171
     1
301
MARGIN
  1
CELLMARGIN_BEGIN
 40
0.06
 40
0.06
 40
0.06
 40
0.06
 40
0.06
 40
0.06
309
CELLMARGIN_END
 94
        6
 95
        1
302
GRIDFORMAT
  1
GRIDFORMAT_BEGIN
 90
        0
 91
        1
 62
     0
 92
       -2
340
5EB
 93
        0
 40
0.045
309
GRIDFORMAT_END
 95
        2
302
GRIDFORMAT
  1
GRIDFORMAT_BEGIN
 90
        0
 91
        1
 62
     0
 92
       -2
340
5EB
 93
        0
 40
0.045
309
GRIDFORMAT_END
 95
        4
302
GRIDFORMAT
  1
GRIDFORMAT_BEGIN
 90
        0
 91
        1
 62
     0
 92
       -2
340
5EB
 93
        0
 40
0.045
309
GRIDFORMAT_END
 95
        8
302
GRIDFORMAT
  1
GRIDFORMAT_BEGIN
 90
        0
 91
        1
 62
     0
 92
       -2
340
5EB
 93
        0
 40
0.045
309
GRIDFORMAT_END
 95
       16
302
GRIDFORMAT
  1
GRIDFORMAT_BEGIN
 90
        0
 91
        1
 62
     0
 92
       -2
340
5EB
 93
        0
 40
0.045
309
GRIDFORMAT_END
 95
       32
302
GRIDFORMAT
  1
GRIDFORMAT_BEGIN
 90
        0
 91
        1
 62
     0
 92
       -2
340
5EB
 93
        0
 40
0.045
309
GRIDFORMAT_END
309
TABLEFORMAT_END
  1
CELLSTYLE_BEGIN
 90
        1
 91
        1
300
_TITLE
309
CELLSTYLE_END
300
CELLSTYLE
  1
TABLEFORMAT_BEGIN
 90
        5
170
     1
 91
        0
 92
        0
 62
   257
 93
        1
300
CONTENTFORMAT
  1
CONTENTFORMAT_BEGIN
 90
        0
 91
        0
 92
        4
 93
        0
300

 40
0.0
140
1.0
 94
        5
 62
     0
340
5E9
144
0.18
309
CONTENTFORMAT_END
171
     1
301
MARGIN
  1
CELLMARGIN_BEGIN
 40
0.06
 40
0.06
 40
0.06
 40
0.06
 40
0.06
 40
0.06
309
CELLMARGIN_END
 94
        6
 95
        1
302
GRIDFORMAT
  1
GRIDFORMAT_BEGIN
 90
        0
 91
        1
 62
     0
 92
       -2
340
5EB
 93
        0
 40
0.045
309
GRIDFORMAT_END
 95
        2
302
GRIDFORMAT
  1
GRIDFORMAT_BEGIN
 90
        0
 91
        1
 62
     0
 92
       -2
340
5EB
 93
        0
 40
0.045
309
GRIDFORMAT_END
 95
        4
302
GRIDFORMAT
  1
GRIDFORMAT_BEGIN
 90
        0
 91
        1
 62
     0
 92
       -2
340
5EB
 93
        0
 40
0.045
309
GRIDFORMAT_END
 95
        8
302
GRIDFORMAT
  1
GRIDFORMAT_BEGIN
 90
        0
 91
        1
 62
     0
 92
       -2
340
5EB
 93
        0
 40
0.045
309
GRIDFORMAT_END
 95
       16
302
GRIDFORMAT
  1
GRIDFORMAT_BEGIN
 90
        0
 91
        1
 62
     0
 92
       -2
340
5EB
 93
        0
 40
0.045
309
GRIDFORMAT_END
 95
       32
302
GRIDFORMAT
  1
GRIDFORMAT_BEGIN
 90
        0
 91
        1
 62
     0
 92
       -2
340
5EB
 93
        0
 40
0.045
309
GRIDFORMAT_END
309
TABLEFORMAT_END
  1
CELLSTYLE_BEGIN
 90
        2
 91
        1
300
_HEADER
309
CELLSTYLE_END
300
CELLSTYLE
  1
TABLEFORMAT_BEGIN
 90
        5
170
     1
 91
        0
 92
        0
 62
   257
 93
        1
300
CONTENTFORMAT
  1
CONTENTFORMAT_BEGIN
 90
        0
 91
        0
 92
        4
 93
        0
300

 40
0.0
140
1.0
 94
        2
 62
     0
340
5E9
144
0.18
309
CONTENTFORMAT_END
171
     1
301
MARGIN
  1
CELLMARGIN_BEGIN
 40
0.06
 40
0.06
 40
0.06
 40
0.06
 40
0.06
 40
0.06
309
CELLMARGIN_END
 94
        6
 95
        1
302
GRIDFORMAT
  1
GRIDFORMAT_BEGIN
 90
        0
 91
        1
 62
     0
 92
       -2
340
5EB
 93
        0
 40
0.045
309
GRIDFORMAT_END
 95
        2
302
GRIDFORMAT
  1
GRIDFORMAT_BEGIN
 90
        0
 91
        1
 62
     0
 92
       -2
340
5EB
 93
        0
 40
0.045
309
GRIDFORMAT_END
 95
        4
302
GRIDFORMAT
  1
GRIDFORMAT_BEGIN
 90
        0
 91
        1
 62
     0
 92
       -2
340
5EB
 93
        0
 40
0.045
309
GRIDFORMAT_END
 95
        8
302
GRIDFORMAT
  1
GRIDFORMAT_BEGIN
 90
        0
 91
        1
 62
     0
 92
       -2
340
5EB
 93
        0
 40
0.045
309
GRIDFORMAT_END
 95
       16
302
GRIDFORMAT
  1
GRIDFORMAT_BEGIN
 90
        0
 91
        1
 62
     0
 92
       -2
340
5EB
 93
        0
 40
0.045
309
GRIDFORMAT_END
 95
       32
302
GRIDFORMAT
  1
GRIDFORMAT_BEGIN
 90
        0
 91
        1
 62
     0
 92
       -2
340
5EB
 93
        0
 40
0.045
309
GRIDFORMAT_END
309
TABLEFORMAT_END
  1
CELLSTYLE_BEGIN
 90
        3
 91
        2
300
_DATA
309
CELLSTYLE_END
  0
ENDSEC
  0
EOF
