999
AlanCooper@StartMail.com
0
SECTION
2
ENTITIES
0
POINT
8
Pully70.dxf
62
0
10
0.0000
20
0.0000
30
0.0000
0
CIRCLE
8
Pulley
62
1
10
0.0000
20
0.0000
30
0.0000
40
55.7792
0
CIRCLE
8
Pulley
62
2
10
0.0000
20
0.0000
30
0.0000
40
56.7792
0
CIRCLE
8
Pulley
62
2
10
0.0000
20
0.0000
30
0.0000
40
55.2792
0
CIRCLE
8
Pulley
62
0
10
0.0000
20
0.0000
30
0.0000
40
53.4792
0
POLYLINE
8
Pully70.dxf
62
0
70
9
66
1
0
VERTEX
70
9
10
55.2446
20
-1.9550
30
0.0000
0
VERTEX
70
9
10
55.2206
20
-1.7880
30
0.0000
0
VERTEX
70
9
10
55.1506
20
-1.6330
30
0.0000
0
VERTEX
70
9
10
55.0406
20
-1.5040
30
0.0000
0
VERTEX
70
9
10
54.8986
20
-1.4120
30
0.0000
0
VERTEX
70
9
10
53.7072
20
-0.8590
30
0.0000
0
VERTEX
70
9
10
53.6122
20
-0.7970
30
0.0000
0
VERTEX
70
9
10
53.5382
20
-0.7100
30
0.0000
0
VERTEX
70
9
10
53.4912
20
-0.6060
30
0.0000
0
VERTEX
70
9
10
53.4762
20
-0.4930
30
0.0000
0
VERTEX
70
9
10
53.4762
20
0.4930
30
0.0000
0
VERTEX
70
9
10
53.4912
20
0.6060
30
0.0000
0
VERTEX
70
9
10
53.5382
20
0.7100
30
0.0000
0
VERTEX
70
9
10
53.6122
20
0.7970
30
0.0000
0
VERTEX
70
9
10
53.7072
20
0.8590
30
0.0000
0
VERTEX
70
9
10
54.8986
20
1.4120
30
0.0000
0
VERTEX
70
9
10
55.0406
20
1.5040
30
0.0000
0
VERTEX
70
9
10
55.1506
20
1.6330
30
0.0000
0
VERTEX
70
9
10
55.2206
20
1.7880
30
0.0000
0
VERTEX
70
9
10
55.2446
20
1.9550
30
0.0000
0
VERTEX
70
9
10
55.1975
20
3.0050
30
0.0000
0
VERTEX
70
9
10
55.1586
20
3.1691
30
0.0000
0
VERTEX
70
9
10
55.0750
20
3.3172
30
0.0000
0
VERTEX
70
9
10
54.9539
20
3.4359
30
0.0000
0
VERTEX
70
9
10
54.8042
20
3.5148
30
0.0000
0
VERTEX
70
9
10
53.5680
20
3.9587
30
0.0000
0
VERTEX
70
9
10
53.4678
20
4.0120
30
0.0000
0
VERTEX
70
9
10
53.3863
20
4.0920
30
0.0000
0
VERTEX
70
9
10
53.3302
20
4.1914
30
0.0000
0
VERTEX
70
9
10
53.3051
20
4.3026
30
0.0000
0
VERTEX
70
9
10
53.2168
20
5.2846
30
0.0000
0
VERTEX
70
9
10
53.2216
20
5.3985
30
0.0000
0
VERTEX
70
9
10
53.2591
20
5.5063
30
0.0000
0
VERTEX
70
9
10
53.3250
20
5.5996
30
0.0000
0
VERTEX
70
9
10
53.4140
20
5.6698
30
0.0000
0
VERTEX
70
9
10
54.5510
20
6.3274
30
0.0000
0
VERTEX
70
9
10
54.6842
20
6.4317
30
0.0000
0
VERTEX
70
9
10
54.7822
20
6.5701
30
0.0000
0
VERTEX
70
9
10
54.8381
20
6.7307
30
0.0000
0
VERTEX
70
9
10
54.8470
20
6.8992
30
0.0000
0
VERTEX
70
9
10
54.7059
20
7.9407
30
0.0000
0
VERTEX
70
9
10
54.6525
20
8.1008
30
0.0000
0
VERTEX
70
9
10
54.5559
20
8.2408
30
0.0000
0
VERTEX
70
9
10
54.4246
20
8.3481
30
0.0000
0
VERTEX
70
9
10
54.2685
20
8.4132
30
0.0000
0
VERTEX
70
9
10
52.9975
20
8.7446
30
0.0000
0
VERTEX
70
9
10
52.8930
20
8.7886
30
0.0000
0
VERTEX
70
9
10
52.8046
20
8.8610
30
0.0000
0
VERTEX
70
9
10
52.7398
20
8.9550
30
0.0000
0
VERTEX
70
9
10
52.7049
20
9.0635
30
0.0000
0
VERTEX
70
9
10
52.5288
20
10.0336
30
0.0000
0
VERTEX
70
9
10
52.5234
20
10.1475
30
0.0000
0
VERTEX
70
9
10
52.5511
20
10.2582
30
0.0000
0
VERTEX
70
9
10
52.6083
20
10.3570
30
0.0000
0
VERTEX
70
9
10
52.6908
20
10.4350
30
0.0000
0
VERTEX
70
9
10
53.7642
20
11.1918
30
0.0000
0
VERTEX
70
9
10
53.8875
20
11.3077
30
0.0000
0
VERTEX
70
9
10
53.9728
20
11.4543
30
0.0000
0
VERTEX
70
9
10
54.0140
20
11.6193
30
0.0000
0
VERTEX
70
9
10
54.0078
20
11.7879
30
0.0000
0
VERTEX
70
9
10
53.7739
20
12.8126
30
0.0000
0
VERTEX
70
9
10
53.7063
20
12.9672
30
0.0000
0
VERTEX
70
9
10
53.5976
20
13.0979
30
0.0000
0
VERTEX
70
9
10
53.4572
20
13.1930
30
0.0000
0
VERTEX
70
9
10
53.2959
20
13.2439
30
0.0000
0
VERTEX
70
9
10
52.0003
20
13.4601
30
0.0000
0
VERTEX
70
9
10
51.8922
20
13.4946
30
0.0000
0
VERTEX
70
9
10
51.7978
20
13.5587
30
0.0000
0
VERTEX
70
9
10
51.7248
20
13.6465
30
0.0000
0
VERTEX
70
9
10
51.6803
20
13.7514
30
0.0000
0
VERTEX
70
9
10
51.4179
20
14.7019
30
0.0000
0
VERTEX
70
9
10
51.4023
20
14.8148
30
0.0000
0
VERTEX
70
9
10
51.4200
20
14.9276
30
0.0000
0
VERTEX
70
9
10
51.4682
20
15.0311
30
0.0000
0
VERTEX
70
9
10
51.5432
20
15.1161
30
0.0000
0
VERTEX
70
9
10
52.5446
20
15.9662
30
0.0000
0
VERTEX
70
9
10
52.6570
20
16.0926
30
0.0000
0
VERTEX
70
9
10
52.7287
20
16.2463
30
0.0000
0
VERTEX
70
9
10
52.7550
20
16.4143
30
0.0000
0
VERTEX
70
9
10
52.7337
20
16.5817
30
0.0000
0
VERTEX
70
9
10
52.4089
20
17.5812
30
0.0000
0
VERTEX
70
9
10
52.3277
20
17.7292
30
0.0000
0
VERTEX
70
9
10
52.2077
20
17.8497
30
0.0000
0
VERTEX
70
9
10
52.0594
20
17.9318
30
0.0000
0
VERTEX
70
9
10
51.8941
20
17.9680
30
0.0000
0
VERTEX
70
9
10
50.5844
20
18.0671
30
0.0000
0
VERTEX
70
9
10
50.4737
20
18.0918
30
0.0000
0
VERTEX
70
9
10
50.3738
20
18.1473
30
0.0000
0
VERTEX
70
9
10
50.2933
20
18.2281
30
0.0000
0
VERTEX
70
9
10
50.2395
20
18.3286
30
0.0000
0
VERTEX
70
9
10
49.8931
20
19.2518
30
0.0000
0
VERTEX
70
9
10
49.8674
20
19.3628
30
0.0000
0
VERTEX
70
9
10
49.8749
20
19.4767
30
0.0000
0
VERTEX
70
9
10
49.9136
20
19.5842
30
0.0000
0
VERTEX
70
9
10
49.9808
20
19.6756
30
0.0000
0
VERTEX
70
9
10
50.9018
20
20.6119
30
0.0000
0
VERTEX
70
9
10
51.0025
20
20.7480
30
0.0000
0
VERTEX
70
9
10
51.0601
20
20.9074
30
0.0000
0
VERTEX
70
9
10
51.0712
20
21.0771
30
0.0000
0
VERTEX
70
9
10
51.0350
20
21.2419
30
0.0000
0
VERTEX
70
9
10
50.6219
20
22.2084
30
0.0000
0
VERTEX
70
9
10
50.5279
20
22.3484
30
0.0000
0
VERTEX
70
9
10
50.3975
20
22.4577
30
0.0000
0
VERTEX
70
9
10
50.2424
20
22.5262
30
0.0000
0
VERTEX
70
9
10
50.0746
20
22.5474
30
0.0000
0
VERTEX
70
9
10
48.7612
20
22.5288
30
0.0000
0
VERTEX
70
9
10
48.6488
20
22.5434
30
0.0000
0
VERTEX
70
9
10
48.5443
20
22.5897
30
0.0000
0
VERTEX
70
9
10
48.4569
20
22.6630
30
0.0000
0
VERTEX
70
9
10
48.3943
20
22.7583
30
0.0000
0
VERTEX
70
9
10
47.9665
20
23.6466
30
0.0000
0
VERTEX
70
9
10
47.9310
20
23.7550
30
0.0000
0
VERTEX
70
9
10
47.9282
20
23.8691
30
0.0000
0
VERTEX
70
9
10
47.9571
20
23.9795
30
0.0000
0
VERTEX
70
9
10
48.0158
20
24.0766
30
0.0000
0
VERTEX
70
9
10
48.8493
20
25.0918
30
0.0000
0
VERTEX
70
9
10
48.9373
20
25.2363
30
0.0000
0
VERTEX
70
9
10
48.9805
20
25.4002
30
0.0000
0
VERTEX
70
9
10
48.9763
20
25.5703
30
0.0000
0
VERTEX
70
9
10
48.9255
20
25.7311
30
0.0000
0
VERTEX
70
9
10
48.4274
20
26.6567
30
0.0000
0
VERTEX
70
9
10
48.3212
20
26.7877
30
0.0000
0
VERTEX
70
9
10
48.1816
20
26.8849
30
0.0000
0
VERTEX
70
9
10
48.0210
20
26.9392
30
0.0000
0
VERTEX
70
9
10
47.8519
20
26.9453
30
0.0000
0
VERTEX
70
9
10
46.5455
20
26.8090
30
0.0000
0
VERTEX
70
9
10
46.4321
20
26.8135
30
0.0000
0
VERTEX
70
9
10
46.3240
20
26.8502
30
0.0000
0
VERTEX
70
9
10
46.2303
20
26.9154
30
0.0000
0
VERTEX
70
9
10
46.1595
20
27.0047
30
0.0000
0
VERTEX
70
9
10
45.6537
20
27.8511
30
0.0000
0
VERTEX
70
9
10
45.6087
20
27.9558
30
0.0000
0
VERTEX
70
9
10
45.5957
20
28.0692
30
0.0000
0
VERTEX
70
9
10
45.6146
20
28.1819
30
0.0000
0
VERTEX
70
9
10
45.6643
20
28.2838
30
0.0000
0
VERTEX
70
9
10
46.4034
20
29.3696
30
0.0000
0
VERTEX
70
9
10
46.4782
20
29.5214
30
0.0000
0
VERTEX
70
9
10
46.5064
20
29.6886
30
0.0000
0
VERTEX
70
9
10
46.4870
20
29.8575
30
0.0000
0
VERTEX
70
9
10
46.4220
20
30.0132
30
0.0000
0
VERTEX
70
9
10
45.8430
20
30.8904
30
0.0000
0
VERTEX
70
9
10
45.7254
20
31.0114
30
0.0000
0
VERTEX
70
9
10
45.5777
20
31.0956
30
0.0000
0
VERTEX
70
9
10
45.4128
20
31.1353
30
0.0000
0
VERTEX
70
9
10
45.2439
20
31.1263
30
0.0000
0
VERTEX
70
9
10
43.9550
20
30.8734
30
0.0000
0
VERTEX
70
9
10
43.8417
20
30.8677
30
0.0000
0
VERTEX
70
9
10
43.7307
20
30.8946
30
0.0000
0
VERTEX
70
9
10
43.6315
20
30.9511
30
0.0000
0
VERTEX
70
9
10
43.5530
20
31.0337
30
0.0000
0
VERTEX
70
9
10
42.9734
20
31.8314
30
0.0000
0
VERTEX
70
9
10
42.9191
20
31.9316
30
0.0000
0
VERTEX
70
9
10
42.8960
20
32.0434
30
0.0000
0
VERTEX
70
9
10
42.9047
20
32.1573
30
0.0000
0
VERTEX
70
9
10
42.9452
20
32.2633
30
0.0000
0
VERTEX
70
9
10
43.5839
20
33.4109
30
0.0000
0
VERTEX
70
9
10
43.6448
20
33.5688
30
0.0000
0
VERTEX
70
9
10
43.6579
20
33.7379
30
0.0000
0
VERTEX
70
9
10
43.6235
20
33.9044
30
0.0000
0
VERTEX
70
9
10
43.5447
20
34.0536
30
0.0000
0
VERTEX
70
9
10
42.8894
20
34.8753
30
0.0000
0
VERTEX
70
9
10
42.7615
20
34.9853
30
0.0000
0
VERTEX
70
9
10
42.6068
20
35.0560
30
0.0000
0
VERTEX
70
9
10
42.4391
20
35.0807
30
0.0000
0
VERTEX
70
9
10
42.2716
20
35.0566
30
0.0000
0
VERTEX
70
9
10
41.0106
20
34.6892
30
0.0000
0
VERTEX
70
9
10
40.8982
20
34.6734
30
0.0000
0
VERTEX
70
9
10
40.7852
20
34.6902
30
0.0000
0
VERTEX
70
9
10
40.6814
20
34.7376
30
0.0000
0
VERTEX
70
9
10
40.5958
20
34.8128
30
0.0000
0
VERTEX
70
9
10
39.9471
20
35.5553
30
0.0000
0
VERTEX
70
9
10
39.8840
20
35.6503
30
0.0000
0
VERTEX
70
9
10
39.8510
20
35.7596
30
0.0000
0
VERTEX
70
9
10
39.8495
20
35.8738
30
0.0000
0
VERTEX
70
9
10
39.8802
20
35.9830
30
0.0000
0
VERTEX
70
9
10
40.4136
20
37.1833
30
0.0000
0
VERTEX
70
9
10
40.4600
20
37.3460
30
0.0000
0
VERTEX
70
9
10
40.4580
20
37.5155
30
0.0000
0
VERTEX
70
9
10
40.4087
20
37.6783
30
0.0000
0
VERTEX
70
9
10
40.3169
20
37.8198
30
0.0000
0
VERTEX
70
9
10
39.5906
20
38.5795
30
0.0000
0
VERTEX
70
9
10
39.4533
20
38.6776
30
0.0000
0
VERTEX
70
9
10
39.2929
20
38.7341
30
0.0000
0
VERTEX
70
9
10
39.1236
20
38.7437
30
0.0000
0
VERTEX
70
9
10
38.9590
20
38.7046
30
0.0000
0
VERTEX
70
9
10
37.7359
20
38.2257
30
0.0000
0
VERTEX
70
9
10
37.6255
20
38.1999
30
0.0000
0
VERTEX
70
9
10
37.5115
20
38.2065
30
0.0000
0
VERTEX
70
9
10
37.4038
20
38.2444
30
0.0000
0
VERTEX
70
9
10
37.3118
20
38.3117
30
0.0000
0
VERTEX
70
9
10
36.5991
20
38.9930
30
0.0000
0
VERTEX
70
9
10
36.5278
20
39.0820
30
0.0000
0
VERTEX
70
9
10
36.4851
20
39.1878
30
0.0000
0
VERTEX
70
9
10
36.4733
20
39.3014
30
0.0000
0
VERTEX
70
9
10
36.4942
20
39.4129
30
0.0000
0
VERTEX
70
9
10
36.9178
20
40.6562
30
0.0000
0
VERTEX
70
9
10
36.9494
20
40.8224
30
0.0000
0
VERTEX
70
9
10
36.9322
20
40.9911
30
0.0000
0
VERTEX
70
9
10
36.8686
20
41.1488
30
0.0000
0
VERTEX
70
9
10
36.7644
20
41.2816
30
0.0000
0
VERTEX
70
9
10
35.9730
20
41.9731
30
0.0000
0
VERTEX
70
9
10
35.8274
20
42.0584
30
0.0000
0
VERTEX
70
9
10
35.6626
20
42.1003
30
0.0000
0
VERTEX
70
9
10
35.4931
20
42.0948
30
0.0000
0
VERTEX
70
9
10
35.3327
20
42.0411
30
0.0000
0
VERTEX
70
9
10
34.1575
20
41.4544
30
0.0000
0
VERTEX
70
9
10
34.0498
20
41.4188
30
0.0000
0
VERTEX
70
9
10
33.9356
20
41.4152
30
0.0000
0
VERTEX
70
9
10
33.8250
20
41.4433
30
0.0000
0
VERTEX
70
9
10
33.7273
20
41.5020
30
0.0000
0
VERTEX
70
9
10
32.9564
20
42.1168
30
0.0000
0
VERTEX
70
9
10
32.8774
20
42.1990
30
0.0000
0
VERTEX
70
9
10
32.8254
20
42.3006
30
0.0000
0
VERTEX
70
9
10
32.8036
20
42.4127
30
0.0000
0
VERTEX
70
9
10
32.8143
20
42.5256
30
0.0000
0
VERTEX
70
9
10
33.1248
20
43.8018
30
0.0000
0
VERTEX
70
9
10
33.1414
20
43.9702
30
0.0000
0
VERTEX
70
9
10
33.1091
20
44.1367
30
0.0000
0
VERTEX
70
9
10
33.0316
20
44.2880
30
0.0000
0
VERTEX
70
9
10
32.9160
20
44.4109
30
0.0000
0
VERTEX
70
9
10
32.0657
20
45.0287
30
0.0000
0
VERTEX
70
9
10
31.9131
20
45.1007
30
0.0000
0
VERTEX
70
9
10
31.7452
20
45.1276
30
0.0000
0
VERTEX
70
9
10
31.5769
20
45.1069
30
0.0000
0
VERTEX
70
9
10
31.4219
20
45.0390
30
0.0000
0
VERTEX
70
9
10
30.3040
20
44.3494
30
0.0000
0
VERTEX
70
9
10
30.2000
20
44.3043
30
0.0000
0
VERTEX
70
9
10
30.0866
20
44.2904
30
0.0000
0
VERTEX
70
9
10
29.9739
20
44.3085
30
0.0000
0
VERTEX
70
9
10
29.8713
20
44.3582
30
0.0000
0
VERTEX
70
9
10
29.0484
20
44.9014
30
0.0000
0
VERTEX
70
9
10
28.9624
20
44.9762
30
0.0000
0
VERTEX
70
9
10
28.9015
20
45.0727
30
0.0000
0
VERTEX
70
9
10
28.8697
20
45.1824
30
0.0000
0
VERTEX
70
9
10
28.8703
20
45.2958
30
0.0000
0
VERTEX
70
9
10
29.0651
20
46.5948
30
0.0000
0
VERTEX
70
9
10
29.0665
20
46.7640
30
0.0000
0
VERTEX
70
9
10
29.0195
20
46.9269
30
0.0000
0
VERTEX
70
9
10
28.9287
20
47.0707
30
0.0000
0
VERTEX
70
9
10
28.8025
20
47.1827
30
0.0000
0
VERTEX
70
9
10
27.9003
20
47.7218
30
0.0000
0
VERTEX
70
9
10
27.7418
20
47.7798
30
0.0000
0
VERTEX
70
9
10
27.5722
20
47.7916
30
0.0000
0
VERTEX
70
9
10
27.4064
20
47.7558
30
0.0000
0
VERTEX
70
9
10
27.2581
20
47.6744
30
0.0000
0
VERTEX
70
9
10
26.2066
20
46.8873
30
0.0000
0
VERTEX
70
9
10
26.1070
20
46.8330
30
0.0000
0
VERTEX
70
9
10
25.9953
20
46.8091
30
0.0000
0
VERTEX
70
9
10
25.8815
20
46.8170
30
0.0000
0
VERTEX
70
9
10
25.7748
20
46.8573
30
0.0000
0
VERTEX
70
9
10
24.9066
20
47.3245
30
0.0000
0
VERTEX
70
9
10
24.8142
20
47.3913
30
0.0000
0
VERTEX
70
9
10
24.7449
20
47.4820
30
0.0000
0
VERTEX
70
9
10
24.7033
20
47.5884
30
0.0000
0
VERTEX
70
9
10
24.6937
20
47.7014
30
0.0000
0
VERTEX
70
9
10
24.7713
20
49.0126
30
0.0000
0
VERTEX
70
9
10
24.7576
20
49.1812
30
0.0000
0
VERTEX
70
9
10
24.6961
20
49.3392
30
0.0000
0
VERTEX
70
9
10
24.5928
20
49.4743
30
0.0000
0
VERTEX
70
9
10
24.4571
20
49.5746
30
0.0000
0
VERTEX
70
9
10
23.5102
20
50.0306
30
0.0000
0
VERTEX
70
9
10
23.3472
20
50.0742
30
0.0000
0
VERTEX
70
9
10
23.1772
20
50.0707
30
0.0000
0
VERTEX
70
9
10
23.0153
20
50.0203
30
0.0000
0
VERTEX
70
9
10
22.8749
20
49.9258
30
0.0000
0
VERTEX
70
9
10
21.8982
20
49.0477
30
0.0000
0
VERTEX
70
9
10
21.8038
20
48.9847
30
0.0000
0
VERTEX
70
9
10
21.6947
20
48.9508
30
0.0000
0
VERTEX
70
9
10
21.5806
20
48.9485
30
0.0000
0
VERTEX
70
9
10
21.4708
20
48.9791
30
0.0000
0
VERTEX
70
9
10
20.5642
20
49.3666
30
0.0000
0
VERTEX
70
9
10
20.4662
20
49.4248
30
0.0000
0
VERTEX
70
9
10
20.3890
20
49.5089
30
0.0000
0
VERTEX
70
9
10
20.3381
20
49.6112
30
0.0000
0
VERTEX
70
9
10
20.3184
20
49.7229
30
0.0000
0
VERTEX
70
9
10
20.2782
20
51.0357
30
0.0000
0
VERTEX
70
9
10
20.2494
20
51.2025
30
0.0000
0
VERTEX
70
9
10
20.1740
20
51.3543
30
0.0000
0
VERTEX
70
9
10
20.0590
20
51.4796
30
0.0000
0
VERTEX
70
9
10
19.9149
20
51.5673
30
0.0000
0
VERTEX
70
9
10
18.9308
20
51.9366
30
0.0000
0
VERTEX
70
9
10
18.7646
20
51.9654
30
0.0000
0
VERTEX
70
9
10
18.5956
20
51.9467
30
0.0000
0
VERTEX
70
9
10
18.4389
20
51.8820
30
0.0000
0
VERTEX
70
9
10
18.3075
20
51.7753
30
0.0000
0
VERTEX
70
9
10
17.4134
20
50.8132
30
0.0000
0
VERTEX
70
9
10
17.3251
20
50.7420
30
0.0000
0
VERTEX
70
9
10
17.2195
20
50.6985
30
0.0000
0
VERTEX
70
9
10
17.1060
20
50.6859
30
0.0000
0
VERTEX
70
9
10
16.9939
20
50.7066
30
0.0000
0
VERTEX
70
9
10
16.0562
20
51.0113
30
0.0000
0
VERTEX
70
9
10
15.9534
20
51.0604
30
0.0000
0
VERTEX
70
9
10
15.8690
20
51.1373
30
0.0000
0
VERTEX
70
9
10
15.8091
20
51.2345
30
0.0000
0
VERTEX
70
9
10
15.7795
20
51.3441
30
0.0000
0
VERTEX
70
9
10
15.6217
20
52.6480
30
0.0000
0
VERTEX
70
9
10
15.5781
20
52.8115
30
0.0000
0
VERTEX
70
9
10
15.4894
20
52.9560
30
0.0000
0
VERTEX
70
9
10
15.3636
20
53.0705
30
0.0000
0
VERTEX
70
9
10
15.2122
20
53.1449
30
0.0000
0
VERTEX
70
9
10
14.1991
20
53.4245
30
0.0000
0
VERTEX
70
9
10
14.0309
20
53.4383
30
0.0000
0
VERTEX
70
9
10
13.8642
20
53.4045
30
0.0000
0
VERTEX
70
9
10
13.7140
20
53.3260
30
0.0000
0
VERTEX
70
9
10
13.5927
20
53.2080
30
0.0000
0
VERTEX
70
9
10
12.7884
20
52.1695
30
0.0000
0
VERTEX
70
9
10
12.7069
20
52.0907
30
0.0000
0
VERTEX
70
9
10
12.6056
20
52.0379
30
0.0000
0
VERTEX
70
9
10
12.4937
20
52.0152
30
0.0000
0
VERTEX
70
9
10
12.3802
20
52.0258
30
0.0000
0
VERTEX
70
9
10
11.4189
20
52.2452
30
0.0000
0
VERTEX
70
9
10
11.3121
20
52.2849
30
0.0000
0
VERTEX
70
9
10
11.2212
20
52.3539
30
0.0000
0
VERTEX
70
9
10
11.1528
20
52.4454
30
0.0000
0
VERTEX
70
9
10
11.1135
20
52.5518
30
0.0000
0
VERTEX
70
9
10
10.8395
20
53.8364
30
0.0000
0
VERTEX
70
9
10
10.7814
20
53.9953
30
0.0000
0
VERTEX
70
9
10
10.6801
20
54.1313
30
0.0000
0
VERTEX
70
9
10
10.5446
20
54.2340
30
0.0000
0
VERTEX
70
9
10
10.3871
20
54.2946
30
0.0000
0
VERTEX
70
9
10
9.3530
20
54.4822
30
0.0000
0
VERTEX
70
9
10
9.1843
20
54.4809
30
0.0000
0
VERTEX
70
9
10
9.0213
20
54.4323
30
0.0000
0
VERTEX
70
9
10
8.8787
20
54.3406
30
0.0000
0
VERTEX
70
9
10
8.7684
20
54.2122
30
0.0000
0
VERTEX
70
9
10
8.0605
20
53.1059
30
0.0000
0
VERTEX
70
9
10
7.9863
20
53.0200
30
0.0000
0
VERTEX
70
9
10
7.8902
20
52.9584
30
0.0000
0
VERTEX
70
9
10
7.7808
20
52.9258
30
0.0000
0
VERTEX
70
9
10
7.6668
20
52.9261
30
0.0000
0
VERTEX
70
9
10
6.6898
20
53.0584
30
0.0000
0
VERTEX
70
9
10
6.5798
20
53.0885
30
0.0000
0
VERTEX
70
9
10
6.4830
20
53.1490
30
0.0000
0
VERTEX
70
9
10
6.4068
20
53.2340
30
0.0000
0
VERTEX
70
9
10
6.3581
20
53.3365
30
0.0000
0
VERTEX
70
9
10
5.9700
20
54.5913
30
0.0000
0
VERTEX
70
9
10
5.8979
20
54.7444
30
0.0000
0
VERTEX
70
9
10
5.7848
20
54.8707
30
0.0000
0
VERTEX
70
9
10
5.6406
20
54.9609
30
0.0000
0
VERTEX
70
9
10
5.4784
20
55.0071
30
0.0000
0
VERTEX
70
9
10
4.4316
20
55.1013
30
0.0000
0
VERTEX
70
9
10
4.2637
20
55.0848
30
0.0000
0
VERTEX
70
9
10
4.1057
20
55.0218
30
0.0000
0
VERTEX
70
9
10
3.9719
20
54.9177
30
0.0000
0
VERTEX
70
9
10
3.8736
20
54.7800
30
0.0000
0
VERTEX
70
9
10
3.2677
20
53.6146
30
0.0000
0
VERTEX
70
9
10
3.2015
20
53.5225
30
0.0000
0
VERTEX
70
9
10
3.1113
20
53.4525
30
0.0000
0
VERTEX
70
9
10
3.0053
20
53.4102
30
0.0000
0
VERTEX
70
9
10
2.8917
20
53.4003
30
0.0000
0
VERTEX
70
9
10
1.9067
20
53.4445
30
0.0000
0
VERTEX
70
9
10
1.7945
20
53.4646
30
0.0000
0
VERTEX
70
9
10
1.6927
20
53.5162
30
0.0000
0
VERTEX
70
9
10
1.6091
20
53.5940
30
0.0000
0
VERTEX
70
9
10
1.5514
20
53.6917
30
0.0000
0
VERTEX
70
9
10
1.0524
20
54.9067
30
0.0000
0
VERTEX
70
9
10
0.9669
20
55.0527
30
0.0000
0
VERTEX
70
9
10
0.8430
20
55.1684
30
0.0000
0
VERTEX
70
9
10
0.6913
20
55.2453
30
0.0000
0
VERTEX
70
9
10
0.5255
20
55.2767
30
0.0000
0
VERTEX
70
9
10
-0.5255
20
55.2767
30
0.0000
0
VERTEX
70
9
10
-0.6913
20
55.2453
30
0.0000
0
VERTEX
70
9
10
-0.8430
20
55.1684
30
0.0000
0
VERTEX
70
9
10
-0.9669
20
55.0527
30
0.0000
0
VERTEX
70
9
10
-1.0524
20
54.9067
30
0.0000
0
VERTEX
70
9
10
-1.5514
20
53.6917
30
0.0000
0
VERTEX
70
9
10
-1.6091
20
53.5940
30
0.0000
0
VERTEX
70
9
10
-1.6927
20
53.5162
30
0.0000
0
VERTEX
70
9
10
-1.7945
20
53.4646
30
0.0000
0
VERTEX
70
9
10
-1.9067
20
53.4445
30
0.0000
0
VERTEX
70
9
10
-2.8917
20
53.4003
30
0.0000
0
VERTEX
70
9
10
-3.0053
20
53.4102
30
0.0000
0
VERTEX
70
9
10
-3.1113
20
53.4525
30
0.0000
0
VERTEX
70
9
10
-3.2015
20
53.5225
30
0.0000
0
VERTEX
70
9
10
-3.2677
20
53.6146
30
0.0000
0
VERTEX
70
9
10
-3.8736
20
54.7800
30
0.0000
0
VERTEX
70
9
10
-3.9719
20
54.9177
30
0.0000
0
VERTEX
70
9
10
-4.1057
20
55.0218
30
0.0000
0
VERTEX
70
9
10
-4.2637
20
55.0848
30
0.0000
0
VERTEX
70
9
10
-4.4316
20
55.1013
30
0.0000
0
VERTEX
70
9
10
-5.4784
20
55.0071
30
0.0000
0
VERTEX
70
9
10
-5.6406
20
54.9609
30
0.0000
0
VERTEX
70
9
10
-5.7848
20
54.8707
30
0.0000
0
VERTEX
70
9
10
-5.8979
20
54.7444
30
0.0000
0
VERTEX
70
9
10
-5.9700
20
54.5913
30
0.0000
0
VERTEX
70
9
10
-6.3581
20
53.3365
30
0.0000
0
VERTEX
70
9
10
-6.4068
20
53.2340
30
0.0000
0
VERTEX
70
9
10
-6.4830
20
53.1490
30
0.0000
0
VERTEX
70
9
10
-6.5798
20
53.0885
30
0.0000
0
VERTEX
70
9
10
-6.6898
20
53.0584
30
0.0000
0
VERTEX
70
9
10
-7.6668
20
52.9261
30
0.0000
0
VERTEX
70
9
10
-7.7808
20
52.9258
30
0.0000
0
VERTEX
70
9
10
-7.8902
20
52.9584
30
0.0000
0
VERTEX
70
9
10
-7.9863
20
53.0200
30
0.0000
0
VERTEX
70
9
10
-8.0605
20
53.1059
30
0.0000
0
VERTEX
70
9
10
-8.7684
20
54.2122
30
0.0000
0
VERTEX
70
9
10
-8.8787
20
54.3406
30
0.0000
0
VERTEX
70
9
10
-9.0213
20
54.4323
30
0.0000
0
VERTEX
70
9
10
-9.1843
20
54.4809
30
0.0000
0
VERTEX
70
9
10
-9.3530
20
54.4822
30
0.0000
0
VERTEX
70
9
10
-10.3871
20
54.2946
30
0.0000
0
VERTEX
70
9
10
-10.5446
20
54.2340
30
0.0000
0
VERTEX
70
9
10
-10.6801
20
54.1313
30
0.0000
0
VERTEX
70
9
10
-10.7814
20
53.9953
30
0.0000
0
VERTEX
70
9
10
-10.8395
20
53.8364
30
0.0000
0
VERTEX
70
9
10
-11.1135
20
52.5518
30
0.0000
0
VERTEX
70
9
10
-11.1528
20
52.4454
30
0.0000
0
VERTEX
70
9
10
-11.2212
20
52.3539
30
0.0000
0
VERTEX
70
9
10
-11.3121
20
52.2849
30
0.0000
0
VERTEX
70
9
10
-11.4189
20
52.2452
30
0.0000
0
VERTEX
70
9
10
-12.3802
20
52.0258
30
0.0000
0
VERTEX
70
9
10
-12.4937
20
52.0152
30
0.0000
0
VERTEX
70
9
10
-12.6056
20
52.0379
30
0.0000
0
VERTEX
70
9
10
-12.7069
20
52.0907
30
0.0000
0
VERTEX
70
9
10
-12.7884
20
52.1695
30
0.0000
0
VERTEX
70
9
10
-13.5927
20
53.2080
30
0.0000
0
VERTEX
70
9
10
-13.7140
20
53.3260
30
0.0000
0
VERTEX
70
9
10
-13.8642
20
53.4045
30
0.0000
0
VERTEX
70
9
10
-14.0309
20
53.4383
30
0.0000
0
VERTEX
70
9
10
-14.1991
20
53.4245
30
0.0000
0
VERTEX
70
9
10
-15.2122
20
53.1449
30
0.0000
0
VERTEX
70
9
10
-15.3636
20
53.0705
30
0.0000
0
VERTEX
70
9
10
-15.4894
20
52.9560
30
0.0000
0
VERTEX
70
9
10
-15.5781
20
52.8115
30
0.0000
0
VERTEX
70
9
10
-15.6217
20
52.6480
30
0.0000
0
VERTEX
70
9
10
-15.7795
20
51.3441
30
0.0000
0
VERTEX
70
9
10
-15.8091
20
51.2345
30
0.0000
0
VERTEX
70
9
10
-15.8690
20
51.1373
30
0.0000
0
VERTEX
70
9
10
-15.9534
20
51.0604
30
0.0000
0
VERTEX
70
9
10
-16.0562
20
51.0113
30
0.0000
0
VERTEX
70
9
10
-16.9939
20
50.7066
30
0.0000
0
VERTEX
70
9
10
-17.1060
20
50.6859
30
0.0000
0
VERTEX
70
9
10
-17.2195
20
50.6985
30
0.0000
0
VERTEX
70
9
10
-17.3251
20
50.7420
30
0.0000
0
VERTEX
70
9
10
-17.4134
20
50.8132
30
0.0000
0
VERTEX
70
9
10
-18.3075
20
51.7753
30
0.0000
0
VERTEX
70
9
10
-18.4389
20
51.8820
30
0.0000
0
VERTEX
70
9
10
-18.5956
20
51.9467
30
0.0000
0
VERTEX
70
9
10
-18.7646
20
51.9654
30
0.0000
0
VERTEX
70
9
10
-18.9308
20
51.9366
30
0.0000
0
VERTEX
70
9
10
-19.9149
20
51.5673
30
0.0000
0
VERTEX
70
9
10
-20.0590
20
51.4796
30
0.0000
0
VERTEX
70
9
10
-20.1740
20
51.3543
30
0.0000
0
VERTEX
70
9
10
-20.2494
20
51.2025
30
0.0000
0
VERTEX
70
9
10
-20.2782
20
51.0357
30
0.0000
0
VERTEX
70
9
10
-20.3184
20
49.7229
30
0.0000
0
VERTEX
70
9
10
-20.3381
20
49.6112
30
0.0000
0
VERTEX
70
9
10
-20.3890
20
49.5089
30
0.0000
0
VERTEX
70
9
10
-20.4662
20
49.4248
30
0.0000
0
VERTEX
70
9
10
-20.5642
20
49.3666
30
0.0000
0
VERTEX
70
9
10
-21.4708
20
48.9791
30
0.0000
0
VERTEX
70
9
10
-21.5806
20
48.9485
30
0.0000
0
VERTEX
70
9
10
-21.6947
20
48.9508
30
0.0000
0
VERTEX
70
9
10
-21.8038
20
48.9847
30
0.0000
0
VERTEX
70
9
10
-21.8982
20
49.0477
30
0.0000
0
VERTEX
70
9
10
-22.8749
20
49.9258
30
0.0000
0
VERTEX
70
9
10
-23.0153
20
50.0203
30
0.0000
0
VERTEX
70
9
10
-23.1772
20
50.0707
30
0.0000
0
VERTEX
70
9
10
-23.3472
20
50.0742
30
0.0000
0
VERTEX
70
9
10
-23.5102
20
50.0306
30
0.0000
0
VERTEX
70
9
10
-24.4571
20
49.5746
30
0.0000
0
VERTEX
70
9
10
-24.5928
20
49.4743
30
0.0000
0
VERTEX
70
9
10
-24.6961
20
49.3392
30
0.0000
0
VERTEX
70
9
10
-24.7576
20
49.1812
30
0.0000
0
VERTEX
70
9
10
-24.7713
20
49.0126
30
0.0000
0
VERTEX
70
9
10
-24.6937
20
47.7014
30
0.0000
0
VERTEX
70
9
10
-24.7033
20
47.5884
30
0.0000
0
VERTEX
70
9
10
-24.7449
20
47.4820
30
0.0000
0
VERTEX
70
9
10
-24.8142
20
47.3913
30
0.0000
0
VERTEX
70
9
10
-24.9066
20
47.3245
30
0.0000
0
VERTEX
70
9
10
-25.7748
20
46.8573
30
0.0000
0
VERTEX
70
9
10
-25.8815
20
46.8170
30
0.0000
0
VERTEX
70
9
10
-25.9953
20
46.8091
30
0.0000
0
VERTEX
70
9
10
-26.1070
20
46.8330
30
0.0000
0
VERTEX
70
9
10
-26.2066
20
46.8873
30
0.0000
0
VERTEX
70
9
10
-27.2581
20
47.6744
30
0.0000
0
VERTEX
70
9
10
-27.4064
20
47.7558
30
0.0000
0
VERTEX
70
9
10
-27.5722
20
47.7916
30
0.0000
0
VERTEX
70
9
10
-27.7418
20
47.7798
30
0.0000
0
VERTEX
70
9
10
-27.9003
20
47.7218
30
0.0000
0
VERTEX
70
9
10
-28.8025
20
47.1827
30
0.0000
0
VERTEX
70
9
10
-28.9287
20
47.0707
30
0.0000
0
VERTEX
70
9
10
-29.0195
20
46.9269
30
0.0000
0
VERTEX
70
9
10
-29.0665
20
46.7640
30
0.0000
0
VERTEX
70
9
10
-29.0651
20
46.5948
30
0.0000
0
VERTEX
70
9
10
-28.8703
20
45.2958
30
0.0000
0
VERTEX
70
9
10
-28.8697
20
45.1824
30
0.0000
0
VERTEX
70
9
10
-28.9015
20
45.0727
30
0.0000
0
VERTEX
70
9
10
-28.9624
20
44.9762
30
0.0000
0
VERTEX
70
9
10
-29.0484
20
44.9014
30
0.0000
0
VERTEX
70
9
10
-29.8713
20
44.3582
30
0.0000
0
VERTEX
70
9
10
-29.9739
20
44.3085
30
0.0000
0
VERTEX
70
9
10
-30.0866
20
44.2904
30
0.0000
0
VERTEX
70
9
10
-30.2000
20
44.3043
30
0.0000
0
VERTEX
70
9
10
-30.3040
20
44.3494
30
0.0000
0
VERTEX
70
9
10
-31.4219
20
45.0390
30
0.0000
0
VERTEX
70
9
10
-31.5769
20
45.1069
30
0.0000
0
VERTEX
70
9
10
-31.7452
20
45.1276
30
0.0000
0
VERTEX
70
9
10
-31.9131
20
45.1007
30
0.0000
0
VERTEX
70
9
10
-32.0657
20
45.0287
30
0.0000
0
VERTEX
70
9
10
-32.9160
20
44.4109
30
0.0000
0
VERTEX
70
9
10
-33.0316
20
44.2880
30
0.0000
0
VERTEX
70
9
10
-33.1091
20
44.1367
30
0.0000
0
VERTEX
70
9
10
-33.1414
20
43.9702
30
0.0000
0
VERTEX
70
9
10
-33.1248
20
43.8018
30
0.0000
0
VERTEX
70
9
10
-32.8143
20
42.5256
30
0.0000
0
VERTEX
70
9
10
-32.8036
20
42.4127
30
0.0000
0
VERTEX
70
9
10
-32.8254
20
42.3006
30
0.0000
0
VERTEX
70
9
10
-32.8774
20
42.1990
30
0.0000
0
VERTEX
70
9
10
-32.9564
20
42.1168
30
0.0000
0
VERTEX
70
9
10
-33.7273
20
41.5020
30
0.0000
0
VERTEX
70
9
10
-33.8250
20
41.4433
30
0.0000
0
VERTEX
70
9
10
-33.9356
20
41.4152
30
0.0000
0
VERTEX
70
9
10
-34.0498
20
41.4188
30
0.0000
0
VERTEX
70
9
10
-34.1575
20
41.4544
30
0.0000
0
VERTEX
70
9
10
-35.3327
20
42.0411
30
0.0000
0
VERTEX
70
9
10
-35.4931
20
42.0948
30
0.0000
0
VERTEX
70
9
10
-35.6626
20
42.1003
30
0.0000
0
VERTEX
70
9
10
-35.8274
20
42.0584
30
0.0000
0
VERTEX
70
9
10
-35.9730
20
41.9731
30
0.0000
0
VERTEX
70
9
10
-36.7644
20
41.2816
30
0.0000
0
VERTEX
70
9
10
-36.8686
20
41.1488
30
0.0000
0
VERTEX
70
9
10
-36.9322
20
40.9911
30
0.0000
0
VERTEX
70
9
10
-36.9494
20
40.8224
30
0.0000
0
VERTEX
70
9
10
-36.9178
20
40.6562
30
0.0000
0
VERTEX
70
9
10
-36.4942
20
39.4129
30
0.0000
0
VERTEX
70
9
10
-36.4733
20
39.3014
30
0.0000
0
VERTEX
70
9
10
-36.4851
20
39.1878
30
0.0000
0
VERTEX
70
9
10
-36.5278
20
39.0820
30
0.0000
0
VERTEX
70
9
10
-36.5991
20
38.9930
30
0.0000
0
VERTEX
70
9
10
-37.3118
20
38.3117
30
0.0000
0
VERTEX
70
9
10
-37.4038
20
38.2444
30
0.0000
0
VERTEX
70
9
10
-37.5115
20
38.2065
30
0.0000
0
VERTEX
70
9
10
-37.6255
20
38.1999
30
0.0000
0
VERTEX
70
9
10
-37.7359
20
38.2257
30
0.0000
0
VERTEX
70
9
10
-38.9590
20
38.7046
30
0.0000
0
VERTEX
70
9
10
-39.1236
20
38.7437
30
0.0000
0
VERTEX
70
9
10
-39.2929
20
38.7341
30
0.0000
0
VERTEX
70
9
10
-39.4533
20
38.6776
30
0.0000
0
VERTEX
70
9
10
-39.5906
20
38.5795
30
0.0000
0
VERTEX
70
9
10
-40.3169
20
37.8198
30
0.0000
0
VERTEX
70
9
10
-40.4087
20
37.6783
30
0.0000
0
VERTEX
70
9
10
-40.4580
20
37.5155
30
0.0000
0
VERTEX
70
9
10
-40.4600
20
37.3460
30
0.0000
0
VERTEX
70
9
10
-40.4136
20
37.1833
30
0.0000
0
VERTEX
70
9
10
-39.8802
20
35.9830
30
0.0000
0
VERTEX
70
9
10
-39.8495
20
35.8738
30
0.0000
0
VERTEX
70
9
10
-39.8510
20
35.7596
30
0.0000
0
VERTEX
70
9
10
-39.8840
20
35.6503
30
0.0000
0
VERTEX
70
9
10
-39.9471
20
35.5553
30
0.0000
0
VERTEX
70
9
10
-40.5958
20
34.8128
30
0.0000
0
VERTEX
70
9
10
-40.6814
20
34.7376
30
0.0000
0
VERTEX
70
9
10
-40.7852
20
34.6902
30
0.0000
0
VERTEX
70
9
10
-40.8982
20
34.6734
30
0.0000
0
VERTEX
70
9
10
-41.0106
20
34.6892
30
0.0000
0
VERTEX
70
9
10
-42.2716
20
35.0566
30
0.0000
0
VERTEX
70
9
10
-42.4391
20
35.0807
30
0.0000
0
VERTEX
70
9
10
-42.6068
20
35.0560
30
0.0000
0
VERTEX
70
9
10
-42.7615
20
34.9853
30
0.0000
0
VERTEX
70
9
10
-42.8894
20
34.8753
30
0.0000
0
VERTEX
70
9
10
-43.5447
20
34.0536
30
0.0000
0
VERTEX
70
9
10
-43.6235
20
33.9044
30
0.0000
0
VERTEX
70
9
10
-43.6579
20
33.7379
30
0.0000
0
VERTEX
70
9
10
-43.6448
20
33.5688
30
0.0000
0
VERTEX
70
9
10
-43.5839
20
33.4109
30
0.0000
0
VERTEX
70
9
10
-42.9452
20
32.2633
30
0.0000
0
VERTEX
70
9
10
-42.9047
20
32.1573
30
0.0000
0
VERTEX
70
9
10
-42.8960
20
32.0434
30
0.0000
0
VERTEX
70
9
10
-42.9191
20
31.9316
30
0.0000
0
VERTEX
70
9
10
-42.9734
20
31.8314
30
0.0000
0
VERTEX
70
9
10
-43.5530
20
31.0337
30
0.0000
0
VERTEX
70
9
10
-43.6315
20
30.9511
30
0.0000
0
VERTEX
70
9
10
-43.7307
20
30.8946
30
0.0000
0
VERTEX
70
9
10
-43.8417
20
30.8677
30
0.0000
0
VERTEX
70
9
10
-43.9550
20
30.8734
30
0.0000
0
VERTEX
70
9
10
-45.2439
20
31.1263
30
0.0000
0
VERTEX
70
9
10
-45.4128
20
31.1353
30
0.0000
0
VERTEX
70
9
10
-45.5777
20
31.0956
30
0.0000
0
VERTEX
70
9
10
-45.7254
20
31.0114
30
0.0000
0
VERTEX
70
9
10
-45.8430
20
30.8904
30
0.0000
0
VERTEX
70
9
10
-46.4220
20
30.0132
30
0.0000
0
VERTEX
70
9
10
-46.4870
20
29.8575
30
0.0000
0
VERTEX
70
9
10
-46.5064
20
29.6886
30
0.0000
0
VERTEX
70
9
10
-46.4782
20
29.5214
30
0.0000
0
VERTEX
70
9
10
-46.4034
20
29.3696
30
0.0000
0
VERTEX
70
9
10
-45.6643
20
28.2838
30
0.0000
0
VERTEX
70
9
10
-45.6146
20
28.1819
30
0.0000
0
VERTEX
70
9
10
-45.5957
20
28.0692
30
0.0000
0
VERTEX
70
9
10
-45.6087
20
27.9558
30
0.0000
0
VERTEX
70
9
10
-45.6537
20
27.8511
30
0.0000
0
VERTEX
70
9
10
-46.1595
20
27.0047
30
0.0000
0
VERTEX
70
9
10
-46.2303
20
26.9154
30
0.0000
0
VERTEX
70
9
10
-46.3240
20
26.8502
30
0.0000
0
VERTEX
70
9
10
-46.4321
20
26.8135
30
0.0000
0
VERTEX
70
9
10
-46.5455
20
26.8090
30
0.0000
0
VERTEX
70
9
10
-47.8519
20
26.9453
30
0.0000
0
VERTEX
70
9
10
-48.0210
20
26.9392
30
0.0000
0
VERTEX
70
9
10
-48.1816
20
26.8849
30
0.0000
0
VERTEX
70
9
10
-48.3212
20
26.7877
30
0.0000
0
VERTEX
70
9
10
-48.4274
20
26.6567
30
0.0000
0
VERTEX
70
9
10
-48.9255
20
25.7311
30
0.0000
0
VERTEX
70
9
10
-48.9763
20
25.5703
30
0.0000
0
VERTEX
70
9
10
-48.9805
20
25.4002
30
0.0000
0
VERTEX
70
9
10
-48.9373
20
25.2363
30
0.0000
0
VERTEX
70
9
10
-48.8493
20
25.0918
30
0.0000
0
VERTEX
70
9
10
-48.0158
20
24.0766
30
0.0000
0
VERTEX
70
9
10
-47.9571
20
23.9795
30
0.0000
0
VERTEX
70
9
10
-47.9282
20
23.8691
30
0.0000
0
VERTEX
70
9
10
-47.9310
20
23.7550
30
0.0000
0
VERTEX
70
9
10
-47.9665
20
23.6466
30
0.0000
0
VERTEX
70
9
10
-48.3943
20
22.7583
30
0.0000
0
VERTEX
70
9
10
-48.4569
20
22.6630
30
0.0000
0
VERTEX
70
9
10
-48.5443
20
22.5897
30
0.0000
0
VERTEX
70
9
10
-48.6488
20
22.5434
30
0.0000
0
VERTEX
70
9
10
-48.7612
20
22.5288
30
0.0000
0
VERTEX
70
9
10
-50.0746
20
22.5474
30
0.0000
0
VERTEX
70
9
10
-50.2424
20
22.5262
30
0.0000
0
VERTEX
70
9
10
-50.3975
20
22.4577
30
0.0000
0
VERTEX
70
9
10
-50.5279
20
22.3484
30
0.0000
0
VERTEX
70
9
10
-50.6219
20
22.2084
30
0.0000
0
VERTEX
70
9
10
-51.0350
20
21.2419
30
0.0000
0
VERTEX
70
9
10
-51.0712
20
21.0771
30
0.0000
0
VERTEX
70
9
10
-51.0601
20
20.9074
30
0.0000
0
VERTEX
70
9
10
-51.0025
20
20.7480
30
0.0000
0
VERTEX
70
9
10
-50.9018
20
20.6119
30
0.0000
0
VERTEX
70
9
10
-49.9808
20
19.6756
30
0.0000
0
VERTEX
70
9
10
-49.9136
20
19.5842
30
0.0000
0
VERTEX
70
9
10
-49.8749
20
19.4767
30
0.0000
0
VERTEX
70
9
10
-49.8674
20
19.3628
30
0.0000
0
VERTEX
70
9
10
-49.8931
20
19.2518
30
0.0000
0
VERTEX
70
9
10
-50.2395
20
18.3286
30
0.0000
0
VERTEX
70
9
10
-50.2933
20
18.2281
30
0.0000
0
VERTEX
70
9
10
-50.3738
20
18.1473
30
0.0000
0
VERTEX
70
9
10
-50.4737
20
18.0918
30
0.0000
0
VERTEX
70
9
10
-50.5844
20
18.0671
30
0.0000
0
VERTEX
70
9
10
-51.8941
20
17.9680
30
0.0000
0
VERTEX
70
9
10
-52.0594
20
17.9318
30
0.0000
0
VERTEX
70
9
10
-52.2077
20
17.8497
30
0.0000
0
VERTEX
70
9
10
-52.3277
20
17.7292
30
0.0000
0
VERTEX
70
9
10
-52.4089
20
17.5812
30
0.0000
0
VERTEX
70
9
10
-52.7337
20
16.5817
30
0.0000
0
VERTEX
70
9
10
-52.7550
20
16.4143
30
0.0000
0
VERTEX
70
9
10
-52.7287
20
16.2463
30
0.0000
0
VERTEX
70
9
10
-52.6570
20
16.0926
30
0.0000
0
VERTEX
70
9
10
-52.5446
20
15.9662
30
0.0000
0
VERTEX
70
9
10
-51.5432
20
15.1161
30
0.0000
0
VERTEX
70
9
10
-51.4682
20
15.0311
30
0.0000
0
VERTEX
70
9
10
-51.4200
20
14.9276
30
0.0000
0
VERTEX
70
9
10
-51.4023
20
14.8148
30
0.0000
0
VERTEX
70
9
10
-51.4179
20
14.7019
30
0.0000
0
VERTEX
70
9
10
-51.6803
20
13.7514
30
0.0000
0
VERTEX
70
9
10
-51.7248
20
13.6465
30
0.0000
0
VERTEX
70
9
10
-51.7978
20
13.5587
30
0.0000
0
VERTEX
70
9
10
-51.8922
20
13.4946
30
0.0000
0
VERTEX
70
9
10
-52.0003
20
13.4601
30
0.0000
0
VERTEX
70
9
10
-53.2959
20
13.2439
30
0.0000
0
VERTEX
70
9
10
-53.4572
20
13.1930
30
0.0000
0
VERTEX
70
9
10
-53.5976
20
13.0979
30
0.0000
0
VERTEX
70
9
10
-53.7063
20
12.9672
30
0.0000
0
VERTEX
70
9
10
-53.7739
20
12.8126
30
0.0000
0
VERTEX
70
9
10
-54.0078
20
11.7879
30
0.0000
0
VERTEX
70
9
10
-54.0140
20
11.6193
30
0.0000
0
VERTEX
70
9
10
-53.9728
20
11.4543
30
0.0000
0
VERTEX
70
9
10
-53.8875
20
11.3077
30
0.0000
0
VERTEX
70
9
10
-53.7642
20
11.1918
30
0.0000
0
VERTEX
70
9
10
-52.6908
20
10.4350
30
0.0000
0
VERTEX
70
9
10
-52.6083
20
10.3570
30
0.0000
0
VERTEX
70
9
10
-52.5511
20
10.2582
30
0.0000
0
VERTEX
70
9
10
-52.5234
20
10.1475
30
0.0000
0
VERTEX
70
9
10
-52.5288
20
10.0336
30
0.0000
0
VERTEX
70
9
10
-52.7049
20
9.0635
30
0.0000
0
VERTEX
70
9
10
-52.7398
20
8.9550
30
0.0000
0
VERTEX
70
9
10
-52.8046
20
8.8610
30
0.0000
0
VERTEX
70
9
10
-52.8930
20
8.7886
30
0.0000
0
VERTEX
70
9
10
-52.9975
20
8.7446
30
0.0000
0
VERTEX
70
9
10
-54.2685
20
8.4132
30
0.0000
0
VERTEX
70
9
10
-54.4246
20
8.3481
30
0.0000
0
VERTEX
70
9
10
-54.5559
20
8.2408
30
0.0000
0
VERTEX
70
9
10
-54.6525
20
8.1008
30
0.0000
0
VERTEX
70
9
10
-54.7059
20
7.9407
30
0.0000
0
VERTEX
70
9
10
-54.8470
20
6.8992
30
0.0000
0
VERTEX
70
9
10
-54.8381
20
6.7307
30
0.0000
0
VERTEX
70
9
10
-54.7822
20
6.5701
30
0.0000
0
VERTEX
70
9
10
-54.6842
20
6.4317
30
0.0000
0
VERTEX
70
9
10
-54.5510
20
6.3274
30
0.0000
0
VERTEX
70
9
10
-53.4140
20
5.6698
30
0.0000
0
VERTEX
70
9
10
-53.3250
20
5.5996
30
0.0000
0
VERTEX
70
9
10
-53.2591
20
5.5063
30
0.0000
0
VERTEX
70
9
10
-53.2216
20
5.3985
30
0.0000
0
VERTEX
70
9
10
-53.2168
20
5.2846
30
0.0000
0
VERTEX
70
9
10
-53.3051
20
4.3026
30
0.0000
0
VERTEX
70
9
10
-53.3302
20
4.1914
30
0.0000
0
VERTEX
70
9
10
-53.3863
20
4.0920
30
0.0000
0
VERTEX
70
9
10
-53.4678
20
4.0120
30
0.0000
0
VERTEX
70
9
10
-53.5680
20
3.9587
30
0.0000
0
VERTEX
70
9
10
-54.8042
20
3.5148
30
0.0000
0
VERTEX
70
9
10
-54.9539
20
3.4359
30
0.0000
0
VERTEX
70
9
10
-55.0750
20
3.3172
30
0.0000
0
VERTEX
70
9
10
-55.1586
20
3.1691
30
0.0000
0
VERTEX
70
9
10
-55.1975
20
3.0050
30
0.0000
0
VERTEX
70
9
10
-55.2446
20
1.9550
30
0.0000
0
VERTEX
70
9
10
-55.2206
20
1.7880
30
0.0000
0
VERTEX
70
9
10
-55.1506
20
1.6330
30
0.0000
0
VERTEX
70
9
10
-55.0406
20
1.5040
30
0.0000
0
VERTEX
70
9
10
-54.8986
20
1.4120
30
0.0000
0
VERTEX
70
9
10
-53.7072
20
0.8590
30
0.0000
0
VERTEX
70
9
10
-53.6122
20
0.7970
30
0.0000
0
VERTEX
70
9
10
-53.5382
20
0.7100
30
0.0000
0
VERTEX
70
9
10
-53.4912
20
0.6060
30
0.0000
0
VERTEX
70
9
10
-53.4762
20
0.4930
30
0.0000
0
VERTEX
70
9
10
-53.4762
20
-0.4930
30
0.0000
0
VERTEX
70
9
10
-53.4912
20
-0.6060
30
0.0000
0
VERTEX
70
9
10
-53.5382
20
-0.7100
30
0.0000
0
VERTEX
70
9
10
-53.6122
20
-0.7970
30
0.0000
0
VERTEX
70
9
10
-53.7072
20
-0.8590
30
0.0000
0
VERTEX
70
9
10
-54.8986
20
-1.4120
30
0.0000
0
VERTEX
70
9
10
-55.0406
20
-1.5040
30
0.0000
0
VERTEX
70
9
10
-55.1506
20
-1.6330
30
0.0000
0
VERTEX
70
9
10
-55.2206
20
-1.7880
30
0.0000
0
VERTEX
70
9
10
-55.2446
20
-1.9550
30
0.0000
0
VERTEX
70
9
10
-55.1975
20
-3.0050
30
0.0000
0
VERTEX
70
9
10
-55.1586
20
-3.1691
30
0.0000
0
VERTEX
70
9
10
-55.0750
20
-3.3172
30
0.0000
0
VERTEX
70
9
10
-54.9539
20
-3.4359
30
0.0000
0
VERTEX
70
9
10
-54.8042
20
-3.5148
30
0.0000
0
VERTEX
70
9
10
-53.5680
20
-3.9587
30
0.0000
0
VERTEX
70
9
10
-53.4678
20
-4.0120
30
0.0000
0
VERTEX
70
9
10
-53.3863
20
-4.0920
30
0.0000
0
VERTEX
70
9
10
-53.3302
20
-4.1914
30
0.0000
0
VERTEX
70
9
10
-53.3051
20
-4.3026
30
0.0000
0
VERTEX
70
9
10
-53.2168
20
-5.2846
30
0.0000
0
VERTEX
70
9
10
-53.2216
20
-5.3985
30
0.0000
0
VERTEX
70
9
10
-53.2591
20
-5.5063
30
0.0000
0
VERTEX
70
9
10
-53.3250
20
-5.5996
30
0.0000
0
VERTEX
70
9
10
-53.4140
20
-5.6698
30
0.0000
0
VERTEX
70
9
10
-54.5510
20
-6.3274
30
0.0000
0
VERTEX
70
9
10
-54.6842
20
-6.4317
30
0.0000
0
VERTEX
70
9
10
-54.7822
20
-6.5701
30
0.0000
0
VERTEX
70
9
10
-54.8381
20
-6.7307
30
0.0000
0
VERTEX
70
9
10
-54.8470
20
-6.8992
30
0.0000
0
VERTEX
70
9
10
-54.7059
20
-7.9407
30
0.0000
0
VERTEX
70
9
10
-54.6525
20
-8.1008
30
0.0000
0
VERTEX
70
9
10
-54.5559
20
-8.2408
30
0.0000
0
VERTEX
70
9
10
-54.4246
20
-8.3481
30
0.0000
0
VERTEX
70
9
10
-54.2685
20
-8.4132
30
0.0000
0
VERTEX
70
9
10
-52.9975
20
-8.7446
30
0.0000
0
VERTEX
70
9
10
-52.8930
20
-8.7886
30
0.0000
0
VERTEX
70
9
10
-52.8046
20
-8.8610
30
0.0000
0
VERTEX
70
9
10
-52.7398
20
-8.9550
30
0.0000
0
VERTEX
70
9
10
-52.7049
20
-9.0635
30
0.0000
0
VERTEX
70
9
10
-52.5288
20
-10.0336
30
0.0000
0
VERTEX
70
9
10
-52.5234
20
-10.1475
30
0.0000
0
VERTEX
70
9
10
-52.5511
20
-10.2582
30
0.0000
0
VERTEX
70
9
10
-52.6083
20
-10.3570
30
0.0000
0
VERTEX
70
9
10
-52.6908
20
-10.4350
30
0.0000
0
VERTEX
70
9
10
-53.7642
20
-11.1918
30
0.0000
0
VERTEX
70
9
10
-53.8875
20
-11.3077
30
0.0000
0
VERTEX
70
9
10
-53.9728
20
-11.4543
30
0.0000
0
VERTEX
70
9
10
-54.0140
20
-11.6193
30
0.0000
0
VERTEX
70
9
10
-54.0078
20
-11.7879
30
0.0000
0
VERTEX
70
9
10
-53.7739
20
-12.8126
30
0.0000
0
VERTEX
70
9
10
-53.7063
20
-12.9672
30
0.0000
0
VERTEX
70
9
10
-53.5976
20
-13.0979
30
0.0000
0
VERTEX
70
9
10
-53.4572
20
-13.1930
30
0.0000
0
VERTEX
70
9
10
-53.2959
20
-13.2439
30
0.0000
0
VERTEX
70
9
10
-52.0003
20
-13.4601
30
0.0000
0
VERTEX
70
9
10
-51.8922
20
-13.4946
30
0.0000
0
VERTEX
70
9
10
-51.7978
20
-13.5587
30
0.0000
0
VERTEX
70
9
10
-51.7248
20
-13.6465
30
0.0000
0
VERTEX
70
9
10
-51.6803
20
-13.7514
30
0.0000
0
VERTEX
70
9
10
-51.4179
20
-14.7019
30
0.0000
0
VERTEX
70
9
10
-51.4023
20
-14.8148
30
0.0000
0
VERTEX
70
9
10
-51.4200
20
-14.9276
30
0.0000
0
VERTEX
70
9
10
-51.4682
20
-15.0311
30
0.0000
0
VERTEX
70
9
10
-51.5432
20
-15.1161
30
0.0000
0
VERTEX
70
9
10
-52.5446
20
-15.9662
30
0.0000
0
VERTEX
70
9
10
-52.6570
20
-16.0926
30
0.0000
0
VERTEX
70
9
10
-52.7287
20
-16.2463
30
0.0000
0
VERTEX
70
9
10
-52.7550
20
-16.4143
30
0.0000
0
VERTEX
70
9
10
-52.7337
20
-16.5817
30
0.0000
0
VERTEX
70
9
10
-52.4089
20
-17.5812
30
0.0000
0
VERTEX
70
9
10
-52.3277
20
-17.7292
30
0.0000
0
VERTEX
70
9
10
-52.2077
20
-17.8497
30
0.0000
0
VERTEX
70
9
10
-52.0594
20
-17.9318
30
0.0000
0
VERTEX
70
9
10
-51.8941
20
-17.9680
30
0.0000
0
VERTEX
70
9
10
-50.5844
20
-18.0671
30
0.0000
0
VERTEX
70
9
10
-50.4737
20
-18.0918
30
0.0000
0
VERTEX
70
9
10
-50.3738
20
-18.1473
30
0.0000
0
VERTEX
70
9
10
-50.2933
20
-18.2281
30
0.0000
0
VERTEX
70
9
10
-50.2395
20
-18.3286
30
0.0000
0
VERTEX
70
9
10
-49.8931
20
-19.2518
30
0.0000
0
VERTEX
70
9
10
-49.8674
20
-19.3628
30
0.0000
0
VERTEX
70
9
10
-49.8749
20
-19.4767
30
0.0000
0
VERTEX
70
9
10
-49.9136
20
-19.5842
30
0.0000
0
VERTEX
70
9
10
-49.9808
20
-19.6756
30
0.0000
0
VERTEX
70
9
10
-50.9018
20
-20.6119
30
0.0000
0
VERTEX
70
9
10
-51.0025
20
-20.7480
30
0.0000
0
VERTEX
70
9
10
-51.0601
20
-20.9074
30
0.0000
0
VERTEX
70
9
10
-51.0712
20
-21.0771
30
0.0000
0
VERTEX
70
9
10
-51.0350
20
-21.2419
30
0.0000
0
VERTEX
70
9
10
-50.6219
20
-22.2084
30
0.0000
0
VERTEX
70
9
10
-50.5279
20
-22.3484
30
0.0000
0
VERTEX
70
9
10
-50.3975
20
-22.4577
30
0.0000
0
VERTEX
70
9
10
-50.2424
20
-22.5262
30
0.0000
0
VERTEX
70
9
10
-50.0746
20
-22.5474
30
0.0000
0
VERTEX
70
9
10
-48.7612
20
-22.5288
30
0.0000
0
VERTEX
70
9
10
-48.6488
20
-22.5434
30
0.0000
0
VERTEX
70
9
10
-48.5443
20
-22.5897
30
0.0000
0
VERTEX
70
9
10
-48.4569
20
-22.6630
30
0.0000
0
VERTEX
70
9
10
-48.3943
20
-22.7583
30
0.0000
0
VERTEX
70
9
10
-47.9665
20
-23.6466
30
0.0000
0
VERTEX
70
9
10
-47.9310
20
-23.7550
30
0.0000
0
VERTEX
70
9
10
-47.9282
20
-23.8691
30
0.0000
0
VERTEX
70
9
10
-47.9571
20
-23.9795
30
0.0000
0
VERTEX
70
9
10
-48.0158
20
-24.0766
30
0.0000
0
VERTEX
70
9
10
-48.8493
20
-25.0918
30
0.0000
0
VERTEX
70
9
10
-48.9373
20
-25.2363
30
0.0000
0
VERTEX
70
9
10
-48.9805
20
-25.4002
30
0.0000
0
VERTEX
70
9
10
-48.9763
20
-25.5703
30
0.0000
0
VERTEX
70
9
10
-48.9255
20
-25.7311
30
0.0000
0
VERTEX
70
9
10
-48.4274
20
-26.6567
30
0.0000
0
VERTEX
70
9
10
-48.3212
20
-26.7877
30
0.0000
0
VERTEX
70
9
10
-48.1816
20
-26.8849
30
0.0000
0
VERTEX
70
9
10
-48.0210
20
-26.9392
30
0.0000
0
VERTEX
70
9
10
-47.8519
20
-26.9453
30
0.0000
0
VERTEX
70
9
10
-46.5455
20
-26.8090
30
0.0000
0
VERTEX
70
9
10
-46.4321
20
-26.8135
30
0.0000
0
VERTEX
70
9
10
-46.3240
20
-26.8502
30
0.0000
0
VERTEX
70
9
10
-46.2303
20
-26.9154
30
0.0000
0
VERTEX
70
9
10
-46.1595
20
-27.0047
30
0.0000
0
VERTEX
70
9
10
-45.6537
20
-27.8511
30
0.0000
0
VERTEX
70
9
10
-45.6087
20
-27.9558
30
0.0000
0
VERTEX
70
9
10
-45.5957
20
-28.0692
30
0.0000
0
VERTEX
70
9
10
-45.6146
20
-28.1819
30
0.0000
0
VERTEX
70
9
10
-45.6643
20
-28.2838
30
0.0000
0
VERTEX
70
9
10
-46.4034
20
-29.3696
30
0.0000
0
VERTEX
70
9
10
-46.4782
20
-29.5214
30
0.0000
0
VERTEX
70
9
10
-46.5064
20
-29.6886
30
0.0000
0
VERTEX
70
9
10
-46.4870
20
-29.8575
30
0.0000
0
VERTEX
70
9
10
-46.4220
20
-30.0132
30
0.0000
0
VERTEX
70
9
10
-45.8430
20
-30.8904
30
0.0000
0
VERTEX
70
9
10
-45.7254
20
-31.0114
30
0.0000
0
VERTEX
70
9
10
-45.5777
20
-31.0956
30
0.0000
0
VERTEX
70
9
10
-45.4128
20
-31.1353
30
0.0000
0
VERTEX
70
9
10
-45.2439
20
-31.1263
30
0.0000
0
VERTEX
70
9
10
-43.9550
20
-30.8734
30
0.0000
0
VERTEX
70
9
10
-43.8417
20
-30.8677
30
0.0000
0
VERTEX
70
9
10
-43.7307
20
-30.8946
30
0.0000
0
VERTEX
70
9
10
-43.6315
20
-30.9511
30
0.0000
0
VERTEX
70
9
10
-43.5530
20
-31.0337
30
0.0000
0
VERTEX
70
9
10
-42.9734
20
-31.8314
30
0.0000
0
VERTEX
70
9
10
-42.9191
20
-31.9316
30
0.0000
0
VERTEX
70
9
10
-42.8960
20
-32.0434
30
0.0000
0
VERTEX
70
9
10
-42.9047
20
-32.1573
30
0.0000
0
VERTEX
70
9
10
-42.9452
20
-32.2633
30
0.0000
0
VERTEX
70
9
10
-43.5839
20
-33.4109
30
0.0000
0
VERTEX
70
9
10
-43.6448
20
-33.5688
30
0.0000
0
VERTEX
70
9
10
-43.6579
20
-33.7379
30
0.0000
0
VERTEX
70
9
10
-43.6235
20
-33.9044
30
0.0000
0
VERTEX
70
9
10
-43.5447
20
-34.0536
30
0.0000
0
VERTEX
70
9
10
-42.8894
20
-34.8753
30
0.0000
0
VERTEX
70
9
10
-42.7615
20
-34.9853
30
0.0000
0
VERTEX
70
9
10
-42.6068
20
-35.0560
30
0.0000
0
VERTEX
70
9
10
-42.4391
20
-35.0807
30
0.0000
0
VERTEX
70
9
10
-42.2716
20
-35.0566
30
0.0000
0
VERTEX
70
9
10
-41.0106
20
-34.6892
30
0.0000
0
VERTEX
70
9
10
-40.8982
20
-34.6734
30
0.0000
0
VERTEX
70
9
10
-40.7852
20
-34.6902
30
0.0000
0
VERTEX
70
9
10
-40.6814
20
-34.7376
30
0.0000
0
VERTEX
70
9
10
-40.5958
20
-34.8128
30
0.0000
0
VERTEX
70
9
10
-39.9471
20
-35.5553
30
0.0000
0
VERTEX
70
9
10
-39.8840
20
-35.6503
30
0.0000
0
VERTEX
70
9
10
-39.8510
20
-35.7596
30
0.0000
0
VERTEX
70
9
10
-39.8495
20
-35.8738
30
0.0000
0
VERTEX
70
9
10
-39.8802
20
-35.9830
30
0.0000
0
VERTEX
70
9
10
-40.4136
20
-37.1833
30
0.0000
0
VERTEX
70
9
10
-40.4600
20
-37.3460
30
0.0000
0
VERTEX
70
9
10
-40.4580
20
-37.5155
30
0.0000
0
VERTEX
70
9
10
-40.4087
20
-37.6783
30
0.0000
0
VERTEX
70
9
10
-40.3169
20
-37.8198
30
0.0000
0
VERTEX
70
9
10
-39.5906
20
-38.5795
30
0.0000
0
VERTEX
70
9
10
-39.4533
20
-38.6776
30
0.0000
0
VERTEX
70
9
10
-39.2929
20
-38.7341
30
0.0000
0
VERTEX
70
9
10
-39.1236
20
-38.7437
30
0.0000
0
VERTEX
70
9
10
-38.9590
20
-38.7046
30
0.0000
0
VERTEX
70
9
10
-37.7359
20
-38.2257
30
0.0000
0
VERTEX
70
9
10
-37.6255
20
-38.1999
30
0.0000
0
VERTEX
70
9
10
-37.5115
20
-38.2065
30
0.0000
0
VERTEX
70
9
10
-37.4038
20
-38.2444
30
0.0000
0
VERTEX
70
9
10
-37.3118
20
-38.3117
30
0.0000
0
VERTEX
70
9
10
-36.5991
20
-38.9930
30
0.0000
0
VERTEX
70
9
10
-36.5278
20
-39.0820
30
0.0000
0
VERTEX
70
9
10
-36.4851
20
-39.1878
30
0.0000
0
VERTEX
70
9
10
-36.4733
20
-39.3014
30
0.0000
0
VERTEX
70
9
10
-36.4942
20
-39.4129
30
0.0000
0
VERTEX
70
9
10
-36.9178
20
-40.6562
30
0.0000
0
VERTEX
70
9
10
-36.9494
20
-40.8224
30
0.0000
0
VERTEX
70
9
10
-36.9322
20
-40.9911
30
0.0000
0
VERTEX
70
9
10
-36.8686
20
-41.1488
30
0.0000
0
VERTEX
70
9
10
-36.7644
20
-41.2816
30
0.0000
0
VERTEX
70
9
10
-35.9730
20
-41.9731
30
0.0000
0
VERTEX
70
9
10
-35.8274
20
-42.0584
30
0.0000
0
VERTEX
70
9
10
-35.6626
20
-42.1003
30
0.0000
0
VERTEX
70
9
10
-35.4931
20
-42.0948
30
0.0000
0
VERTEX
70
9
10
-35.3327
20
-42.0411
30
0.0000
0
VERTEX
70
9
10
-34.1575
20
-41.4544
30
0.0000
0
VERTEX
70
9
10
-34.0498
20
-41.4188
30
0.0000
0
VERTEX
70
9
10
-33.9356
20
-41.4152
30
0.0000
0
VERTEX
70
9
10
-33.8250
20
-41.4433
30
0.0000
0
VERTEX
70
9
10
-33.7273
20
-41.5020
30
0.0000
0
VERTEX
70
9
10
-32.9564
20
-42.1168
30
0.0000
0
VERTEX
70
9
10
-32.8774
20
-42.1990
30
0.0000
0
VERTEX
70
9
10
-32.8254
20
-42.3006
30
0.0000
0
VERTEX
70
9
10
-32.8036
20
-42.4127
30
0.0000
0
VERTEX
70
9
10
-32.8143
20
-42.5256
30
0.0000
0
VERTEX
70
9
10
-33.1248
20
-43.8018
30
0.0000
0
VERTEX
70
9
10
-33.1414
20
-43.9702
30
0.0000
0
VERTEX
70
9
10
-33.1091
20
-44.1367
30
0.0000
0
VERTEX
70
9
10
-33.0316
20
-44.2880
30
0.0000
0
VERTEX
70
9
10
-32.9160
20
-44.4109
30
0.0000
0
VERTEX
70
9
10
-32.0657
20
-45.0287
30
0.0000
0
VERTEX
70
9
10
-31.9131
20
-45.1007
30
0.0000
0
VERTEX
70
9
10
-31.7452
20
-45.1276
30
0.0000
0
VERTEX
70
9
10
-31.5769
20
-45.1069
30
0.0000
0
VERTEX
70
9
10
-31.4219
20
-45.0390
30
0.0000
0
VERTEX
70
9
10
-30.3040
20
-44.3494
30
0.0000
0
VERTEX
70
9
10
-30.2000
20
-44.3043
30
0.0000
0
VERTEX
70
9
10
-30.0866
20
-44.2904
30
0.0000
0
VERTEX
70
9
10
-29.9739
20
-44.3085
30
0.0000
0
VERTEX
70
9
10
-29.8713
20
-44.3582
30
0.0000
0
VERTEX
70
9
10
-29.0484
20
-44.9014
30
0.0000
0
VERTEX
70
9
10
-28.9624
20
-44.9762
30
0.0000
0
VERTEX
70
9
10
-28.9015
20
-45.0727
30
0.0000
0
VERTEX
70
9
10
-28.8697
20
-45.1824
30
0.0000
0
VERTEX
70
9
10
-28.8703
20
-45.2958
30
0.0000
0
VERTEX
70
9
10
-29.0651
20
-46.5948
30
0.0000
0
VERTEX
70
9
10
-29.0665
20
-46.7640
30
0.0000
0
VERTEX
70
9
10
-29.0195
20
-46.9269
30
0.0000
0
VERTEX
70
9
10
-28.9287
20
-47.0707
30
0.0000
0
VERTEX
70
9
10
-28.8025
20
-47.1827
30
0.0000
0
VERTEX
70
9
10
-27.9003
20
-47.7218
30
0.0000
0
VERTEX
70
9
10
-27.7418
20
-47.7798
30
0.0000
0
VERTEX
70
9
10
-27.5722
20
-47.7916
30
0.0000
0
VERTEX
70
9
10
-27.4064
20
-47.7558
30
0.0000
0
VERTEX
70
9
10
-27.2581
20
-47.6744
30
0.0000
0
VERTEX
70
9
10
-26.2066
20
-46.8873
30
0.0000
0
VERTEX
70
9
10
-26.1070
20
-46.8330
30
0.0000
0
VERTEX
70
9
10
-25.9953
20
-46.8091
30
0.0000
0
VERTEX
70
9
10
-25.8815
20
-46.8170
30
0.0000
0
VERTEX
70
9
10
-25.7748
20
-46.8573
30
0.0000
0
VERTEX
70
9
10
-24.9066
20
-47.3245
30
0.0000
0
VERTEX
70
9
10
-24.8142
20
-47.3913
30
0.0000
0
VERTEX
70
9
10
-24.7449
20
-47.4820
30
0.0000
0
VERTEX
70
9
10
-24.7033
20
-47.5884
30
0.0000
0
VERTEX
70
9
10
-24.6937
20
-47.7014
30
0.0000
0
VERTEX
70
9
10
-24.7713
20
-49.0126
30
0.0000
0
VERTEX
70
9
10
-24.7576
20
-49.1812
30
0.0000
0
VERTEX
70
9
10
-24.6961
20
-49.3392
30
0.0000
0
VERTEX
70
9
10
-24.5928
20
-49.4743
30
0.0000
0
VERTEX
70
9
10
-24.4571
20
-49.5746
30
0.0000
0
VERTEX
70
9
10
-23.5102
20
-50.0306
30
0.0000
0
VERTEX
70
9
10
-23.3472
20
-50.0742
30
0.0000
0
VERTEX
70
9
10
-23.1772
20
-50.0707
30
0.0000
0
VERTEX
70
9
10
-23.0153
20
-50.0203
30
0.0000
0
VERTEX
70
9
10
-22.8749
20
-49.9258
30
0.0000
0
VERTEX
70
9
10
-21.8982
20
-49.0477
30
0.0000
0
VERTEX
70
9
10
-21.8038
20
-48.9847
30
0.0000
0
VERTEX
70
9
10
-21.6947
20
-48.9508
30
0.0000
0
VERTEX
70
9
10
-21.5806
20
-48.9485
30
0.0000
0
VERTEX
70
9
10
-21.4708
20
-48.9791
30
0.0000
0
VERTEX
70
9
10
-20.5642
20
-49.3666
30
0.0000
0
VERTEX
70
9
10
-20.4662
20
-49.4248
30
0.0000
0
VERTEX
70
9
10
-20.3890
20
-49.5089
30
0.0000
0
VERTEX
70
9
10
-20.3381
20
-49.6112
30
0.0000
0
VERTEX
70
9
10
-20.3184
20
-49.7229
30
0.0000
0
VERTEX
70
9
10
-20.2782
20
-51.0357
30
0.0000
0
VERTEX
70
9
10
-20.2494
20
-51.2025
30
0.0000
0
VERTEX
70
9
10
-20.1740
20
-51.3543
30
0.0000
0
VERTEX
70
9
10
-20.0590
20
-51.4796
30
0.0000
0
VERTEX
70
9
10
-19.9149
20
-51.5673
30
0.0000
0
VERTEX
70
9
10
-18.9308
20
-51.9366
30
0.0000
0
VERTEX
70
9
10
-18.7646
20
-51.9654
30
0.0000
0
VERTEX
70
9
10
-18.5956
20
-51.9467
30
0.0000
0
VERTEX
70
9
10
-18.4389
20
-51.8820
30
0.0000
0
VERTEX
70
9
10
-18.3075
20
-51.7753
30
0.0000
0
VERTEX
70
9
10
-17.4134
20
-50.8132
30
0.0000
0
VERTEX
70
9
10
-17.3251
20
-50.7420
30
0.0000
0
VERTEX
70
9
10
-17.2195
20
-50.6985
30
0.0000
0
VERTEX
70
9
10
-17.1060
20
-50.6859
30
0.0000
0
VERTEX
70
9
10
-16.9939
20
-50.7066
30
0.0000
0
VERTEX
70
9
10
-16.0562
20
-51.0113
30
0.0000
0
VERTEX
70
9
10
-15.9534
20
-51.0604
30
0.0000
0
VERTEX
70
9
10
-15.8690
20
-51.1373
30
0.0000
0
VERTEX
70
9
10
-15.8091
20
-51.2345
30
0.0000
0
VERTEX
70
9
10
-15.7795
20
-51.3441
30
0.0000
0
VERTEX
70
9
10
-15.6217
20
-52.6480
30
0.0000
0
VERTEX
70
9
10
-15.5781
20
-52.8115
30
0.0000
0
VERTEX
70
9
10
-15.4894
20
-52.9560
30
0.0000
0
VERTEX
70
9
10
-15.3636
20
-53.0705
30
0.0000
0
VERTEX
70
9
10
-15.2122
20
-53.1449
30
0.0000
0
VERTEX
70
9
10
-14.1991
20
-53.4245
30
0.0000
0
VERTEX
70
9
10
-14.0309
20
-53.4383
30
0.0000
0
VERTEX
70
9
10
-13.8642
20
-53.4045
30
0.0000
0
VERTEX
70
9
10
-13.7140
20
-53.3260
30
0.0000
0
VERTEX
70
9
10
-13.5927
20
-53.2080
30
0.0000
0
VERTEX
70
9
10
-12.7884
20
-52.1695
30
0.0000
0
VERTEX
70
9
10
-12.7069
20
-52.0907
30
0.0000
0
VERTEX
70
9
10
-12.6056
20
-52.0379
30
0.0000
0
VERTEX
70
9
10
-12.4937
20
-52.0152
30
0.0000
0
VERTEX
70
9
10
-12.3802
20
-52.0258
30
0.0000
0
VERTEX
70
9
10
-11.4189
20
-52.2452
30
0.0000
0
VERTEX
70
9
10
-11.3121
20
-52.2849
30
0.0000
0
VERTEX
70
9
10
-11.2212
20
-52.3539
30
0.0000
0
VERTEX
70
9
10
-11.1528
20
-52.4454
30
0.0000
0
VERTEX
70
9
10
-11.1135
20
-52.5518
30
0.0000
0
VERTEX
70
9
10
-10.8395
20
-53.8364
30
0.0000
0
VERTEX
70
9
10
-10.7814
20
-53.9953
30
0.0000
0
VERTEX
70
9
10
-10.6801
20
-54.1313
30
0.0000
0
VERTEX
70
9
10
-10.5446
20
-54.2340
30
0.0000
0
VERTEX
70
9
10
-10.3871
20
-54.2946
30
0.0000
0
VERTEX
70
9
10
-9.3530
20
-54.4822
30
0.0000
0
VERTEX
70
9
10
-9.1843
20
-54.4809
30
0.0000
0
VERTEX
70
9
10
-9.0213
20
-54.4323
30
0.0000
0
VERTEX
70
9
10
-8.8787
20
-54.3406
30
0.0000
0
VERTEX
70
9
10
-8.7684
20
-54.2122
30
0.0000
0
VERTEX
70
9
10
-8.0605
20
-53.1059
30
0.0000
0
VERTEX
70
9
10
-7.9863
20
-53.0200
30
0.0000
0
VERTEX
70
9
10
-7.8902
20
-52.9584
30
0.0000
0
VERTEX
70
9
10
-7.7808
20
-52.9258
30
0.0000
0
VERTEX
70
9
10
-7.6668
20
-52.9261
30
0.0000
0
VERTEX
70
9
10
-6.6898
20
-53.0584
30
0.0000
0
VERTEX
70
9
10
-6.5798
20
-53.0885
30
0.0000
0
VERTEX
70
9
10
-6.4830
20
-53.1490
30
0.0000
0
VERTEX
70
9
10
-6.4068
20
-53.2340
30
0.0000
0
VERTEX
70
9
10
-6.3581
20
-53.3365
30
0.0000
0
VERTEX
70
9
10
-5.9700
20
-54.5913
30
0.0000
0
VERTEX
70
9
10
-5.8979
20
-54.7444
30
0.0000
0
VERTEX
70
9
10
-5.7848
20
-54.8707
30
0.0000
0
VERTEX
70
9
10
-5.6406
20
-54.9609
30
0.0000
0
VERTEX
70
9
10
-5.4784
20
-55.0071
30
0.0000
0
VERTEX
70
9
10
-4.4316
20
-55.1013
30
0.0000
0
VERTEX
70
9
10
-4.2637
20
-55.0848
30
0.0000
0
VERTEX
70
9
10
-4.1057
20
-55.0218
30
0.0000
0
VERTEX
70
9
10
-3.9719
20
-54.9177
30
0.0000
0
VERTEX
70
9
10
-3.8736
20
-54.7800
30
0.0000
0
VERTEX
70
9
10
-3.2677
20
-53.6146
30
0.0000
0
VERTEX
70
9
10
-3.2015
20
-53.5225
30
0.0000
0
VERTEX
70
9
10
-3.1113
20
-53.4525
30
0.0000
0
VERTEX
70
9
10
-3.0053
20
-53.4102
30
0.0000
0
VERTEX
70
9
10
-2.8917
20
-53.4003
30
0.0000
0
VERTEX
70
9
10
-1.9067
20
-53.4445
30
0.0000
0
VERTEX
70
9
10
-1.7945
20
-53.4646
30
0.0000
0
VERTEX
70
9
10
-1.6927
20
-53.5162
30
0.0000
0
VERTEX
70
9
10
-1.6091
20
-53.5940
30
0.0000
0
VERTEX
70
9
10
-1.5514
20
-53.6917
30
0.0000
0
VERTEX
70
9
10
-1.0524
20
-54.9067
30
0.0000
0
VERTEX
70
9
10
-0.9669
20
-55.0527
30
0.0000
0
VERTEX
70
9
10
-0.8430
20
-55.1684
30
0.0000
0
VERTEX
70
9
10
-0.6913
20
-55.2453
30
0.0000
0
VERTEX
70
9
10
-0.5255
20
-55.2767
30
0.0000
0
VERTEX
70
9
10
0.5255
20
-55.2767
30
0.0000
0
VERTEX
70
9
10
0.6913
20
-55.2453
30
0.0000
0
VERTEX
70
9
10
0.8430
20
-55.1684
30
0.0000
0
VERTEX
70
9
10
0.9669
20
-55.0527
30
0.0000
0
VERTEX
70
9
10
1.0524
20
-54.9067
30
0.0000
0
VERTEX
70
9
10
1.5514
20
-53.6917
30
0.0000
0
VERTEX
70
9
10
1.6091
20
-53.5940
30
0.0000
0
VERTEX
70
9
10
1.6927
20
-53.5162
30
0.0000
0
VERTEX
70
9
10
1.7945
20
-53.4646
30
0.0000
0
VERTEX
70
9
10
1.9067
20
-53.4445
30
0.0000
0
VERTEX
70
9
10
2.8917
20
-53.4003
30
0.0000
0
VERTEX
70
9
10
3.0053
20
-53.4102
30
0.0000
0
VERTEX
70
9
10
3.1113
20
-53.4525
30
0.0000
0
VERTEX
70
9
10
3.2015
20
-53.5225
30
0.0000
0
VERTEX
70
9
10
3.2677
20
-53.6146
30
0.0000
0
VERTEX
70
9
10
3.8736
20
-54.7800
30
0.0000
0
VERTEX
70
9
10
3.9719
20
-54.9177
30
0.0000
0
VERTEX
70
9
10
4.1057
20
-55.0218
30
0.0000
0
VERTEX
70
9
10
4.2637
20
-55.0848
30
0.0000
0
VERTEX
70
9
10
4.4316
20
-55.1013
30
0.0000
0
VERTEX
70
9
10
5.4784
20
-55.0071
30
0.0000
0
VERTEX
70
9
10
5.6406
20
-54.9609
30
0.0000
0
VERTEX
70
9
10
5.7848
20
-54.8707
30
0.0000
0
VERTEX
70
9
10
5.8979
20
-54.7444
30
0.0000
0
VERTEX
70
9
10
5.9700
20
-54.5913
30
0.0000
0
VERTEX
70
9
10
6.3581
20
-53.3365
30
0.0000
0
VERTEX
70
9
10
6.4068
20
-53.2340
30
0.0000
0
VERTEX
70
9
10
6.4830
20
-53.1490
30
0.0000
0
VERTEX
70
9
10
6.5798
20
-53.0885
30
0.0000
0
VERTEX
70
9
10
6.6898
20
-53.0584
30
0.0000
0
VERTEX
70
9
10
7.6668
20
-52.9261
30
0.0000
0
VERTEX
70
9
10
7.7808
20
-52.9258
30
0.0000
0
VERTEX
70
9
10
7.8902
20
-52.9584
30
0.0000
0
VERTEX
70
9
10
7.9863
20
-53.0200
30
0.0000
0
VERTEX
70
9
10
8.0605
20
-53.1059
30
0.0000
0
VERTEX
70
9
10
8.7684
20
-54.2122
30
0.0000
0
VERTEX
70
9
10
8.8787
20
-54.3406
30
0.0000
0
VERTEX
70
9
10
9.0213
20
-54.4323
30
0.0000
0
VERTEX
70
9
10
9.1843
20
-54.4809
30
0.0000
0
VERTEX
70
9
10
9.3530
20
-54.4822
30
0.0000
0
VERTEX
70
9
10
10.3871
20
-54.2946
30
0.0000
0
VERTEX
70
9
10
10.5446
20
-54.2340
30
0.0000
0
VERTEX
70
9
10
10.6801
20
-54.1313
30
0.0000
0
VERTEX
70
9
10
10.7814
20
-53.9953
30
0.0000
0
VERTEX
70
9
10
10.8395
20
-53.8364
30
0.0000
0
VERTEX
70
9
10
11.1135
20
-52.5518
30
0.0000
0
VERTEX
70
9
10
11.1528
20
-52.4454
30
0.0000
0
VERTEX
70
9
10
11.2212
20
-52.3539
30
0.0000
0
VERTEX
70
9
10
11.3121
20
-52.2849
30
0.0000
0
VERTEX
70
9
10
11.4189
20
-52.2452
30
0.0000
0
VERTEX
70
9
10
12.3802
20
-52.0258
30
0.0000
0
VERTEX
70
9
10
12.4937
20
-52.0152
30
0.0000
0
VERTEX
70
9
10
12.6056
20
-52.0379
30
0.0000
0
VERTEX
70
9
10
12.7069
20
-52.0907
30
0.0000
0
VERTEX
70
9
10
12.7884
20
-52.1695
30
0.0000
0
VERTEX
70
9
10
13.5927
20
-53.2080
30
0.0000
0
VERTEX
70
9
10
13.7140
20
-53.3260
30
0.0000
0
VERTEX
70
9
10
13.8642
20
-53.4045
30
0.0000
0
VERTEX
70
9
10
14.0309
20
-53.4383
30
0.0000
0
VERTEX
70
9
10
14.1991
20
-53.4245
30
0.0000
0
VERTEX
70
9
10
15.2122
20
-53.1449
30
0.0000
0
VERTEX
70
9
10
15.3636
20
-53.0705
30
0.0000
0
VERTEX
70
9
10
15.4894
20
-52.9560
30
0.0000
0
VERTEX
70
9
10
15.5781
20
-52.8115
30
0.0000
0
VERTEX
70
9
10
15.6217
20
-52.6480
30
0.0000
0
VERTEX
70
9
10
15.7795
20
-51.3441
30
0.0000
0
VERTEX
70
9
10
15.8091
20
-51.2345
30
0.0000
0
VERTEX
70
9
10
15.8690
20
-51.1373
30
0.0000
0
VERTEX
70
9
10
15.9534
20
-51.0604
30
0.0000
0
VERTEX
70
9
10
16.0562
20
-51.0113
30
0.0000
0
VERTEX
70
9
10
16.9939
20
-50.7066
30
0.0000
0
VERTEX
70
9
10
17.1060
20
-50.6859
30
0.0000
0
VERTEX
70
9
10
17.2195
20
-50.6985
30
0.0000
0
VERTEX
70
9
10
17.3251
20
-50.7420
30
0.0000
0
VERTEX
70
9
10
17.4134
20
-50.8132
30
0.0000
0
VERTEX
70
9
10
18.3075
20
-51.7753
30
0.0000
0
VERTEX
70
9
10
18.4389
20
-51.8820
30
0.0000
0
VERTEX
70
9
10
18.5956
20
-51.9467
30
0.0000
0
VERTEX
70
9
10
18.7646
20
-51.9654
30
0.0000
0
VERTEX
70
9
10
18.9308
20
-51.9366
30
0.0000
0
VERTEX
70
9
10
19.9149
20
-51.5673
30
0.0000
0
VERTEX
70
9
10
20.0590
20
-51.4796
30
0.0000
0
VERTEX
70
9
10
20.1740
20
-51.3543
30
0.0000
0
VERTEX
70
9
10
20.2494
20
-51.2025
30
0.0000
0
VERTEX
70
9
10
20.2782
20
-51.0357
30
0.0000
0
VERTEX
70
9
10
20.3184
20
-49.7229
30
0.0000
0
VERTEX
70
9
10
20.3381
20
-49.6112
30
0.0000
0
VERTEX
70
9
10
20.3890
20
-49.5089
30
0.0000
0
VERTEX
70
9
10
20.4662
20
-49.4248
30
0.0000
0
VERTEX
70
9
10
20.5642
20
-49.3666
30
0.0000
0
VERTEX
70
9
10
21.4708
20
-48.9791
30
0.0000
0
VERTEX
70
9
10
21.5806
20
-48.9485
30
0.0000
0
VERTEX
70
9
10
21.6947
20
-48.9508
30
0.0000
0
VERTEX
70
9
10
21.8038
20
-48.9847
30
0.0000
0
VERTEX
70
9
10
21.8982
20
-49.0477
30
0.0000
0
VERTEX
70
9
10
22.8749
20
-49.9258
30
0.0000
0
VERTEX
70
9
10
23.0153
20
-50.0203
30
0.0000
0
VERTEX
70
9
10
23.1772
20
-50.0707
30
0.0000
0
VERTEX
70
9
10
23.3472
20
-50.0742
30
0.0000
0
VERTEX
70
9
10
23.5102
20
-50.0306
30
0.0000
0
VERTEX
70
9
10
24.4571
20
-49.5746
30
0.0000
0
VERTEX
70
9
10
24.5928
20
-49.4743
30
0.0000
0
VERTEX
70
9
10
24.6961
20
-49.3392
30
0.0000
0
VERTEX
70
9
10
24.7576
20
-49.1812
30
0.0000
0
VERTEX
70
9
10
24.7713
20
-49.0126
30
0.0000
0
VERTEX
70
9
10
24.6937
20
-47.7014
30
0.0000
0
VERTEX
70
9
10
24.7033
20
-47.5884
30
0.0000
0
VERTEX
70
9
10
24.7449
20
-47.4820
30
0.0000
0
VERTEX
70
9
10
24.8142
20
-47.3913
30
0.0000
0
VERTEX
70
9
10
24.9066
20
-47.3245
30
0.0000
0
VERTEX
70
9
10
25.7748
20
-46.8573
30
0.0000
0
VERTEX
70
9
10
25.8815
20
-46.8170
30
0.0000
0
VERTEX
70
9
10
25.9953
20
-46.8091
30
0.0000
0
VERTEX
70
9
10
26.1070
20
-46.8330
30
0.0000
0
VERTEX
70
9
10
26.2066
20
-46.8873
30
0.0000
0
VERTEX
70
9
10
27.2581
20
-47.6744
30
0.0000
0
VERTEX
70
9
10
27.4064
20
-47.7558
30
0.0000
0
VERTEX
70
9
10
27.5722
20
-47.7916
30
0.0000
0
VERTEX
70
9
10
27.7418
20
-47.7798
30
0.0000
0
VERTEX
70
9
10
27.9003
20
-47.7218
30
0.0000
0
VERTEX
70
9
10
28.8025
20
-47.1827
30
0.0000
0
VERTEX
70
9
10
28.9287
20
-47.0707
30
0.0000
0
VERTEX
70
9
10
29.0195
20
-46.9269
30
0.0000
0
VERTEX
70
9
10
29.0665
20
-46.7640
30
0.0000
0
VERTEX
70
9
10
29.0651
20
-46.5948
30
0.0000
0
VERTEX
70
9
10
28.8703
20
-45.2958
30
0.0000
0
VERTEX
70
9
10
28.8697
20
-45.1824
30
0.0000
0
VERTEX
70
9
10
28.9015
20
-45.0727
30
0.0000
0
VERTEX
70
9
10
28.9624
20
-44.9762
30
0.0000
0
VERTEX
70
9
10
29.0484
20
-44.9014
30
0.0000
0
VERTEX
70
9
10
29.8713
20
-44.3582
30
0.0000
0
VERTEX
70
9
10
29.9739
20
-44.3085
30
0.0000
0
VERTEX
70
9
10
30.0866
20
-44.2904
30
0.0000
0
VERTEX
70
9
10
30.2000
20
-44.3043
30
0.0000
0
VERTEX
70
9
10
30.3040
20
-44.3494
30
0.0000
0
VERTEX
70
9
10
31.4219
20
-45.0390
30
0.0000
0
VERTEX
70
9
10
31.5769
20
-45.1069
30
0.0000
0
VERTEX
70
9
10
31.7452
20
-45.1276
30
0.0000
0
VERTEX
70
9
10
31.9131
20
-45.1007
30
0.0000
0
VERTEX
70
9
10
32.0657
20
-45.0287
30
0.0000
0
VERTEX
70
9
10
32.9160
20
-44.4109
30
0.0000
0
VERTEX
70
9
10
33.0316
20
-44.2880
30
0.0000
0
VERTEX
70
9
10
33.1091
20
-44.1367
30
0.0000
0
VERTEX
70
9
10
33.1414
20
-43.9702
30
0.0000
0
VERTEX
70
9
10
33.1248
20
-43.8018
30
0.0000
0
VERTEX
70
9
10
32.8143
20
-42.5256
30
0.0000
0
VERTEX
70
9
10
32.8036
20
-42.4127
30
0.0000
0
VERTEX
70
9
10
32.8254
20
-42.3006
30
0.0000
0
VERTEX
70
9
10
32.8774
20
-42.1990
30
0.0000
0
VERTEX
70
9
10
32.9564
20
-42.1168
30
0.0000
0
VERTEX
70
9
10
33.7273
20
-41.5020
30
0.0000
0
VERTEX
70
9
10
33.8250
20
-41.4433
30
0.0000
0
VERTEX
70
9
10
33.9356
20
-41.4152
30
0.0000
0
VERTEX
70
9
10
34.0498
20
-41.4188
30
0.0000
0
VERTEX
70
9
10
34.1575
20
-41.4544
30
0.0000
0
VERTEX
70
9
10
35.3327
20
-42.0411
30
0.0000
0
VERTEX
70
9
10
35.4931
20
-42.0948
30
0.0000
0
VERTEX
70
9
10
35.6626
20
-42.1003
30
0.0000
0
VERTEX
70
9
10
35.8274
20
-42.0584
30
0.0000
0
VERTEX
70
9
10
35.9730
20
-41.9731
30
0.0000
0
VERTEX
70
9
10
36.7644
20
-41.2816
30
0.0000
0
VERTEX
70
9
10
36.8686
20
-41.1488
30
0.0000
0
VERTEX
70
9
10
36.9322
20
-40.9911
30
0.0000
0
VERTEX
70
9
10
36.9494
20
-40.8224
30
0.0000
0
VERTEX
70
9
10
36.9178
20
-40.6562
30
0.0000
0
VERTEX
70
9
10
36.4942
20
-39.4129
30
0.0000
0
VERTEX
70
9
10
36.4733
20
-39.3014
30
0.0000
0
VERTEX
70
9
10
36.4851
20
-39.1878
30
0.0000
0
VERTEX
70
9
10
36.5278
20
-39.0820
30
0.0000
0
VERTEX
70
9
10
36.5991
20
-38.9930
30
0.0000
0
VERTEX
70
9
10
37.3118
20
-38.3117
30
0.0000
0
VERTEX
70
9
10
37.4038
20
-38.2444
30
0.0000
0
VERTEX
70
9
10
37.5115
20
-38.2065
30
0.0000
0
VERTEX
70
9
10
37.6255
20
-38.1999
30
0.0000
0
VERTEX
70
9
10
37.7359
20
-38.2257
30
0.0000
0
VERTEX
70
9
10
38.9590
20
-38.7046
30
0.0000
0
VERTEX
70
9
10
39.1236
20
-38.7437
30
0.0000
0
VERTEX
70
9
10
39.2929
20
-38.7341
30
0.0000
0
VERTEX
70
9
10
39.4533
20
-38.6776
30
0.0000
0
VERTEX
70
9
10
39.5906
20
-38.5795
30
0.0000
0
VERTEX
70
9
10
40.3169
20
-37.8198
30
0.0000
0
VERTEX
70
9
10
40.4087
20
-37.6783
30
0.0000
0
VERTEX
70
9
10
40.4580
20
-37.5155
30
0.0000
0
VERTEX
70
9
10
40.4600
20
-37.3460
30
0.0000
0
VERTEX
70
9
10
40.4136
20
-37.1833
30
0.0000
0
VERTEX
70
9
10
39.8802
20
-35.9830
30
0.0000
0
VERTEX
70
9
10
39.8495
20
-35.8738
30
0.0000
0
VERTEX
70
9
10
39.8510
20
-35.7596
30
0.0000
0
VERTEX
70
9
10
39.8840
20
-35.6503
30
0.0000
0
VERTEX
70
9
10
39.9471
20
-35.5553
30
0.0000
0
VERTEX
70
9
10
40.5958
20
-34.8128
30
0.0000
0
VERTEX
70
9
10
40.6814
20
-34.7376
30
0.0000
0
VERTEX
70
9
10
40.7852
20
-34.6902
30
0.0000
0
VERTEX
70
9
10
40.8982
20
-34.6734
30
0.0000
0
VERTEX
70
9
10
41.0106
20
-34.6892
30
0.0000
0
VERTEX
70
9
10
42.2716
20
-35.0566
30
0.0000
0
VERTEX
70
9
10
42.4391
20
-35.0807
30
0.0000
0
VERTEX
70
9
10
42.6068
20
-35.0560
30
0.0000
0
VERTEX
70
9
10
42.7615
20
-34.9853
30
0.0000
0
VERTEX
70
9
10
42.8894
20
-34.8753
30
0.0000
0
VERTEX
70
9
10
43.5447
20
-34.0536
30
0.0000
0
VERTEX
70
9
10
43.6235
20
-33.9044
30
0.0000
0
VERTEX
70
9
10
43.6579
20
-33.7379
30
0.0000
0
VERTEX
70
9
10
43.6448
20
-33.5688
30
0.0000
0
VERTEX
70
9
10
43.5839
20
-33.4109
30
0.0000
0
VERTEX
70
9
10
42.9452
20
-32.2633
30
0.0000
0
VERTEX
70
9
10
42.9047
20
-32.1573
30
0.0000
0
VERTEX
70
9
10
42.8960
20
-32.0434
30
0.0000
0
VERTEX
70
9
10
42.9191
20
-31.9316
30
0.0000
0
VERTEX
70
9
10
42.9734
20
-31.8314
30
0.0000
0
VERTEX
70
9
10
43.5530
20
-31.0337
30
0.0000
0
VERTEX
70
9
10
43.6315
20
-30.9511
30
0.0000
0
VERTEX
70
9
10
43.7307
20
-30.8946
30
0.0000
0
VERTEX
70
9
10
43.8417
20
-30.8677
30
0.0000
0
VERTEX
70
9
10
43.9550
20
-30.8734
30
0.0000
0
VERTEX
70
9
10
45.2439
20
-31.1263
30
0.0000
0
VERTEX
70
9
10
45.4128
20
-31.1353
30
0.0000
0
VERTEX
70
9
10
45.5777
20
-31.0956
30
0.0000
0
VERTEX
70
9
10
45.7254
20
-31.0114
30
0.0000
0
VERTEX
70
9
10
45.8430
20
-30.8904
30
0.0000
0
VERTEX
70
9
10
46.4220
20
-30.0132
30
0.0000
0
VERTEX
70
9
10
46.4870
20
-29.8575
30
0.0000
0
VERTEX
70
9
10
46.5064
20
-29.6886
30
0.0000
0
VERTEX
70
9
10
46.4782
20
-29.5214
30
0.0000
0
VERTEX
70
9
10
46.4034
20
-29.3696
30
0.0000
0
VERTEX
70
9
10
45.6643
20
-28.2838
30
0.0000
0
VERTEX
70
9
10
45.6146
20
-28.1819
30
0.0000
0
VERTEX
70
9
10
45.5957
20
-28.0692
30
0.0000
0
VERTEX
70
9
10
45.6087
20
-27.9558
30
0.0000
0
VERTEX
70
9
10
45.6537
20
-27.8511
30
0.0000
0
VERTEX
70
9
10
46.1595
20
-27.0047
30
0.0000
0
VERTEX
70
9
10
46.2303
20
-26.9154
30
0.0000
0
VERTEX
70
9
10
46.3240
20
-26.8502
30
0.0000
0
VERTEX
70
9
10
46.4321
20
-26.8135
30
0.0000
0
VERTEX
70
9
10
46.5455
20
-26.8090
30
0.0000
0
VERTEX
70
9
10
47.8519
20
-26.9453
30
0.0000
0
VERTEX
70
9
10
48.0210
20
-26.9392
30
0.0000
0
VERTEX
70
9
10
48.1816
20
-26.8849
30
0.0000
0
VERTEX
70
9
10
48.3212
20
-26.7877
30
0.0000
0
VERTEX
70
9
10
48.4274
20
-26.6567
30
0.0000
0
VERTEX
70
9
10
48.9255
20
-25.7311
30
0.0000
0
VERTEX
70
9
10
48.9763
20
-25.5703
30
0.0000
0
VERTEX
70
9
10
48.9805
20
-25.4002
30
0.0000
0
VERTEX
70
9
10
48.9373
20
-25.2363
30
0.0000
0
VERTEX
70
9
10
48.8493
20
-25.0918
30
0.0000
0
VERTEX
70
9
10
48.0158
20
-24.0766
30
0.0000
0
VERTEX
70
9
10
47.9571
20
-23.9795
30
0.0000
0
VERTEX
70
9
10
47.9282
20
-23.8691
30
0.0000
0
VERTEX
70
9
10
47.9310
20
-23.7550
30
0.0000
0
VERTEX
70
9
10
47.9665
20
-23.6466
30
0.0000
0
VERTEX
70
9
10
48.3943
20
-22.7583
30
0.0000
0
VERTEX
70
9
10
48.4569
20
-22.6630
30
0.0000
0
VERTEX
70
9
10
48.5443
20
-22.5897
30
0.0000
0
VERTEX
70
9
10
48.6488
20
-22.5434
30
0.0000
0
VERTEX
70
9
10
48.7612
20
-22.5288
30
0.0000
0
VERTEX
70
9
10
50.0746
20
-22.5474
30
0.0000
0
VERTEX
70
9
10
50.2424
20
-22.5262
30
0.0000
0
VERTEX
70
9
10
50.3975
20
-22.4577
30
0.0000
0
VERTEX
70
9
10
50.5279
20
-22.3484
30
0.0000
0
VERTEX
70
9
10
50.6219
20
-22.2084
30
0.0000
0
VERTEX
70
9
10
51.0350
20
-21.2419
30
0.0000
0
VERTEX
70
9
10
51.0712
20
-21.0771
30
0.0000
0
VERTEX
70
9
10
51.0601
20
-20.9074
30
0.0000
0
VERTEX
70
9
10
51.0025
20
-20.7480
30
0.0000
0
VERTEX
70
9
10
50.9018
20
-20.6119
30
0.0000
0
VERTEX
70
9
10
49.9808
20
-19.6756
30
0.0000
0
VERTEX
70
9
10
49.9136
20
-19.5842
30
0.0000
0
VERTEX
70
9
10
49.8749
20
-19.4767
30
0.0000
0
VERTEX
70
9
10
49.8674
20
-19.3628
30
0.0000
0
VERTEX
70
9
10
49.8931
20
-19.2518
30
0.0000
0
VERTEX
70
9
10
50.2395
20
-18.3286
30
0.0000
0
VERTEX
70
9
10
50.2933
20
-18.2281
30
0.0000
0
VERTEX
70
9
10
50.3738
20
-18.1473
30
0.0000
0
VERTEX
70
9
10
50.4737
20
-18.0918
30
0.0000
0
VERTEX
70
9
10
50.5844
20
-18.0671
30
0.0000
0
VERTEX
70
9
10
51.8941
20
-17.9680
30
0.0000
0
VERTEX
70
9
10
52.0594
20
-17.9318
30
0.0000
0
VERTEX
70
9
10
52.2077
20
-17.8497
30
0.0000
0
VERTEX
70
9
10
52.3277
20
-17.7292
30
0.0000
0
VERTEX
70
9
10
52.4089
20
-17.5812
30
0.0000
0
VERTEX
70
9
10
52.7337
20
-16.5817
30
0.0000
0
VERTEX
70
9
10
52.7550
20
-16.4143
30
0.0000
0
VERTEX
70
9
10
52.7287
20
-16.2463
30
0.0000
0
VERTEX
70
9
10
52.6570
20
-16.0926
30
0.0000
0
VERTEX
70
9
10
52.5446
20
-15.9662
30
0.0000
0
VERTEX
70
9
10
51.5432
20
-15.1161
30
0.0000
0
VERTEX
70
9
10
51.4682
20
-15.0311
30
0.0000
0
VERTEX
70
9
10
51.4200
20
-14.9276
30
0.0000
0
VERTEX
70
9
10
51.4023
20
-14.8148
30
0.0000
0
VERTEX
70
9
10
51.4179
20
-14.7019
30
0.0000
0
VERTEX
70
9
10
51.6803
20
-13.7514
30
0.0000
0
VERTEX
70
9
10
51.7248
20
-13.6465
30
0.0000
0
VERTEX
70
9
10
51.7978
20
-13.5587
30
0.0000
0
VERTEX
70
9
10
51.8922
20
-13.4946
30
0.0000
0
VERTEX
70
9
10
52.0003
20
-13.4601
30
0.0000
0
VERTEX
70
9
10
53.2959
20
-13.2439
30
0.0000
0
VERTEX
70
9
10
53.4572
20
-13.1930
30
0.0000
0
VERTEX
70
9
10
53.5976
20
-13.0979
30
0.0000
0
VERTEX
70
9
10
53.7063
20
-12.9672
30
0.0000
0
VERTEX
70
9
10
53.7739
20
-12.8126
30
0.0000
0
VERTEX
70
9
10
54.0078
20
-11.7879
30
0.0000
0
VERTEX
70
9
10
54.0140
20
-11.6193
30
0.0000
0
VERTEX
70
9
10
53.9728
20
-11.4543
30
0.0000
0
VERTEX
70
9
10
53.8875
20
-11.3077
30
0.0000
0
VERTEX
70
9
10
53.7642
20
-11.1918
30
0.0000
0
VERTEX
70
9
10
52.6908
20
-10.4350
30
0.0000
0
VERTEX
70
9
10
52.6083
20
-10.3570
30
0.0000
0
VERTEX
70
9
10
52.5511
20
-10.2582
30
0.0000
0
VERTEX
70
9
10
52.5234
20
-10.1475
30
0.0000
0
VERTEX
70
9
10
52.5288
20
-10.0336
30
0.0000
0
VERTEX
70
9
10
52.7049
20
-9.0635
30
0.0000
0
VERTEX
70
9
10
52.7398
20
-8.9550
30
0.0000
0
VERTEX
70
9
10
52.8046
20
-8.8610
30
0.0000
0
VERTEX
70
9
10
52.8930
20
-8.7886
30
0.0000
0
VERTEX
70
9
10
52.9975
20
-8.7446
30
0.0000
0
VERTEX
70
9
10
54.2685
20
-8.4132
30
0.0000
0
VERTEX
70
9
10
54.4246
20
-8.3481
30
0.0000
0
VERTEX
70
9
10
54.5559
20
-8.2408
30
0.0000
0
VERTEX
70
9
10
54.6525
20
-8.1008
30
0.0000
0
VERTEX
70
9
10
54.7059
20
-7.9407
30
0.0000
0
VERTEX
70
9
10
54.8470
20
-6.8992
30
0.0000
0
VERTEX
70
9
10
54.8381
20
-6.7307
30
0.0000
0
VERTEX
70
9
10
54.7822
20
-6.5701
30
0.0000
0
VERTEX
70
9
10
54.6842
20
-6.4317
30
0.0000
0
VERTEX
70
9
10
54.5510
20
-6.3274
30
0.0000
0
VERTEX
70
9
10
53.4140
20
-5.6698
30
0.0000
0
VERTEX
70
9
10
53.3250
20
-5.5996
30
0.0000
0
VERTEX
70
9
10
53.2591
20
-5.5063
30
0.0000
0
VERTEX
70
9
10
53.2216
20
-5.3985
30
0.0000
0
VERTEX
70
9
10
53.2168
20
-5.2846
30
0.0000
0
VERTEX
70
9
10
53.3051
20
-4.3026
30
0.0000
0
VERTEX
70
9
10
53.3302
20
-4.1914
30
0.0000
0
VERTEX
70
9
10
53.3863
20
-4.0920
30
0.0000
0
VERTEX
70
9
10
53.4678
20
-4.0120
30
0.0000
0
VERTEX
70
9
10
53.5680
20
-3.9587
30
0.0000
0
VERTEX
70
9
10
54.8042
20
-3.5148
30
0.0000
0
VERTEX
70
9
10
54.9539
20
-3.4359
30
0.0000
0
VERTEX
70
9
10
55.0750
20
-3.3172
30
0.0000
0
VERTEX
70
9
10
55.1586
20
-3.1691
30
0.0000
0
VERTEX
70
9
10
55.1975
20
-3.0050
30
0.0000
0
SEQEND
0
POINT
8
Pully70.dxf
62
0
10
-75.3150
20
0.0000
30
0.0000
0
CIRCLE
8
Pulley
62
1
10
-75.3150
20
0.0000
30
0.0000
40
9.6243
0
CIRCLE
8
Pulley
62
2
10
-75.3150
20
0.0000
30
0.0000
40
10.6243
0
CIRCLE
8
Pulley
62
2
10
-75.3150
20
0.0000
30
0.0000
40
9.1243
0
CIRCLE
8
Pulley
62
0
10
-75.3150
20
0.0000
30
0.0000
40
7.3243
0
POLYLINE
8
Pully70.dxf
62
0
70
9
66
1
0
VERTEX
70
9
10
-66.3950
20
-1.9550
30
0.0000
0
VERTEX
70
9
10
-66.4185
20
-1.7880
30
0.0000
0
VERTEX
70
9
10
-66.4873
20
-1.6330
30
0.0000
0
VERTEX
70
9
10
-66.5953
20
-1.5040
30
0.0000
0
VERTEX
70
9
10
-66.7348
20
-1.4120
30
0.0000
0
VERTEX
70
9
10
-67.7627
20
-0.8590
30
0.0000
0
VERTEX
70
9
10
-67.8577
20
-0.7970
30
0.0000
0
VERTEX
70
9
10
-67.9317
20
-0.7100
30
0.0000
0
VERTEX
70
9
10
-67.9787
20
-0.6060
30
0.0000
0
VERTEX
70
9
10
-67.9937
20
-0.4930
30
0.0000
0
VERTEX
70
9
10
-67.9937
20
0.4930
30
0.0000
0
VERTEX
70
9
10
-67.9787
20
0.6060
30
0.0000
0
VERTEX
70
9
10
-67.9317
20
0.7100
30
0.0000
0
VERTEX
70
9
10
-67.8577
20
0.7970
30
0.0000
0
VERTEX
70
9
10
-67.7627
20
0.8590
30
0.0000
0
VERTEX
70
9
10
-66.7348
20
1.4120
30
0.0000
0
VERTEX
70
9
10
-66.5953
20
1.5040
30
0.0000
0
VERTEX
70
9
10
-66.4873
20
1.6330
30
0.0000
0
VERTEX
70
9
10
-66.4185
20
1.7880
30
0.0000
0
VERTEX
70
9
10
-66.3950
20
1.9550
30
0.0000
0
VERTEX
70
9
10
-66.6125
20
2.7669
30
0.0000
0
VERTEX
70
9
10
-66.7164
20
2.8998
30
0.0000
0
VERTEX
70
9
10
-66.8535
20
2.9996
30
0.0000
0
VERTEX
70
9
10
-67.0115
20
3.0573
30
0.0000
0
VERTEX
70
9
10
-67.1783
20
3.0673
30
0.0000
0
VERTEX
70
9
10
-68.3450
20
3.0322
30
0.0000
0
VERTEX
70
9
10
-68.4583
20
3.0384
30
0.0000
0
VERTEX
70
9
10
-68.5659
20
3.0768
30
0.0000
0
VERTEX
70
9
10
-68.6586
20
3.1433
30
0.0000
0
VERTEX
70
9
10
-68.7281
20
3.2337
30
0.0000
0
VERTEX
70
9
10
-69.2211
20
4.0876
30
0.0000
0
VERTEX
70
9
10
-69.2646
20
4.1930
30
0.0000
0
VERTEX
70
9
10
-69.2759
20
4.3065
30
0.0000
0
VERTEX
70
9
10
-69.2553
20
4.4189
30
0.0000
0
VERTEX
70
9
10
-69.2040
20
4.5201
30
0.0000
0
VERTEX
70
9
10
-68.5903
20
5.5130
30
0.0000
0
VERTEX
70
9
10
-68.5155
20
5.6624
30
0.0000
0
VERTEX
70
9
10
-68.4865
20
5.8281
30
0.0000
0
VERTEX
70
9
10
-68.5044
20
5.9967
30
0.0000
0
VERTEX
70
9
10
-68.5675
20
6.1531
30
0.0000
0
VERTEX
70
9
10
-69.1619
20
6.7475
30
0.0000
0
VERTEX
70
9
10
-69.3183
20
6.8106
30
0.0000
0
VERTEX
70
9
10
-69.4869
20
6.8285
30
0.0000
0
VERTEX
70
9
10
-69.6526
20
6.7995
30
0.0000
0
VERTEX
70
9
10
-69.8020
20
6.7247
30
0.0000
0
VERTEX
70
9
10
-70.7949
20
6.1110
30
0.0000
0
VERTEX
70
9
10
-70.8961
20
6.0597
30
0.0000
0
VERTEX
70
9
10
-71.0085
20
6.0391
30
0.0000
0
VERTEX
70
9
10
-71.1220
20
6.0504
30
0.0000
0
VERTEX
70
9
10
-71.2274
20
6.0939
30
0.0000
0
VERTEX
70
9
10
-72.0813
20
6.5869
30
0.0000
0
VERTEX
70
9
10
-72.1717
20
6.6564
30
0.0000
0
VERTEX
70
9
10
-72.2382
20
6.7491
30
0.0000
0
VERTEX
70
9
10
-72.2766
20
6.8567
30
0.0000
0
VERTEX
70
9
10
-72.2828
20
6.9700
30
0.0000
0
VERTEX
70
9
10
-72.2477
20
8.1367
30
0.0000
0
VERTEX
70
9
10
-72.2577
20
8.3035
30
0.0000
0
VERTEX
70
9
10
-72.3154
20
8.4615
30
0.0000
0
VERTEX
70
9
10
-72.4152
20
8.5986
30
0.0000
0
VERTEX
70
9
10
-72.5481
20
8.7025
30
0.0000
0
VERTEX
70
9
10
-73.3600
20
8.9200
30
0.0000
0
VERTEX
70
9
10
-73.5270
20
8.8965
30
0.0000
0
VERTEX
70
9
10
-73.6820
20
8.8277
30
0.0000
0
VERTEX
70
9
10
-73.8110
20
8.7197
30
0.0000
0
VERTEX
70
9
10
-73.9030
20
8.5802
30
0.0000
0
VERTEX
70
9
10
-74.4560
20
7.5523
30
0.0000
0
VERTEX
70
9
10
-74.5180
20
7.4573
30
0.0000
0
VERTEX
70
9
10
-74.6050
20
7.3833
30
0.0000
0
VERTEX
70
9
10
-74.7090
20
7.3363
30
0.0000
0
VERTEX
70
9
10
-74.8220
20
7.3213
30
0.0000
0
VERTEX
70
9
10
-75.8080
20
7.3213
30
0.0000
0
VERTEX
70
9
10
-75.9210
20
7.3363
30
0.0000
0
VERTEX
70
9
10
-76.0250
20
7.3833
30
0.0000
0
VERTEX
70
9
10
-76.1120
20
7.4573
30
0.0000
0
VERTEX
70
9
10
-76.1740
20
7.5523
30
0.0000
0
VERTEX
70
9
10
-76.7270
20
8.5802
30
0.0000
0
VERTEX
70
9
10
-76.8190
20
8.7197
30
0.0000
0
VERTEX
70
9
10
-76.9480
20
8.8277
30
0.0000
0
VERTEX
70
9
10
-77.1030
20
8.8965
30
0.0000
0
VERTEX
70
9
10
-77.2700
20
8.9200
30
0.0000
0
VERTEX
70
9
10
-78.0819
20
8.7025
30
0.0000
0
VERTEX
70
9
10
-78.2148
20
8.5986
30
0.0000
0
VERTEX
70
9
10
-78.3146
20
8.4615
30
0.0000
0
VERTEX
70
9
10
-78.3723
20
8.3035
30
0.0000
0
VERTEX
70
9
10
-78.3823
20
8.1367
30
0.0000
0
VERTEX
70
9
10
-78.3472
20
6.9700
30
0.0000
0
VERTEX
70
9
10
-78.3534
20
6.8567
30
0.0000
0
VERTEX
70
9
10
-78.3918
20
6.7491
30
0.0000
0
VERTEX
70
9
10
-78.4583
20
6.6564
30
0.0000
0
VERTEX
70
9
10
-78.5487
20
6.5869
30
0.0000
0
VERTEX
70
9
10
-79.4026
20
6.0939
30
0.0000
0
VERTEX
70
9
10
-79.5080
20
6.0504
30
0.0000
0
VERTEX
70
9
10
-79.6215
20
6.0391
30
0.0000
0
VERTEX
70
9
10
-79.7339
20
6.0597
30
0.0000
0
VERTEX
70
9
10
-79.8351
20
6.1110
30
0.0000
0
VERTEX
70
9
10
-80.8280
20
6.7247
30
0.0000
0
VERTEX
70
9
10
-80.9774
20
6.7995
30
0.0000
0
VERTEX
70
9
10
-81.1431
20
6.8285
30
0.0000
0
VERTEX
70
9
10
-81.3117
20
6.8106
30
0.0000
0
VERTEX
70
9
10
-81.4681
20
6.7475
30
0.0000
0
VERTEX
70
9
10
-82.0625
20
6.1531
30
0.0000
0
VERTEX
70
9
10
-82.1256
20
5.9967
30
0.0000
0
VERTEX
70
9
10
-82.1435
20
5.8281
30
0.0000
0
VERTEX
70
9
10
-82.1145
20
5.6624
30
0.0000
0
VERTEX
70
9
10
-82.0397
20
5.5130
30
0.0000
0
VERTEX
70
9
10
-81.4260
20
4.5201
30
0.0000
0
VERTEX
70
9
10
-81.3747
20
4.4189
30
0.0000
0
VERTEX
70
9
10
-81.3541
20
4.3065
30
0.0000
0
VERTEX
70
9
10
-81.3654
20
4.1930
30
0.0000
0
VERTEX
70
9
10
-81.4089
20
4.0876
30
0.0000
0
VERTEX
70
9
10
-81.9019
20
3.2337
30
0.0000
0
VERTEX
70
9
10
-81.9714
20
3.1433
30
0.0000
0
VERTEX
70
9
10
-82.0641
20
3.0768
30
0.0000
0
VERTEX
70
9
10
-82.1717
20
3.0384
30
0.0000
0
VERTEX
70
9
10
-82.2850
20
3.0322
30
0.0000
0
VERTEX
70
9
10
-83.4517
20
3.0673
30
0.0000
0
VERTEX
70
9
10
-83.6185
20
3.0573
30
0.0000
0
VERTEX
70
9
10
-83.7765
20
2.9996
30
0.0000
0
VERTEX
70
9
10
-83.9136
20
2.8998
30
0.0000
0
VERTEX
70
9
10
-84.0175
20
2.7669
30
0.0000
0
VERTEX
70
9
10
-84.2350
20
1.9550
30
0.0000
0
VERTEX
70
9
10
-84.2115
20
1.7880
30
0.0000
0
VERTEX
70
9
10
-84.1427
20
1.6330
30
0.0000
0
VERTEX
70
9
10
-84.0347
20
1.5040
30
0.0000
0
VERTEX
70
9
10
-83.8952
20
1.4120
30
0.0000
0
VERTEX
70
9
10
-82.8673
20
0.8590
30
0.0000
0
VERTEX
70
9
10
-82.7723
20
0.7970
30
0.0000
0
VERTEX
70
9
10
-82.6983
20
0.7100
30
0.0000
0
VERTEX
70
9
10
-82.6513
20
0.6060
30
0.0000
0
VERTEX
70
9
10
-82.6363
20
0.4930
30
0.0000
0
VERTEX
70
9
10
-82.6363
20
-0.4930
30
0.0000
0
VERTEX
70
9
10
-82.6513
20
-0.6060
30
0.0000
0
VERTEX
70
9
10
-82.6983
20
-0.7100
30
0.0000
0
VERTEX
70
9
10
-82.7723
20
-0.7970
30
0.0000
0
VERTEX
70
9
10
-82.8673
20
-0.8590
30
0.0000
0
VERTEX
70
9
10
-83.8952
20
-1.4120
30
0.0000
0
VERTEX
70
9
10
-84.0347
20
-1.5040
30
0.0000
0
VERTEX
70
9
10
-84.1427
20
-1.6330
30
0.0000
0
VERTEX
70
9
10
-84.2115
20
-1.7880
30
0.0000
0
VERTEX
70
9
10
-84.2350
20
-1.9550
30
0.0000
0
VERTEX
70
9
10
-84.0175
20
-2.7669
30
0.0000
0
VERTEX
70
9
10
-83.9136
20
-2.8998
30
0.0000
0
VERTEX
70
9
10
-83.7765
20
-2.9996
30
0.0000
0
VERTEX
70
9
10
-83.6185
20
-3.0573
30
0.0000
0
VERTEX
70
9
10
-83.4517
20
-3.0673
30
0.0000
0
VERTEX
70
9
10
-82.2850
20
-3.0322
30
0.0000
0
VERTEX
70
9
10
-82.1717
20
-3.0384
30
0.0000
0
VERTEX
70
9
10
-82.0641
20
-3.0768
30
0.0000
0
VERTEX
70
9
10
-81.9714
20
-3.1433
30
0.0000
0
VERTEX
70
9
10
-81.9019
20
-3.2337
30
0.0000
0
VERTEX
70
9
10
-81.4089
20
-4.0876
30
0.0000
0
VERTEX
70
9
10
-81.3654
20
-4.1930
30
0.0000
0
VERTEX
70
9
10
-81.3541
20
-4.3065
30
0.0000
0
VERTEX
70
9
10
-81.3747
20
-4.4189
30
0.0000
0
VERTEX
70
9
10
-81.4260
20
-4.5201
30
0.0000
0
VERTEX
70
9
10
-82.0397
20
-5.5130
30
0.0000
0
VERTEX
70
9
10
-82.1145
20
-5.6624
30
0.0000
0
VERTEX
70
9
10
-82.1435
20
-5.8281
30
0.0000
0
VERTEX
70
9
10
-82.1256
20
-5.9967
30
0.0000
0
VERTEX
70
9
10
-82.0625
20
-6.1531
30
0.0000
0
VERTEX
70
9
10
-81.4681
20
-6.7475
30
0.0000
0
VERTEX
70
9
10
-81.3117
20
-6.8106
30
0.0000
0
VERTEX
70
9
10
-81.1431
20
-6.8285
30
0.0000
0
VERTEX
70
9
10
-80.9774
20
-6.7995
30
0.0000
0
VERTEX
70
9
10
-80.8280
20
-6.7247
30
0.0000
0
VERTEX
70
9
10
-79.8351
20
-6.1110
30
0.0000
0
VERTEX
70
9
10
-79.7339
20
-6.0597
30
0.0000
0
VERTEX
70
9
10
-79.6215
20
-6.0391
30
0.0000
0
VERTEX
70
9
10
-79.5080
20
-6.0504
30
0.0000
0
VERTEX
70
9
10
-79.4026
20
-6.0939
30
0.0000
0
VERTEX
70
9
10
-78.5487
20
-6.5869
30
0.0000
0
VERTEX
70
9
10
-78.4583
20
-6.6564
30
0.0000
0
VERTEX
70
9
10
-78.3918
20
-6.7491
30
0.0000
0
VERTEX
70
9
10
-78.3534
20
-6.8567
30
0.0000
0
VERTEX
70
9
10
-78.3472
20
-6.9700
30
0.0000
0
VERTEX
70
9
10
-78.3823
20
-8.1367
30
0.0000
0
VERTEX
70
9
10
-78.3723
20
-8.3035
30
0.0000
0
VERTEX
70
9
10
-78.3146
20
-8.4615
30
0.0000
0
VERTEX
70
9
10
-78.2148
20
-8.5986
30
0.0000
0
VERTEX
70
9
10
-78.0819
20
-8.7025
30
0.0000
0
VERTEX
70
9
10
-77.2700
20
-8.9200
30
0.0000
0
VERTEX
70
9
10
-77.1030
20
-8.8965
30
0.0000
0
VERTEX
70
9
10
-76.9480
20
-8.8277
30
0.0000
0
VERTEX
70
9
10
-76.8190
20
-8.7197
30
0.0000
0
VERTEX
70
9
10
-76.7270
20
-8.5802
30
0.0000
0
VERTEX
70
9
10
-76.1740
20
-7.5523
30
0.0000
0
VERTEX
70
9
10
-76.1120
20
-7.4573
30
0.0000
0
VERTEX
70
9
10
-76.0250
20
-7.3833
30
0.0000
0
VERTEX
70
9
10
-75.9210
20
-7.3363
30
0.0000
0
VERTEX
70
9
10
-75.8080
20
-7.3213
30
0.0000
0
VERTEX
70
9
10
-74.8220
20
-7.3213
30
0.0000
0
VERTEX
70
9
10
-74.7090
20
-7.3363
30
0.0000
0
VERTEX
70
9
10
-74.6050
20
-7.3833
30
0.0000
0
VERTEX
70
9
10
-74.5180
20
-7.4573
30
0.0000
0
VERTEX
70
9
10
-74.4560
20
-7.5523
30
0.0000
0
VERTEX
70
9
10
-73.9030
20
-8.5802
30
0.0000
0
VERTEX
70
9
10
-73.8110
20
-8.7197
30
0.0000
0
VERTEX
70
9
10
-73.6820
20
-8.8277
30
0.0000
0
VERTEX
70
9
10
-73.5270
20
-8.8965
30
0.0000
0
VERTEX
70
9
10
-73.3600
20
-8.9200
30
0.0000
0
VERTEX
70
9
10
-72.5481
20
-8.7025
30
0.0000
0
VERTEX
70
9
10
-72.4152
20
-8.5986
30
0.0000
0
VERTEX
70
9
10
-72.3154
20
-8.4615
30
0.0000
0
VERTEX
70
9
10
-72.2577
20
-8.3035
30
0.0000
0
VERTEX
70
9
10
-72.2477
20
-8.1367
30
0.0000
0
VERTEX
70
9
10
-72.2828
20
-6.9700
30
0.0000
0
VERTEX
70
9
10
-72.2766
20
-6.8567
30
0.0000
0
VERTEX
70
9
10
-72.2382
20
-6.7491
30
0.0000
0
VERTEX
70
9
10
-72.1717
20
-6.6564
30
0.0000
0
VERTEX
70
9
10
-72.0813
20
-6.5869
30
0.0000
0
VERTEX
70
9
10
-71.2274
20
-6.0939
30
0.0000
0
VERTEX
70
9
10
-71.1220
20
-6.0504
30
0.0000
0
VERTEX
70
9
10
-71.0085
20
-6.0391
30
0.0000
0
VERTEX
70
9
10
-70.8961
20
-6.0597
30
0.0000
0
VERTEX
70
9
10
-70.7949
20
-6.1110
30
0.0000
0
VERTEX
70
9
10
-69.8020
20
-6.7247
30
0.0000
0
VERTEX
70
9
10
-69.6526
20
-6.7995
30
0.0000
0
VERTEX
70
9
10
-69.4869
20
-6.8285
30
0.0000
0
VERTEX
70
9
10
-69.3183
20
-6.8106
30
0.0000
0
VERTEX
70
9
10
-69.1619
20
-6.7475
30
0.0000
0
VERTEX
70
9
10
-68.5675
20
-6.1531
30
0.0000
0
VERTEX
70
9
10
-68.5044
20
-5.9967
30
0.0000
0
VERTEX
70
9
10
-68.4865
20
-5.8281
30
0.0000
0
VERTEX
70
9
10
-68.5155
20
-5.6624
30
0.0000
0
VERTEX
70
9
10
-68.5903
20
-5.5130
30
0.0000
0
VERTEX
70
9
10
-69.2040
20
-4.5201
30
0.0000
0
VERTEX
70
9
10
-69.2553
20
-4.4189
30
0.0000
0
VERTEX
70
9
10
-69.2759
20
-4.3065
30
0.0000
0
VERTEX
70
9
10
-69.2646
20
-4.1930
30
0.0000
0
VERTEX
70
9
10
-69.2211
20
-4.0876
30
0.0000
0
VERTEX
70
9
10
-68.7281
20
-3.2337
30
0.0000
0
VERTEX
70
9
10
-68.6586
20
-3.1433
30
0.0000
0
VERTEX
70
9
10
-68.5659
20
-3.0768
30
0.0000
0
VERTEX
70
9
10
-68.4583
20
-3.0384
30
0.0000
0
VERTEX
70
9
10
-68.3450
20
-3.0322
30
0.0000
0
VERTEX
70
9
10
-67.1783
20
-3.0673
30
0.0000
0
VERTEX
70
9
10
-67.0115
20
-3.0573
30
0.0000
0
VERTEX
70
9
10
-66.8535
20
-2.9996
30
0.0000
0
VERTEX
70
9
10
-66.7164
20
-2.8998
30
0.0000
0
VERTEX
70
9
10
-66.6125
20
-2.7669
30
0.0000
0
SEQEND
0
ENDSEC
0
EOF