  0
SECTION
  2
HEADER
  9
$ACADVER
  1
AC1027
  9
$ACADMAINTVER
 70
   105
  9
$DWGCODEPAGE
  3
ANSI_1252
  9
$REQUIREDVERSIONS
160
                 0
  9
$INSBASE
 10
0.0
 20
0.0
 30
0.0
  9
$EXTMIN
 10
360.0
 20
540.0
 30
0.0
  9
$EXTMAX
 10
-60.00000027184103
 20
-234.0
 30
0.0
  9
$LIMMIN
 10
0.0
 20
0.0
  9
$LIMMAX
 10
12.0
 20
9.0
  9
$ORTHOMODE
 70
     0
  9
$REGENMODE
 70
     1
  9
$FILLMODE
 70
     1
  9
$QTEXTMODE
 70
     0
  9
$MIRRTEXT
 70
     1
  9
$LTSCALE
 40
1.0
  9
$ATTMODE
 70
     1
  9
$TEXTSIZE
 40
0.2
  9
$TRACEWID
 40
0.05
  9
$TEXTSTYLE
  7
Standard
  9
$CLAYER
  8
Section
  9
$CELTYPE
  6
ByLayer
  9
$CECOLOR
 62
   178
  9
$CELTSCALE
 40
1.0
  9
$DISPSILH
 70
     0
  9
$DIMSCALE
 40
1.0
  9
$DIMASZ
 40
2.5
  9
$DIMEXO
 40
0.625
  9
$DIMDLI
 40
5.0
  9
$DIMRND
 40
0.0
  9
$DIMDLE
 40
0.0
  9
$DIMEXE
 40
1.25
  9
$DIMTP
 40
0.0
  9
$DIMTM
 40
0.0
  9
$DIMTXT
 40
2.5
  9
$DIMCEN
 40
0.09
  9
$DIMTSZ
 40
0.0
  9
$DIMTOL
 70
     0
  9
$DIMLIM
 70
     0
  9
$DIMTIH
 70
     1
  9
$DIMTOH
 70
     1
  9
$DIMSE1
 70
     0
  9
$DIMSE2
 70
     0
  9
$DIMTAD
 70
     0
  9
$DIMZIN
 70
     8
  9
$DIMBLK
  1

  9
$DIMASO
 70
     1
  9
$DIMSHO
 70
     1
  9
$DIMPOST
  1

  9
$DIMAPOST
  1

  9
$DIMALT
 70
     0
  9
$DIMALTD
 70
     2
  9
$DIMALTF
 40
25.4
  9
$DIMLFAC
 40
1.0
  9
$DIMTOFL
 70
     0
  9
$DIMTVP
 40
0.0
  9
$DIMTIX
 70
     0
  9
$DIMSOXD
 70
     0
  9
$DIMSAH
 70
     0
  9
$DIMBLK1
  1

  9
$DIMBLK2
  1

  9
$DIMSTYLE
  2
Standard
  9
$DIMCLRD
 70
   178
  9
$DIMCLRE
 70
   178
  9
$DIMCLRT
 70
   178
  9
$DIMTFAC
 40
1.0
  9
$DIMGAP
 40
0.625
  9
$DIMJUST
 70
     0
  9
$DIMSD1
 70
     0
  9
$DIMSD2
 70
     0
  9
$DIMTOLJ
 70
     1
  9
$DIMTZIN
 70
     0
  9
$DIMALTZ
 70
     0
  9
$DIMALTTZ
 70
     0
  9
$DIMUPT
 70
     0
  9
$DIMDEC
 70
     4
  9
$DIMTDEC
 70
     4
  9
$DIMALTU
 70
     2
  9
$DIMALTTD
 70
     2
  9
$DIMTXSTY
  7
Standard
  9
$DIMAUNIT
 70
     0
  9
$DIMADEC
 70
     0
  9
$DIMALTRND
 40
0.0
  9
$DIMAZIN
 70
     2
  9
$DIMDSEP
 70
    46
  9
$DIMATFIT
 70
     3
  9
$DIMFRAC
 70
     0
  9
$DIMLDRBLK
  1

  9
$DIMLUNIT
 70
     2
  9
$DIMLWD
 70
    -2
  9
$DIMLWE
 70
    -2
  9
$DIMTMOVE
 70
     0
  9
$DIMFXL
 40
1.0
  9
$DIMFXLON
 70
     0
  9
$DIMJOGANG
 40
0.7853981633974483
  9
$DIMTFILL
 70
     0
  9
$DIMTFILLCLR
 70
     0
  9
$DIMARCSYM
 70
     0
  9
$DIMLTYPE
  6

  9
$DIMLTEX1
  6

  9
$DIMLTEX2
  6

  9
$DIMTXTDIRECTION
 70
     0
  9
$LUNITS
 70
     2
  9
$LUPREC
 70
     4
  9
$SKETCHINC
 40
0.1
  9
$FILLETRAD
 40
0.5
  9
$AUNITS
 70
     0
  9
$AUPREC
 70
     0
  9
$MENU
  1
.
  9
$ELEVATION
 40
0.0
  9
$PELEVATION
 40
0.0
  9
$THICKNESS
 40
0.0
  9
$LIMCHECK
 70
     0
  9
$CHAMFERA
 40
0.0
  9
$CHAMFERB
 40
0.0
  9
$CHAMFERC
 40
0.0
  9
$CHAMFERD
 40
0.0
  9
$SKPOLY
 70
     0
  9
$TDCREATE
 40
2458622.922702662
  9
$TDUCREATE
 40
2458622.589369329
  9
$TDUPDATE
 40
2458622.922704768
  9
$TDUUPDATE
 40
2458622.589371435
  9
$TDINDWG
 40
0.0000000116
  9
$TDUSRTIMER
 40
0.0000000116
  9
$USRTIMER
 70
     1
  9
$ANGBASE
 50
0.0
  9
$ANGDIR
 70
     0
  9
$PDMODE
 70
     0
  9
$PDSIZE
 40
0.0
  9
$PLINEWID
 40
0.0
  9
$SPLFRAME
 70
     0
  9
$SPLINETYPE
 70
     6
  9
$SPLINESEGS
 70
     8
  9
$HANDSEED
  5
1E23
  9
$SURFTAB1
 70
     6
  9
$SURFTAB2
 70
     6
  9
$SURFTYPE
 70
     6
  9
$SURFU
 70
     6
  9
$SURFV
 70
     6
  9
$UCSBASE
  2

  9
$UCSNAME
  2

  9
$UCSORG
 10
0.0
 20
0.0
 30
0.0
  9
$UCSXDIR
 10
1.0
 20
0.0
 30
0.0
  9
$UCSYDIR
 10
0.0
 20
1.0
 30
0.0
  9
$UCSORTHOREF
  2

  9
$UCSORTHOVIEW
 70
     0
  9
$UCSORGTOP
 10
0.0
 20
0.0
 30
0.0
  9
$UCSORGBOTTOM
 10
0.0
 20
0.0
 30
0.0
  9
$UCSORGLEFT
 10
0.0
 20
0.0
 30
0.0
  9
$UCSORGRIGHT
 10
0.0
 20
0.0
 30
0.0
  9
$UCSORGFRONT
 10
0.0
 20
0.0
 30
0.0
  9
$UCSORGBACK
 10
0.0
 20
0.0
 30
0.0
  9
$PUCSBASE
  2

  9
$PUCSNAME
  2

  9
$PUCSORG
 10
0.0
 20
0.0
 30
0.0
  9
$PUCSXDIR
 10
1.0
 20
0.0
 30
0.0
  9
$PUCSYDIR
 10
0.0
 20
1.0
 30
0.0
  9
$PUCSORTHOREF
  2

  9
$PUCSORTHOVIEW
 70
     0
  9
$PUCSORGTOP
 10
0.0
 20
0.0
 30
0.0
  9
$PUCSORGBOTTOM
 10
0.0
 20
0.0
 30
0.0
  9
$PUCSORGLEFT
 10
0.0
 20
0.0
 30
0.0
  9
$PUCSORGRIGHT
 10
0.0
 20
0.0
 30
0.0
  9
$PUCSORGFRONT
 10
0.0
 20
0.0
 30
0.0
  9
$PUCSORGBACK
 10
0.0
 20
0.0
 30
0.0
  9
$USERI1
 70
     0
  9
$USERI2
 70
     0
  9
$USERI3
 70
     0
  9
$USERI4
 70
     0
  9
$USERI5
 70
     0
  9
$USERR1
 40
0.0
  9
$USERR2
 40
0.0
  9
$USERR3
 40
0.0
  9
$USERR4
 40
0.0
  9
$USERR5
 40
0.0
  9
$WORLDVIEW
 70
     1
  9
$SHADEDGE
 70
     3
  9
$SHADEDIF
 70
    70
  9
$TILEMODE
 70
     1
  9
$MAXACTVP
 70
    64
  9
$PINSBASE
 10
0.0
 20
0.0
 30
0.0
  9
$PLIMCHECK
 70
     0
  9
$PEXTMIN
 10
0.0
 20
0.0
 30
0.0
  9
$PEXTMAX
 10
0.0
 20
0.0
 30
0.0
  9
$PLIMMIN
 10
-20.0
 20
-7.5
  9
$PLIMMAX
 10
277.0
 20
202.5
  9
$UNITMODE
 70
     0
  9
$VISRETAIN
 70
     1
  9
$PLINEGEN
 70
     0
  9
$PSLTSCALE
 70
     1
  9
$TREEDEPTH
 70
  3020
  9
$CMLSTYLE
  2
Standard
  9
$CMLJUST
 70
     0
  9
$CMLSCALE
 40
1.0
  9
$PROXYGRAPHICS
 70
     1
  9
$MEASUREMENT
 70
     1
  9
$CELWEIGHT
370
    -1
  9
$ENDCAPS
280
     0
  9
$JOINSTYLE
280
     0
  9
$LWDISPLAY
290
     0
  9
$INSUNITS
 70
     4
  9
$HYPERLINKBASE
  1

  9
$STYLESHEET
  1

  9
$XEDIT
290
     1
  9
$CEPSNTYPE
380
     0
  9
$PSTYLEMODE
290
     1
  9
$FINGERPRINTGUID
  2
{e4386132-6372-b478-e431-656662667831}
  9
$VERSIONGUID
  2
{FAEB1C32-E019-11D5-929B-00C0DF256EC4}
  9
$EXTNAMES
290
     1
  9
$PSVPSCALE
 40
0.0
  9
$OLESTARTUP
290
     0
  9
$SORTENTS
280
   127
  9
$INDEXCTL
280
     0
  9
$HIDETEXT
280
     1
  9
$XCLIPFRAME
280
     2
  9
$HALOGAP
280
     0
  9
$OBSCOLOR
 70
   257
  9
$OBSLTYPE
280
     0
  9
$INTERSECTIONDISPLAY
280
     0
  9
$INTERSECTIONCOLOR
 70
   257
  9
$DIMASSOC
280
     2
  9
$PROJECTNAME
  1

  9
$CAMERADISPLAY
290
     0
  9
$LENSLENGTH
 40
50.0
  9
$CAMERAHEIGHT
 40
0.0
  9
$STEPSPERSEC
 40
2.0
  9
$STEPSIZE
 40
6.0
  9
$3DDWFPREC
 40
2.0
  9
$PSOLWIDTH
 40
0.25
  9
$PSOLHEIGHT
 40
4.0
  9
$LOFTANG1
 40
1.570796326794897
  9
$LOFTANG2
 40
1.570796326794897
  9
$LOFTMAG1
 40
0.0
  9
$LOFTMAG2
 40
0.0
  9
$LOFTPARAM
 70
     7
  9
$LOFTNORMALS
280
     1
  9
$LATITUDE
 40
37.795
  9
$LONGITUDE
 40
-122.394
  9
$NORTHDIRECTION
 40
0.0
  9
$TIMEZONE
 70
 -8000
  9
$LIGHTGLYPHDISPLAY
280
     1
  9
$TILEMODELIGHTSYNCH
280
     1
  9
$CMATERIAL
347
1D70
  9
$SOLIDHIST
280
     0
  9
$SHOWHIST
280
     1
  9
$DWFFRAME
280
     2
  9
$DGNFRAME
280
     2
  9
$REALWORLDSCALE
290
     1
  9
$INTERFERECOLOR
 62
   256
  9
$CSHADOW
280
     0
  9
$SHADOWPLANELOCATION
 40
0.0
  0
ENDSEC
  0
SECTION
  2
CLASSES
  0
CLASS
  1
ACDBDICTIONARYWDFLT
  2
AcDbDictionaryWithDefault
  3
ObjectDBX Classes
 90
        0
 91
        3
280
     0
281
     0
  0
CLASS
  1
VISUALSTYLE
  2
AcDbVisualStyle
  3
ObjectDBX Classes
 90
     4095
 91
        3
280
     0
281
     0
  0
CLASS
  1
MATERIAL
  2
AcDbMaterial
  3
ObjectDBX Classes
 90
     1153
 91
        3
280
     0
281
     0
  0
CLASS
  1
SCALE
  2
AcDbScale
  3
ObjectDBX Classes
 90
     1153
 91
        3
280
     0
281
     0
  0
CLASS
  1
TABLESTYLE
  2
AcDbTableStyle
  3
ObjectDBX Classes
 90
     4095
 91
        3
280
     0
281
     0
  0
CLASS
  1
MLEADERSTYLE
  2
AcDbMLeaderStyle
  3
ACDB_MLEADERSTYLE_CLASS
 90
     4095
 91
        3
280
     0
281
     0
  0
CLASS
  1
SUN
  2
AcDbSun
  3
SCENEOE
 90
     1153
 91
        3
280
     0
281
     0
  0
CLASS
  1
DICTIONARYVAR
  2
AcDbDictionaryVar
  3
ObjectDBX Classes
 90
        0
 91
        3
280
     0
281
     0
  0
CLASS
  1
CELLSTYLEMAP
  2
AcDbCellStyleMap
  3
ObjectDBX Classes
 90
     1152
 91
        3
280
     0
281
     0
  0
ENDSEC
  0
SECTION
  2
TABLES
  0
TABLE
  2
VPORT
  5
1D35
330
0
100
AcDbSymbolTable
 70
     1
  0
VPORT
  5
1D55
330
1D35
100
AcDbSymbolTableRecord
100
AcDbViewportTableRecord
  2
*Active
 70
     0
 10
0.0
 20
0.0
 11
1.0
 21
1.0
 12
389.1914109505881
 22
-149.7383235291678
 13
0.0
 23
0.0
 14
0.5
 24
0.5
 15
0.5
 25
0.5
 16
0.0
 26
0.0
 36
1.0
 17
0.0
 27
0.0
 37
0.0
 40
674.575433416458
 41
2.06430155210643
 42
50.0
 43
0.0
 44
0.0
 50
0.0
 51
0.0
 71
     0
 72
   100
 73
     1
 74
     3
 75
     0
 76
     0
 77
     0
 78
     0
281
     0
 65
     1
110
0.0
120
0.0
130
0.0
111
1.0
121
0.0
131
0.0
112
0.0
122
1.0
132
0.0
 79
     0
146
0.0
348
1D5B
 60
     3
 61
     5
292
     1
282
     1
141
0.0
142
0.0
 63
   250
361
1D99
  0
ENDTAB
  0
TABLE
  2
LTYPE
  5
1D32
330
0
100
AcDbSymbolTable
 70
    48
  0
LTYPE
  5
1D40
330
1D32
100
AcDbSymbolTableRecord
100
AcDbLinetypeTableRecord
  2
ByBlock
 70
     0
  3

 72
    65
 73
     0
 40
0.0
  0
LTYPE
  5
1D41
330
1D32
100
AcDbSymbolTableRecord
100
AcDbLinetypeTableRecord
  2
ByLayer
 70
     0
  3

 72
    65
 73
     0
 40
0.0
  0
LTYPE
  5
1D42
330
1D32
100
AcDbSymbolTableRecord
100
AcDbLinetypeTableRecord
  2
Continuous
 70
     0
  3
Solid line
 72
    65
 73
     0
 40
0.0
  0
LTYPE
  5
1DD0
330
1D32
100
AcDbSymbolTableRecord
100
AcDbLinetypeTableRecord
  2
ACAD_ISO10W100
 70
     0
  3
ISO dash dot __ . __ . __ . __ . __ . __ . __ . 
 72
    65
 73
     4
 40
18.0
 49
12.0
 74
     0
 49
-3.0
 74
     0
 49
0.0
 74
     0
 49
-3.0
 74
     0
  0
LTYPE
  5
1DD1
330
1D32
100
AcDbSymbolTableRecord
100
AcDbLinetypeTableRecord
  2
ACAD_ISO11W100
 70
     0
  3
ISO double-dash dot __ __ . __ __ . __ __ . __ _
 72
    65
 73
     6
 40
33.0
 49
12.0
 74
     0
 49
-3.0
 74
     0
 49
12.0
 74
     0
 49
-3.0
 74
     0
 49
0.0
 74
     0
 49
-3.0
 74
     0
  0
LTYPE
  5
1DD2
330
1D32
100
AcDbSymbolTableRecord
100
AcDbLinetypeTableRecord
  2
ACAD_ISO12W100
 70
     0
  3
ISO dash double-dot __ . . __ . . __ . . __ . . 
 72
    65
 73
     6
 40
21.0
 49
12.0
 74
     0
 49
-3.0
 74
     0
 49
0.0
 74
     0
 49
-3.0
 74
     0
 49
0.0
 74
     0
 49
-3.0
 74
     0
  0
LTYPE
  5
1DD3
330
1D32
100
AcDbSymbolTableRecord
100
AcDbLinetypeTableRecord
  2
ACAD_ISO13W100
 70
     0
  3
ISO double-dash double-dot __ __ . . __ __ . . _
 72
    65
 73
     8
 40
36.0
 49
12.0
 74
     0
 49
-3.0
 74
     0
 49
12.0
 74
     0
 49
-3.0
 74
     0
 49
0.0
 74
     0
 49
-3.0
 74
     0
 49
0.0
 74
     0
 49
-3.0
 74
     0
  0
LTYPE
  5
1DD4
330
1D32
100
AcDbSymbolTableRecord
100
AcDbLinetypeTableRecord
  2
ACAD_ISO14W100
 70
     0
  3
ISO dash triple-dot __ . . . __ . . . __ . . . _
 72
    65
 73
     8
 40
24.0
 49
12.0
 74
     0
 49
-3.0
 74
     0
 49
0.0
 74
     0
 49
-3.0
 74
     0
 49
0.0
 74
     0
 49
-3.0
 74
     0
 49
0.0
 74
     0
 49
-3.0
 74
     0
  0
LTYPE
  5
1DD5
330
1D32
100
AcDbSymbolTableRecord
100
AcDbLinetypeTableRecord
  2
ACAD_ISO15W100
 70
     0
  3
ISO double-dash triple-dot __ __ . . . __ __ . .
 72
    65
 73
    10
 40
39.0
 49
12.0
 74
     0
 49
-3.0
 74
     0
 49
12.0
 74
     0
 49
-3.0
 74
     0
 49
0.0
 74
     0
 49
-3.0
 74
     0
 49
0.0
 74
     0
 49
-3.0
 74
     0
 49
0.0
 74
     0
 49
-3.0
 74
     0
  0
LTYPE
  5
1DD8
330
1D32
100
AcDbSymbolTableRecord
100
AcDbLinetypeTableRecord
  2
BATTING
 70
     0
  3
Batting SSSSSSSSSSSSSSSSSSSSSSSSSSSSSSSSSSSSSSSSSSSSSSS
 72
    65
 73
     4
 40
10.16254
 49
0.00254
 74
     0
 49
-2.54
 74
     2
 75
     0
340
1DD6
 46
2.54
 50
0.0
 44
-2.54
 45
0.0
  9
BAT
 49
-5.08
 74
     2
 75
     0
340
1DD7
 46
2.54
 50
180.0
 44
2.54
 45
0.0
  9
BAT
 49
-2.54
 74
     0
  0
LTYPE
  5
1DD9
330
1D32
100
AcDbSymbolTableRecord
100
AcDbLinetypeTableRecord
  2
BORDER
 70
     0
  3
Border __ __ . __ __ . __ __ . __ __ . __ __ .
 72
    65
 73
     6
 40
44.45
 49
12.7
 74
     0
 49
-6.35
 74
     0
 49
12.7
 74
     0
 49
-6.35
 74
     0
 49
0.0
 74
     0
 49
-6.35
 74
     0
  0
LTYPE
  5
1DDA
330
1D32
100
AcDbSymbolTableRecord
100
AcDbLinetypeTableRecord
  2
BORDER2
 70
     0
  3
Border (.5x) __.__.__.__.__.__.__.__.__.__.__.
 72
    65
 73
     6
 40
22.225
 49
6.35
 74
     0
 49
-3.175
 74
     0
 49
6.35
 74
     0
 49
-3.175
 74
     0
 49
0.0
 74
     0
 49
-3.175
 74
     0
  0
LTYPE
  5
1DDB
330
1D32
100
AcDbSymbolTableRecord
100
AcDbLinetypeTableRecord
  2
BORDERX2
 70
     0
  3
Border (2x) ____  ____  .  ____  ____  .  ___
 72
    65
 73
     6
 40
88.89999999999999
 49
25.4
 74
     0
 49
-12.7
 74
     0
 49
25.4
 74
     0
 49
-12.7
 74
     0
 49
0.0
 74
     0
 49
-12.7
 74
     0
  0
LTYPE
  5
1DDC
330
1D32
100
AcDbSymbolTableRecord
100
AcDbLinetypeTableRecord
  2
CENTER
 70
     0
  3
Center ____ _ ____ _ ____ _ ____ _ ____ _ ____
 72
    65
 73
     4
 40
50.8
 49
31.75
 74
     0
 49
-6.35
 74
     0
 49
6.35
 74
     0
 49
-6.35
 74
     0
  0
LTYPE
  5
1DDD
330
1D32
100
AcDbSymbolTableRecord
100
AcDbLinetypeTableRecord
  2
CENTER2
 70
     0
  3
Center (.5x) ___ _ ___ _ ___ _ ___ _ ___ _ ___
 72
    65
 73
     4
 40
28.575
 49
19.05
 74
     0
 49
-3.175
 74
     0
 49
3.175
 74
     0
 49
-3.175
 74
     0
  0
LTYPE
  5
1DDE
330
1D32
100
AcDbSymbolTableRecord
100
AcDbLinetypeTableRecord
  2
CENTERX2
 70
     0
  3
Center (2x) ________  __  ________  __  _____
 72
    65
 73
     4
 40
101.6
 49
63.5
 74
     0
 49
-12.7
 74
     0
 49
12.7
 74
     0
 49
-12.7
 74
     0
  0
LTYPE
  5
1DDF
330
1D32
100
AcDbSymbolTableRecord
100
AcDbLinetypeTableRecord
  2
DASHDOT
 70
     0
  3
Dash dot __ . __ . __ . __ . __ . __ . __ . __
 72
    65
 73
     4
 40
25.4
 49
12.7
 74
     0
 49
-6.35
 74
     0
 49
0.0
 74
     0
 49
-6.35
 74
     0
  0
LTYPE
  5
1DE0
330
1D32
100
AcDbSymbolTableRecord
100
AcDbLinetypeTableRecord
  2
DASHDOT2
 70
     0
  3
Dash dot (.5x) _._._._._._._._._._._._._._._.
 72
    65
 73
     4
 40
12.7
 49
6.35
 74
     0
 49
-3.175
 74
     0
 49
0.0
 74
     0
 49
-3.175
 74
     0
  0
LTYPE
  5
1DE1
330
1D32
100
AcDbSymbolTableRecord
100
AcDbLinetypeTableRecord
  2
DASHDOTX2
 70
     0
  3
Dash dot (2x) ____  .  ____  .  ____  .  ___
 72
    65
 73
     4
 40
50.8
 49
25.4
 74
     0
 49
-12.7
 74
     0
 49
0.0
 74
     0
 49
-12.7
 74
     0
  0
LTYPE
  5
1DE2
330
1D32
100
AcDbSymbolTableRecord
100
AcDbLinetypeTableRecord
  2
ACAD_ISO02W100
 70
     0
  3
ISO dash __ __ __ __ __ __ __ __ __ __ __ __ __
 72
    65
 73
     2
 40
15.0
 49
12.0
 74
     0
 49
-3.0
 74
     0
  0
LTYPE
  5
1DE3
330
1D32
100
AcDbSymbolTableRecord
100
AcDbLinetypeTableRecord
  2
ACAD_ISO03W100
 70
     0
  3
ISO dash space __    __    __    __    __    __
 72
    65
 73
     2
 40
30.0
 49
12.0
 74
     0
 49
-18.0
 74
     0
  0
LTYPE
  5
1DE4
330
1D32
100
AcDbSymbolTableRecord
100
AcDbLinetypeTableRecord
  2
ACAD_ISO04W100
 70
     0
  3
ISO long-dash dot ____ . ____ . ____ . ____ . _
 72
    65
 73
     4
 40
30.0
 49
24.0
 74
     0
 49
-3.0
 74
     0
 49
0.0
 74
     0
 49
-3.0
 74
     0
  0
LTYPE
  5
1DE5
330
1D32
100
AcDbSymbolTableRecord
100
AcDbLinetypeTableRecord
  2
ACAD_ISO05W100
 70
     0
  3
ISO long-dash double-dot ____ .. ____ .. ____ . 
 72
    65
 73
     6
 40
33.0
 49
24.0
 74
     0
 49
-3.0
 74
     0
 49
0.0
 74
     0
 49
-3.0
 74
     0
 49
0.0
 74
     0
 49
-3.0
 74
     0
  0
LTYPE
  5
1DE6
330
1D32
100
AcDbSymbolTableRecord
100
AcDbLinetypeTableRecord
  2
ACAD_ISO06W100
 70
     0
  3
ISO long-dash triple-dot ____ ... ____ ... ____
 72
    65
 73
     8
 40
36.0
 49
24.0
 74
     0
 49
-3.0
 74
     0
 49
0.0
 74
     0
 49
-3.0
 74
     0
 49
0.0
 74
     0
 49
-3.0
 74
     0
 49
0.0
 74
     0
 49
-3.0
 74
     0
  0
LTYPE
  5
1DE7
330
1D32
100
AcDbSymbolTableRecord
100
AcDbLinetypeTableRecord
  2
ACAD_ISO07W100
 70
     0
  3
ISO dot . . . . . . . . . . . . . . . . . . . . 
 72
    65
 73
     2
 40
3.0
 49
0.0
 74
     0
 49
-3.0
 74
     0
  0
LTYPE
  5
1DE8
330
1D32
100
AcDbSymbolTableRecord
100
AcDbLinetypeTableRecord
  2
ACAD_ISO08W100
 70
     0
  3
ISO long-dash short-dash ____ __ ____ __ ____ _
 72
    65
 73
     4
 40
36.0
 49
24.0
 74
     0
 49
-3.0
 74
     0
 49
6.0
 74
     0
 49
-3.0
 74
     0
  0
LTYPE
  5
1DE9
330
1D32
100
AcDbSymbolTableRecord
100
AcDbLinetypeTableRecord
  2
ACAD_ISO09W100
 70
     0
  3
ISO long-dash double-short-dash ____ __ __ ____
 72
    65
 73
     6
 40
45.0
 49
24.0
 74
     0
 49
-3.0
 74
     0
 49
6.0
 74
     0
 49
-3.0
 74
     0
 49
6.0
 74
     0
 49
-3.0
 74
     0
  0
LTYPE
  5
1DEA
330
1D32
100
AcDbSymbolTableRecord
100
AcDbLinetypeTableRecord
  2
HIDDENX2
 70
     0
  3
Hidden (2x) ____ ____ ____ ____ ____ ____ ____ 
 72
    65
 73
     2
 40
19.05
 49
12.7
 74
     0
 49
-6.35
 74
     0
  0
LTYPE
  5
1DEC
330
1D32
100
AcDbSymbolTableRecord
100
AcDbLinetypeTableRecord
  2
HOT_WATER_SUPPLY
 70
     0
  3
Hot water supply ---- HW ---- HW ---- HW ----
 72
    65
 73
     3
 40
22.86
 49
12.7
 74
     0
 49
-5.08
 74
     2
 75
     0
340
1DEB
 46
2.54
 50
0.0
 44
-2.54
 45
-1.27
  9
HW
 49
-5.08
 74
     0
  0
LTYPE
  5
1DED
330
1D32
100
AcDbSymbolTableRecord
100
AcDbLinetypeTableRecord
  2
PHANTOM
 70
     0
  3
Phantom ______  __  __  ______  __  __  ______ 
 72
    65
 73
     6
 40
63.50000000000001
 49
31.75
 74
     0
 49
-6.35
 74
     0
 49
6.35
 74
     0
 49
-6.35
 74
     0
 49
6.35
 74
     0
 49
-6.35
 74
     0
  0
LTYPE
  5
1DEE
330
1D32
100
AcDbSymbolTableRecord
100
AcDbLinetypeTableRecord
  2
PHANTOM2
 70
     0
  3
Phantom (.5x) ___ _ _ ___ _ _ ___ _ _ ___ _ _
 72
    65
 73
     6
 40
31.75
 49
15.875
 74
     0
 49
-3.175
 74
     0
 49
3.175
 74
     0
 49
-3.175
 74
     0
 49
3.175
 74
     0
 49
-3.175
 74
     0
  0
LTYPE
  5
1DEF
330
1D32
100
AcDbSymbolTableRecord
100
AcDbLinetypeTableRecord
  2
PHANTOMX2
 70
     0
  3
Phantom (2x) ____________    ____    ____   _
 72
    65
 73
     6
 40
127.0
 49
63.5
 74
     0
 49
-12.7
 74
     0
 49
12.7
 74
     0
 49
-12.7
 74
     0
 49
12.7
 74
     0
 49
-12.7
 74
     0
  0
LTYPE
  5
1DF1
330
1D32
100
AcDbSymbolTableRecord
100
AcDbLinetypeTableRecord
  2
TRACKS
 70
     0
  3
Tracks -|-|-|-|-|-|-|-|-|-|-|-|-|-|-|-|-|-|-|-|-|-|-|-|-
 72
    65
 73
     2
 40
7.62
 49
3.81
 74
     2
 75
     0
340
1DF0
 46
6.35
 50
0.0
 44
0.0
 45
0.0
  9
TRACK1
 49
3.81
 74
     0
  0
LTYPE
  5
1DF4
330
1D32
100
AcDbSymbolTableRecord
100
AcDbLinetypeTableRecord
  2
ZIGZAG
 70
     0
  3
Zig zag /\/\/\/\/\/\/\/\/\/\/\/\/\/\/\/\/\/\/\/\/\/\/\/
 72
    65
 73
     4
 40
20.32254
 49
0.00254
 74
     0
 49
-5.08
 74
     2
 75
     0
340
1DF2
 46
5.08
 50
0.0
 44
-5.08
 45
0.0
  9
ZIG
 49
-10.16
 74
     2
 75
     0
340
1DF3
 46
5.08
 50
180.0
 44
5.08
 45
0.0
  9
ZIG
 49
-5.08
 74
     0
  0
LTYPE
  5
1DF5
330
1D32
100
AcDbSymbolTableRecord
100
AcDbLinetypeTableRecord
  2
DASHED
 70
     0
  3
Dashed __ __ __ __ __ __ __ __ __ __ __ __ __ _
 72
    65
 73
     2
 40
19.05
 49
12.7
 74
     0
 49
-6.35
 74
     0
  0
LTYPE
  5
1DF6
330
1D32
100
AcDbSymbolTableRecord
100
AcDbLinetypeTableRecord
  2
DASHED2
 70
     0
  3
Dashed (.5x) _ _ _ _ _ _ _ _ _ _ _ _ _ _ _ _ _ 
 72
    65
 73
     2
 40
9.524999999999999
 49
6.35
 74
     0
 49
-3.175
 74
     0
  0
LTYPE
  5
1DF7
330
1D32
100
AcDbSymbolTableRecord
100
AcDbLinetypeTableRecord
  2
DASHEDX2
 70
     0
  3
Dashed (2x) ____  ____  ____  ____  ____  ___
 72
    65
 73
     2
 40
38.09999999999999
 49
25.4
 74
     0
 49
-12.7
 74
     0
  0
LTYPE
  5
1DF8
330
1D32
100
AcDbSymbolTableRecord
100
AcDbLinetypeTableRecord
  2
DIVIDE
 70
     0
  3
Divide ____ . . ____ . . ____ . . ____ . . ____
 72
    65
 73
     6
 40
31.75
 49
12.7
 74
     0
 49
-6.35
 74
     0
 49
0.0
 74
     0
 49
-6.35
 74
     0
 49
0.0
 74
     0
 49
-6.35
 74
     0
  0
LTYPE
  5
1DF9
330
1D32
100
AcDbSymbolTableRecord
100
AcDbLinetypeTableRecord
  2
DIVIDE2
 70
     0
  3
Divide (.5x) __..__..__..__..__..__..__..__.._
 72
    65
 73
     6
 40
15.875
 49
6.35
 74
     0
 49
-3.175
 74
     0
 49
0.0
 74
     0
 49
-3.175
 74
     0
 49
0.0
 74
     0
 49
-3.175
 74
     0
  0
LTYPE
  5
1DFA
330
1D32
100
AcDbSymbolTableRecord
100
AcDbLinetypeTableRecord
  2
DIVIDEX2
 70
     0
  3
Divide (2x) ________  .  .  ________  .  .  _
 72
    65
 73
     6
 40
63.5
 49
25.4
 74
     0
 49
-12.7
 74
     0
 49
0.0
 74
     0
 49
-12.7
 74
     0
 49
0.0
 74
     0
 49
-12.7
 74
     0
  0
LTYPE
  5
1DFB
330
1D32
100
AcDbSymbolTableRecord
100
AcDbLinetypeTableRecord
  2
DOT
 70
     0
  3
Dot . . . . . . . . . . . . . . . . . . . . . . . .
 72
    65
 73
     2
 40
6.35
 49
0.0
 74
     0
 49
-6.35
 74
     0
  0
LTYPE
  5
1DFC
330
1D32
100
AcDbSymbolTableRecord
100
AcDbLinetypeTableRecord
  2
DOT2
 70
     0
  3
Dot (.5x) ........................................
 72
    65
 73
     2
 40
3.175
 49
0.0
 74
     0
 49
-3.175
 74
     0
  0
LTYPE
  5
1DFD
330
1D32
100
AcDbSymbolTableRecord
100
AcDbLinetypeTableRecord
  2
DOTX2
 70
     0
  3
Dot (2x) .  .  .  .  .  .  .  .  .  .  .  .  .  .
 72
    65
 73
     2
 40
12.7
 49
0.0
 74
     0
 49
-12.7
 74
     0
  0
LTYPE
  5
1DFF
330
1D32
100
AcDbSymbolTableRecord
100
AcDbLinetypeTableRecord
  2
DRAINAGE
 70
     0
  3
Drainage ---->---->---->----
 72
    65
 73
     2
 40
10.16
 49
5.08
 74
     2
 75
     0
340
1DFE
 46
2.54
 50
180.0
 44
0.0
 45
0.0
  9
RIGHT_ARROW
 49
5.08
 74
     0
  0
LTYPE
  5
1E01
330
1D32
100
AcDbSymbolTableRecord
100
AcDbLinetypeTableRecord
  2
DRAINAGE2
 70
     0
  3
Drainage reversed----<----<----<----
 72
    65
 73
     2
 40
10.16
 49
5.08
 74
     2
 75
     0
340
1E00
 46
2.54
 50
0.0
 44
0.0
 45
0.0
  9
RIGHT_ARROW
 49
5.08
 74
     0
  0
LTYPE
  5
1E03
330
1D32
100
AcDbSymbolTableRecord
100
AcDbLinetypeTableRecord
  2
FENCELINE1
 70
     0
  3
Fenceline circle ----0-----0----0-----0----0-----0--
 72
    65
 73
     4
 40
36.83
 49
6.35
 74
     0
 49
-2.54
 74
     2
 75
     0
340
1E02
 46
2.54
 50
0.0
 44
-2.54
 45
0.0
  9
CIRC1
 49
-2.54
 74
     0
 49
25.4
 74
     0
  0
LTYPE
  5
1E05
330
1D32
100
AcDbSymbolTableRecord
100
AcDbLinetypeTableRecord
  2
FENCELINE2
 70
     0
  3
Fenceline square ----[]-----[]----[]-----[]----[]---
 72
    65
 73
     4
 40
36.83
 49
6.35
 74
     0
 49
-2.54
 74
     2
 75
     0
340
1E04
 46
2.54
 50
0.0
 44
-2.54
 45
0.0
  9
BOX
 49
-2.54
 74
     0
 49
25.4
 74
     0
  0
LTYPE
  5
1E07
330
1D32
100
AcDbSymbolTableRecord
100
AcDbLinetypeTableRecord
  2
GAS_LINE
 70
     0
  3
Gas line ----GAS----GAS----GAS----GAS----GAS----GAS--
 72
    65
 73
     3
 40
24.13
 49
12.7
 74
     0
 49
-5.08
 74
     2
 75
     0
340
1E06
 46
2.54
 50
0.0
 44
-2.54
 45
-1.27
  9
GAS
 49
-6.35
 74
     0
  0
LTYPE
  5
1E08
330
1D32
100
AcDbSymbolTableRecord
100
AcDbLinetypeTableRecord
  2
HIDDEN
 70
     0
  3
Hidden __ __ __ __ __ __ __ __ __ __ __ __ __ __
 72
    65
 73
     2
 40
9.524999999999999
 49
6.35
 74
     0
 49
-3.175
 74
     0
  0
LTYPE
  5
1E09
330
1D32
100
AcDbSymbolTableRecord
100
AcDbLinetypeTableRecord
  2
HIDDEN2
 70
     0
  3
Hidden (.5x) _ _ _ _ _ _ _ _ _ _ _ _ _ _ _ _ _ 
 72
    65
 73
     2
 40
4.762499999999999
 49
3.175
 74
     0
 49
-1.5875
 74
     0
  0
ENDTAB
  0
TABLE
  2
LAYER
  5
1D30
330
0
100
AcDbSymbolTable
 70
     7
  0
LAYER
  5
1D3D
330
1D30
100
AcDbSymbolTableRecord
100
AcDbLayerTableRecord
  2
0
 70
     0
 62
     7
420
 16777215
  6
Continuous
370
    -3
390
1D3C
347
1D72
348
0
  0
LAYER
  5
1E0A
330
1D30
100
AcDbSymbolTableRecord
100
AcDbLayerTableRecord
  2
Base
 70
     1
 62
  -178
420
        0
  6
Continuous
370
    25
390
1D3C
347
1D72
348
0
  0
LAYER
  5
1E0B
330
1D30
100
AcDbSymbolTableRecord
100
AcDbLayerTableRecord
  2
Section
 70
     0
 62
     7
420
 16777215
  6
Continuous
370
    -3
390
1D3C
347
1D72
348
0
  0
LAYER
  5
1E0C
330
1D30
100
AcDbSymbolTableRecord
100
AcDbLayerTableRecord
  2
Stepper
 70
     0
 62
     5
420
      255
  6
Continuous
370
    -3
390
1D3C
347
1D72
348
0
  0
LAYER
  5
1E0D
330
1D30
100
AcDbSymbolTableRecord
100
AcDbLayerTableRecord
  2
Plan
 70
     0
 62
   178
420
        0
  6
Continuous
370
    25
390
1D3C
347
1D72
348
0
  0
LAYER
  5
1E0E
330
1D30
100
AcDbSymbolTableRecord
100
AcDbLayerTableRecord
  2
Pulley12-70
 70
     0
 62
     7
420
 16777215
  6
Continuous
370
    -3
390
1D3C
347
1D72
348
0
  0
LAYER
  5
1E0F
330
1D30
100
AcDbSymbolTableRecord
100
AcDbLayerTableRecord
  2
Construction
 70
     0
 62
     5
420
      255
  6
ACAD_ISO07W100
370
    -3
390
1D3C
347
1D72
348
0
  0
ENDTAB
  0
TABLE
  2
STYLE
  5
1D31
330
0
100
AcDbSymbolTable
 70
    21
  0
STYLE
  5
1D3E
330
1D31
100
AcDbSymbolTableRecord
100
AcDbTextStyleTableRecord
  2
Standard
 70
     0
 40
0.0
 41
1.0
 50
0.0
 71
     0
 42
0.2
  3
txt
  4

  0
STYLE
  5
1DCE
330
1D31
100
AcDbSymbolTableRecord
100
AcDbTextStyleTableRecord
  2
QCADDimTextStyle
 70
     0
 40
0.0
 41
1.0
 50
0.0
 71
     0
 42
0.2
  3
txt
  4

  0
STYLE
  5
1DD6
330
1D31
100
AcDbSymbolTableRecord
100
AcDbTextStyleTableRecord
  2
textstyle0
 70
     0
 40
0.0
 41
1.0
 50
0.0
 71
     0
 42
0.2
  3
ltypeshp.shx
  4

  0
STYLE
  5
1DD7
330
1D31
100
AcDbSymbolTableRecord
100
AcDbTextStyleTableRecord
  2
textstyle1
 70
     0
 40
0.0
 41
1.0
 50
0.0
 71
     0
 42
0.2
  3
ltypeshp.shx
  4

  0
STYLE
  5
1DEB
330
1D31
100
AcDbSymbolTableRecord
100
AcDbTextStyleTableRecord
  2
textstyle2
 70
     0
 40
0.0
 41
1.0
 50
0.0
 71
     0
 42
0.2
  3
STANDARD
  4

  0
STYLE
  5
1DF0
330
1D31
100
AcDbSymbolTableRecord
100
AcDbTextStyleTableRecord
  2
textstyle3
 70
     0
 40
0.0
 41
1.0
 50
0.0
 71
     0
 42
0.2
  3
ltypeshp.shx
  4

  0
STYLE
  5
1DF2
330
1D31
100
AcDbSymbolTableRecord
100
AcDbTextStyleTableRecord
  2
textstyle4
 70
     0
 40
0.0
 41
1.0
 50
0.0
 71
     0
 42
0.2
  3
ltypeshp.shx
  4

  0
STYLE
  5
1DF3
330
1D31
100
AcDbSymbolTableRecord
100
AcDbTextStyleTableRecord
  2
textstyle5
 70
     0
 40
0.0
 41
1.0
 50
0.0
 71
     0
 42
0.2
  3
ltypeshp.shx
  4

  0
STYLE
  5
1DFE
330
1D31
100
AcDbSymbolTableRecord
100
AcDbTextStyleTableRecord
  2
textstyle6
 70
     0
 40
0.0
 41
1.0
 50
0.0
 71
     0
 42
0.2
  3
qcadshp.shx
  4

  0
STYLE
  5
1E00
330
1D31
100
AcDbSymbolTableRecord
100
AcDbTextStyleTableRecord
  2
textstyle7
 70
     0
 40
0.0
 41
1.0
 50
0.0
 71
     0
 42
0.2
  3
qcadshp.shx
  4

  0
STYLE
  5
1E02
330
1D31
100
AcDbSymbolTableRecord
100
AcDbTextStyleTableRecord
  2
textstyle8
 70
     0
 40
0.0
 41
1.0
 50
0.0
 71
     0
 42
0.2
  3
ltypeshp.shx
  4

  0
STYLE
  5
1E04
330
1D31
100
AcDbSymbolTableRecord
100
AcDbTextStyleTableRecord
  2
textstyle9
 70
     0
 40
0.0
 41
1.0
 50
0.0
 71
     0
 42
0.2
  3
ltypeshp.shx
  4

  0
STYLE
  5
1E06
330
1D31
100
AcDbSymbolTableRecord
100
AcDbTextStyleTableRecord
  2
textstyle10
 70
     0
 40
0.0
 41
1.0
 50
0.0
 71
     0
 42
0.2
  3
STANDARD
  4

  0
STYLE
  5
1E12
330
1D31
100
AcDbSymbolTableRecord
100
AcDbTextStyleTableRecord
  2
textstyle11
 70
     0
 40
0.0
 41
1.0
 50
0.0
 71
     0
 42
0.2
  3

  4

1001
ACAD
1000
Liberation Sans
1071
        0
  0
STYLE
  5
1E13
330
1D31
100
AcDbSymbolTableRecord
100
AcDbTextStyleTableRecord
  2
textstyle12
 70
     0
 40
0.0
 41
1.0
 50
0.0
 71
     0
 42
0.2
  3

  4

1001
ACAD
1000
Liberation Sans
1071
        0
  0
STYLE
  5
1E14
330
1D31
100
AcDbSymbolTableRecord
100
AcDbTextStyleTableRecord
  2
textstyle13
 70
     0
 40
0.0
 41
1.0
 50
0.0
 71
     0
 42
0.2
  3

  4

1001
ACAD
1000
Liberation Sans
1071
        0
  0
STYLE
  5
1E15
330
1D31
100
AcDbSymbolTableRecord
100
AcDbTextStyleTableRecord
  2
textstyle14
 70
     0
 40
0.0
 41
1.0
 50
0.0
 71
     0
 42
0.2
  3

  4

1001
ACAD
1000
Liberation Sans
1071
        0
  0
STYLE
  5
1E16
330
1D31
100
AcDbSymbolTableRecord
100
AcDbTextStyleTableRecord
  2
textstyle15
 70
     0
 40
0.0
 41
1.0
 50
0.0
 71
     0
 42
0.2
  3

  4

1001
ACAD
1000
Liberation Sans
1071
        0
  0
STYLE
  5
1E17
330
1D31
100
AcDbSymbolTableRecord
100
AcDbTextStyleTableRecord
  2
textstyle16
 70
     0
 40
0.0
 41
1.0
 50
0.0
 71
     0
 42
0.2
  3

  4

1001
ACAD
1000
Liberation Sans
1071
        0
  0
STYLE
  5
1E18
330
1D31
100
AcDbSymbolTableRecord
100
AcDbTextStyleTableRecord
  2
textstyle17
 70
     0
 40
0.0
 41
1.0
 50
0.0
 71
     0
 42
0.2
  3

  4

1001
ACAD
1000
Liberation Sans
1071
        0
  0
STYLE
  5
1E19
330
1D31
100
AcDbSymbolTableRecord
100
AcDbTextStyleTableRecord
  2
textstyle18
 70
     0
 40
0.0
 41
1.0
 50
0.0
 71
     0
 42
0.2
  3

  4

1001
ACAD
1000
Liberation Sans
1071
        0
  0
ENDTAB
  0
TABLE
  2
VIEW
  5
1D33
330
0
100
AcDbSymbolTable
 70
     0
  0
ENDTAB
  0
TABLE
  2
UCS
  5
1D34
330
0
100
AcDbSymbolTable
 70
     0
  0
ENDTAB
  0
TABLE
  2
APPID
  5
1D36
330
0
100
AcDbSymbolTable
 70
     2
  0
APPID
  5
1D3F
330
1D36
100
AcDbSymbolTableRecord
100
AcDbRegAppTableRecord
  2
ACAD
 70
     0
  0
APPID
  5
1D9A
330
1D36
100
AcDbSymbolTableRecord
100
AcDbRegAppTableRecord
  2
QCAD
 70
     0
  0
ENDTAB
  0
TABLE
  2
DIMSTYLE
  5
1D37
330
0
100
AcDbSymbolTable
 70
     2
100
AcDbDimStyleTable
  0
DIMSTYLE
105
1D53
330
1D37
100
AcDbSymbolTableRecord
100
AcDbDimStyleTableRecord
  2
Standard
 70
     0
178
     0
340
1D3E
  0
DIMSTYLE
105
1DCF
330
1D37
100
AcDbSymbolTableRecord
100
AcDbDimStyleTableRecord
  2
QCADDimStyle
 70
     0
 41
2.5
 42
0.625
 44
1.25
 73
     0
 77
     1
140
2.5
147
0.625
178
     0
340
1DCE
  0
ENDTAB
  0
TABLE
  2
BLOCK_RECORD
  5
1D2F
330
0
100
AcDbSymbolTable
 70
     0
  0
BLOCK_RECORD
  5
1D4B
330
1D2F
100
AcDbSymbolTableRecord
100
AcDbBlockTableRecord
  2
*Model_Space
340
1D4E
 70
     0
280
     1
281
     0
  0
BLOCK_RECORD
  5
1D47
330
1D2F
100
AcDbSymbolTableRecord
100
AcDbBlockTableRecord
  2
*Paper_Space
340
1D4A
 70
     0
280
     1
281
     0
  0
ENDTAB
  0
ENDSEC
  0
SECTION
  2
BLOCKS
  0
BLOCK
  5
1D4C
330
1D4B
100
AcDbEntity
  8
0
100
AcDbBlockBegin
  2
*Model_Space
 70
     0
 10
0.0
 20
0.0
 30
0.0
  3
*Model_Space
  1

  0
ENDBLK
  5
1D4D
330
1D4B
100
AcDbEntity
  8
0
100
AcDbBlockEnd
  0
BLOCK
  5
1D48
330
1D47
100
AcDbEntity
 67
     1
  8
0
100
AcDbBlockBegin
  2
*Paper_Space
 70
     0
 10
0.0
 20
0.0
 30
0.0
  3
*Paper_Space
  1

  0
ENDBLK
  5
1D49
330
1D47
100
AcDbEntity
 67
     1
  8
0
100
AcDbBlockEnd
  0
ENDSEC
  0
SECTION
  2
ENTITIES
  0
POINT
  5
9BA
330
1D4B
100
AcDbEntity
  8
Pulley12-70
 62
     0
370
     5
100
AcDbPoint
 10
165.0
 20
-0.0000000000000426
 30
0.0
  0
POINT
  5
9BB
330
1D4B
100
AcDbEntity
  8
Pulley12-70
 62
     0
370
     5
100
AcDbPoint
 10
0.0
 20
0.0
 30
0.0
  0
LINE
  5
1C8F
330
1D4B
100
AcDbEntity
  8
Section
 62
    30
420
 16744192
370
     5
100
AcDbLine
 10
79.97265174608674
 20
-128.0
 30
0.0
 11
79.97265174608674
 21
-144.0
 31
0.0
  0
LINE
  5
1C90
330
1D4B
100
AcDbEntity
  8
Section
 62
    30
420
 16744192
370
     5
100
AcDbLine
 10
110.9726514395093
 20
-128.0
 30
0.0
 11
110.9726514395093
 21
-144.0
 31
0.0
  0
LWPOLYLINE
  5
9CB
330
1D4B
100
AcDbEntity
  8
Pulley12-70
 62
     0
370
     5
100
AcDbPolyline
 90
     1400
 70
   129
 43
0.0
 10
220.2446
 20
-1.955000000000043
 10
220.2206
 20
-1.788000000000043
 10
220.1506
 20
-1.633000000000043
 10
220.0406
 20
-1.504000000000043
 10
219.8986
 20
-1.412000000000043
 10
218.7072
 20
-0.8590000000000426
 10
218.6122
 20
-0.7970000000000427
 10
218.5382
 20
-0.7100000000000426
 10
218.4912
 20
-0.6060000000000426
 10
218.4762
 20
-0.4930000000000426
 10
218.4762
 20
0.4929999999999574
 10
218.4912
 20
0.6059999999999574
 10
218.5382
 20
0.7099999999999573
 10
218.6122
 20
0.7969999999999574
 10
218.7072
 20
0.8589999999999574
 10
219.8986
 20
1.411999999999957
 10
220.0406
 20
1.503999999999957
 10
220.1506
 20
1.632999999999957
 10
220.2206
 20
1.787999999999957
 10
220.2446
 20
1.954999999999957
 10
220.1975
 20
3.004999999999957
 10
220.1586
 20
3.169099999999957
 10
220.075
 20
3.317199999999958
 10
219.9539
 20
3.435899999999958
 10
219.8042
 20
3.514799999999958
 10
218.568
 20
3.958699999999957
 10
218.4678
 20
4.011999999999957
 10
218.3863
 20
4.091999999999957
 10
218.3302
 20
4.191399999999957
 10
218.3051
 20
4.302599999999957
 10
218.2168
 20
5.284599999999958
 10
218.2216
 20
5.398499999999958
 10
218.2591
 20
5.506299999999958
 10
218.325
 20
5.599599999999957
 10
218.414
 20
5.669799999999958
 10
219.551
 20
6.327399999999957
 10
219.6842
 20
6.431699999999958
 10
219.7822
 20
6.570099999999957
 10
219.8381
 20
6.730699999999957
 10
219.847
 20
6.899199999999958
 10
219.7059
 20
7.940699999999957
 10
219.6525
 20
8.100799999999957
 10
219.5559
 20
8.240799999999957
 10
219.4246
 20
8.348099999999958
 10
219.2685
 20
8.413199999999957
 10
217.9975
 20
8.744599999999958
 10
217.893
 20
8.788599999999958
 10
217.8046
 20
8.860999999999958
 10
217.7398
 20
8.954999999999957
 10
217.7049
 20
9.063499999999957
 10
217.5288
 20
10.03359999999996
 10
217.5234
 20
10.14749999999996
 10
217.5511
 20
10.25819999999996
 10
217.6083
 20
10.35699999999996
 10
217.6908
 20
10.43499999999996
 10
218.7642
 20
11.19179999999996
 10
218.8875
 20
11.30769999999996
 10
218.9728
 20
11.45429999999996
 10
219.014
 20
11.61929999999996
 10
219.0078
 20
11.78789999999996
 10
218.7739
 20
12.81259999999996
 10
218.7063
 20
12.96719999999996
 10
218.5976
 20
13.09789999999996
 10
218.4572
 20
13.19299999999996
 10
218.2959
 20
13.24389999999996
 10
217.0003
 20
13.46009999999996
 10
216.8922
 20
13.49459999999996
 10
216.7978
 20
13.55869999999996
 10
216.7248
 20
13.64649999999996
 10
216.6803
 20
13.75139999999996
 10
216.4179
 20
14.70189999999996
 10
216.4023
 20
14.81479999999996
 10
216.42
 20
14.92759999999996
 10
216.4682
 20
15.03109999999996
 10
216.5432
 20
15.11609999999996
 10
217.5446
 20
15.96619999999996
 10
217.657
 20
16.09259999999996
 10
217.7287
 20
16.24629999999996
 10
217.755
 20
16.41429999999996
 10
217.7337
 20
16.58169999999996
 10
217.4089
 20
17.58119999999996
 10
217.3277
 20
17.72919999999996
 10
217.2077
 20
17.84969999999996
 10
217.0594
 20
17.93179999999996
 10
216.8941
 20
17.96799999999996
 10
215.5844
 20
18.06709999999996
 10
215.4737
 20
18.09179999999996
 10
215.3738
 20
18.14729999999996
 10
215.2933
 20
18.22809999999996
 10
215.2395
 20
18.32859999999996
 10
214.8931
 20
19.25179999999996
 10
214.8674
 20
19.36279999999996
 10
214.8749
 20
19.47669999999996
 10
214.9136
 20
19.58419999999996
 10
214.9808
 20
19.67559999999996
 10
215.9018
 20
20.61189999999996
 10
216.0025
 20
20.74799999999996
 10
216.0601
 20
20.90739999999996
 10
216.0712
 20
21.07709999999996
 10
216.035
 20
21.24189999999996
 10
215.6219
 20
22.20839999999996
 10
215.5279
 20
22.34839999999996
 10
215.3975
 20
22.45769999999996
 10
215.2424
 20
22.52619999999996
 10
215.0746
 20
22.54739999999996
 10
213.7612
 20
22.52879999999996
 10
213.6488
 20
22.54339999999996
 10
213.5443
 20
22.58969999999996
 10
213.4569
 20
22.66299999999996
 10
213.3943
 20
22.75829999999996
 10
212.9665
 20
23.64659999999996
 10
212.931
 20
23.75499999999996
 10
212.9282
 20
23.86909999999996
 10
212.9571
 20
23.97949999999996
 10
213.0158
 20
24.07659999999996
 10
213.8493
 20
25.09179999999996
 10
213.9373
 20
25.23629999999996
 10
213.9805
 20
25.40019999999996
 10
213.9763
 20
25.57029999999996
 10
213.9255
 20
25.73109999999996
 10
213.4274
 20
26.65669999999996
 10
213.3212
 20
26.78769999999996
 10
213.1816
 20
26.88489999999996
 10
213.021
 20
26.93919999999996
 10
212.8519
 20
26.94529999999996
 10
211.5455
 20
26.80899999999996
 10
211.4321
 20
26.81349999999996
 10
211.324
 20
26.85019999999996
 10
211.2303
 20
26.91539999999996
 10
211.1595
 20
27.00469999999996
 10
210.6537
 20
27.85109999999996
 10
210.6087
 20
27.95579999999996
 10
210.5957
 20
28.06919999999996
 10
210.6146
 20
28.18189999999996
 10
210.6643
 20
28.28379999999996
 10
211.4034
 20
29.36959999999996
 10
211.4782
 20
29.52139999999996
 10
211.5064
 20
29.68859999999996
 10
211.487
 20
29.85749999999996
 10
211.422
 20
30.01319999999996
 10
210.843
 20
30.89039999999996
 10
210.7254
 20
31.01139999999996
 10
210.5777
 20
31.09559999999996
 10
210.4128
 20
31.13529999999996
 10
210.2439
 20
31.12629999999996
 10
208.955
 20
30.87339999999996
 10
208.8417
 20
30.86769999999996
 10
208.7307
 20
30.89459999999996
 10
208.6315
 20
30.95109999999996
 10
208.553
 20
31.03369999999996
 10
207.9734
 20
31.83139999999996
 10
207.9191
 20
31.93159999999996
 10
207.896
 20
32.04339999999996
 10
207.9047
 20
32.15729999999996
 10
207.9452
 20
32.26329999999996
 10
208.5839
 20
33.41089999999996
 10
208.6448
 20
33.56879999999996
 10
208.6579
 20
33.73789999999996
 10
208.6235
 20
33.90439999999996
 10
208.5447
 20
34.05359999999996
 10
207.8894
 20
34.87529999999996
 10
207.7615
 20
34.98529999999996
 10
207.6068
 20
35.05599999999995
 10
207.4391
 20
35.08069999999996
 10
207.2716
 20
35.05659999999996
 10
206.0106
 20
34.68919999999996
 10
205.8982
 20
34.67339999999996
 10
205.7852
 20
34.69019999999995
 10
205.6814
 20
34.73759999999996
 10
205.5958
 20
34.81279999999996
 10
204.9471
 20
35.55529999999996
 10
204.884
 20
35.65029999999996
 10
204.851
 20
35.75959999999996
 10
204.8495
 20
35.87379999999996
 10
204.8802
 20
35.98299999999995
 10
205.4136
 20
37.18329999999996
 10
205.46
 20
37.34599999999995
 10
205.458
 20
37.51549999999996
 10
205.4087
 20
37.67829999999996
 10
205.3169
 20
37.81979999999996
 10
204.5906
 20
38.57949999999996
 10
204.4533
 20
38.67759999999996
 10
204.2929
 20
38.73409999999996
 10
204.1236
 20
38.74369999999995
 10
203.959
 20
38.70459999999996
 10
202.7359
 20
38.22569999999996
 10
202.6255
 20
38.19989999999996
 10
202.5115
 20
38.20649999999996
 10
202.4038
 20
38.24439999999996
 10
202.3118
 20
38.31169999999996
 10
201.5991
 20
38.99299999999996
 10
201.5278
 20
39.08199999999996
 10
201.4851
 20
39.18779999999996
 10
201.4733
 20
39.30139999999996
 10
201.4942
 20
39.41289999999996
 10
201.9178
 20
40.65619999999996
 10
201.9494
 20
40.82239999999996
 10
201.9322
 20
40.99109999999996
 10
201.8686
 20
41.14879999999996
 10
201.7644
 20
41.28159999999995
 10
200.973
 20
41.97309999999996
 10
200.8274
 20
42.05839999999996
 10
200.6626
 20
42.10029999999995
 10
200.4931
 20
42.09479999999996
 10
200.3327
 20
42.04109999999996
 10
199.1575
 20
41.45439999999996
 10
199.0498
 20
41.41879999999995
 10
198.9356
 20
41.41519999999996
 10
198.825
 20
41.44329999999996
 10
198.7273
 20
41.50199999999996
 10
197.9564
 20
42.11679999999996
 10
197.8774
 20
42.19899999999996
 10
197.8254
 20
42.30059999999996
 10
197.8036
 20
42.41269999999996
 10
197.8143
 20
42.52559999999995
 10
198.1248
 20
43.80179999999996
 10
198.1414
 20
43.97019999999996
 10
198.1091
 20
44.13669999999995
 10
198.0316
 20
44.28799999999995
 10
197.916
 20
44.41089999999996
 10
197.0657
 20
45.02869999999996
 10
196.9131
 20
45.10069999999996
 10
196.7452
 20
45.12759999999996
 10
196.5769
 20
45.10689999999996
 10
196.4219
 20
45.03899999999996
 10
195.304
 20
44.34939999999996
 10
195.2
 20
44.30429999999996
 10
195.0866
 20
44.29039999999996
 10
194.9739
 20
44.30849999999996
 10
194.8713
 20
44.35819999999995
 10
194.0484
 20
44.90139999999996
 10
193.9624
 20
44.97619999999996
 10
193.9015
 20
45.07269999999995
 10
193.8697
 20
45.18239999999996
 10
193.8703
 20
45.29579999999996
 10
194.0651
 20
46.59479999999996
 10
194.0665
 20
46.76399999999996
 10
194.0195
 20
46.92689999999996
 10
193.9287
 20
47.07069999999996
 10
193.8025
 20
47.18269999999995
 10
192.9003
 20
47.72179999999996
 10
192.7418
 20
47.77979999999996
 10
192.5722
 20
47.79159999999996
 10
192.4064
 20
47.75579999999996
 10
192.2581
 20
47.67439999999996
 10
191.2066
 20
46.88729999999996
 10
191.107
 20
46.83299999999996
 10
190.9953
 20
46.80909999999996
 10
190.8815
 20
46.81699999999996
 10
190.7748
 20
46.85729999999996
 10
189.9066
 20
47.32449999999996
 10
189.8142
 20
47.39129999999996
 10
189.7449
 20
47.48199999999996
 10
189.7033
 20
47.58839999999996
 10
189.6937
 20
47.70139999999996
 10
189.7713
 20
49.01259999999996
 10
189.7576
 20
49.18119999999995
 10
189.6961
 20
49.33919999999996
 10
189.5928
 20
49.47429999999996
 10
189.4571
 20
49.57459999999995
 10
188.5102
 20
50.03059999999996
 10
188.3472
 20
50.07419999999995
 10
188.1772
 20
50.07069999999996
 10
188.0153
 20
50.02029999999996
 10
187.8749
 20
49.92579999999996
 10
186.8982
 20
49.04769999999996
 10
186.8038
 20
48.98469999999995
 10
186.6947
 20
48.95079999999996
 10
186.5806
 20
48.94849999999996
 10
186.4708
 20
48.97909999999996
 10
185.5642
 20
49.36659999999996
 10
185.4662
 20
49.42479999999995
 10
185.389
 20
49.50889999999995
 10
185.3381
 20
49.61119999999995
 10
185.3184
 20
49.72289999999996
 10
185.2782
 20
51.03569999999996
 10
185.2494
 20
51.20249999999996
 10
185.174
 20
51.35429999999996
 10
185.059
 20
51.47959999999996
 10
184.9149
 20
51.56729999999996
 10
183.9308
 20
51.93659999999996
 10
183.7646
 20
51.96539999999996
 10
183.5956
 20
51.94669999999996
 10
183.4389
 20
51.88199999999996
 10
183.3075
 20
51.77529999999996
 10
182.4134
 20
50.81319999999996
 10
182.3251
 20
50.74199999999995
 10
182.2195
 20
50.69849999999996
 10
182.106
 20
50.68589999999995
 10
181.9939
 20
50.70659999999996
 10
181.0562
 20
51.01129999999996
 10
180.9534
 20
51.06039999999996
 10
180.869
 20
51.13729999999996
 10
180.8091
 20
51.23449999999995
 10
180.7795
 20
51.34409999999995
 10
180.6217
 20
52.64799999999996
 10
180.5781
 20
52.81149999999996
 10
180.4894
 20
52.95599999999996
 10
180.3636
 20
53.07049999999996
 10
180.2122
 20
53.14489999999996
 10
179.1991
 20
53.42449999999996
 10
179.0309
 20
53.43829999999996
 10
178.8642
 20
53.40449999999996
 10
178.714
 20
53.32599999999996
 10
178.5927
 20
53.20799999999996
 10
177.7884
 20
52.16949999999996
 10
177.7069
 20
52.09069999999996
 10
177.6056
 20
52.03789999999996
 10
177.4937
 20
52.01519999999996
 10
177.3802
 20
52.02579999999995
 10
176.4189
 20
52.24519999999995
 10
176.3121
 20
52.28489999999996
 10
176.2212
 20
52.35389999999996
 10
176.1528
 20
52.44539999999996
 10
176.1135
 20
52.55179999999996
 10
175.8395
 20
53.83639999999995
 10
175.7814
 20
53.99529999999996
 10
175.6801
 20
54.13129999999996
 10
175.5446
 20
54.23399999999996
 10
175.3871
 20
54.29459999999996
 10
174.353
 20
54.48219999999996
 10
174.1843
 20
54.48089999999996
 10
174.0213
 20
54.43229999999996
 10
173.8787
 20
54.34059999999996
 10
173.7684
 20
54.21219999999996
 10
173.0605
 20
53.10589999999996
 10
172.9863
 20
53.01999999999996
 10
172.8902
 20
52.95839999999995
 10
172.7808
 20
52.92579999999996
 10
172.6668
 20
52.92609999999996
 10
171.6898
 20
53.05839999999996
 10
171.5798
 20
53.08849999999996
 10
171.483
 20
53.14899999999996
 10
171.4068
 20
53.23399999999996
 10
171.3581
 20
53.33649999999996
 10
170.97
 20
54.59129999999995
 10
170.8979
 20
54.74439999999996
 10
170.7848
 20
54.87069999999996
 10
170.6406
 20
54.96089999999996
 10
170.4784
 20
55.00709999999996
 10
169.4316
 20
55.10129999999996
 10
169.2637
 20
55.08479999999996
 10
169.1057
 20
55.02179999999996
 10
168.9719
 20
54.91769999999996
 10
168.8736
 20
54.77999999999996
 10
168.2677
 20
53.61459999999996
 10
168.2015
 20
53.52249999999996
 10
168.1113
 20
53.45249999999996
 10
168.0053
 20
53.41019999999996
 10
167.8917
 20
53.40029999999996
 10
166.9067
 20
53.44449999999996
 10
166.7945
 20
53.46459999999995
 10
166.6927
 20
53.51619999999996
 10
166.6091
 20
53.59399999999996
 10
166.5514
 20
53.69169999999995
 10
166.0524
 20
54.90669999999996
 10
165.9669
 20
55.05269999999996
 10
165.843
 20
55.16839999999996
 10
165.6913
 20
55.24529999999996
 10
165.5255
 20
55.27669999999996
 10
164.4745
 20
55.27669999999996
 10
164.3087
 20
55.24529999999996
 10
164.157
 20
55.16839999999996
 10
164.0331
 20
55.05269999999996
 10
163.9476
 20
54.90669999999996
 10
163.4486
 20
53.69169999999995
 10
163.3909
 20
53.59399999999996
 10
163.3073
 20
53.51619999999996
 10
163.2055
 20
53.46459999999995
 10
163.0933
 20
53.44449999999996
 10
162.1083
 20
53.40029999999996
 10
161.9947
 20
53.41019999999996
 10
161.8887
 20
53.45249999999996
 10
161.7985
 20
53.52249999999996
 10
161.7323
 20
53.61459999999996
 10
161.1264
 20
54.77999999999996
 10
161.0281
 20
54.91769999999996
 10
160.8943
 20
55.02179999999996
 10
160.7363
 20
55.08479999999996
 10
160.5684
 20
55.10129999999996
 10
159.5216
 20
55.00709999999996
 10
159.3594
 20
54.96089999999996
 10
159.2152
 20
54.87069999999996
 10
159.1021
 20
54.74439999999996
 10
159.03
 20
54.59129999999995
 10
158.6419
 20
53.33649999999996
 10
158.5932
 20
53.23399999999996
 10
158.517
 20
53.14899999999996
 10
158.4202
 20
53.08849999999996
 10
158.3102
 20
53.05839999999996
 10
157.3332
 20
52.92609999999996
 10
157.2192
 20
52.92579999999996
 10
157.1098
 20
52.95839999999995
 10
157.0137
 20
53.01999999999996
 10
156.9395
 20
53.10589999999996
 10
156.2316
 20
54.21219999999996
 10
156.1213
 20
54.34059999999996
 10
155.9787
 20
54.43229999999996
 10
155.8157
 20
54.48089999999996
 10
155.647
 20
54.48219999999996
 10
154.6129
 20
54.29459999999996
 10
154.4554
 20
54.23399999999996
 10
154.3199
 20
54.13129999999996
 10
154.2186
 20
53.99529999999996
 10
154.1605
 20
53.83639999999995
 10
153.8865
 20
52.55179999999996
 10
153.8472
 20
52.44539999999996
 10
153.7788
 20
52.35389999999996
 10
153.6879
 20
52.28489999999996
 10
153.5811
 20
52.24519999999995
 10
152.6198
 20
52.02579999999995
 10
152.5063
 20
52.01519999999996
 10
152.3944
 20
52.03789999999996
 10
152.2931
 20
52.09069999999996
 10
152.2116
 20
52.16949999999996
 10
151.4073
 20
53.20799999999996
 10
151.286
 20
53.32599999999996
 10
151.1358
 20
53.40449999999996
 10
150.9691
 20
53.43829999999996
 10
150.8009
 20
53.42449999999996
 10
149.7878
 20
53.14489999999996
 10
149.6364
 20
53.07049999999996
 10
149.5106
 20
52.95599999999996
 10
149.4219
 20
52.81149999999996
 10
149.3783
 20
52.64799999999996
 10
149.2205
 20
51.34409999999995
 10
149.1909
 20
51.23449999999995
 10
149.131
 20
51.13729999999996
 10
149.0466
 20
51.06039999999996
 10
148.9438
 20
51.01129999999996
 10
148.0061
 20
50.70659999999996
 10
147.894
 20
50.68589999999995
 10
147.7805
 20
50.69849999999996
 10
147.6749
 20
50.74199999999995
 10
147.5866
 20
50.81319999999996
 10
146.6925
 20
51.77529999999996
 10
146.5611
 20
51.88199999999996
 10
146.4044
 20
51.94669999999996
 10
146.2354
 20
51.96539999999996
 10
146.0692
 20
51.93659999999996
 10
145.0851
 20
51.56729999999996
 10
144.941
 20
51.47959999999996
 10
144.826
 20
51.35429999999996
 10
144.7506
 20
51.20249999999996
 10
144.7218
 20
51.03569999999996
 10
144.6816
 20
49.72289999999996
 10
144.6619
 20
49.61119999999995
 10
144.611
 20
49.50889999999995
 10
144.5338
 20
49.42479999999995
 10
144.4358
 20
49.36659999999996
 10
143.5292
 20
48.97909999999996
 10
143.4194
 20
48.94849999999996
 10
143.3053
 20
48.95079999999996
 10
143.1962
 20
48.98469999999995
 10
143.1018
 20
49.04769999999996
 10
142.1251
 20
49.92579999999996
 10
141.9847
 20
50.02029999999996
 10
141.8228
 20
50.07069999999996
 10
141.6528
 20
50.07419999999995
 10
141.4898
 20
50.03059999999996
 10
140.5429
 20
49.57459999999995
 10
140.4072
 20
49.47429999999996
 10
140.3039
 20
49.33919999999996
 10
140.2424
 20
49.18119999999995
 10
140.2287
 20
49.01259999999996
 10
140.3063
 20
47.70139999999996
 10
140.2967
 20
47.58839999999996
 10
140.2551
 20
47.48199999999996
 10
140.1858
 20
47.39129999999996
 10
140.0934
 20
47.32449999999996
 10
139.2252
 20
46.85729999999996
 10
139.1185
 20
46.81699999999996
 10
139.0047
 20
46.80909999999996
 10
138.893
 20
46.83299999999996
 10
138.7934
 20
46.88729999999996
 10
137.7419
 20
47.67439999999996
 10
137.5936
 20
47.75579999999996
 10
137.4278
 20
47.79159999999996
 10
137.2582
 20
47.77979999999996
 10
137.0997
 20
47.72179999999996
 10
136.1975
 20
47.18269999999995
 10
136.0713
 20
47.07069999999996
 10
135.9805
 20
46.92689999999996
 10
135.9335
 20
46.76399999999996
 10
135.9349
 20
46.59479999999996
 10
136.1297
 20
45.29579999999996
 10
136.1303
 20
45.18239999999996
 10
136.0985
 20
45.07269999999995
 10
136.0376
 20
44.97619999999996
 10
135.9516
 20
44.90139999999996
 10
135.1287
 20
44.35819999999995
 10
135.0261
 20
44.30849999999996
 10
134.9134
 20
44.29039999999996
 10
134.8
 20
44.30429999999996
 10
134.696
 20
44.34939999999996
 10
133.5781
 20
45.03899999999996
 10
133.4231
 20
45.10689999999996
 10
133.2548
 20
45.12759999999996
 10
133.0869
 20
45.10069999999996
 10
132.9343
 20
45.02869999999996
 10
132.084
 20
44.41089999999996
 10
131.9684
 20
44.28799999999995
 10
131.8909
 20
44.13669999999995
 10
131.8586
 20
43.97019999999996
 10
131.8752
 20
43.80179999999996
 10
132.1857
 20
42.52559999999995
 10
132.1964
 20
42.41269999999996
 10
132.1746
 20
42.30059999999996
 10
132.1226
 20
42.19899999999996
 10
132.0436
 20
42.11679999999996
 10
131.2727
 20
41.50199999999996
 10
131.175
 20
41.44329999999996
 10
131.0644
 20
41.41519999999996
 10
130.9502
 20
41.41879999999995
 10
130.8425
 20
41.45439999999996
 10
129.6673
 20
42.04109999999996
 10
129.5069
 20
42.09479999999996
 10
129.3374
 20
42.10029999999995
 10
129.1726
 20
42.05839999999996
 10
129.027
 20
41.97309999999996
 10
128.2356
 20
41.28159999999995
 10
128.1314
 20
41.14879999999996
 10
128.0678
 20
40.99109999999996
 10
128.0506
 20
40.82239999999996
 10
128.0822
 20
40.65619999999996
 10
128.5058
 20
39.41289999999996
 10
128.5267
 20
39.30139999999996
 10
128.5149
 20
39.18779999999996
 10
128.4722
 20
39.08199999999996
 10
128.4009
 20
38.99299999999996
 10
127.6882
 20
38.31169999999996
 10
127.5962
 20
38.24439999999996
 10
127.4885
 20
38.20649999999996
 10
127.3745
 20
38.19989999999996
 10
127.2641
 20
38.22569999999996
 10
126.041
 20
38.70459999999996
 10
125.8764
 20
38.74369999999995
 10
125.7071
 20
38.73409999999996
 10
125.5467
 20
38.67759999999996
 10
125.4094
 20
38.57949999999996
 10
124.6831
 20
37.81979999999996
 10
124.5913
 20
37.67829999999996
 10
124.542
 20
37.51549999999996
 10
124.54
 20
37.34599999999995
 10
124.5864
 20
37.18329999999996
 10
125.1198
 20
35.98299999999995
 10
125.1505
 20
35.87379999999996
 10
125.149
 20
35.75959999999996
 10
125.116
 20
35.65029999999996
 10
125.0529
 20
35.55529999999996
 10
124.4042
 20
34.81279999999996
 10
124.3186
 20
34.73759999999996
 10
124.2148
 20
34.69019999999995
 10
124.1018
 20
34.67339999999996
 10
123.9894
 20
34.68919999999996
 10
122.7284
 20
35.05659999999996
 10
122.5609
 20
35.08069999999996
 10
122.3932
 20
35.05599999999995
 10
122.2385
 20
34.98529999999996
 10
122.1106
 20
34.87529999999996
 10
121.4553
 20
34.05359999999996
 10
121.3765
 20
33.90439999999996
 10
121.3421
 20
33.73789999999996
 10
121.3552
 20
33.56879999999996
 10
121.4161
 20
33.41089999999996
 10
122.0548
 20
32.26329999999996
 10
122.0953
 20
32.15729999999996
 10
122.104
 20
32.04339999999996
 10
122.0809
 20
31.93159999999996
 10
122.0266
 20
31.83139999999996
 10
121.447
 20
31.03369999999996
 10
121.3685
 20
30.95109999999996
 10
121.2693
 20
30.89459999999996
 10
121.1583
 20
30.86769999999996
 10
121.045
 20
30.87339999999996
 10
119.7561
 20
31.12629999999996
 10
119.5872
 20
31.13529999999996
 10
119.4223
 20
31.09559999999996
 10
119.2746
 20
31.01139999999996
 10
119.157
 20
30.89039999999996
 10
118.578
 20
30.01319999999996
 10
118.513
 20
29.85749999999996
 10
118.4936
 20
29.68859999999996
 10
118.5218
 20
29.52139999999996
 10
118.5966
 20
29.36959999999996
 10
119.3357
 20
28.28379999999996
 10
119.3854
 20
28.18189999999996
 10
119.4043
 20
28.06919999999996
 10
119.3913
 20
27.95579999999996
 10
119.3463
 20
27.85109999999996
 10
118.8405
 20
27.00469999999996
 10
118.7697
 20
26.91539999999996
 10
118.676
 20
26.85019999999996
 10
118.5679
 20
26.81349999999996
 10
118.4545
 20
26.80899999999996
 10
117.1481
 20
26.94529999999996
 10
116.979
 20
26.93919999999996
 10
116.8184
 20
26.88489999999996
 10
116.6788
 20
26.78769999999996
 10
116.5726
 20
26.65669999999996
 10
116.0745
 20
25.73109999999996
 10
116.0237
 20
25.57029999999996
 10
116.0195
 20
25.40019999999996
 10
116.0627
 20
25.23629999999996
 10
116.1507
 20
25.09179999999996
 10
116.9842
 20
24.07659999999996
 10
117.0429
 20
23.97949999999996
 10
117.0718
 20
23.86909999999996
 10
117.069
 20
23.75499999999996
 10
117.0335
 20
23.64659999999996
 10
116.6057
 20
22.75829999999996
 10
116.5431
 20
22.66299999999996
 10
116.4557
 20
22.58969999999996
 10
116.3512
 20
22.54339999999996
 10
116.2388
 20
22.52879999999996
 10
114.9254
 20
22.54739999999996
 10
114.7576
 20
22.52619999999996
 10
114.6025
 20
22.45769999999996
 10
114.4721
 20
22.34839999999996
 10
114.3781
 20
22.20839999999996
 10
113.965
 20
21.24189999999996
 10
113.9288
 20
21.07709999999996
 10
113.9399
 20
20.90739999999996
 10
113.9975
 20
20.74799999999996
 10
114.0982
 20
20.61189999999996
 10
115.0192
 20
19.67559999999996
 10
115.0864
 20
19.58419999999996
 10
115.1251
 20
19.47669999999996
 10
115.1326
 20
19.36279999999996
 10
115.1069
 20
19.25179999999996
 10
114.7605
 20
18.32859999999996
 10
114.7067
 20
18.22809999999996
 10
114.6262
 20
18.14729999999996
 10
114.5263
 20
18.09179999999996
 10
114.4156
 20
18.06709999999996
 10
113.1059
 20
17.96799999999996
 10
112.9406
 20
17.93179999999996
 10
112.7923
 20
17.84969999999996
 10
112.6723
 20
17.72919999999996
 10
112.5911
 20
17.58119999999996
 10
112.2663
 20
16.58169999999996
 10
112.245
 20
16.41429999999996
 10
112.2713
 20
16.24629999999996
 10
112.343
 20
16.09259999999996
 10
112.4554
 20
15.96619999999996
 10
113.4568
 20
15.11609999999996
 10
113.5318
 20
15.03109999999996
 10
113.58
 20
14.92759999999996
 10
113.5977
 20
14.81479999999996
 10
113.5821
 20
14.70189999999996
 10
113.3197
 20
13.75139999999996
 10
113.2752
 20
13.64649999999996
 10
113.2022
 20
13.55869999999996
 10
113.1078
 20
13.49459999999996
 10
112.9997
 20
13.46009999999996
 10
111.7041
 20
13.24389999999996
 10
111.5428
 20
13.19299999999996
 10
111.4024
 20
13.09789999999996
 10
111.2937
 20
12.96719999999996
 10
111.2261
 20
12.81259999999996
 10
110.9922
 20
11.78789999999996
 10
110.986
 20
11.61929999999996
 10
111.0272
 20
11.45429999999996
 10
111.1125
 20
11.30769999999996
 10
111.2358
 20
11.19179999999996
 10
112.3092
 20
10.43499999999996
 10
112.3917
 20
10.35699999999996
 10
112.4489
 20
10.25819999999996
 10
112.4766
 20
10.14749999999996
 10
112.4712
 20
10.03359999999996
 10
112.2951
 20
9.063499999999957
 10
112.2602
 20
8.954999999999957
 10
112.1954
 20
8.860999999999958
 10
112.107
 20
8.788599999999958
 10
112.0025
 20
8.744599999999958
 10
110.7315
 20
8.413199999999957
 10
110.5754
 20
8.348099999999958
 10
110.4441
 20
8.240799999999957
 10
110.3475
 20
8.100799999999957
 10
110.2941
 20
7.940699999999957
 10
110.153
 20
6.899199999999958
 10
110.1619
 20
6.730699999999957
 10
110.2178
 20
6.570099999999957
 10
110.3158
 20
6.431699999999958
 10
110.449
 20
6.327399999999957
 10
111.586
 20
5.669799999999958
 10
111.675
 20
5.599599999999957
 10
111.7409
 20
5.506299999999958
 10
111.7784
 20
5.398499999999958
 10
111.7832
 20
5.284599999999958
 10
111.6949
 20
4.302599999999957
 10
111.6698
 20
4.191399999999957
 10
111.6137
 20
4.091999999999957
 10
111.5322
 20
4.011999999999957
 10
111.432
 20
3.958699999999957
 10
110.1958
 20
3.514799999999958
 10
110.0461
 20
3.435899999999958
 10
109.925
 20
3.317199999999958
 10
109.8414
 20
3.169099999999957
 10
109.8025
 20
3.004999999999957
 10
109.7554
 20
1.954999999999957
 10
109.7794
 20
1.787999999999957
 10
109.8494
 20
1.632999999999957
 10
109.9594
 20
1.503999999999957
 10
110.1014
 20
1.411999999999957
 10
111.2928
 20
0.8589999999999574
 10
111.3878
 20
0.7969999999999574
 10
111.4618
 20
0.7099999999999573
 10
111.5088
 20
0.6059999999999574
 10
111.5238
 20
0.4929999999999574
 10
111.5238
 20
-0.4930000000000426
 10
111.5088
 20
-0.6060000000000426
 10
111.4618
 20
-0.7100000000000426
 10
111.3878
 20
-0.7970000000000427
 10
111.2928
 20
-0.8590000000000426
 10
110.1014
 20
-1.412000000000043
 10
109.9594
 20
-1.504000000000043
 10
109.8494
 20
-1.633000000000043
 10
109.7794
 20
-1.788000000000043
 10
109.7554
 20
-1.955000000000043
 10
109.8025
 20
-3.005000000000043
 10
109.8414
 20
-3.169100000000042
 10
109.925
 20
-3.317200000000043
 10
110.0461
 20
-3.435900000000043
 10
110.1958
 20
-3.514800000000043
 10
111.432
 20
-3.958700000000043
 10
111.5322
 20
-4.012000000000042
 10
111.6137
 20
-4.092000000000042
 10
111.6698
 20
-4.191400000000042
 10
111.6949
 20
-4.302600000000043
 10
111.7832
 20
-5.284600000000043
 10
111.7784
 20
-5.398500000000043
 10
111.7409
 20
-5.506300000000043
 10
111.675
 20
-5.599600000000042
 10
111.586
 20
-5.669800000000043
 10
110.449
 20
-6.327400000000043
 10
110.3158
 20
-6.431700000000043
 10
110.2178
 20
-6.570100000000043
 10
110.1619
 20
-6.730700000000042
 10
110.153
 20
-6.899200000000043
 10
110.2941
 20
-7.940700000000042
 10
110.3475
 20
-8.100800000000042
 10
110.4441
 20
-8.240800000000043
 10
110.5754
 20
-8.348100000000043
 10
110.7315
 20
-8.413200000000042
 10
112.0025
 20
-8.744600000000043
 10
112.107
 20
-8.788600000000043
 10
112.1954
 20
-8.861000000000043
 10
112.2602
 20
-8.955000000000043
 10
112.2951
 20
-9.063500000000042
 10
112.4712
 20
-10.03360000000004
 10
112.4766
 20
-10.14750000000004
 10
112.4489
 20
-10.25820000000004
 10
112.3917
 20
-10.35700000000004
 10
112.3092
 20
-10.43500000000004
 10
111.2358
 20
-11.19180000000004
 10
111.1125
 20
-11.30770000000004
 10
111.0272
 20
-11.45430000000004
 10
110.986
 20
-11.61930000000004
 10
110.9922
 20
-11.78790000000004
 10
111.2261
 20
-12.81260000000004
 10
111.2937
 20
-12.96720000000004
 10
111.4024
 20
-13.09790000000004
 10
111.5428
 20
-13.19300000000004
 10
111.7041
 20
-13.24390000000004
 10
112.9997
 20
-13.46010000000004
 10
113.1078
 20
-13.49460000000004
 10
113.2022
 20
-13.55870000000004
 10
113.2752
 20
-13.64650000000004
 10
113.3197
 20
-13.75140000000004
 10
113.5821
 20
-14.70190000000004
 10
113.5977
 20
-14.81480000000004
 10
113.58
 20
-14.92760000000004
 10
113.5318
 20
-15.03110000000004
 10
113.4568
 20
-15.11610000000004
 10
112.4554
 20
-15.96620000000004
 10
112.343
 20
-16.09260000000004
 10
112.2713
 20
-16.24630000000004
 10
112.245
 20
-16.41430000000004
 10
112.2663
 20
-16.58170000000004
 10
112.5911
 20
-17.58120000000004
 10
112.6723
 20
-17.72920000000004
 10
112.7923
 20
-17.84970000000004
 10
112.9406
 20
-17.93180000000004
 10
113.1059
 20
-17.96800000000004
 10
114.4156
 20
-18.06710000000004
 10
114.5263
 20
-18.09180000000004
 10
114.6262
 20
-18.14730000000004
 10
114.7067
 20
-18.22810000000004
 10
114.7605
 20
-18.32860000000004
 10
115.1069
 20
-19.25180000000004
 10
115.1326
 20
-19.36280000000004
 10
115.1251
 20
-19.47670000000004
 10
115.0864
 20
-19.58420000000004
 10
115.0192
 20
-19.67560000000004
 10
114.0982
 20
-20.61190000000004
 10
113.9975
 20
-20.74800000000004
 10
113.9399
 20
-20.90740000000004
 10
113.9288
 20
-21.07710000000004
 10
113.965
 20
-21.24190000000004
 10
114.3781
 20
-22.20840000000004
 10
114.4721
 20
-22.34840000000004
 10
114.6025
 20
-22.45770000000004
 10
114.7576
 20
-22.52620000000004
 10
114.9254
 20
-22.54740000000004
 10
116.2388
 20
-22.52880000000004
 10
116.3512
 20
-22.54340000000004
 10
116.4557
 20
-22.58970000000004
 10
116.5431
 20
-22.66300000000004
 10
116.6057
 20
-22.75830000000004
 10
117.0335
 20
-23.64660000000004
 10
117.069
 20
-23.75500000000004
 10
117.0718
 20
-23.86910000000004
 10
117.0429
 20
-23.97950000000004
 10
116.9842
 20
-24.07660000000004
 10
116.1507
 20
-25.09180000000004
 10
116.0627
 20
-25.23630000000004
 10
116.0195
 20
-25.40020000000004
 10
116.0237
 20
-25.57030000000004
 10
116.0745
 20
-25.73110000000004
 10
116.5726
 20
-26.65670000000004
 10
116.6788
 20
-26.78770000000004
 10
116.8184
 20
-26.88490000000004
 10
116.979
 20
-26.93920000000004
 10
117.1481
 20
-26.94530000000004
 10
118.4545
 20
-26.80900000000004
 10
118.5679
 20
-26.81350000000004
 10
118.676
 20
-26.85020000000004
 10
118.7697
 20
-26.91540000000004
 10
118.8405
 20
-27.00470000000004
 10
119.3463
 20
-27.85110000000004
 10
119.3913
 20
-27.95580000000004
 10
119.4043
 20
-28.06920000000004
 10
119.3854
 20
-28.18190000000004
 10
119.3357
 20
-28.28380000000004
 10
118.5966
 20
-29.36960000000004
 10
118.5218
 20
-29.52140000000004
 10
118.4936
 20
-29.68860000000004
 10
118.513
 20
-29.85750000000004
 10
118.578
 20
-30.01320000000004
 10
119.157
 20
-30.89040000000004
 10
119.2746
 20
-31.01140000000004
 10
119.4223
 20
-31.09560000000004
 10
119.5872
 20
-31.13530000000004
 10
119.7561
 20
-31.12630000000004
 10
121.045
 20
-30.87340000000004
 10
121.1583
 20
-30.86770000000004
 10
121.2693
 20
-30.89460000000004
 10
121.3685
 20
-30.95110000000004
 10
121.447
 20
-31.03370000000004
 10
122.0266
 20
-31.83140000000004
 10
122.0809
 20
-31.93160000000004
 10
122.104
 20
-32.04340000000004
 10
122.0953
 20
-32.15730000000004
 10
122.0548
 20
-32.26330000000004
 10
121.4161
 20
-33.41090000000004
 10
121.3552
 20
-33.56880000000005
 10
121.3421
 20
-33.73790000000005
 10
121.3765
 20
-33.90440000000005
 10
121.4553
 20
-34.05360000000005
 10
122.1106
 20
-34.87530000000005
 10
122.2385
 20
-34.98530000000004
 10
122.3932
 20
-35.05600000000004
 10
122.5609
 20
-35.08070000000004
 10
122.7284
 20
-35.05660000000005
 10
123.9894
 20
-34.68920000000004
 10
124.1018
 20
-34.67340000000004
 10
124.2148
 20
-34.69020000000004
 10
124.3186
 20
-34.73760000000004
 10
124.4042
 20
-34.81280000000005
 10
125.0529
 20
-35.55530000000005
 10
125.116
 20
-35.65030000000004
 10
125.149
 20
-35.75960000000004
 10
125.1505
 20
-35.87380000000005
 10
125.1198
 20
-35.98300000000004
 10
124.5864
 20
-37.18330000000005
 10
124.54
 20
-37.34600000000004
 10
124.542
 20
-37.51550000000005
 10
124.5913
 20
-37.67830000000004
 10
124.6831
 20
-37.81980000000004
 10
125.4094
 20
-38.57950000000005
 10
125.5467
 20
-38.67760000000004
 10
125.7071
 20
-38.73410000000004
 10
125.8764
 20
-38.74370000000004
 10
126.041
 20
-38.70460000000004
 10
127.2641
 20
-38.22570000000005
 10
127.3745
 20
-38.19990000000004
 10
127.4885
 20
-38.20650000000004
 10
127.5962
 20
-38.24440000000004
 10
127.6882
 20
-38.31170000000004
 10
128.4009
 20
-38.99300000000004
 10
128.4722
 20
-39.08200000000004
 10
128.5149
 20
-39.18780000000005
 10
128.5267
 20
-39.30140000000004
 10
128.5058
 20
-39.41290000000004
 10
128.0822
 20
-40.65620000000004
 10
128.0506
 20
-40.82240000000004
 10
128.0678
 20
-40.99110000000005
 10
128.1314
 20
-41.14880000000004
 10
128.2356
 20
-41.28160000000004
 10
129.027
 20
-41.97310000000004
 10
129.1726
 20
-42.05840000000004
 10
129.3374
 20
-42.10030000000004
 10
129.5069
 20
-42.09480000000004
 10
129.6673
 20
-42.04110000000004
 10
130.8425
 20
-41.45440000000004
 10
130.9502
 20
-41.41880000000004
 10
131.0644
 20
-41.41520000000004
 10
131.175
 20
-41.44330000000004
 10
131.2727
 20
-41.50200000000005
 10
132.0436
 20
-42.11680000000004
 10
132.1226
 20
-42.19900000000004
 10
132.1746
 20
-42.30060000000005
 10
132.1964
 20
-42.41270000000004
 10
132.1857
 20
-42.52560000000004
 10
131.8752
 20
-43.80180000000004
 10
131.8586
 20
-43.97020000000004
 10
131.8909
 20
-44.13670000000004
 10
131.9684
 20
-44.28800000000004
 10
132.084
 20
-44.41090000000004
 10
132.9343
 20
-45.02870000000004
 10
133.0869
 20
-45.10070000000005
 10
133.2548
 20
-45.12760000000004
 10
133.4231
 20
-45.10690000000005
 10
133.5781
 20
-45.03900000000004
 10
134.696
 20
-44.34940000000005
 10
134.8
 20
-44.30430000000004
 10
134.9134
 20
-44.29040000000004
 10
135.0261
 20
-44.30850000000004
 10
135.1287
 20
-44.35820000000004
 10
135.9516
 20
-44.90140000000005
 10
136.0376
 20
-44.97620000000004
 10
136.0985
 20
-45.07270000000004
 10
136.1303
 20
-45.18240000000004
 10
136.1297
 20
-45.29580000000004
 10
135.9349
 20
-46.59480000000004
 10
135.9335
 20
-46.76400000000005
 10
135.9805
 20
-46.92690000000005
 10
136.0713
 20
-47.07070000000004
 10
136.1975
 20
-47.18270000000004
 10
137.0997
 20
-47.72180000000004
 10
137.2582
 20
-47.77980000000004
 10
137.4278
 20
-47.79160000000005
 10
137.5936
 20
-47.75580000000004
 10
137.7419
 20
-47.67440000000004
 10
138.7934
 20
-46.88730000000005
 10
138.893
 20
-46.83300000000004
 10
139.0047
 20
-46.80910000000004
 10
139.1185
 20
-46.81700000000004
 10
139.2252
 20
-46.85730000000004
 10
140.0934
 20
-47.32450000000004
 10
140.1858
 20
-47.39130000000004
 10
140.2551
 20
-47.48200000000004
 10
140.2967
 20
-47.58840000000004
 10
140.3063
 20
-47.70140000000004
 10
140.2287
 20
-49.01260000000004
 10
140.2424
 20
-49.18120000000004
 10
140.3039
 20
-49.33920000000004
 10
140.4072
 20
-49.47430000000004
 10
140.5429
 20
-49.57460000000004
 10
141.4898
 20
-50.03060000000004
 10
141.6528
 20
-50.07420000000004
 10
141.8228
 20
-50.07070000000004
 10
141.9847
 20
-50.02030000000004
 10
142.1251
 20
-49.92580000000005
 10
143.1018
 20
-49.04770000000004
 10
143.1962
 20
-48.98470000000004
 10
143.3053
 20
-48.95080000000004
 10
143.4194
 20
-48.94850000000005
 10
143.5292
 20
-48.97910000000005
 10
144.4358
 20
-49.36660000000004
 10
144.5338
 20
-49.42480000000004
 10
144.611
 20
-49.50890000000004
 10
144.6619
 20
-49.61120000000004
 10
144.6816
 20
-49.72290000000005
 10
144.7218
 20
-51.03570000000004
 10
144.7506
 20
-51.20250000000004
 10
144.826
 20
-51.35430000000004
 10
144.941
 20
-51.47960000000004
 10
145.0851
 20
-51.56730000000005
 10
146.0692
 20
-51.93660000000004
 10
146.2354
 20
-51.96540000000005
 10
146.4044
 20
-51.94670000000004
 10
146.5611
 20
-51.88200000000004
 10
146.6925
 20
-51.77530000000004
 10
147.5866
 20
-50.81320000000004
 10
147.6749
 20
-50.74200000000004
 10
147.7805
 20
-50.69850000000005
 10
147.894
 20
-50.68590000000004
 10
148.0061
 20
-50.70660000000004
 10
148.9438
 20
-51.01130000000004
 10
149.0466
 20
-51.06040000000004
 10
149.131
 20
-51.13730000000005
 10
149.1909
 20
-51.23450000000004
 10
149.2205
 20
-51.34410000000004
 10
149.3783
 20
-52.64800000000005
 10
149.4219
 20
-52.81150000000004
 10
149.5106
 20
-52.95600000000005
 10
149.6364
 20
-53.07050000000005
 10
149.7878
 20
-53.14490000000004
 10
150.8009
 20
-53.42450000000004
 10
150.9691
 20
-53.43830000000004
 10
151.1358
 20
-53.40450000000004
 10
151.286
 20
-53.32600000000004
 10
151.4073
 20
-53.20800000000004
 10
152.2116
 20
-52.16950000000004
 10
152.2931
 20
-52.09070000000004
 10
152.3944
 20
-52.03790000000004
 10
152.5063
 20
-52.01520000000004
 10
152.6198
 20
-52.02580000000004
 10
153.5811
 20
-52.24520000000004
 10
153.6879
 20
-52.28490000000004
 10
153.7788
 20
-52.35390000000005
 10
153.8472
 20
-52.44540000000004
 10
153.8865
 20
-52.55180000000004
 10
154.1605
 20
-53.83640000000004
 10
154.2186
 20
-53.99530000000004
 10
154.3199
 20
-54.13130000000005
 10
154.4554
 20
-54.23400000000004
 10
154.6129
 20
-54.29460000000005
 10
155.647
 20
-54.48220000000004
 10
155.8157
 20
-54.48090000000004
 10
155.9787
 20
-54.43230000000004
 10
156.1213
 20
-54.34060000000004
 10
156.2316
 20
-54.21220000000005
 10
156.9395
 20
-53.10590000000004
 10
157.0137
 20
-53.02000000000005
 10
157.1098
 20
-52.95840000000004
 10
157.2192
 20
-52.92580000000005
 10
157.3332
 20
-52.92610000000004
 10
158.3102
 20
-53.05840000000004
 10
158.4202
 20
-53.08850000000005
 10
158.517
 20
-53.14900000000004
 10
158.5932
 20
-53.23400000000004
 10
158.6419
 20
-53.33650000000004
 10
159.03
 20
-54.59130000000004
 10
159.1021
 20
-54.74440000000004
 10
159.2152
 20
-54.87070000000004
 10
159.3594
 20
-54.96090000000004
 10
159.5216
 20
-55.00710000000004
 10
160.5684
 20
-55.10130000000004
 10
160.7363
 20
-55.08480000000004
 10
160.8943
 20
-55.02180000000004
 10
161.0281
 20
-54.91770000000005
 10
161.1264
 20
-54.78000000000004
 10
161.7323
 20
-53.61460000000005
 10
161.7985
 20
-53.52250000000004
 10
161.8887
 20
-53.45250000000004
 10
161.9947
 20
-53.41020000000005
 10
162.1083
 20
-53.40030000000004
 10
163.0933
 20
-53.44450000000004
 10
163.2055
 20
-53.46460000000004
 10
163.3073
 20
-53.51620000000004
 10
163.3909
 20
-53.59400000000004
 10
163.4486
 20
-53.69170000000004
 10
163.9476
 20
-54.90670000000004
 10
164.0331
 20
-55.05270000000004
 10
164.157
 20
-55.16840000000004
 10
164.3087
 20
-55.24530000000004
 10
164.4745
 20
-55.27670000000004
 10
165.5255
 20
-55.27670000000004
 10
165.6913
 20
-55.24530000000004
 10
165.843
 20
-55.16840000000004
 10
165.9669
 20
-55.05270000000004
 10
166.0524
 20
-54.90670000000004
 10
166.5514
 20
-53.69170000000004
 10
166.6091
 20
-53.59400000000004
 10
166.6927
 20
-53.51620000000004
 10
166.7945
 20
-53.46460000000004
 10
166.9067
 20
-53.44450000000004
 10
167.8917
 20
-53.40030000000004
 10
168.0053
 20
-53.41020000000005
 10
168.1113
 20
-53.45250000000004
 10
168.2015
 20
-53.52250000000004
 10
168.2677
 20
-53.61460000000005
 10
168.8736
 20
-54.78000000000004
 10
168.9719
 20
-54.91770000000005
 10
169.1057
 20
-55.02180000000004
 10
169.2637
 20
-55.08480000000004
 10
169.4316
 20
-55.10130000000004
 10
170.4784
 20
-55.00710000000004
 10
170.6406
 20
-54.96090000000004
 10
170.7848
 20
-54.87070000000004
 10
170.8979
 20
-54.74440000000004
 10
170.97
 20
-54.59130000000004
 10
171.3581
 20
-53.33650000000004
 10
171.4068
 20
-53.23400000000004
 10
171.483
 20
-53.14900000000004
 10
171.5798
 20
-53.08850000000005
 10
171.6898
 20
-53.05840000000004
 10
172.6668
 20
-52.92610000000004
 10
172.7808
 20
-52.92580000000005
 10
172.8902
 20
-52.95840000000004
 10
172.9863
 20
-53.02000000000005
 10
173.0605
 20
-53.10590000000004
 10
173.7684
 20
-54.21220000000005
 10
173.8787
 20
-54.34060000000004
 10
174.0213
 20
-54.43230000000004
 10
174.1843
 20
-54.48090000000004
 10
174.353
 20
-54.48220000000004
 10
175.3871
 20
-54.29460000000005
 10
175.5446
 20
-54.23400000000004
 10
175.6801
 20
-54.13130000000005
 10
175.7814
 20
-53.99530000000004
 10
175.8395
 20
-53.83640000000004
 10
176.1135
 20
-52.55180000000004
 10
176.1528
 20
-52.44540000000004
 10
176.2212
 20
-52.35390000000005
 10
176.3121
 20
-52.28490000000004
 10
176.4189
 20
-52.24520000000004
 10
177.3802
 20
-52.02580000000004
 10
177.4937
 20
-52.01520000000004
 10
177.6056
 20
-52.03790000000004
 10
177.7069
 20
-52.09070000000004
 10
177.7884
 20
-52.16950000000004
 10
178.5927
 20
-53.20800000000004
 10
178.714
 20
-53.32600000000004
 10
178.8642
 20
-53.40450000000004
 10
179.0309
 20
-53.43830000000004
 10
179.1991
 20
-53.42450000000004
 10
180.2122
 20
-53.14490000000004
 10
180.3636
 20
-53.07050000000005
 10
180.4894
 20
-52.95600000000005
 10
180.5781
 20
-52.81150000000004
 10
180.6217
 20
-52.64800000000005
 10
180.7795
 20
-51.34410000000004
 10
180.8091
 20
-51.23450000000004
 10
180.869
 20
-51.13730000000005
 10
180.9534
 20
-51.06040000000004
 10
181.0562
 20
-51.01130000000004
 10
181.9939
 20
-50.70660000000004
 10
182.106
 20
-50.68590000000004
 10
182.2195
 20
-50.69850000000005
 10
182.3251
 20
-50.74200000000004
 10
182.4134
 20
-50.81320000000004
 10
183.3075
 20
-51.77530000000004
 10
183.4389
 20
-51.88200000000004
 10
183.5956
 20
-51.94670000000004
 10
183.7646
 20
-51.96540000000005
 10
183.9308
 20
-51.93660000000004
 10
184.9149
 20
-51.56730000000005
 10
185.059
 20
-51.47960000000004
 10
185.174
 20
-51.35430000000004
 10
185.2494
 20
-51.20250000000004
 10
185.2782
 20
-51.03570000000004
 10
185.3184
 20
-49.72290000000005
 10
185.3381
 20
-49.61120000000004
 10
185.389
 20
-49.50890000000004
 10
185.4662
 20
-49.42480000000004
 10
185.5642
 20
-49.36660000000004
 10
186.4708
 20
-48.97910000000005
 10
186.5806
 20
-48.94850000000005
 10
186.6947
 20
-48.95080000000004
 10
186.8038
 20
-48.98470000000004
 10
186.8982
 20
-49.04770000000004
 10
187.8749
 20
-49.92580000000005
 10
188.0153
 20
-50.02030000000004
 10
188.1772
 20
-50.07070000000004
 10
188.3472
 20
-50.07420000000004
 10
188.5102
 20
-50.03060000000004
 10
189.4571
 20
-49.57460000000004
 10
189.5928
 20
-49.47430000000004
 10
189.6961
 20
-49.33920000000004
 10
189.7576
 20
-49.18120000000004
 10
189.7713
 20
-49.01260000000004
 10
189.6937
 20
-47.70140000000004
 10
189.7033
 20
-47.58840000000004
 10
189.7449
 20
-47.48200000000004
 10
189.8142
 20
-47.39130000000004
 10
189.9066
 20
-47.32450000000004
 10
190.7748
 20
-46.85730000000004
 10
190.8815
 20
-46.81700000000004
 10
190.9953
 20
-46.80910000000004
 10
191.107
 20
-46.83300000000004
 10
191.2066
 20
-46.88730000000005
 10
192.2581
 20
-47.67440000000004
 10
192.4064
 20
-47.75580000000004
 10
192.5722
 20
-47.79160000000005
 10
192.7418
 20
-47.77980000000004
 10
192.9003
 20
-47.72180000000004
 10
193.8025
 20
-47.18270000000004
 10
193.9287
 20
-47.07070000000004
 10
194.0195
 20
-46.92690000000005
 10
194.0665
 20
-46.76400000000005
 10
194.0651
 20
-46.59480000000004
 10
193.8703
 20
-45.29580000000004
 10
193.8697
 20
-45.18240000000004
 10
193.9015
 20
-45.07270000000004
 10
193.9624
 20
-44.97620000000004
 10
194.0484
 20
-44.90140000000005
 10
194.8713
 20
-44.35820000000004
 10
194.9739
 20
-44.30850000000004
 10
195.0866
 20
-44.29040000000004
 10
195.2
 20
-44.30430000000004
 10
195.304
 20
-44.34940000000005
 10
196.4219
 20
-45.03900000000004
 10
196.5769
 20
-45.10690000000005
 10
196.7452
 20
-45.12760000000004
 10
196.9131
 20
-45.10070000000005
 10
197.0657
 20
-45.02870000000004
 10
197.916
 20
-44.41090000000004
 10
198.0316
 20
-44.28800000000004
 10
198.1091
 20
-44.13670000000004
 10
198.1414
 20
-43.97020000000004
 10
198.1248
 20
-43.80180000000004
 10
197.8143
 20
-42.52560000000004
 10
197.8036
 20
-42.41270000000004
 10
197.8254
 20
-42.30060000000005
 10
197.8774
 20
-42.19900000000004
 10
197.9564
 20
-42.11680000000004
 10
198.7273
 20
-41.50200000000005
 10
198.825
 20
-41.44330000000004
 10
198.9356
 20
-41.41520000000004
 10
199.0498
 20
-41.41880000000004
 10
199.1575
 20
-41.45440000000004
 10
200.3327
 20
-42.04110000000004
 10
200.4931
 20
-42.09480000000004
 10
200.6626
 20
-42.10030000000004
 10
200.8274
 20
-42.05840000000004
 10
200.973
 20
-41.97310000000004
 10
201.7644
 20
-41.28160000000004
 10
201.8686
 20
-41.14880000000004
 10
201.9322
 20
-40.99110000000005
 10
201.9494
 20
-40.82240000000004
 10
201.9178
 20
-40.65620000000004
 10
201.4942
 20
-39.41290000000004
 10
201.4733
 20
-39.30140000000004
 10
201.4851
 20
-39.18780000000005
 10
201.5278
 20
-39.08200000000004
 10
201.5991
 20
-38.99300000000004
 10
202.3118
 20
-38.31170000000004
 10
202.4038
 20
-38.24440000000004
 10
202.5115
 20
-38.20650000000004
 10
202.6255
 20
-38.19990000000004
 10
202.7359
 20
-38.22570000000005
 10
203.959
 20
-38.70460000000004
 10
204.1236
 20
-38.74370000000004
 10
204.2929
 20
-38.73410000000004
 10
204.4533
 20
-38.67760000000004
 10
204.5906
 20
-38.57950000000005
 10
205.3169
 20
-37.81980000000004
 10
205.4087
 20
-37.67830000000004
 10
205.458
 20
-37.51550000000005
 10
205.46
 20
-37.34600000000004
 10
205.4136
 20
-37.18330000000005
 10
204.8802
 20
-35.98300000000004
 10
204.8495
 20
-35.87380000000005
 10
204.851
 20
-35.75960000000004
 10
204.884
 20
-35.65030000000004
 10
204.9471
 20
-35.55530000000005
 10
205.5958
 20
-34.81280000000005
 10
205.6814
 20
-34.73760000000004
 10
205.7852
 20
-34.69020000000004
 10
205.8982
 20
-34.67340000000004
 10
206.0106
 20
-34.68920000000004
 10
207.2716
 20
-35.05660000000005
 10
207.4391
 20
-35.08070000000004
 10
207.6068
 20
-35.05600000000004
 10
207.7615
 20
-34.98530000000004
 10
207.8894
 20
-34.87530000000005
 10
208.5447
 20
-34.05360000000005
 10
208.6235
 20
-33.90440000000005
 10
208.6579
 20
-33.73790000000005
 10
208.6448
 20
-33.56880000000005
 10
208.5839
 20
-33.41090000000004
 10
207.9452
 20
-32.26330000000004
 10
207.9047
 20
-32.15730000000004
 10
207.896
 20
-32.04340000000004
 10
207.9191
 20
-31.93160000000004
 10
207.9734
 20
-31.83140000000004
 10
208.553
 20
-31.03370000000004
 10
208.6315
 20
-30.95110000000004
 10
208.7307
 20
-30.89460000000004
 10
208.8417
 20
-30.86770000000004
 10
208.955
 20
-30.87340000000004
 10
210.2439
 20
-31.12630000000004
 10
210.4128
 20
-31.13530000000004
 10
210.5777
 20
-31.09560000000004
 10
210.7254
 20
-31.01140000000004
 10
210.843
 20
-30.89040000000004
 10
211.422
 20
-30.01320000000004
 10
211.487
 20
-29.85750000000004
 10
211.5064
 20
-29.68860000000004
 10
211.4782
 20
-29.52140000000004
 10
211.4034
 20
-29.36960000000004
 10
210.6643
 20
-28.28380000000004
 10
210.6146
 20
-28.18190000000004
 10
210.5957
 20
-28.06920000000004
 10
210.6087
 20
-27.95580000000004
 10
210.6537
 20
-27.85110000000004
 10
211.1595
 20
-27.00470000000004
 10
211.2303
 20
-26.91540000000004
 10
211.324
 20
-26.85020000000004
 10
211.4321
 20
-26.81350000000004
 10
211.5455
 20
-26.80900000000004
 10
212.8519
 20
-26.94530000000004
 10
213.021
 20
-26.93920000000004
 10
213.1816
 20
-26.88490000000004
 10
213.3212
 20
-26.78770000000004
 10
213.4274
 20
-26.65670000000004
 10
213.9255
 20
-25.73110000000004
 10
213.9763
 20
-25.57030000000004
 10
213.9805
 20
-25.40020000000004
 10
213.9373
 20
-25.23630000000004
 10
213.8493
 20
-25.09180000000004
 10
213.0158
 20
-24.07660000000004
 10
212.9571
 20
-23.97950000000004
 10
212.9282
 20
-23.86910000000004
 10
212.931
 20
-23.75500000000004
 10
212.9665
 20
-23.64660000000004
 10
213.3943
 20
-22.75830000000004
 10
213.4569
 20
-22.66300000000004
 10
213.5443
 20
-22.58970000000004
 10
213.6488
 20
-22.54340000000004
 10
213.7612
 20
-22.52880000000004
 10
215.0746
 20
-22.54740000000004
 10
215.2424
 20
-22.52620000000004
 10
215.3975
 20
-22.45770000000004
 10
215.5279
 20
-22.34840000000004
 10
215.6219
 20
-22.20840000000004
 10
216.035
 20
-21.24190000000004
 10
216.0712
 20
-21.07710000000004
 10
216.0601
 20
-20.90740000000004
 10
216.0025
 20
-20.74800000000004
 10
215.9018
 20
-20.61190000000004
 10
214.9808
 20
-19.67560000000004
 10
214.9136
 20
-19.58420000000004
 10
214.8749
 20
-19.47670000000004
 10
214.8674
 20
-19.36280000000004
 10
214.8931
 20
-19.25180000000004
 10
215.2395
 20
-18.32860000000004
 10
215.2933
 20
-18.22810000000004
 10
215.3738
 20
-18.14730000000004
 10
215.4737
 20
-18.09180000000004
 10
215.5844
 20
-18.06710000000004
 10
216.8941
 20
-17.96800000000004
 10
217.0594
 20
-17.93180000000004
 10
217.2077
 20
-17.84970000000004
 10
217.3277
 20
-17.72920000000004
 10
217.4089
 20
-17.58120000000004
 10
217.7337
 20
-16.58170000000004
 10
217.755
 20
-16.41430000000004
 10
217.7287
 20
-16.24630000000004
 10
217.657
 20
-16.09260000000004
 10
217.5446
 20
-15.96620000000004
 10
216.5432
 20
-15.11610000000004
 10
216.4682
 20
-15.03110000000004
 10
216.42
 20
-14.92760000000004
 10
216.4023
 20
-14.81480000000004
 10
216.4179
 20
-14.70190000000004
 10
216.6803
 20
-13.75140000000004
 10
216.7248
 20
-13.64650000000004
 10
216.7978
 20
-13.55870000000004
 10
216.8922
 20
-13.49460000000004
 10
217.0003
 20
-13.46010000000004
 10
218.2959
 20
-13.24390000000004
 10
218.4572
 20
-13.19300000000004
 10
218.5976
 20
-13.09790000000004
 10
218.7063
 20
-12.96720000000004
 10
218.7739
 20
-12.81260000000004
 10
219.0078
 20
-11.78790000000004
 10
219.014
 20
-11.61930000000004
 10
218.9728
 20
-11.45430000000004
 10
218.8875
 20
-11.30770000000004
 10
218.7642
 20
-11.19180000000004
 10
217.6908
 20
-10.43500000000004
 10
217.6083
 20
-10.35700000000004
 10
217.5511
 20
-10.25820000000004
 10
217.5234
 20
-10.14750000000004
 10
217.5288
 20
-10.03360000000004
 10
217.7049
 20
-9.063500000000042
 10
217.7398
 20
-8.955000000000043
 10
217.8046
 20
-8.861000000000043
 10
217.893
 20
-8.788600000000043
 10
217.9975
 20
-8.744600000000043
 10
219.2685
 20
-8.413200000000042
 10
219.4246
 20
-8.348100000000043
 10
219.5559
 20
-8.240800000000043
 10
219.6525
 20
-8.100800000000042
 10
219.7059
 20
-7.940700000000042
 10
219.847
 20
-6.899200000000043
 10
219.8381
 20
-6.730700000000042
 10
219.7822
 20
-6.570100000000043
 10
219.6842
 20
-6.431700000000043
 10
219.551
 20
-6.327400000000043
 10
218.414
 20
-5.669800000000043
 10
218.325
 20
-5.599600000000042
 10
218.2591
 20
-5.506300000000043
 10
218.2216
 20
-5.398500000000043
 10
218.2168
 20
-5.284600000000043
 10
218.3051
 20
-4.302600000000043
 10
218.3302
 20
-4.191400000000042
 10
218.3863
 20
-4.092000000000042
 10
218.4678
 20
-4.012000000000042
 10
218.568
 20
-3.958700000000043
 10
219.8042
 20
-3.514800000000043
 10
219.9539
 20
-3.435900000000043
 10
220.075
 20
-3.317200000000043
 10
220.1586
 20
-3.169100000000042
 10
220.1975
 20
-3.005000000000043
  0
LWPOLYLINE
  5
9CD
330
1D4B
100
AcDbEntity
  8
Pulley12-70
 62
     0
370
     5
100
AcDbPolyline
 90
     1400
 70
   129
 43
0.0
 10
55.24459999999999
 20
-1.954999999999999
 10
55.22059999999999
 20
-1.788000000000097
 10
55.1506
 20
-1.633000000000053
 10
55.04060000000001
 20
-1.503999999999948
 10
54.89859999999999
 20
-1.412000000000063
 10
53.70720000000011
 20
-0.858999999999952
 10
53.6122
 20
-0.7970000000000539
 10
53.53819999999999
 20
-0.7100000000000222
 10
53.49119999999999
 20
-0.6060000000001082
 10
53.47620000000001
 20
-0.4930000000000234
 10
53.47620000000009
 20
0.4930000000000235
 10
53.49119999999999
 20
0.6059999999999803
 10
53.53819999999999
 20
0.7099999999998801
 10
53.6122
 20
0.7970000000000397
 10
53.7072
 20
0.858999999999952
 10
54.89859999999999
 20
1.412000000000006
 10
55.04060000000001
 20
1.503999999999919
 10
55.1506
 20
1.632999999999896
 10
55.22059999999999
 20
1.787999999999939
 10
55.24459999999999
 20
1.955000000000041
 10
55.19749999999999
 20
3.004999999999995
 10
55.15860000000001
 20
3.169100000000028
 10
55.07499999999999
 20
3.317199999999942
 10
54.9539
 20
3.43589999999999
 10
54.80420000000001
 20
3.514800000000009
 10
53.56800000000001
 20
3.958700000000021
 10
53.46780000000001
 20
4.011999999999887
 10
53.38630000000001
 20
4.091999999999899
 10
53.33019999999999
 20
4.191400000000002
 10
53.30510000000001
 20
4.302599999999941
 10
53.21680000000009
 20
5.284600000000054
 10
53.22160000000011
 20
5.398500000000013
 10
53.25909999999999
 20
5.506299999999996
 10
53.32499999999999
 20
5.599599999999867
 10
53.41399999999999
 20
5.669800000000038
 10
54.55099999999999
 20
6.327399999999912
 10
54.6842
 20
6.43169999999995
 10
54.78219999999999
 20
6.570100000000053
 10
54.8381
 20
6.730699999999942
 10
54.84700000000001
 20
6.89920000000005
 10
54.70590000000001
 20
7.940699999999907
 10
54.6525
 20
8.100799999999921
 10
54.55590000000001
 20
8.240799999999993
 10
54.4246
 20
8.348099999999945
 10
54.26849999999999
 20
8.413200000000003
 10
52.99750000000009
 20
8.74460000000002
 10
52.893
 20
8.788599999999931
 10
52.80459999999999
 20
8.860999999999962
 10
52.73980000000009
 20
8.955000000000055
 10
52.70490000000001
 20
9.06349999999992
 10
52.52879999999999
 20
10.03360000000004
 10
52.52340000000009
 20
10.14749999999995
 10
52.55109999999999
 20
10.25819999999998
 10
52.60830000000001
 20
10.35699999999995
 10
52.6908
 20
10.43499999999996
 10
53.76419999999999
 20
11.19179999999993
 10
53.88749999999999
 20
11.30770000000004
 10
53.97280000000001
 20
11.45430000000001
 10
54.01400000000001
 20
11.61929999999993
 10
54.00780000000009
 20
11.78790000000004
 10
53.7739
 20
12.81260000000003
 10
53.7063
 20
12.96719999999999
 10
53.5976
 20
13.09789999999991
 10
53.4572
 20
13.19300000000001
 10
53.29589999999999
 20
13.24389999999997
 10
52.0003000000001
 20
13.46009999999996
 10
51.8922
 20
13.49459999999998
 10
51.7978
 20
13.5587
 10
51.72479999999999
 20
13.64649999999993
 10
51.68029999999999
 20
13.75140000000002
 10
51.41790000000009
 20
14.70190000000003
 10
51.4023
 20
14.81479999999995
 10
51.41999999999999
 20
14.92759999999996
 10
51.4682
 20
15.03109999999991
 10
51.54320000000001
 20
15.11609999999991
 10
52.5446
 20
15.96619999999993
 10
52.65700000000001
 20
16.09259999999998
 10
52.7287
 20
16.24629999999989
 10
52.755
 20
16.41430000000001
 10
52.73370000000011
 20
16.58170000000007
 10
52.40889999999999
 20
17.58119999999996
 10
52.32769999999999
 20
17.72919999999997
 10
52.20769999999999
 20
17.84970000000006
 10
52.05940000000001
 20
17.93179999999994
 10
51.89410000000009
 20
17.96800000000008
 10
50.58439999999999
 20
18.06709999999994
 10
50.47370000000001
 20
18.09180000000001
 10
50.37379999999999
 20
18.1473
 10
50.29329999999999
 20
18.22810000000006
 10
50.23949999999999
 20
18.32859999999997
 10
49.89310000000009
 20
19.25180000000002
 10
49.8674
 20
19.36280000000002
 10
49.8749
 20
19.47670000000001
 10
49.9136
 20
19.58419999999997
 10
49.98079999999999
 20
19.67559999999993
 10
50.90180000000001
 20
20.61189999999999
 10
51.0025
 20
20.74799999999996
 10
51.06010000000001
 20
20.9073999999999
 10
51.0712
 20
21.07709999999998
 10
51.035
 20
21.24189999999996
 10
50.62190000000001
 20
22.20839999999999
 10
50.52789999999999
 20
22.34839999999994
 10
50.39750000000001
 20
22.45769999999991
 10
50.24240000000009
 20
22.52620000000001
 10
50.07460000000009
 20
22.54739999999998
 10
48.76120000000009
 20
22.52880000000006
 10
48.64879999999999
 20
22.54340000000002
 10
48.54429999999999
 20
22.58969999999998
 10
48.45689999999999
 20
22.66300000000003
 10
48.39429999999999
 20
22.75830000000002
 10
47.9665
 20
23.64659999999998
 10
47.93100000000001
 20
23.75499999999996
 10
47.9282
 20
23.86909999999993
 10
47.9571
 20
23.97949999999993
 10
48.01580000000001
 20
24.07659999999997
 10
48.8493
 20
25.09179999999992
 10
48.93729999999999
 20
25.23630000000009
 10
48.98050000000009
 20
25.4002
 10
48.97630000000009
 20
25.57029999999998
 10
48.9255
 20
25.73109999999996
 10
48.42740000000001
 20
26.65669999999996
 10
48.3212
 20
26.78770000000003
 10
48.1816
 20
26.88489999999998
 10
48.02099999999999
 20
26.93919999999997
 10
47.8519
 20
26.94530000000001
 10
46.5455
 20
26.80900000000001
 10
46.43209999999999
 20
26.81349999999999
 10
46.3240000000001
 20
26.85020000000005
 10
46.2303
 20
26.91539999999992
 10
46.15950000000001
 20
27.00469999999993
 10
45.65369999999999
 20
27.85109999999991
 10
45.6087
 20
27.95580000000003
 10
45.59569999999999
 20
28.06920000000003
 10
45.6146
 20
28.18189999999992
 10
45.6643
 20
28.28379999999992
 10
46.4034
 20
29.36959999999994
 10
46.47819999999999
 20
29.52139999999997
 10
46.50640000000001
 20
29.68859999999993
 10
46.48699999999999
 20
29.85750000000002
 10
46.422
 20
30.01319999999993
 10
45.8430000000001
 20
30.89040000000003
 10
45.72540000000001
 20
31.01139999999995
 10
45.57769999999999
 20
31.09560000000002
 10
45.4128
 20
31.13530000000005
 10
45.24390000000011
 20
31.12629999999997
 10
43.95500000000001
 20
30.87339999999992
 10
43.84170000000009
 20
30.8677
 10
43.73070000000001
 20
30.89459999999996
 10
43.6315000000001
 20
30.95110000000006
 10
43.553
 20
31.0337
 10
42.9734
 20
31.83140000000002
 10
42.91909999999999
 20
31.93160000000002
 10
42.89599999999999
 20
32.04339999999992
 10
42.90469999999999
 20
32.15729999999995
 10
42.9452
 20
32.26329999999988
 10
43.5839
 20
33.41089999999998
 10
43.6448
 20
33.56880000000007
 10
43.65790000000001
 20
33.73789999999997
 10
43.62350000000001
 20
33.90439999999997
 10
43.54470000000001
 20
34.05359999999995
 10
42.88940000000011
 20
34.87529999999997
 10
42.76150000000001
 20
34.98529999999991
 10
42.60679999999999
 20
35.05600000000007
 10
42.4391
 20
35.0806999999999
 10
42.27160000000001
 20
35.05659999999992
 10
41.01060000000001
 20
34.68919999999996
 10
40.8982
 20
34.6734000000001
 10
40.7852
 20
34.69019999999982
 10
40.6814
 20
34.73759999999999
 10
40.5958
 20
34.81279999999996
 10
39.94710000000001
 20
35.55529999999989
 10
39.88399999999999
 20
35.65029999999999
 10
39.851
 20
35.75959999999993
 10
39.84950000000001
 20
35.87379999999997
 10
39.8802
 20
35.98299999999999
 10
40.4136
 20
37.18330000000002
 10
40.46000000000001
 20
37.34600000000001
 10
40.458
 20
37.51549999999997
 10
40.4087000000001
 20
37.67830000000001
 10
40.3169
 20
37.81979999999993
 10
39.59059999999999
 20
38.57950000000007
 10
39.45330000000001
 20
38.67759999999993
 10
39.29290000000009
 20
38.73410000000007
 10
39.12360000000001
 20
38.74370000000004
 10
38.959
 20
38.7046
 10
37.73589999999999
 20
38.22569999999995
 10
37.62549999999999
 20
38.1998999999999
 10
37.5115000000001
 20
38.20650000000003
 10
37.40379999999999
 20
38.24439999999993
 10
37.31180000000001
 20
38.31169999999999
 10
36.59909999999999
 20
38.9929999999999
 10
36.52780000000001
 20
39.08199999999998
 10
36.48509999999999
 20
39.1878
 10
36.47330000000011
 20
39.30139999999999
 10
36.49420000000001
 20
39.41289999999991
 10
36.9178
 20
40.65619999999997
 10
36.9494
 20
40.82239999999994
 10
36.93219999999999
 20
40.99109999999995
 10
36.86859999999999
 20
41.14879999999998
 10
36.76439999999999
 20
41.2815999999999
 10
35.9730000000001
 20
41.97310000000008
 10
35.82740000000001
 20
42.05839999999988
 10
35.6626
 20
42.10029999999994
 10
35.4931
 20
42.09480000000003
 10
35.33269999999999
 20
42.04110000000003
 10
34.1575
 20
41.45439999999994
 10
34.0498
 20
41.41879999999988
 10
33.93559999999999
 20
41.41519999999988
 10
33.82499999999999
 20
41.44330000000001
 10
33.72730000000001
 20
41.50199999999997
 10
32.9564
 20
42.11680000000005
 10
32.87739999999999
 20
42.19900000000004
 10
32.8254
 20
42.30059999999996
 10
32.8036000000001
 20
42.41270000000006
 10
32.8143
 20
42.5256
 10
33.12480000000011
 20
43.80180000000005
 10
33.1414
 20
43.97019999999993
 10
33.10910000000001
 20
44.13670000000004
 10
33.0316
 20
44.28799999999989
 10
32.916
 20
44.41089999999996
 10
32.06569999999999
 20
45.0287
 10
31.91309999999999
 20
45.10070000000002
 10
31.74520000000001
 20
45.12759999999996
 10
31.57689999999999
 20
45.1069
 10
31.42189999999999
 20
45.03899999999996
 10
30.304
 20
44.34940000000002
 10
30.19999999999999
 20
44.3043
 10
30.0866
 20
44.29039999999995
 10
29.97389999999999
 20
44.30849999999996
 10
29.87129999999999
 20
44.35820000000002
 10
29.04839999999999
 20
44.90139999999987
 10
28.9624
 20
44.97619999999998
 10
28.90150000000011
 20
45.0727
 10
28.86969999999999
 20
45.18240000000002
 10
28.87029999999999
 20
45.29579999999991
 10
29.0651
 20
46.59480000000001
 10
29.06649999999999
 20
46.76399999999988
 10
29.01949999999999
 20
46.92690000000001
 10
28.92869999999999
 20
47.07070000000004
 10
28.80250000000009
 20
47.18270000000005
 10
27.90029999999999
 20
47.72180000000008
 10
27.74180000000001
 20
47.77979999999998
 10
27.57220000000001
 20
47.79160000000001
 10
27.40639999999999
 20
47.7558
 10
27.25810000000001
 20
47.67439999999987
 10
26.20660000000001
 20
46.88729999999997
 10
26.107
 20
46.8329999999999
 10
25.99529999999999
 20
46.80910000000005
 10
25.88149999999999
 20
46.81700000000001
 10
25.7748
 20
46.85729999999987
 10
24.90660000000011
 20
47.32450000000006
 10
24.8142
 20
47.39129999999996
 10
24.7449
 20
47.48199999999989
 10
24.70330000000001
 20
47.58839999999985
 10
24.69370000000001
 20
47.70139999999994
 10
24.7713
 20
49.01259999999995
 10
24.7576
 20
49.18119999999998
 10
24.6961
 20
49.33920000000002
 10
24.59280000000001
 20
49.47429999999996
 10
24.4571
 20
49.57459999999995
 10
23.5102
 20
50.03059999999995
 10
23.34719999999999
 20
50.07419999999995
 10
23.1772
 20
50.07069999999995
 10
23.0153
 20
50.02029999999998
 10
22.8749
 20
49.92579999999994
 10
21.8982
 20
49.04770000000003
 10
21.80380000000011
 20
48.98470000000005
 10
21.69470000000001
 20
48.95079999999999
 10
21.5806
 20
48.94849999999992
 10
21.4708
 20
48.97909999999997
 10
20.5642
 20
49.36659999999998
 10
20.46619999999999
 20
49.42479999999995
 10
20.38900000000001
 20
49.50889999999997
 10
20.3381
 20
49.61119999999995
 10
20.3184
 20
49.72289999999994
 10
20.2782
 20
51.03570000000003
 10
20.24940000000001
 20
51.2025
 10
20.17400000000001
 20
51.35429999999995
 10
20.05900000000011
 20
51.47959999999999
 10
19.91489999999999
 20
51.56729999999992
 10
18.9308
 20
51.93660000000003
 10
18.7646
 20
51.96539999999997
 10
18.59559999999999
 20
51.94670000000001
 10
18.43889999999999
 20
51.88199999999999
 10
18.3075
 20
51.77529999999994
 10
17.4134
 20
50.81320000000007
 10
17.32509999999999
 20
50.742
 10
17.21950000000001
 20
50.69849999999997
 10
17.10599999999999
 20
50.68589999999988
 10
16.9939
 20
50.70660000000004
 10
16.05619999999999
 20
51.01129999999997
 10
15.95339999999999
 20
51.06039999999992
 10
15.869
 20
51.13730000000002
 10
15.8091
 20
51.23449999999995
 10
15.77950000000001
 20
51.34409999999995
 10
15.6217
 20
52.64800000000001
 10
15.57810000000001
 20
52.81149999999997
 10
15.48939999999999
 20
52.95599999999984
 10
15.36359999999999
 20
53.0705
 10
15.2122
 20
53.14489999999996
 10
14.19909999999999
 20
53.42449999999995
 10
14.0309
 20
53.43829999999987
 10
13.86420000000001
 20
53.4045
 10
13.714
 20
53.32599999999995
 10
13.59270000000009
 20
53.20800000000002
 10
12.7884
 20
52.16949999999999
 10
12.70689999999999
 20
52.0906999999999
 10
12.60560000000001
 20
52.03789999999996
 10
12.49369999999999
 20
52.01519999999991
 10
12.3802
 20
52.02579999999995
 10
11.41890000000001
 20
52.24519999999989
 10
11.31209999999999
 20
52.28490000000001
 10
11.22120000000001
 20
52.35390000000002
 10
11.15280000000001
 20
52.44539999999994
 10
11.11349999999999
 20
52.55179999999991
 10
10.83949999999999
 20
53.83639999999995
 10
10.78139999999999
 20
53.99530000000006
 10
10.68010000000001
 20
54.13129999999997
 10
10.5446
 20
54.23399999999994
 10
10.3871
 20
54.29459999999996
 10
9.353000000000009
 20
54.48219999999997
 10
9.184300000000007
 20
54.48090000000001
 10
9.021299999999997
 20
54.43230000000004
 10
8.87870000000001
 20
54.34059999999995
 10
8.768400000000014
 20
54.2121999999999
 10
8.06049999999999
 20
53.10590000000001
 10
7.986300000000114
 20
53.02
 10
7.890199999999993
 20
52.9584
 10
7.780799999999999
 20
52.92579999999994
 10
7.666799999999995
 20
52.92609999999998
 10
6.689799999999991
 20
53.05839999999993
 10
6.579800000000006
 20
53.08849999999997
 10
6.483000000000004
 20
53.14899999999996
 10
6.406800000000004
 20
53.23399999999999
 10
6.358100000000007
 20
53.33649999999993
 10
5.969999999999999
 20
54.59129999999995
 10
5.897899999999993
 20
54.74439999999993
 10
5.78479999999999
 20
54.87069999999996
 10
5.640600000000006
 20
54.96089999999997
 10
5.478399999999993
 20
55.00709999999997
 10
4.431600000000003
 20
55.10129999999999
 10
4.263700000000114
 20
55.08479999999993
 10
4.105700000000013
 20
55.02179999999993
 10
3.971900000000005
 20
54.91769999999993
 10
3.87360000000001
 20
54.77999999999989
 10
3.267699999999991
 20
53.61459999999996
 10
3.20150000000001
 20
53.52249999999997
 10
3.111300000000114
 20
53.45249999999997
 10
3.005300000000091
 20
53.41019999999993
 10
2.891699999999986
 20
53.40029999999999
 10
1.906700000000001
 20
53.44450000000002
 10
1.794499999999999
 20
53.46459999999992
 10
1.692700000000002
 20
53.5161999999999
 10
1.609100000000012
 20
53.59399999999994
 10
1.551400000000001
 20
53.6917
 10
1.052400000000006
 20
54.90669999999999
 10
0.9669000000000096
 20
55.05269999999998
 10
0.8429999999999893
 20
55.16839999999992
 10
0.6913000000000125
 20
55.24529999999996
 10
0.5254999999999939
 20
55.27669999999997
 10
-0.5254999999999939
 20
55.27669999999993
 10
-0.6913000000000125
 20
55.24529999999989
 10
-0.8429999999999893
 20
55.16839999999995
 10
-0.9669000000000096
 20
55.05269999999998
 10
-1.052400000000006
 20
54.90669999999996
 10
-1.551400000000001
 20
53.69169999999993
 10
-1.609100000000012
 20
53.59399999999994
 10
-1.692700000000002
 20
53.51619999999999
 10
-1.794499999999999
 20
53.46459999999998
 10
-1.906700000000001
 20
53.44449999999999
 10
-2.891699999999986
 20
53.40029999999998
 10
-3.005300000000005
 20
53.41019999999993
 10
-3.111299999999886
 20
53.45249999999997
 10
-3.20150000000001
 20
53.52250000000002
 10
-3.267699999999991
 20
53.6145999999999
 10
-3.87360000000001
 20
54.77999999999996
 10
-3.971900000000005
 20
54.91769999999998
 10
-4.105700000000013
 20
55.0218
 10
-4.263699999999886
 20
55.08479999999999
 10
-4.431600000000003
 20
55.10129999999997
 10
-5.478399999999993
 20
55.00709999999999
 10
-5.640600000000006
 20
54.9609
 10
-5.78479999999999
 20
54.87069999999993
 10
-5.897899999999993
 20
54.74439999999993
 10
-5.969999999999999
 20
54.59129999999995
 10
-6.358100000000007
 20
53.33649999999996
 10
-6.406800000000004
 20
53.23399999999994
 10
-6.483000000000004
 20
53.14899999999996
 10
-6.579800000000006
 20
53.08849999999994
 10
-6.689799999999991
 20
53.05839999999997
 10
-7.666799999999995
 20
52.92609999999998
 10
-7.780799999999999
 20
52.9258
 10
-7.890199999999993
 20
52.95839999999997
 10
-7.9863
 20
53.01999999999997
 10
-8.06049999999999
 20
53.10589999999998
 10
-8.768400000000014
 20
54.21219999999997
 10
-8.87870000000001
 20
54.34059999999995
 10
-9.021299999999997
 20
54.43230000000007
 10
-9.184300000000007
 20
54.48090000000001
 10
-9.353000000000009
 20
54.48219999999997
 10
-10.38709999999989
 20
54.29460000000002
 10
-10.5446
 20
54.23399999999999
 10
-10.68010000000001
 20
54.13129999999997
 10
-10.78139999999999
 20
53.99529999999995
 10
-10.83949999999999
 20
53.83639999999993
 10
-11.11349999999999
 20
52.55179999999995
 10
-11.15280000000001
 20
52.44540000000002
 10
-11.22120000000001
 20
52.35389999999997
 10
-11.31209999999999
 20
52.28490000000001
 10
-11.41890000000001
 20
52.2451999999999
 10
-12.3802
 20
52.02579999999995
 10
-12.49369999999999
 20
52.01519999999995
 10
-12.60560000000001
 20
52.03789999999994
 10
-12.70689999999999
 20
52.09069999999998
 10
-12.7884
 20
52.16949999999999
 10
-13.59270000000001
 20
53.20799999999993
 10
-13.714
 20
53.32599999999998
 10
-13.86420000000001
 20
53.40449999999992
 10
-14.0309
 20
53.43829999999996
 10
-14.19909999999999
 20
53.42449999999998
 10
-15.2122
 20
53.14489999999996
 10
-15.36359999999999
 20
53.07049999999997
 10
-15.48939999999999
 20
52.95599999999989
 10
-15.57810000000001
 20
52.81149999999997
 10
-15.6217
 20
52.64799999999996
 10
-15.77950000000001
 20
51.34409999999993
 10
-15.8091
 20
51.23449999999995
 10
-15.869
 20
51.13729999999994
 10
-15.95339999999999
 20
51.06039999999994
 10
-16.05619999999999
 20
51.01130000000002
 10
-16.9939
 20
50.70659999999994
 10
-17.10599999999999
 20
50.68590000000005
 10
-17.21950000000001
 20
50.69849999999997
 10
-17.32509999999999
 20
50.74199999999992
 10
-17.4134
 20
50.81319999999998
 10
-18.3075
 20
51.77530000000003
 10
-18.43889999999999
 20
51.88199999999997
 10
-18.59559999999999
 20
51.94669999999998
 10
-18.7646
 20
51.96539999999995
 10
-18.9308
 20
51.93659999999998
 10
-19.91489999999999
 20
51.56729999999992
 10
-20.05899999999991
 20
51.47959999999999
 10
-20.17400000000001
 20
51.35429999999995
 10
-20.24940000000001
 20
51.20249999999997
 10
-20.2782
 20
51.03569999999992
 10
-20.3184
 20
49.72289999999997
 10
-20.3381
 20
49.61119999999995
 10
-20.38900000000001
 20
49.50889999999997
 10
-20.46619999999999
 20
49.42479999999994
 10
-20.5642
 20
49.36659999999993
 10
-21.4708
 20
48.97909999999997
 10
-21.5806
 20
48.94850000000004
 10
-21.69470000000001
 20
48.95080000000003
 10
-21.8038
 20
48.98469999999995
 10
-21.8982
 20
49.04769999999998
 10
-22.8749
 20
49.92579999999994
 10
-23.0153
 20
50.02030000000001
 10
-23.1772
 20
50.07069999999995
 10
-23.34719999999999
 20
50.07419999999992
 10
-23.5102
 20
50.03059999999995
 10
-24.4571
 20
49.57459999999995
 10
-24.59280000000001
 20
49.47429999999996
 10
-24.6961
 20
49.33919999999997
 10
-24.7576
 20
49.18119999999995
 10
-24.7713
 20
49.01259999999998
 10
-24.69370000000001
 20
47.70139999999998
 10
-24.70330000000001
 20
47.58840000000001
 10
-24.7449
 20
47.48199999999995
 10
-24.8142
 20
47.39129999999996
 10
-24.9066
 20
47.32449999999995
 10
-25.7748
 20
46.85729999999997
 10
-25.88149999999999
 20
46.817
 10
-25.99529999999999
 20
46.80909999999998
 10
-26.107
 20
46.83299999999992
 10
-26.20660000000001
 20
46.88729999999994
 10
-27.25810000000001
 20
47.67439999999998
 10
-27.40639999999999
 20
47.75579999999997
 10
-27.57220000000001
 20
47.79159999999995
 10
-27.74180000000001
 20
47.77979999999994
 10
-27.90029999999999
 20
47.72179999999996
 10
-28.80250000000001
 20
47.18269999999997
 10
-28.92869999999999
 20
47.07069999999999
 10
-29.01949999999999
 20
46.92689999999999
 10
-29.06649999999999
 20
46.76399999999997
 10
-29.0651
 20
46.59479999999997
 10
-28.87029999999999
 20
45.29579999999999
 10
-28.86969999999999
 20
45.18239999999996
 10
-28.9015
 20
45.07269999999997
 10
-28.9624
 20
44.97619999999995
 10
-29.04839999999999
 20
44.9014
 10
-29.87129999999999
 20
44.35819999999998
 10
-29.97389999999999
 20
44.30850000000001
 10
-30.08659999999989
 20
44.29039999999997
 10
-30.19999999999999
 20
44.30429999999993
 10
-30.304
 20
44.34939999999996
 10
-31.42189999999999
 20
45.03899999999999
 10
-31.57689999999991
 20
45.10689999999997
 10
-31.74520000000001
 20
45.12759999999999
 10
-31.91309999999999
 20
45.10069999999997
 10
-32.06569999999999
 20
45.02869999999997
 10
-32.916
 20
44.41089999999997
 10
-33.0316
 20
44.28799999999993
 10
-33.10910000000001
 20
44.13669999999995
 10
-33.1414
 20
43.97019999999998
 10
-33.12479999999999
 20
43.8018
 10
-32.8143
 20
42.52559999999993
 10
-32.80359999999999
 20
42.41269999999999
 10
-32.8254
 20
42.30059999999996
 10
-32.87739999999999
 20
42.19899999999993
 10
-32.9564
 20
42.11679999999996
 10
-33.72730000000001
 20
41.50199999999994
 10
-33.82499999999999
 20
41.44329999999993
 10
-33.93559999999999
 20
41.41519999999997
 10
-34.0498
 20
41.41879999999995
 10
-34.1575
 20
41.45439999999995
 10
-35.33269999999999
 20
42.04109999999995
 10
-35.4931
 20
42.09480000000001
 10
-35.6626
 20
42.10029999999995
 10
-35.82740000000001
 20
42.05839999999997
 10
-35.97300000000001
 20
41.97309999999992
 10
-36.76439999999999
 20
41.28159999999995
 10
-36.86859999999999
 20
41.14879999999994
 10
-36.93219999999999
 20
40.99109999999997
 10
-36.9494
 20
40.82239999999998
 10
-36.9178
 20
40.65619999999997
 10
-36.49420000000001
 20
39.41289999999995
 10
-36.47329999999999
 20
39.30139999999998
 10
-36.48509999999999
 20
39.18779999999994
 10
-36.52780000000001
 20
39.082
 10
-36.59909999999999
 20
38.99299999999998
 10
-37.31180000000001
 20
38.31169999999999
 10
-37.40379999999999
 20
38.24439999999993
 10
-37.51150000000001
 20
38.20649999999993
 10
-37.62549999999999
 20
38.19989999999996
 10
-37.73589999999999
 20
38.22569999999993
 10
-38.959
 20
38.7046
 10
-39.12360000000001
 20
38.74369999999992
 10
-39.2929
 20
38.73409999999999
 10
-39.45330000000001
 20
38.67759999999998
 10
-39.59059999999999
 20
38.57949999999997
 10
-40.3169
 20
37.81979999999994
 10
-40.40870000000001
 20
37.67829999999996
 10
-40.45799999999991
 20
37.51549999999996
 10
-40.46000000000001
 20
37.34600000000001
 10
-40.4136
 20
37.18329999999996
 10
-39.8802
 20
35.98299999999995
 10
-39.84950000000001
 20
35.87379999999997
 10
-39.851
 20
35.75959999999991
 10
-39.88399999999999
 20
35.65029999999998
 10
-39.94710000000001
 20
35.55529999999995
 10
-40.5958
 20
34.81279999999997
 10
-40.6814
 20
34.73759999999999
 10
-40.7852
 20
34.69019999999999
 10
-40.8982
 20
34.67339999999996
 10
-41.01060000000001
 20
34.68919999999996
 10
-42.27160000000001
 20
35.05659999999997
 10
-42.4391
 20
35.08069999999998
 10
-42.60679999999991
 20
35.056
 10
-42.76150000000001
 20
34.9853
 10
-42.88939999999999
 20
34.8753
 10
-43.54470000000001
 20
34.05359999999997
 10
-43.62350000000001
 20
33.90439999999997
 10
-43.65790000000001
 20
33.73789999999996
 10
-43.6448
 20
33.56879999999997
 10
-43.5839
 20
33.41089999999998
 10
-42.9452
 20
32.26329999999996
 10
-42.90469999999999
 20
32.15729999999998
 10
-42.89599999999999
 20
32.04339999999995
 10
-42.91909999999999
 20
31.93159999999996
 10
-42.9734
 20
31.83139999999996
 10
-43.553
 20
31.03369999999998
 10
-43.63149999999999
 20
30.95109999999999
 10
-43.73070000000001
 20
30.89459999999993
 10
-43.8417
 20
30.86769999999997
 10
-43.95500000000001
 20
30.87339999999998
 10
-45.2439
 20
31.12629999999999
 10
-45.4128
 20
31.13529999999999
 10
-45.57769999999999
 20
31.09559999999998
 10
-45.72540000000001
 20
31.01139999999997
 10
-45.84299999999999
 20
30.89039999999997
 10
-46.422
 20
30.01320000000001
 10
-46.48699999999999
 20
29.8575
 10
-46.50640000000001
 20
29.68859999999994
 10
-46.47819999999999
 20
29.52139999999997
 10
-46.40339999999989
 20
29.36959999999999
 10
-45.6643
 20
28.28379999999996
 10
-45.6146
 20
28.18189999999994
 10
-45.59569999999999
 20
28.06919999999998
 10
-45.6087
 20
27.95579999999997
 10
-45.65369999999999
 20
27.85109999999998
 10
-46.15950000000001
 20
27.00469999999997
 10
-46.2303
 20
26.91539999999999
 10
-46.32400000000001
 20
26.85019999999999
 10
-46.43209999999999
 20
26.81349999999998
 10
-46.5455
 20
26.80899999999997
 10
-47.8519
 20
26.94529999999995
 10
-48.02099999999999
 20
26.93919999999996
 10
-48.1816
 20
26.88489999999996
 10
-48.3212
 20
26.78769999999995
 10
-48.42740000000001
 20
26.65669999999997
 10
-48.9255
 20
25.73109999999996
 10
-48.97630000000001
 20
25.57029999999998
 10
-48.98049999999989
 20
25.40020000000001
 10
-48.93729999999999
 20
25.23629999999996
 10
-48.8493
 20
25.09179999999995
 10
-48.01580000000001
 20
24.0766
 10
-47.9571
 20
23.97949999999998
 10
-47.92819999999989
 20
23.86910000000002
 10
-47.93100000000001
 20
23.75499999999997
 10
-47.9665
 20
23.64659999999998
 10
-48.39429999999999
 20
22.75829999999997
 10
-48.45689999999999
 20
22.66299999999999
 10
-48.54429999999999
 20
22.58969999999997
 10
-48.64879999999999
 20
22.54339999999995
 10
-48.7612
 20
22.52879999999995
 10
-50.0746
 20
22.54739999999997
 10
-50.24239999999989
 20
22.52620000000001
 10
-50.39750000000001
 20
22.45769999999998
 10
-50.52789999999999
 20
22.34840000000001
 10
-50.62190000000001
 20
22.20839999999997
 10
-51.035
 20
21.24189999999995
 10
-51.0712
 20
21.07709999999996
 10
-51.06010000000001
 20
20.90739999999996
 10
-51.0025
 20
20.74799999999996
 10
-50.90180000000001
 20
20.61189999999999
 10
-49.98079999999999
 20
19.67559999999995
 10
-49.9136
 20
19.58419999999993
 10
-49.8749
 20
19.47669999999998
 10
-49.8674
 20
19.36279999999998
 10
-49.89309999999989
 20
19.25180000000001
 10
-50.23949999999999
 20
18.32859999999998
 10
-50.29329999999999
 20
18.22809999999997
 10
-50.37379999999999
 20
18.14729999999998
 10
-50.47370000000001
 20
18.09179999999998
 10
-50.58439999999999
 20
18.06709999999997
 10
-51.89410000000001
 20
17.96799999999996
 10
-52.05940000000001
 20
17.93179999999997
 10
-52.20769999999999
 20
17.84969999999997
 10
-52.32769999999999
 20
17.72919999999998
 10
-52.40889999999999
 20
17.58119999999997
 10
-52.73369999999991
 20
16.58169999999997
 10
-52.755
 20
16.41429999999996
 10
-52.72869999999989
 20
16.24629999999998
 10
-52.65700000000001
 20
16.09260000000001
 10
-52.5446
 20
15.96619999999997
 10
-51.54320000000001
 20
15.11609999999996
 10
-51.4682
 20
15.03109999999994
 10
-51.41999999999999
 20
14.92759999999996
 10
-51.4023
 20
14.81479999999998
 10
-51.41789999999989
 20
14.70189999999998
 10
-51.6802999999999
 20
13.75139999999999
 10
-51.72479999999999
 20
13.64650000000001
 10
-51.7978
 20
13.55869999999998
 10
-51.89219999999989
 20
13.49459999999999
 10
-52.00030000000001
 20
13.46009999999994
 10
-53.29589999999999
 20
13.24389999999993
 10
-53.4572
 20
13.19299999999997
 10
-53.5976
 20
13.09789999999997
 10
-53.7063
 20
12.96719999999999
 10
-53.7739
 20
12.81259999999998
 10
-54.0078
 20
11.78789999999995
 10
-54.01400000000001
 20
11.61929999999993
 10
-53.97280000000001
 20
11.45429999999996
 10
-53.88749999999999
 20
11.30769999999997
 10
-53.76419999999999
 20
11.19179999999995
 10
-52.6908
 20
10.43499999999993
 10
-52.60830000000001
 20
10.35699999999996
 10
-52.55109999999999
 20
10.25819999999999
 10
-52.52340000000001
 20
10.14749999999997
 10
-52.52879999999999
 20
10.03359999999997
 10
-52.70490000000001
 20
9.063499999999948
 10
-52.73979999999989
 20
8.95499999999997
 10
-52.80459999999999
 20
8.860999999999962
 10
-52.893
 20
8.788599999999974
 10
-52.9975
 20
8.744599999999949
 10
-54.26849999999999
 20
8.413199999999975
 10
-54.4246
 20
8.348099999999974
 10
-54.55590000000001
 20
8.240799999999979
 10
-54.6525
 20
8.100799999999964
 10
-54.70590000000001
 20
7.940699999999964
 10
-54.84700000000001
 20
6.899199999999979
 10
-54.8381
 20
6.730699999999956
 10
-54.78219999999999
 20
6.570099999999953
 10
-54.68419999999989
 20
6.431699999999992
 10
-54.55099999999999
 20
6.327399999999968
 10
-53.41399999999999
 20
5.669799999999967
 10
-53.32499999999999
 20
5.599599999999924
 10
-53.25909999999999
 20
5.506299999999982
 10
-53.2216
 20
5.398499999999957
 10
-53.21679999999989
 20
5.284599999999983
 10
-53.30510000000001
 20
4.30259999999997
 10
-53.33019999999999
 20
4.191399999999987
 10
-53.38630000000001
 20
4.091999999999985
 10
-53.46780000000001
 20
4.011999999999972
 10
-53.56800000000001
 20
3.958699999999936
 10
-54.80420000000001
 20
3.514799999999994
 10
-54.9539
 20
3.435899999999947
 10
-55.07499999999999
 20
3.317199999999985
 10
-55.15860000000001
 20
3.169099999999957
 10
-55.19749999999999
 20
3.004999999999952
 10
-55.24459999999999
 20
1.954999999999984
 10
-55.22059999999999
 20
1.787999999999968
 10
-55.1506
 20
1.632999999999953
 10
-55.04060000000001
 20
1.504000000000005
 10
-54.89859999999999
 20
1.411999999999992
 10
-53.70719999999989
 20
0.8590000000000089
 10
-53.61219999999989
 20
0.7969999999999686
 10
-53.53819999999999
 20
0.7099999999999795
 10
-53.49119999999999
 20
0.6059999999999803
 10
-53.47620000000001
 20
0.4929999999999524
 10
-53.47619999999989
 20
-0.4930000000000234
 10
-53.49119999999999
 20
-0.6060000000000372
 10
-53.53819999999999
 20
-0.7100000000000364
 10
-53.6122
 20
-0.7970000000000397
 10
-53.7072
 20
-0.8590000000000089
 10
-54.89859999999999
 20
-1.412000000000021
 10
-55.04060000000001
 20
-1.504000000000076
 10
-55.1506
 20
-1.633000000000053
 10
-55.22059999999999
 20
-1.78800000000004
 10
-55.24459999999999
 20
-1.955000000000056
 10
-55.19749999999999
 20
-3.00500000000001
 10
-55.15860000000001
 20
-3.169100000000014
 10
-55.07499999999999
 20
-3.317200000000013
 10
-54.95389999999989
 20
-3.435900000000017
 10
-54.80420000000001
 20
-3.514800000000009
 10
-53.56800000000001
 20
-3.958700000000022
 10
-53.46780000000001
 20
-4.012000000000042
 10
-53.38629999999989
 20
-4.092000000000028
 10
-53.33019999999999
 20
-4.191400000000044
 10
-53.30510000000001
 20
-4.302600000000012
 10
-53.21679999999989
 20
-5.284600000000026
 10
-53.2216
 20
-5.398500000000042
 10
-53.25909999999999
 20
-5.506300000000011
 10
-53.3249999999999
 20
-5.599599999999995
 10
-53.41399999999999
 20
-5.669800000000023
 10
-54.55099999999999
 20
-6.327400000000068
 10
-54.6842
 20
-6.431700000000021
 10
-54.78219999999999
 20
-6.570100000000038
 10
-54.8381
 20
-6.730700000000027
 10
-54.84699999999989
 20
-6.899200000000022
 10
-54.70590000000001
 20
-7.940700000000021
 10
-54.6525
 20
-8.100799999999992
 10
-54.55590000000001
 20
-8.240800000000036
 10
-54.4246
 20
-8.348100000000045
 10
-54.26849999999999
 20
-8.413200000000032
 10
-52.9975
 20
-8.744600000000062
 10
-52.89299999999989
 20
-8.788600000000002
 10
-52.80459999999999
 20
-8.861000000000061
 10
-52.7398
 20
-8.955000000000027
 10
-52.70490000000001
 20
-9.063500000000019
 10
-52.5287999999999
 20
-10.0336
 10
-52.52340000000001
 20
-10.14750000000002
 10
-52.55109999999999
 20
-10.25820000000001
 10
-52.60830000000001
 20
-10.35700000000004
 10
-52.6908
 20
-10.43500000000003
 10
-53.76419999999999
 20
-11.19180000000004
 10
-53.88749999999999
 20
-11.30770000000002
 10
-53.97280000000001
 20
-11.45430000000004
 10
-54.01400000000001
 20
-11.61930000000002
 10
-54.00779999999989
 20
-11.78790000000003
 10
-53.7739
 20
-12.8126
 10
-53.7063
 20
-12.96720000000003
 10
-53.5976
 20
-13.09790000000002
 10
-53.45719999999989
 20
-13.19300000000002
 10
-53.29589999999999
 20
-13.24390000000005
 10
-52.00030000000001
 20
-13.46010000000004
 10
-51.8922
 20
-13.49460000000002
 10
-51.7978
 20
-13.55870000000001
 10
-51.72479999999999
 20
-13.64650000000007
 10
-51.68029999999999
 20
-13.75140000000004
 10
-51.4179
 20
-14.70190000000003
 10
-51.40229999999991
 20
-14.8148
 10
-51.41999999999999
 20
-14.92760000000002
 10
-51.4682
 20
-15.03110000000002
 10
-51.54320000000001
 20
-15.11610000000006
 10
-52.54459999999989
 20
-15.9662
 10
-52.65700000000001
 20
-16.09260000000005
 10
-52.7287
 20
-16.24630000000007
 10
-52.755
 20
-16.41430000000004
 10
-52.7337
 20
-16.58170000000005
 10
-52.40889999999999
 20
-17.58119999999999
 10
-52.32769999999999
 20
-17.72920000000004
 10
-52.2076999999999
 20
-17.84970000000001
 10
-52.05940000000001
 20
-17.93180000000003
 10
-51.89410000000001
 20
-17.96800000000002
 10
-50.58439999999999
 20
-18.06710000000002
 10
-50.47370000000001
 20
-18.09180000000003
 10
-50.37379999999999
 20
-18.14730000000003
 10
-50.29329999999999
 20
-18.22810000000003
 10
-50.23949999999999
 20
-18.32860000000001
 10
-49.8931
 20
-19.25180000000004
 10
-49.86739999999989
 20
-19.36279999999999
 10
-49.8749
 20
-19.47670000000001
 10
-49.9136
 20
-19.58420000000004
 10
-49.98079999999999
 20
-19.67560000000007
 10
-50.90180000000001
 20
-20.61190000000004
 10
-51.0025
 20
-20.74800000000004
 10
-51.06010000000001
 20
-20.90740000000003
 10
-51.0712
 20
-21.07710000000002
 10
-51.035
 20
-21.24190000000006
 10
-50.62190000000001
 20
-22.20840000000004
 10
-50.52789999999999
 20
-22.34840000000005
 10
-50.39750000000001
 20
-22.45770000000002
 10
-50.2424
 20
-22.52620000000004
 10
-50.0746
 20
-22.54740000000005
 10
-48.7612
 20
-22.52880000000002
 10
-48.64879999999999
 20
-22.54340000000007
 10
-48.54429999999999
 20
-22.58970000000002
 10
-48.45689999999991
 20
-22.66299999999997
 10
-48.39429999999999
 20
-22.7583
 10
-47.96649999999991
 20
-23.64660000000001
 10
-47.93100000000001
 20
-23.75500000000003
 10
-47.9282
 20
-23.86910000000004
 10
-47.9571
 20
-23.97950000000005
 10
-48.01580000000001
 20
-24.07660000000001
 10
-48.8493
 20
-25.09180000000003
 10
-48.93729999999999
 20
-25.23630000000004
 10
-48.98050000000001
 20
-25.40020000000004
 10
-48.97630000000001
 20
-25.57030000000006
 10
-48.92549999999989
 20
-25.73110000000003
 10
-48.42739999999989
 20
-26.65670000000001
 10
-48.3212
 20
-26.78770000000005
 10
-48.1816
 20
-26.88490000000004
 10
-48.02099999999999
 20
-26.9392
 10
-47.8519
 20
-26.94530000000005
 10
-46.5455
 20
-26.80900000000004
 10
-46.43209999999999
 20
-26.81350000000004
 10
-46.32400000000001
 20
-26.85020000000004
 10
-46.2303
 20
-26.91540000000003
 10
-46.15950000000001
 20
-27.00470000000003
 10
-45.6537000000001
 20
-27.85110000000007
 10
-45.6087
 20
-27.95580000000003
 10
-45.59569999999999
 20
-28.0692
 10
-45.6146
 20
-28.18190000000002
 10
-45.6643
 20
-28.28380000000002
 10
-46.40339999999989
 20
-29.3696
 10
-46.47819999999999
 20
-29.52140000000004
 10
-46.50640000000001
 20
-29.68860000000002
 10
-46.48699999999999
 20
-29.85750000000005
 10
-46.422
 20
-30.01320000000002
 10
-45.84299999999999
 20
-30.8904
 10
-45.72540000000001
 20
-31.01140000000005
 10
-45.57769999999991
 20
-31.0956
 10
-45.41279999999989
 20
-31.1353
 10
-45.2439
 20
-31.12630000000004
 10
-43.95500000000001
 20
-30.87340000000004
 10
-43.8417
 20
-30.86770000000002
 10
-43.73070000000001
 20
-30.89460000000004
 10
-43.63149999999999
 20
-30.95110000000005
 10
-43.553
 20
-31.03370000000004
 10
-42.9734
 20
-31.83140000000004
 10
-42.91909999999999
 20
-31.93160000000004
 10
-42.89599999999999
 20
-32.04340000000003
 10
-42.90469999999991
 20
-32.1573
 10
-42.9452
 20
-32.26330000000003
 10
-43.5839
 20
-33.41090000000004
 10
-43.64479999999989
 20
-33.56880000000003
 10
-43.65790000000001
 20
-33.73790000000002
 10
-43.62350000000001
 20
-33.90440000000001
 10
-43.54469999999989
 20
-34.0536
 10
-42.88939999999999
 20
-34.87530000000002
 10
-42.7614999999999
 20
-34.9853
 10
-42.60679999999999
 20
-35.05600000000001
 10
-42.43910000000011
 20
-35.08070000000005
 10
-42.27159999999989
 20
-35.0566
 10
-41.01060000000001
 20
-34.68920000000001
 10
-40.8982
 20
-34.67340000000006
 10
-40.7852
 20
-34.69020000000004
 10
-40.68139999999991
 20
-34.73760000000002
 10
-40.5958
 20
-34.81280000000005
 10
-39.94710000000001
 20
-35.55530000000005
 10
-39.88399999999999
 20
-35.65030000000002
 10
-39.85099999999991
 20
-35.75960000000001
 10
-39.84950000000001
 20
-35.87380000000002
 10
-39.88020000000009
 20
-35.98300000000008
 10
-40.4136
 20
-37.18330000000002
 10
-40.46000000000001
 20
-37.34600000000001
 10
-40.458
 20
-37.51550000000005
 10
-40.40870000000001
 20
-37.67830000000004
 10
-40.3169
 20
-37.81980000000003
 10
-39.59059999999991
 20
-38.57950000000001
 10
-39.45330000000001
 20
-38.67760000000004
 10
-39.2929
 20
-38.73410000000001
 10
-39.12360000000001
 20
-38.74370000000005
 10
-38.959
 20
-38.70460000000006
 10
-37.73589999999999
 20
-38.22570000000002
 10
-37.62549999999999
 20
-38.19990000000002
 10
-37.51150000000001
 20
-38.20650000000006
 10
-37.40379999999999
 20
-38.24440000000001
 10
-37.31180000000001
 20
-38.31170000000003
 10
-36.59909999999999
 20
-38.99300000000003
 10
-36.5277999999999
 20
-39.08199999999999
 10
-36.48509999999999
 20
-39.18780000000005
 10
-36.47329999999991
 20
-39.30139999999998
 10
-36.49419999999989
 20
-39.4129
 10
-36.91779999999989
 20
-40.65620000000001
 10
-36.9494
 20
-40.82240000000002
 10
-36.93219999999999
 20
-40.9911
 10
-36.86859999999999
 20
-41.1488
 10
-36.76439999999999
 20
-41.28160000000004
 10
-35.97300000000001
 20
-41.97310000000006
 10
-35.82740000000001
 20
-42.05840000000006
 10
-35.6626
 20
-42.10030000000004
 10
-35.4931
 20
-42.09480000000003
 10
-35.33269999999999
 20
-42.04110000000004
 10
-34.1575
 20
-41.45440000000004
 10
-34.0498
 20
-41.41880000000003
 10
-33.93559999999999
 20
-41.41520000000002
 10
-33.8249999999999
 20
-41.44329999999998
 10
-33.72730000000001
 20
-41.50200000000001
 10
-32.9564
 20
-42.11680000000004
 10
-32.87739999999991
 20
-42.19900000000001
 10
-32.82539999999989
 20
-42.30059999999997
 10
-32.80359999999999
 20
-42.41270000000003
 10
-32.81429999999989
 20
-42.52560000000003
 10
-33.12479999999991
 20
-43.80179999999999
 10
-33.1414
 20
-43.97020000000007
 10
-33.10910000000001
 20
-44.13669999999998
 10
-33.0316
 20
-44.28800000000004
 10
-32.916
 20
-44.41090000000002
 10
-32.06569999999999
 20
-45.02870000000004
 10
-31.91309999999999
 20
-45.10070000000005
 10
-31.74520000000001
 20
-45.12760000000003
 10
-31.57689999999999
 20
-45.10690000000007
 10
-31.42189999999991
 20
-45.03900000000003
 10
-30.304
 20
-44.34940000000003
 10
-30.19999999999999
 20
-44.30430000000008
 10
-30.0866
 20
-44.29040000000002
 10
-29.97389999999999
 20
-44.30850000000001
 10
-29.87129999999991
 20
-44.35819999999999
 10
-29.04839999999999
 20
-44.90140000000005
 10
-28.9624
 20
-44.97620000000002
 10
-28.9015
 20
-45.07270000000003
 10
-28.86969999999991
 20
-45.18240000000002
 10
-28.87029999999999
 20
-45.29580000000002
 10
-29.06509999999989
 20
-46.5948
 10
-29.06649999999999
 20
-46.76400000000003
 10
-29.01949999999999
 20
-46.92690000000006
 10
-28.92869999999991
 20
-47.0707
 10
-28.8024999999999
 20
-47.18269999999999
 10
-27.90029999999999
 20
-47.72180000000007
 10
-27.74180000000001
 20
-47.77980000000007
 10
-27.57220000000001
 20
-47.79160000000001
 10
-27.40639999999999
 20
-47.75580000000003
 10
-27.2581000000001
 20
-47.67440000000004
 10
-26.20660000000001
 20
-46.88730000000007
 10
-26.107
 20
-46.83300000000002
 10
-25.99529999999999
 20
-46.80910000000002
 10
-25.88149999999999
 20
-46.81700000000004
 10
-25.7748
 20
-46.85730000000007
 10
-24.9066
 20
-47.32450000000006
 10
-24.8142
 20
-47.39130000000002
 10
-24.7449
 20
-47.482
 10
-24.70330000000001
 20
-47.5884
 10
-24.69370000000001
 20
-47.70140000000001
 10
-24.7713
 20
-49.01260000000006
 10
-24.7576
 20
-49.1812
 10
-24.69609999999989
 20
-49.33920000000001
 10
-24.59280000000001
 20
-49.47430000000005
 10
-24.4571
 20
-49.57460000000007
 10
-23.51019999999991
 20
-50.03060000000004
 10
-23.34719999999999
 20
-50.07420000000003
 10
-23.1772
 20
-50.0707
 10
-23.01529999999991
 20
-50.02030000000003
 10
-22.8749
 20
-49.92580000000001
 10
-21.89819999999989
 20
-49.04770000000001
 10
-21.8038
 20
-48.98470000000001
 10
-21.69470000000001
 20
-48.9508
 10
-21.5806
 20
-48.94850000000006
 10
-21.4708
 20
-48.97910000000006
 10
-20.56419999999989
 20
-49.36660000000002
 10
-20.46619999999999
 20
-49.42480000000001
 10
-20.38900000000001
 20
-49.50890000000003
 10
-20.3381
 20
-49.61120000000007
 10
-20.3184
 20
-49.72290000000005
 10
-20.2782
 20
-51.03570000000001
 10
-20.24940000000001
 20
-51.20250000000004
 10
-20.17399999999989
 20
-51.35429999999997
 10
-20.059
 20
-51.47960000000002
 10
-19.91489999999999
 20
-51.56730000000006
 10
-18.9308
 20
-51.93660000000001
 10
-18.76460000000009
 20
-51.96540000000003
 10
-18.59559999999999
 20
-51.94670000000004
 10
-18.43889999999999
 20
-51.88200000000005
 10
-18.3075
 20
-51.77530000000002
 10
-17.4134
 20
-50.81320000000002
 10
-17.32509999999999
 20
-50.742
 10
-17.2194999999999
 20
-50.69850000000001
 10
-17.10599999999991
 20
-50.68590000000003
 10
-16.9939
 20
-50.70660000000007
 10
-16.05619999999999
 20
-51.01130000000002
 10
-15.9533999999999
 20
-51.06040000000003
 10
-15.869
 20
-51.13730000000001
 10
-15.8091
 20
-51.23450000000003
 10
-15.7794999999999
 20
-51.3441
 10
-15.6217
 20
-52.648
 10
-15.57810000000001
 20
-52.81150000000004
 10
-15.48939999999999
 20
-52.95600000000005
 10
-15.36359999999991
 20
-53.07050000000002
 10
-15.21219999999991
 20
-53.14489999999999
 10
-14.1990999999999
 20
-53.42450000000002
 10
-14.0309
 20
-53.43830000000001
 10
-13.86420000000001
 20
-53.40450000000002
 10
-13.714
 20
-53.32600000000006
 10
-13.59270000000001
 20
-53.20800000000004
 10
-12.7884
 20
-52.16950000000004
 10
-12.70689999999999
 20
-52.09070000000001
 10
-12.60560000000001
 20
-52.03790000000009
 10
-12.49369999999999
 20
-52.01520000000004
 10
-12.38019999999989
 20
-52.02580000000003
 10
-11.41890000000001
 20
-52.24520000000003
 10
-11.3120999999999
 20
-52.28489999999995
 10
-11.22120000000001
 20
-52.35390000000005
 10
-11.15280000000001
 20
-52.44540000000005
 10
-11.11349999999999
 20
-52.55180000000005
 10
-10.83949999999999
 20
-53.83640000000004
 10
-10.78139999999999
 20
-53.99530000000005
 10
-10.68010000000001
 20
-54.13130000000008
 10
-10.54459999999989
 20
-54.23399999999999
 10
-10.3871
 20
-54.2946000000001
 10
-9.353000000000009
 20
-54.48219999999999
 10
-9.184300000000007
 20
-54.48090000000006
 10
-9.021299999999911
 20
-54.43230000000001
 10
-8.87870000000001
 20
-54.34060000000007
 10
-8.768400000000014
 20
-54.21220000000001
 10
-8.06049999999999
 20
-53.10590000000001
 10
-7.986299999999886
 20
-53.02
 10
-7.890199999999993
 20
-52.95840000000003
 10
-7.780799999999999
 20
-52.92580000000005
 10
-7.666800000000109
 20
-52.92610000000006
 10
-6.689799999999991
 20
-53.05840000000002
 10
-6.579800000000006
 20
-53.08850000000005
 10
-6.483000000000004
 20
-53.14900000000004
 10
-6.406800000000004
 20
-53.23400000000005
 10
-6.358100000000007
 20
-53.33650000000002
 10
-5.969999999999999
 20
-54.59130000000003
 10
-5.897899999999908
 20
-54.74439999999997
 10
-5.78479999999999
 20
-54.87070000000004
 10
-5.640600000000006
 20
-54.96090000000005
 10
-5.478399999999993
 20
-55.00710000000005
 10
-4.431600000000003
 20
-55.10130000000002
 10
-4.2637
 20
-55.08480000000007
 10
-4.105700000000013
 20
-55.02180000000001
 10
-3.971899999999891
 20
-54.91769999999995
 10
-3.87360000000001
 20
-54.78000000000004
 10
-3.267699999999905
 20
-53.61459999999998
 10
-3.20150000000001
 20
-53.52250000000009
 10
-3.1113
 20
-53.45250000000004
 10
-3.005300000000005
 20
-53.41020000000007
 10
-2.891699999999901
 20
-53.40030000000003
 10
-1.906700000000001
 20
-53.44450000000008
 10
-1.794499999999914
 20
-53.46459999999998
 10
-1.692699999999888
 20
-53.51619999999998
 10
-1.609100000000012
 20
-53.59400000000002
 10
-1.551399999999887
 20
-53.69170000000001
 10
-1.052400000000091
 20
-54.90670000000007
 10
-0.9669000000000096
 20
-55.05270000000007
 10
-0.8429999999999893
 20
-55.16840000000006
 10
-0.6913000000000125
 20
-55.2453
 10
-0.5254999999999939
 20
-55.27670000000002
 10
0.5254999999999939
 20
-55.27670000000002
 10
0.6913000000000977
 20
-55.24529999999997
 10
0.8429999999999893
 20
-55.16840000000003
 10
0.9669000000000096
 20
-55.05270000000008
 10
1.052400000000006
 20
-54.90670000000004
 10
1.551400000000001
 20
-53.69170000000004
 10
1.609100000000012
 20
-53.59400000000002
 10
1.692700000000002
 20
-53.51620000000004
 10
1.794499999999999
 20
-53.46460000000003
 10
1.906700000000001
 20
-53.44450000000002
 10
2.891699999999986
 20
-53.40030000000003
 10
3.005300000000091
 20
-53.4102
 10
3.1113
 20
-53.45250000000004
 10
3.20150000000001
 20
-53.52250000000005
 10
3.267699999999991
 20
-53.61459999999998
 10
3.87360000000001
 20
-54.78000000000004
 10
3.971900000000005
 20
-54.91770000000005
 10
4.105700000000098
 20
-55.02180000000001
 10
4.2637
 20
-55.08480000000007
 10
4.431599999999889
 20
-55.10130000000012
 10
5.478399999999993
 20
-55.00710000000002
 10
5.640600000000092
 20
-54.96090000000005
 10
5.78479999999999
 20
-54.87070000000001
 10
5.897899999999993
 20
-54.74440000000002
 10
5.969999999999999
 20
-54.59130000000003
 10
6.358100000000093
 20
-53.33650000000002
 10
6.406800000000089
 20
-53.23399999999999
 10
6.483000000000004
 20
-53.14900000000004
 10
6.579800000000091
 20
-53.08849999999999
 10
6.689800000000105
 20
-53.05839999999999
 10
7.666800000000109
 20
-52.92609999999997
 10
7.780799999999999
 20
-52.92580000000002
 10
7.890199999999993
 20
-52.95840000000003
 10
7.9863
 20
-53.02000000000002
 10
8.06049999999999
 20
-53.10590000000001
 10
8.768400000000014
 20
-54.21220000000006
 10
8.878700000000094
 20
-54.34059999999998
 10
9.02130000000011
 20
-54.43230000000001
 10
9.184300000000093
 20
-54.48089999999997
 10
9.353000000000094
 20
-54.48219999999999
 10
10.3871
 20
-54.29460000000005
 10
10.5446
 20
-54.23400000000002
 10
10.68010000000001
 20
-54.13130000000002
 10
10.7814000000001
 20
-53.99529999999997
 10
10.83949999999999
 20
-53.83640000000001
 10
11.11349999999999
 20
-52.55180000000005
 10
11.15280000000001
 20
-52.44540000000011
 10
11.2212000000001
 20
-52.35389999999995
 10
11.31209999999999
 20
-52.28490000000004
 10
11.41890000000001
 20
-52.24520000000005
 10
12.3802
 20
-52.02580000000004
 10
12.49369999999999
 20
-52.01520000000006
 10
12.60560000000001
 20
-52.03790000000002
 10
12.70689999999999
 20
-52.09070000000004
 10
12.7884
 20
-52.16950000000004
 10
13.59270000000009
 20
-53.20799999999998
 10
13.714
 20
-53.32600000000004
 10
13.86420000000001
 20
-53.40450000000001
 10
14.0309
 20
-53.43830000000004
 10
14.19909999999999
 20
-53.42450000000002
 10
15.2122
 20
-53.14490000000005
 10
15.36359999999999
 20
-53.07050000000002
 10
15.48939999999999
 20
-52.95600000000011
 10
15.57810000000009
 20
-52.81149999999998
 10
15.6217
 20
-52.64800000000005
 10
15.77950000000001
 20
-51.34409999999998
 10
15.80910000000009
 20
-51.23450000000001
 10
15.869
 20
-51.13730000000002
 10
15.95339999999999
 20
-51.06040000000007
 10
16.05619999999999
 20
-51.01130000000002
 10
16.99390000000011
 20
-50.70660000000002
 10
17.10600000000011
 20
-50.68590000000006
 10
17.21950000000001
 20
-50.69850000000001
 10
17.32509999999999
 20
-50.74200000000006
 10
17.41340000000011
 20
-50.81320000000002
 10
18.3075
 20
-51.77530000000007
 10
18.43889999999999
 20
-51.88200000000005
 10
18.59559999999999
 20
-51.9467
 10
18.7646
 20
-51.96540000000009
 10
18.9308
 20
-51.93660000000004
 10
19.91489999999999
 20
-51.5673
 10
20.059
 20
-51.47960000000004
 10
20.17400000000001
 20
-51.3543000000001
 10
20.24940000000009
 20
-51.20249999999997
 10
20.27820000000011
 20
-51.03569999999998
 10
20.31839999999991
 20
-49.72290000000011
 10
20.3381
 20
-49.61120000000003
 10
20.3890000000001
 20
-49.50889999999998
 10
20.4662000000001
 20
-49.42480000000003
 10
20.56420000000011
 20
-49.36659999999999
 10
21.4708
 20
-48.97910000000003
 10
21.5806
 20
-48.94850000000006
 10
21.6947000000001
 20
-48.95080000000002
 10
21.8038
 20
-48.98470000000002
 10
21.8982
 20
-49.04770000000006
 10
22.8749
 20
-49.92580000000005
 10
23.0153
 20
-50.02030000000001
 10
23.1772
 20
-50.07070000000004
 10
23.34719999999999
 20
-50.07420000000009
 10
23.5102
 20
-50.03060000000004
 10
24.4571
 20
-49.57459999999999
 10
24.5928000000001
 20
-49.47429999999999
 10
24.6961
 20
-49.33920000000006
 10
24.7576
 20
-49.1812
 10
24.7713
 20
-49.01260000000001
 10
24.69370000000001
 20
-47.70140000000004
 10
24.70330000000001
 20
-47.58840000000009
 10
24.7449
 20
-47.48200000000003
 10
24.8142
 20
-47.39130000000004
 10
24.9066
 20
-47.32450000000001
 10
25.77480000000011
 20
-46.85729999999997
 10
25.88149999999999
 20
-46.81699999999999
 10
25.99529999999999
 20
-46.80910000000002
 10
26.107
 20
-46.83300000000008
 10
26.20660000000001
 20
-46.88730000000005
 10
27.25810000000001
 20
-47.67440000000002
 10
27.40639999999999
 20
-47.75580000000002
 10
27.57220000000001
 20
-47.79160000000006
 10
27.74180000000001
 20
-47.7798
 10
27.90029999999999
 20
-47.72180000000002
 10
28.80250000000001
 20
-47.18270000000004
 10
28.92869999999999
 20
-47.07069999999997
 10
29.01949999999999
 20
-46.92690000000003
 10
29.06649999999999
 20
-46.7640000000001
 10
29.0651
 20
-46.59480000000006
 10
28.87029999999999
 20
-45.29579999999997
 10
28.86969999999999
 20
-45.18240000000007
 10
28.90150000000011
 20
-45.07269999999998
 10
28.96240000000009
 20
-44.97619999999998
 10
29.04839999999999
 20
-44.9014
 10
29.87129999999999
 20
-44.35820000000002
 10
29.97389999999999
 20
-44.30850000000007
 10
30.0866
 20
-44.2904000000001
 10
30.19999999999999
 20
-44.30430000000004
 10
30.304
 20
-44.34940000000003
 10
31.42189999999999
 20
-45.03900000000008
 10
31.57689999999999
 20
-45.10690000000005
 10
31.74520000000001
 20
-45.12760000000008
 10
31.91309999999999
 20
-45.10070000000003
 10
32.06569999999999
 20
-45.02870000000001
 10
32.916
 20
-44.41090000000001
 10
33.0316
 20
-44.288
 10
33.10910000000001
 20
-44.13669999999999
 10
33.1414
 20
-43.97020000000002
 10
33.12479999999999
 20
-43.80179999999999
 10
32.8143
 20
-42.52560000000008
 10
32.80359999999999
 20
-42.41269999999999
 10
32.8254
 20
-42.30060000000006
 10
32.87739999999999
 20
-42.19900000000007
 10
32.9564
 20
-42.11680000000003
 10
33.72730000000001
 20
-41.50200000000002
 10
33.82499999999999
 20
-41.44329999999992
 10
33.93560000000011
 20
-41.41519999999997
 10
34.04980000000009
 20
-41.4188
 10
34.1575
 20
-41.45440000000006
 10
35.33269999999999
 20
-42.04109999999994
 10
35.4931
 20
-42.09480000000003
 10
35.6626
 20
-42.10030000000001
 10
35.82740000000001
 20
-42.05840000000008
 10
35.9730000000001
 20
-41.97309999999997
 10
36.76439999999999
 20
-41.28160000000004
 10
36.86859999999999
 20
-41.14880000000005
 10
36.93219999999999
 20
-40.9911
 10
36.9494
 20
-40.82240000000005
 10
36.9178
 20
-40.65620000000004
 10
36.49420000000001
 20
-39.41290000000009
 10
36.47330000000011
 20
-39.30139999999999
 10
36.48509999999999
 20
-39.1878
 10
36.52780000000001
 20
-39.08199999999998
 10
36.59909999999999
 20
-38.99299999999998
 10
37.31180000000009
 20
-38.31170000000003
 10
37.40379999999999
 20
-38.24440000000007
 10
37.5115000000001
 20
-38.20649999999997
 10
37.62549999999999
 20
-38.19990000000004
 10
37.73589999999999
 20
-38.22570000000005
 10
38.95900000000009
 20
-38.70459999999995
 10
39.12360000000001
 20
-38.7437
 10
39.2929
 20
-38.73410000000001
 10
39.45330000000001
 20
-38.67760000000007
 10
39.59059999999999
 20
-38.57949999999995
 10
40.3169
 20
-37.81980000000009
 10
40.4087000000001
 20
-37.67830000000001
 10
40.458
 20
-37.51550000000005
 10
40.46000000000001
 20
-37.34600000000006
 10
40.41360000000009
 20
-37.1833
 10
39.8802
 20
-35.98300000000003
 10
39.84950000000001
 20
-35.8738000000001
 10
39.851
 20
-35.75960000000009
 10
39.88399999999999
 20
-35.65030000000009
 10
39.94710000000001
 20
-35.55530000000005
 10
40.5958
 20
-34.81280000000006
 10
40.6814
 20
-34.73760000000004
 10
40.78520000000009
 20
-34.69020000000003
 10
40.8982
 20
-34.6734
 10
41.01060000000001
 20
-34.68920000000007
 10
42.27160000000001
 20
-35.05660000000001
 10
42.4391
 20
-35.08070000000001
 10
42.60679999999999
 20
-35.05600000000006
 10
42.76150000000001
 20
-34.98530000000005
 10
42.88939999999999
 20
-34.8753000000001
 10
43.54470000000001
 20
-34.05360000000006
 10
43.62350000000001
 20
-33.90440000000006
 10
43.65790000000001
 20
-33.73789999999997
 10
43.64480000000009
 20
-33.5688
 10
43.58389999999989
 20
-33.41090000000013
 10
42.9452
 20
-32.26330000000003
 10
42.90469999999999
 20
-32.1573
 10
42.8960000000001
 20
-32.04339999999997
 10
42.9191000000001
 20
-31.93159999999998
 10
42.9734
 20
-31.83140000000012
 10
43.553
 20
-31.0337
 10
43.63149999999999
 20
-30.95110000000003
 10
43.73070000000001
 20
-30.89460000000008
 10
43.8417
 20
-30.86770000000004
 10
43.95500000000001
 20
-30.87339999999998
 10
45.2439
 20
-31.1263000000001
 10
45.41280000000009
 20
-31.13529999999995
 10
45.57769999999999
 20
-31.09560000000009
 10
45.72540000000001
 20
-31.01140000000005
 10
45.84299999999999
 20
-30.89040000000001
 10
46.422
 20
-30.0132
 10
46.48699999999999
 20
-29.85750000000003
 10
46.50640000000001
 20
-29.68860000000007
 10
46.47819999999999
 20
-29.52140000000008
 10
46.40340000000009
 20
-29.36959999999997
 10
45.6643
 20
-28.28380000000004
 10
45.6146
 20
-28.18190000000002
 10
45.59569999999999
 20
-28.06920000000004
 10
45.60870000000011
 20
-27.95579999999996
 10
45.65369999999999
 20
-27.8511
 10
46.15950000000001
 20
-27.00470000000009
 10
46.2303
 20
-26.9154000000001
 10
46.32400000000001
 20
-26.85020000000009
 10
46.43209999999999
 20
-26.81350000000001
 10
46.5455
 20
-26.80900000000003
 10
47.85190000000009
 20
-26.94529999999999
 10
48.02099999999999
 20
-26.93920000000001
 10
48.1816
 20
-26.8849000000001
 10
48.3212
 20
-26.7877
 10
48.42740000000001
 20
-26.65670000000001
 10
48.9255
 20
-25.73110000000004
 10
48.97630000000001
 20
-25.57030000000001
 10
48.98050000000001
 20
-25.40020000000008
 10
48.93729999999999
 20
-25.23630000000007
 10
48.84930000000011
 20
-25.09179999999998
 10
48.01580000000001
 20
-24.07660000000004
 10
47.9571
 20
-23.97949999999999
 10
47.92820000000009
 20
-23.86909999999999
 10
47.93100000000001
 20
-23.75499999999997
 10
47.9665
 20
-23.64660000000006
 10
48.39429999999999
 20
-22.75829999999994
 10
48.45689999999999
 20
-22.66299999999999
 10
48.54429999999999
 20
-22.58970000000005
 10
48.64879999999999
 20
-22.5434
 10
48.7612
 20
-22.52879999999998
 10
50.0746
 20
-22.5474000000001
 10
50.2424
 20
-22.52620000000002
 10
50.39750000000001
 20
-22.45770000000006
 10
50.52789999999999
 20
-22.34840000000007
 10
50.62190000000001
 20
-22.20840000000002
 10
51.035
 20
-21.24190000000004
 10
51.0712
 20
-21.07710000000003
 10
51.06010000000001
 20
-20.90740000000005
 10
51.0025
 20
-20.74799999999999
 10
50.90180000000001
 20
-20.61190000000005
 10
49.98079999999999
 20
-19.67559999999999
 10
49.9136
 20
-19.58419999999996
 10
49.8749
 20
-19.47670000000003
 10
49.8674
 20
-19.36280000000003
 10
49.8931
 20
-19.25179999999999
 10
50.23949999999999
 20
-18.32859999999999
 10
50.29329999999999
 20
-18.22810000000005
 10
50.37379999999999
 20
-18.14730000000008
 10
50.47370000000001
 20
-18.09179999999998
 10
50.58439999999999
 20
-18.06710000000004
 10
51.89410000000009
 20
-17.96799999999995
 10
52.05940000000001
 20
-17.93179999999995
 10
52.20769999999999
 20
-17.84970000000006
 10
52.32769999999999
 20
-17.72920000000005
 10
52.4089000000001
 20
-17.58119999999996
 10
52.7337
 20
-16.58170000000004
 10
52.755
 20
-16.41430000000008
 10
52.72870000000009
 20
-16.24630000000001
 10
52.65700000000001
 20
-16.09260000000006
 10
52.5446
 20
-15.9662000000001
 10
51.54320000000001
 20
-15.11610000000007
 10
51.4682
 20
-15.03110000000002
 10
51.41999999999999
 20
-14.92759999999998
 10
51.40230000000011
 20
-14.8148
 10
51.4179
 20
-14.70190000000003
 10
51.68029999999999
 20
-13.75140000000011
 10
51.7248000000001
 20
-13.64649999999997
 10
51.79780000000011
 20
-13.55870000000003
 10
51.8922
 20
-13.49460000000005
 10
52.00030000000001
 20
-13.46010000000005
 10
53.29589999999999
 20
-13.24390000000012
 10
53.4572
 20
-13.19300000000012
 10
53.5976
 20
-13.09790000000005
 10
53.7063
 20
-12.96720000000009
 10
53.7739
 20
-12.81260000000011
 10
54.00780000000009
 20
-11.78789999999999
 10
54.0140000000001
 20
-11.61929999999998
 10
53.97280000000001
 20
-11.4543
 10
53.88749999999999
 20
-11.30769999999997
 10
53.7642000000001
 20
-11.19179999999998
 10
52.69080000000011
 20
-10.43500000000001
 10
52.60830000000001
 20
-10.35700000000005
 10
52.55109999999999
 20
-10.25820000000004
 10
52.52340000000001
 20
-10.14750000000003
 10
52.52879999999999
 20
-10.03360000000013
 10
52.70490000000001
 20
-9.063500000000005
 10
52.7398
 20
-8.955000000000098
 10
52.80459999999999
 20
-8.861000000000104
 10
52.893
 20
-8.788600000000102
 10
52.99750000000009
 20
-8.744599999999963
 10
54.26849999999999
 20
-8.413200000000131
 10
54.4246
 20
-8.348100000000073
 10
54.55590000000001
 20
-8.240800000000064
 10
54.6525
 20
-8.10080000000002
 10
54.70590000000001
 20
-7.940700000000007
 10
54.84700000000001
 20
-6.899200000000022
 10
54.8381
 20
-6.730700000000098
 10
54.78219999999999
 20
-6.570100000000011
 10
54.6842
 20
-6.431700000000092
 10
54.55099999999999
 20
-6.327399999999997
 10
53.41399999999999
 20
-5.66980000000008
 10
53.32499999999999
 20
-5.599600000000024
 10
53.25909999999999
 20
-5.506300000000124
 10
53.2216
 20
-5.39850000000007
 10
53.21680000000001
 20
-5.284599999999998
 10
53.30510000000001
 20
-4.302600000000069
 10
53.33019999999999
 20
-4.191400000000016
 10
53.38630000000001
 20
-4.092000000000084
 10
53.46780000000001
 20
-4.012000000000042
 10
53.56800000000001
 20
-3.958700000000078
 10
54.80420000000001
 20
-3.514800000000037
 10
54.9539
 20
-3.435900000000004
 10
55.07499999999999
 20
-3.317200000000085
 10
55.15860000000009
 20
-3.169099999999986
 10
55.19749999999999
 20
-3.005000000000038
  0
CIRCLE
  5
1851
330
1D4B
100
AcDbEntity
  8
Stepper
 62
     5
420
      255
370
     5
100
AcDbCircle
 10
95.78765121020672
 20
29.69848480983495
 30
0.0
 40
2.5
  0
CIRCLE
  5
18B0
330
1D4B
100
AcDbEntity
  8
Stepper
 62
     5
420
      255
370
     5
100
AcDbCircle
 10
69.21234878979328
 20
-29.69848480983499
 30
0.0
 40
2.5
  0
CIRCLE
  5
1910
330
1D4B
100
AcDbEntity
  8
Stepper
 62
     5
420
      255
370
     5
100
AcDbCircle
 10
95.78765121020672
 20
29.69848480983495
 30
0.0
 40
2.5
  0
LINE
  5
1C91
330
1D4B
100
AcDbEntity
  8
Section
 62
    30
420
 16744192
370
     5
100
AcDbLine
 10
-15.0
 20
-187.0000000000002
 30
0.0
 11
-15.00000021311075
 21
-132.0
 31
0.0
  0
LINE
  5
1C92
330
1D4B
100
AcDbEntity
  8
Section
 62
    30
420
 16744192
370
     5
100
AcDbLine
 10
15.0
 20
-187.0000000000002
 30
0.0
 11
15.00000021311075
 21
-132.0
 31
0.0
  0
POINT
  5
19E9
330
1D4B
100
AcDbEntity
  8
Pulley12-70
 62
     0
370
     5
100
AcDbPoint
 10
69.21234878979328
 20
-29.69848480983499
 30
0.0
  0
POINT
  5
19EB
330
1D4B
100
AcDbEntity
  8
Pulley12-70
 62
     0
370
     5
100
AcDbPoint
 10
95.78765121020672
 20
29.69848480983495
 30
0.0
  0
LINE
  5
1C93
330
1D4B
100
AcDbEntity
  8
Section
 62
    30
420
 16744192
370
     5
100
AcDbLine
 10
150.0
 20
-187.0
 30
0.0
 11
150.0
 21
-132.0
 31
0.0
  0
LINE
  5
1C94
330
1D4B
100
AcDbEntity
  8
Section
 62
    30
420
 16744192
370
     5
100
AcDbLine
 10
180.0
 20
-187.0
 30
0.0
 11
179.999999679496
 21
-132.0
 31
0.0
  0
CIRCLE
  5
18B1
330
1D4B
100
AcDbEntity
  8
Stepper
370
     5
100
AcDbCircle
 10
69.21234878979328
 20
-29.69848480983499
 30
0.0
 40
2.5
  0
CIRCLE
  5
1911
330
1D4B
100
AcDbEntity
  8
Stepper
370
     5
100
AcDbCircle
 10
95.78765121020672
 20
29.69848480983495
 30
0.0
 40
2.5
  0
CIRCLE
  5
18B2
330
1D4B
100
AcDbEntity
  8
Stepper
 62
     1
420
 16711680
370
     5
100
AcDbCircle
 10
84.71234863650461
 20
-45.19848465654632
 30
0.0
 40
1.5
  0
CIRCLE
  5
18B3
330
1D4B
100
AcDbEntity
  8
Stepper
 62
     5
420
      255
370
     5
100
AcDbCircle
 10
92.13265878979333
 20
-29.69848480983499
 30
0.0
 40
1.5
  0
CIRCLE
  5
18B4
330
1D4B
100
AcDbEntity
  8
Stepper
 62
     5
420
      255
370
     5
100
AcDbCircle
 10
89.96407454509581
 20
-21.3099453405282
 30
0.0
 40
1.5
  0
CIRCLE
  5
18B5
330
1D4B
100
AcDbEntity
  8
Stepper
 62
     5
420
      255
370
     5
100
AcDbCircle
 10
88.96407454509578
 20
-38.08702427914182
 30
0.0
 40
1.5
  0
CIRCLE
  5
1912
330
1D4B
100
AcDbEntity
  8
Stepper
 62
     5
420
      255
370
     5
100
AcDbCircle
 10
72.86734121020669
 20
29.69848480983494
 30
0.0
 40
1.5
  0
CIRCLE
  5
1913
330
1D4B
100
AcDbEntity
  8
Stepper
 62
     1
420
 16711680
370
     5
100
AcDbCircle
 10
80.28765136349537
 20
45.19848465654628
 30
0.0
 40
1.5
  0
CIRCLE
  5
1914
330
1D4B
100
AcDbEntity
  8
Stepper
 62
     5
420
      255
370
     5
100
AcDbCircle
 10
76.03592545490423
 20
38.08702427914177
 30
0.0
 40
1.5
  0
CIRCLE
  5
1915
330
1D4B
100
AcDbEntity
  8
Stepper
 62
     5
420
      255
370
     5
100
AcDbCircle
 10
75.0359254549042
 20
21.30994534052815
 30
0.0
 40
1.5
  0
CIRCLE
  5
18B6
330
1D4B
100
AcDbEntity
  8
Stepper
 62
     1
420
 16711680
370
     5
100
AcDbCircle
 10
53.71234894308196
 20
-45.19848465654626
 30
0.0
 40
1.5
  0
CIRCLE
  5
18B7
330
1D4B
100
AcDbEntity
  8
Stepper
 62
     5
420
      255
370
     5
100
AcDbCircle
 10
70.21234878979327
 20
-7.778174809834965
 30
0.0
 40
1.5
  0
CIRCLE
  5
18B8
330
1D4B
100
AcDbEntity
  8
Stepper
 62
     5
420
      255
370
     5
100
AcDbCircle
 10
61.32380932048646
 20
-9.446759054532464
 30
0.0
 40
1.5
  0
CIRCLE
  5
18B9
330
1D4B
100
AcDbEntity
  8
Stepper
 62
     5
420
      255
370
     5
100
AcDbCircle
 10
77.10088825910007
 20
-9.446759054532464
 30
0.0
 40
1.5
  0
CIRCLE
  5
1916
330
1D4B
100
AcDbEntity
  8
Stepper
 62
     5
420
      255
370
     5
100
AcDbCircle
 10
87.89911174089994
 20
9.446759054532418
 30
0.0
 40
1.5
  0
CIRCLE
  5
1917
330
1D4B
100
AcDbEntity
  8
Stepper
 62
     5
420
      255
370
     5
100
AcDbCircle
 10
103.6761906795136
 20
9.446759054532418
 30
0.0
 40
1.5
  0
CIRCLE
  5
1918
330
1D4B
100
AcDbEntity
  8
Stepper
 62
     5
420
      255
370
     5
100
AcDbCircle
 10
94.78765121020675
 20
7.778174809834915
 30
0.0
 40
1.5
  0
CIRCLE
  5
1919
330
1D4B
100
AcDbEntity
  8
Stepper
 62
     1
420
 16711680
370
     5
100
AcDbCircle
 10
111.287651056918
 20
45.19848465654621
 30
0.0
 40
1.5
  0
LINE
  5
1C95
330
1D4B
100
AcDbEntity
  8
Section
 62
    30
420
 16744192
370
     5
100
AcDbLine
 10
81.47265174608674
 20
-128.0000000000001
 30
0.0
 11
81.47265174608674
 21
-144.0
 31
0.0
  0
LINE
  5
1C96
330
1D4B
100
AcDbEntity
  8
Section
 62
    30
420
 16744192
370
     5
100
AcDbLine
 10
112.4726514395093
 20
-128.0
 30
0.0
 11
112.4726514395093
 21
-144.0
 31
0.0
  0
CIRCLE
  5
18BA
330
1D4B
100
AcDbEntity
  8
Stepper
 62
     5
420
      255
370
     5
100
AcDbCircle
 10
48.29203878979349
 20
-29.69848480983499
 30
0.0
 40
1.5
  0
CIRCLE
  5
18BB
330
1D4B
100
AcDbEntity
  8
Stepper
 62
     5
420
      255
370
     5
100
AcDbCircle
 10
49.46062303449106
 20
-38.08702427914185
 30
0.0
 40
1.5
  0
CIRCLE
  5
18BC
330
1D4B
100
AcDbEntity
  8
Stepper
 62
     5
420
      255
370
     5
100
AcDbCircle
 10
48.46062303449092
 20
-21.30994534052837
 30
0.0
 40
1.5
  0
CIRCLE
  5
18BD
330
1D4B
100
AcDbEntity
  8
Stepper
 62
     1
420
 16711680
370
     5
100
AcDbCircle
 10
53.71234894308225
 20
-14.19848496312376
 30
0.0
 40
1.5
  0
CIRCLE
  5
191A
330
1D4B
100
AcDbEntity
  8
Stepper
 62
     5
420
      255
370
     5
100
AcDbCircle
 10
115.5393769655089
 20
38.08702427914183
 30
0.0
 40
1.5
  0
CIRCLE
  5
191B
330
1D4B
100
AcDbEntity
  8
Stepper
 62
     5
420
      255
370
     5
100
AcDbCircle
 10
116.7079612102065
 20
29.69848480983495
 30
0.0
 40
1.5
  0
CIRCLE
  5
191C
330
1D4B
100
AcDbEntity
  8
Stepper
 62
     1
420
 16711680
370
     5
100
AcDbCircle
 10
111.2876510569178
 20
14.19848496312373
 30
0.0
 40
1.5
  0
CIRCLE
  5
191D
330
1D4B
100
AcDbEntity
  8
Stepper
 62
     5
420
      255
370
     5
100
AcDbCircle
 10
116.5393769655091
 20
21.30994534052831
 30
0.0
 40
1.5
  0
LINE
  5
1C97
330
1D4B
100
AcDbEntity
  8
Section
 62
    30
420
 16744192
370
     5
100
AcDbLine
 10
-13.5
 20
-187.0000000000002
 30
0.0
 11
-13.5
 21
-132.0
 31
0.0
  0
CIRCLE
  5
1861
330
1D4B
100
AcDbEntity
  8
Stepper
 62
     5
420
      255
370
     5
100
AcDbCircle
 10
94.78765121020695
 20
51.61879480983483
 30
0.0
 40
1.5
  0
CIRCLE
  5
18BE
330
1D4B
100
AcDbEntity
  8
Stepper
 62
     1
420
 16711680
370
     5
100
AcDbCircle
 10
84.71234863650432
 20
-14.19848496312362
 30
0.0
 40
1.5
  0
CIRCLE
  5
18BF
330
1D4B
100
AcDbEntity
  8
Stepper
 62
     5
420
      255
370
     5
100
AcDbCircle
 10
70.21234878979307
 20
-51.61879480983487
 30
0.0
 40
1.5
  0
CIRCLE
  5
18C0
330
1D4B
100
AcDbEntity
  8
Stepper
 62
     5
420
      255
370
     5
100
AcDbCircle
 10
78.10088825909982
 20
-49.95021056513738
 30
0.0
 40
1.5
  0
CIRCLE
  5
18C1
330
1D4B
100
AcDbEntity
  8
Stepper
 62
     5
420
      255
370
     5
100
AcDbCircle
 10
60.3238093204863
 20
-49.95021056513714
 30
0.0
 40
1.5
  0
CIRCLE
  5
191F
330
1D4B
100
AcDbEntity
  8
Stepper
 62
     1
420
 16711680
370
     5
100
AcDbCircle
 10
80.28765136349568
 20
14.19848496312357
 30
0.0
 40
1.5
  0
CIRCLE
  5
1920
330
1D4B
100
AcDbEntity
  8
Stepper
 62
     5
420
      255
370
     5
100
AcDbCircle
 10
104.6761906795137
 20
49.95021056513708
 30
0.0
 40
1.5
  0
CIRCLE
  5
1921
330
1D4B
100
AcDbEntity
  8
Stepper
 62
     5
420
      255
370
     5
100
AcDbCircle
 10
86.8991117409002
 20
49.95021056513733
 30
0.0
 40
1.5
  0
LINE
  5
1C98
330
1D4B
100
AcDbEntity
  8
Section
 62
    30
420
 16744192
370
     5
100
AcDbLine
 10
13.5
 20
-187.0000000000002
 30
0.0
 11
13.5
 21
-132.0
 31
0.0
  0
LINE
  5
1C99
330
1D4B
100
AcDbEntity
  8
Section
 62
    30
420
 16744192
370
     5
100
AcDbLine
 10
151.5
 20
-186.9999999999999
 30
0.0
 11
151.5
 21
-131.9999995142095
 31
0.0
  0
LINE
  5
1C9A
330
1D4B
100
AcDbEntity
  8
Section
 62
    30
420
 16744192
370
     5
100
AcDbLine
 10
178.5
 20
-187.0
 30
0.0
 11
178.5
 21
-132.0
 31
0.0
  0
LWPOLYLINE
  5
19EA
330
1D4B
100
AcDbEntity
  8
Pulley12-70
 62
     0
370
     5
100
AcDbPolyline
 90
      240
 70
   129
 43
0.0
 10
78.1323487897933
 20
-31.65348480983495
 10
78.10884878979329
 20
-31.48648480983499
 10
78.04004878979327
 20
-31.331484809835
 10
77.93204878979327
 20
-31.20248480983497
 10
77.79254878979327
 20
-31.11048480983499
 10
76.7646487897934
 20
-30.55748480983496
 10
76.66964878979326
 20
-30.49548480983499
 10
76.5956487897933
 20
-30.408484809835
 10
76.54864878979328
 20
-30.30448480983496
 10
76.53364878979329
 20
-30.19148480983496
 10
76.53364878979329
 20
-29.205484809835
 10
76.54864878979328
 20
-29.092484809835
 10
76.59564878979336
 20
-28.98848480983497
 10
76.66964878979326
 20
-28.901484809835
 10
76.76464878979328
 20
-28.839484809835
 10
77.79254878979316
 20
-28.286484809835
 10
77.93204878979327
 20
-28.19448480983499
 10
78.04004878979339
 20
-28.06548480983496
 10
78.10884878979329
 20
-27.91048480983495
 10
78.1323487897933
 20
-27.74348480983495
 10
77.91484878979327
 20
-26.93158480983494
 10
77.81094878979326
 20
-26.79868480983498
 10
77.6738487897934
 20
-26.69888480983496
 10
77.51584878979327
 20
-26.64118480983501
 10
77.34904878979336
 20
-26.63118480983493
 10
76.18234878979325
 20
-26.66628480983498
 10
76.06904878979327
 20
-26.66008480983498
 10
75.96144878979328
 20
-26.621684809835
 10
75.8687487897933
 20
-26.55518480983498
 10
75.79924878979335
 20
-26.46478480983497
 10
75.3062487897933
 20
-25.610884809835
 10
75.2627487897933
 20
-25.50548480983498
 10
75.2514487897933
 20
-25.39198480983498
 10
75.2720487897933
 20
-25.27958480983503
 10
75.32334878979327
 20
-25.17838480983498
 10
75.93704878979327
 20
-24.18548480983499
 10
76.0118487897933
 20
-24.036084809835
 10
76.0408487897933
 20
-23.87038480983497
 10
76.0229487897933
 20
-23.70178480983498
 10
75.95984878979328
 20
-23.54538480983499
 10
75.36544878979328
 20
-22.95098480983498
 10
75.20904878979326
 20
-22.887884809835
 10
75.0404487897934
 20
-22.86998480983495
 10
74.87474878979327
 20
-22.898984809835
 10
74.72534878979326
 20
-22.973784809835
 10
73.7324487897933
 20
-23.58748480983499
 10
73.63124878979329
 20
-23.63878480983499
 10
73.51884878979325
 20
-23.65938480983496
 10
73.40534878979327
 20
-23.64808480983497
 10
73.29994878979329
 20
-23.60458480983499
 10
72.44604878979328
 20
-23.11158480983499
 10
72.35564878979329
 20
-23.04208480983498
 10
72.28914878979327
 20
-22.949384809835
 10
72.2507487897933
 20
-22.84178480983499
 10
72.24454878979327
 20
-22.72848480983495
 10
72.27964878979327
 20
-21.56178480983499
 10
72.26964878979328
 20
-21.39498480983499
 10
72.21194878979327
 20
-21.23698480983496
 10
72.11214878979325
 20
-21.09988480983499
 10
71.9792487897933
 20
-20.99598480983497
 10
71.16734878979327
 20
-20.77848480983496
 10
71.00034878979329
 20
-20.80198480983498
 10
70.84534878979326
 20
-20.87078480983502
 10
70.7163487897933
 20
-20.97878480983499
 10
70.62434878979326
 20
-21.11828480983496
 10
70.07134878979326
 20
-22.14618480983495
 10
70.00934878979336
 20
-22.24118480983496
 10
69.92234878979326
 20
-22.315184809835
 10
69.81834878979328
 20
-22.36218480983497
 10
69.70534878979339
 20
-22.37718480983499
 10
68.71934878979329
 20
-22.377184809835
 10
68.6063487897934
 20
-22.36218480983497
 10
68.5023487897933
 20
-22.31518480983497
 10
68.41534878979326
 20
-22.24118480983496
 10
68.3533487897933
 20
-22.14618480983496
 10
67.8003487897933
 20
-21.11828480983495
 10
67.70834878979326
 20
-20.97878480983498
 10
67.5793487897933
 20
-20.87078480983502
 10
67.42434878979327
 20
-20.80198480983499
 10
67.2573487897933
 20
-20.77848480983499
 10
66.44544878979326
 20
-20.99598480983497
 10
66.31254878979325
 20
-21.09988480983502
 10
66.2127487897933
 20
-21.23698480983498
 10
66.15504878979328
 20
-21.39498480983495
 10
66.1450487897933
 20
-21.56178480983498
 10
66.1801487897933
 20
-22.72848480983498
 10
66.17394878979326
 20
-22.841784809835
 10
66.1355487897934
 20
-22.94938480983497
 10
66.06904878979338
 20
-23.04208480983493
 10
65.97864878979328
 20
-23.11158480983499
 10
65.12474878979339
 20
-23.60458480983498
 10
65.01934878979336
 20
-23.64808480983497
 10
64.90584878979325
 20
-23.65938480983499
 10
64.79344878979339
 20
-23.63878480983497
 10
64.69224878979327
 20
-23.58748480983499
 10
63.69934878979331
 20
-22.97378480983498
 10
63.54994878979329
 20
-22.89898480983497
 10
63.38424878979328
 20
-22.86998480983499
 10
63.21564878979331
 20
-22.88788480983501
 10
63.0592487897934
 20
-22.95098480983496
 10
62.46484878979328
 20
-23.54538480983499
 10
62.40174878979326
 20
-23.70178480983498
 10
62.38384878979326
 20
-23.87038480983497
 10
62.41284878979326
 20
-24.03608480983499
 10
62.4876487897933
 20
-24.18548480983497
 10
63.10134878979329
 20
-25.17838480983499
 10
63.15264878979326
 20
-25.27958480983497
 10
63.17324878979326
 20
-25.39198480983498
 10
63.16194878979326
 20
-25.505484809835
 10
63.11844878979326
 20
-25.610884809835
 10
62.62544878979327
 20
-26.46478480983498
 10
62.55594878979326
 20
-26.55518480983497
 10
62.4632487897934
 20
-26.62168480983497
 10
62.35564878979329
 20
-26.66008480983497
 10
62.24234878979325
 20
-26.66628480983496
 10
61.07564878979326
 20
-26.63118480983499
 10
60.9088487897933
 20
-26.64118480983501
 10
60.75084878979317
 20
-26.69888480983501
 10
60.61374878979331
 20
-26.79868480983502
 10
60.50984878979335
 20
-26.93158480983499
 10
60.29234878979327
 20
-27.743484809835
 10
60.31584878979328
 20
-27.91048480983497
 10
60.38464878979329
 20
-28.06548480983498
 10
60.49264878979329
 20
-28.19448480983496
 10
60.63214878979329
 20
-28.28648480983496
 10
61.66004878979328
 20
-28.83948480983499
 10
61.75504878979331
 20
-28.90148480983501
 10
61.82904878979326
 20
-28.98848480983496
 10
61.87604878979329
 20
-29.09248480983499
 10
61.89104878979327
 20
-29.20548480983501
 10
61.89104878979339
 20
-30.19148480983495
 10
61.8760487897934
 20
-30.30448480983496
 10
61.82904878979326
 20
-30.40848480983496
 10
61.75504878979331
 20
-30.49548480983499
 10
61.66004878979328
 20
-30.55748480983497
 10
60.6321487897934
 20
-31.11048480983499
 10
60.49264878979341
 20
-31.20248480983494
 10
60.38464878979329
 20
-31.33148480983498
 10
60.31584878979328
 20
-31.48648480983499
 10
60.29234878979327
 20
-31.65348480983499
 10
60.5098487897933
 20
-32.46538480983497
 10
60.61374878979331
 20
-32.59828480983496
 10
60.75084878979328
 20
-32.698084809835
 10
60.9088487897933
 20
-32.75578480983498
 10
61.07564878979326
 20
-32.76578480983497
 10
62.24234878979325
 20
-32.730684809835
 10
62.35564878979329
 20
-32.73688480983496
 10
62.4632487897934
 20
-32.77528480983499
 10
62.55594878979326
 20
-32.84178480983496
 10
62.62544878979327
 20
-32.93218480983496
 10
63.11844878979326
 20
-33.78608480983495
 10
63.16194878979326
 20
-33.89148480983498
 10
63.17324878979326
 20
-34.00498480983497
 10
63.15264878979326
 20
-34.11738480983497
 10
63.10134878979329
 20
-34.21858480983499
 10
62.4876487897933
 20
-35.21148480983499
 10
62.41284878979326
 20
-35.36088480983496
 10
62.38384878979326
 20
-35.526584809835
 10
62.40174878979326
 20
-35.69518480983498
 10
62.46484878979339
 20
-35.85158480983495
 10
63.05924878979329
 20
-36.44598480983497
 10
63.21564878979331
 20
-36.50908480983496
 10
63.38424878979328
 20
-36.52698480983497
 10
63.54994878979329
 20
-36.497984809835
 10
63.69934878979331
 20
-36.42318480983495
 10
64.69224878979327
 20
-35.80948480983498
 10
64.79344878979339
 20
-35.758184809835
 10
64.90584878979325
 20
-35.73758480983501
 10
65.01934878979336
 20
-35.74888480983493
 10
65.12474878979327
 20
-35.79238480983496
 10
65.97864878979328
 20
-36.28538480983499
 10
66.06904878979327
 20
-36.35488480983496
 10
66.13554878979329
 20
-36.44758480983495
 10
66.17394878979326
 20
-36.55518480983497
 10
66.1801487897933
 20
-36.66848480983496
 10
66.1450487897933
 20
-37.83518480983498
 10
66.1550487897934
 20
-38.00198480983494
 10
66.2127487897933
 20
-38.15998480983498
 10
66.31254878979325
 20
-38.29708480983497
 10
66.44544878979326
 20
-38.40098480983498
 10
67.2573487897933
 20
-38.618484809835
 10
67.42434878979327
 20
-38.59498480983498
 10
67.5793487897933
 20
-38.52618480983497
 10
67.70834878979326
 20
-38.41818480983498
 10
67.8003487897933
 20
-38.27868480983497
 10
68.35334878979336
 20
-37.25078480983498
 10
68.41534878979326
 20
-37.155784809835
 10
68.5023487897933
 20
-37.08178480983496
 10
68.60634878979329
 20
-37.03478480983497
 10
68.71934878979329
 20
-37.01978480983495
 10
69.70534878979339
 20
-37.01978480983497
 10
69.81834878979328
 20
-37.03478480983499
 10
69.92234878979326
 20
-37.08178480983497
 10
70.00934878979331
 20
-37.15578480983497
 10
70.07134878979326
 20
-37.250784809835
 10
70.62434878979326
 20
-38.27868480983497
 10
70.7163487897933
 20
-38.41818480983501
 10
70.84534878979326
 20
-38.52618480983496
 10
71.00034878979329
 20
-38.594984809835
 10
71.16734878979327
 20
-38.61848480983501
 10
71.9792487897933
 20
-38.40098480983498
 10
72.11214878979325
 20
-38.29708480983497
 10
72.21194878979327
 20
-38.15998480983495
 10
72.26964878979328
 20
-38.00198480983499
 10
72.27964878979327
 20
-37.83518480983498
 10
72.24454878979327
 20
-36.66848480983496
 10
72.2507487897933
 20
-36.55518480983501
 10
72.28914878979327
 20
-36.44758480983498
 10
72.35564878979329
 20
-36.35488480983499
 10
72.44604878979328
 20
-36.28538480983499
 10
73.2999487897934
 20
-35.79238480983496
 10
73.40534878979327
 20
-35.74888480983499
 10
73.51884878979325
 20
-35.737584809835
 10
73.63124878979329
 20
-35.758184809835
 10
73.73244878979335
 20
-35.80948480983496
 10
74.72534878979326
 20
-36.42318480983496
 10
74.87474878979327
 20
-36.49798480983496
 10
75.04044878979329
 20
-36.526984809835
 10
75.20904878979326
 20
-36.509084809835
 10
75.36544878979328
 20
-36.44598480983498
 10
75.95984878979328
 20
-35.85158480983496
 10
76.0229487897933
 20
-35.69518480983498
 10
76.04084878979336
 20
-35.52658480983497
 10
76.0118487897933
 20
-35.36088480983503
 10
75.93704878979327
 20
-35.211484809835
 10
75.32334878979327
 20
-34.21858480983502
 10
75.2720487897933
 20
-34.11738480983502
 10
75.2514487897933
 20
-34.00498480983498
 10
75.2627487897933
 20
-33.89148480983496
 10
75.3062487897933
 20
-33.78608480983499
 10
75.79924878979335
 20
-32.93218480983495
 10
75.8687487897933
 20
-32.84178480983495
 10
75.96144878979328
 20
-32.775284809835
 10
76.06904878979327
 20
-32.73688480983496
 10
76.18234878979325
 20
-32.73068480983498
 10
77.3490487897933
 20
-32.76578480983503
 10
77.51584878979327
 20
-32.75578480983495
 10
77.67384878979328
 20
-32.69808480983498
 10
77.81094878979326
 20
-32.59828480983499
 10
77.91484878979327
 20
-32.46538480983496
  0
LWPOLYLINE
  5
19EC
330
1D4B
100
AcDbEntity
  8
Pulley12-70
 62
     0
370
     5
100
AcDbPolyline
 90
      240
 70
   129
 43
0.0
 10
104.7076512102067
 20
27.74348480983499
 10
104.6841512102067
 20
27.91048480983495
 10
104.6153512102067
 20
28.06548480983494
 10
104.5073512102067
 20
28.19448480983497
 10
104.3678512102067
 20
28.28648480983496
 10
103.3399512102068
 20
28.83948480983498
 10
103.2449512102067
 20
28.90148480983495
 10
103.1709512102067
 20
28.98848480983494
 10
103.1239512102067
 20
29.09248480983498
 10
103.1089512102067
 20
29.20548480983498
 10
103.1089512102067
 20
30.19148480983494
 10
103.1239512102067
 20
30.30448480983494
 10
103.1709512102068
 20
30.40848480983497
 10
103.2449512102067
 20
30.49548480983495
 10
103.3399512102067
 20
30.55748480983494
 10
104.3678512102066
 20
31.11048480983494
 10
104.5073512102067
 20
31.20248480983495
 10
104.6153512102068
 20
31.33148480983499
 10
104.6841512102067
 20
31.48648480983499
 10
104.7076512102067
 20
31.65348480983499
 10
104.4901512102067
 20
32.46538480983499
 10
104.3862512102067
 20
32.59828480983496
 10
104.2491512102068
 20
32.69808480983497
 10
104.0911512102067
 20
32.75578480983494
 10
103.9243512102068
 20
32.765784809835
 10
102.7576512102067
 20
32.73068480983496
 10
102.6443512102067
 20
32.73688480983495
 10
102.5367512102067
 20
32.77528480983494
 10
102.4440512102067
 20
32.84178480983496
 10
102.3745512102068
 20
32.93218480983497
 10
101.8815512102067
 20
33.78608480983495
 10
101.8380512102067
 20
33.89148480983496
 10
101.8267512102067
 20
34.00498480983497
 10
101.8473512102067
 20
34.11738480983492
 10
101.8986512102067
 20
34.21858480983497
 10
102.5123512102067
 20
35.21148480983496
 10
102.5871512102067
 20
35.36088480983494
 10
102.6161512102067
 20
35.52658480983497
 10
102.5982512102067
 20
35.69518480983497
 10
102.5351512102067
 20
35.85158480983495
 10
101.9407512102067
 20
36.44598480983496
 10
101.7843512102067
 20
36.50908480983495
 10
101.6157512102068
 20
36.526984809835
 10
101.4500512102067
 20
36.49798480983495
 10
101.3006512102067
 20
36.42318480983495
 10
100.3077512102067
 20
35.80948480983496
 10
100.2065512102067
 20
35.75818480983496
 10
100.0941512102067
 20
35.73758480983498
 10
99.9806512102067
 20
35.74888480983498
 10
99.87525121020673
 20
35.79238480983496
 10
99.02135121020672
 20
36.28538480983495
 10
98.93095121020673
 20
36.35488480983497
 10
98.86445121020671
 20
36.44758480983495
 10
98.82605121020674
 20
36.55518480983496
 10
98.8198512102067
 20
36.66848480983499
 10
98.8549512102067
 20
37.83518480983496
 10
98.84495121020672
 20
38.00198480983495
 10
98.7872512102067
 20
38.15998480983498
 10
98.68745121020669
 20
38.29708480983496
 10
98.55455121020674
 20
38.40098480983498
 10
97.7426512102067
 20
38.61848480983498
 10
97.57565121020673
 20
38.59498480983497
 10
97.4206512102067
 20
38.52618480983493
 10
97.29165121020674
 20
38.41818480983495
 10
97.1996512102067
 20
38.27868480983499
 10
96.6466512102067
 20
37.25078480983499
 10
96.5846512102068
 20
37.15578480983498
 10
96.4976512102067
 20
37.08178480983494
 10
96.39365121020671
 20
37.03478480983497
 10
96.28065121020683
 20
37.01978480983496
 10
95.29465121020672
 20
37.01978480983495
 10
95.18165121020684
 20
37.03478480983497
 10
95.07765121020674
 20
37.08178480983497
 10
94.99065121020669
 20
37.15578480983498
 10
94.92865121020674
 20
37.25078480983498
 10
94.37565121020674
 20
38.278684809835
 10
94.2836512102067
 20
38.41818480983497
 10
94.15465121020674
 20
38.52618480983493
 10
93.99965121020671
 20
38.59498480983495
 10
93.83265121020673
 20
38.61848480983495
 10
93.0207512102067
 20
38.40098480983498
 10
92.88785121020669
 20
38.29708480983493
 10
92.78805121020673
 20
38.15998480983497
 10
92.73035121020672
 20
38.00198480983499
 10
92.72035121020673
 20
37.83518480983497
 10
92.75545121020673
 20
36.66848480983496
 10
92.7492512102067
 20
36.55518480983494
 10
92.71085121020684
 20
36.44758480983498
 10
92.64435121020682
 20
36.35488480983501
 10
92.55395121020672
 20
36.28538480983495
 10
91.70005121020682
 20
35.79238480983497
 10
91.59465121020679
 20
35.74888480983498
 10
91.48115121020669
 20
35.73758480983496
 10
91.36875121020682
 20
35.75818480983497
 10
91.2675512102067
 20
35.80948480983496
 10
90.27465121020674
 20
36.42318480983496
 10
90.12525121020673
 20
36.49798480983497
 10
89.95955121020671
 20
36.52698480983496
 10
89.79095121020674
 20
36.50908480983493
 10
89.63455121020684
 20
36.44598480983498
 10
89.04015121020672
 20
35.85158480983495
 10
88.9770512102067
 20
35.69518480983497
 10
88.9591512102067
 20
35.52658480983497
 10
88.9881512102067
 20
35.36088480983496
 10
89.06295121020673
 20
35.21148480983497
 10
89.67665121020673
 20
34.21858480983495
 10
89.7279512102067
 20
34.11738480983497
 10
89.7485512102067
 20
34.00498480983497
 10
89.7372512102067
 20
33.89148480983495
 10
89.6937512102067
 20
33.78608480983495
 10
89.2007512102067
 20
32.93218480983496
 10
89.1312512102067
 20
32.84178480983498
 10
89.03855121020683
 20
32.77528480983496
 10
88.93095121020673
 20
32.73688480983498
 10
88.81765121020669
 20
32.73068480983498
 10
87.6509512102067
 20
32.76578480983495
 10
87.48415121020673
 20
32.75578480983494
 10
87.3261512102066
 20
32.69808480983494
 10
87.18905121020674
 20
32.59828480983492
 10
87.08515121020679
 20
32.46538480983496
 10
86.8676512102067
 20
31.65348480983495
 10
86.89115121020671
 20
31.48648480983497
 10
86.95995121020673
 20
31.33148480983496
 10
87.06795121020673
 20
31.20248480983498
 10
87.20745121020673
 20
31.11048480983498
 10
88.23535121020672
 20
30.55748480983496
 10
88.33035121020674
 20
30.49548480983493
 10
88.4043512102067
 20
30.40848480983498
 10
88.45135121020672
 20
30.30448480983496
 10
88.46635121020671
 20
30.19148480983493
 10
88.46635121020682
 20
29.205484809835
 10
88.45135121020684
 20
29.09248480983498
 10
88.4043512102067
 20
28.98848480983498
 10
88.33035121020674
 20
28.90148480983495
 10
88.23535121020672
 20
28.83948480983497
 10
87.20745121020684
 20
28.28648480983496
 10
87.06795121020684
 20
28.194484809835
 10
86.95995121020673
 20
28.06548480983497
 10
86.89115121020671
 20
27.91048480983495
 10
86.8676512102067
 20
27.74348480983495
 10
87.08515121020673
 20
26.93158480983497
 10
87.18905121020674
 20
26.79868480983498
 10
87.32615121020672
 20
26.69888480983495
 10
87.48415121020673
 20
26.64118480983496
 10
87.6509512102067
 20
26.63118480983497
 10
88.81765121020669
 20
26.66628480983494
 10
88.93095121020673
 20
26.66008480983498
 10
89.03855121020683
 20
26.62168480983496
 10
89.1312512102067
 20
26.55518480983498
 10
89.2007512102067
 20
26.46478480983498
 10
89.6937512102067
 20
25.610884809835
 10
89.7372512102067
 20
25.50548480983496
 10
89.7485512102067
 20
25.39198480983498
 10
89.7279512102067
 20
25.27958480983497
 10
89.67665121020673
 20
25.17838480983495
 10
89.06295121020673
 20
24.18548480983496
 10
88.9881512102067
 20
24.03608480983499
 10
88.9591512102067
 20
23.87038480983494
 10
88.9770512102067
 20
23.70178480983496
 10
89.04015121020683
 20
23.545384809835
 10
89.63455121020672
 20
22.95098480983497
 10
89.79095121020674
 20
22.88788480983498
 10
89.95955121020671
 20
22.86998480983497
 10
90.12525121020673
 20
22.89898480983494
 10
90.27465121020674
 20
22.97378480983499
 10
91.2675512102067
 20
23.58748480983496
 10
91.36875121020682
 20
23.63878480983494
 10
91.48115121020669
 20
23.65938480983493
 10
91.59465121020679
 20
23.64808480983501
 10
91.70005121020671
 20
23.60458480983499
 10
92.55395121020672
 20
23.11158480983495
 10
92.64435121020671
 20
23.04208480983499
 10
92.71085121020673
 20
22.94938480983499
 10
92.7492512102067
 20
22.84178480983497
 10
92.75545121020673
 20
22.72848480983498
 10
92.72035121020673
 20
21.56178480983496
 10
92.73035121020683
 20
21.39498480983501
 10
92.78805121020673
 20
21.23698480983496
 10
92.88785121020669
 20
21.09988480983497
 10
93.0207512102067
 20
20.99598480983496
 10
93.83265121020673
 20
20.77848480983495
 10
93.99965121020671
 20
20.80198480983496
 10
94.15465121020674
 20
20.87078480983497
 10
94.2836512102067
 20
20.97878480983496
 10
94.37565121020674
 20
21.11828480983497
 10
94.9286512102068
 20
22.14618480983496
 10
94.99065121020669
 20
22.24118480983494
 10
95.07765121020674
 20
22.31518480983499
 10
95.18165121020672
 20
22.36218480983497
 10
95.29465121020672
 20
22.377184809835
 10
96.28065121020683
 20
22.37718480983497
 10
96.39365121020671
 20
22.36218480983495
 10
96.4976512102067
 20
22.31518480983497
 10
96.58465121020674
 20
22.24118480983497
 10
96.6466512102067
 20
22.14618480983495
 10
97.1996512102067
 20
21.11828480983497
 10
97.29165121020674
 20
20.97878480983493
 10
97.4206512102067
 20
20.87078480983498
 10
97.57565121020673
 20
20.80198480983494
 10
97.7426512102067
 20
20.77848480983493
 10
98.55455121020674
 20
20.99598480983496
 10
98.68745121020669
 20
21.09988480983497
 10
98.7872512102067
 20
21.23698480983499
 10
98.84495121020672
 20
21.39498480983495
 10
98.8549512102067
 20
21.56178480983496
 10
98.8198512102067
 20
22.72848480983498
 10
98.82605121020674
 20
22.84178480983493
 10
98.86445121020671
 20
22.94938480983496
 10
98.93095121020673
 20
23.04208480983496
 10
99.02135121020672
 20
23.11158480983495
 10
99.87525121020684
 20
23.60458480983499
 10
99.9806512102067
 20
23.64808480983495
 10
100.0941512102067
 20
23.65938480983494
 10
100.2065512102067
 20
23.63878480983494
 10
100.3077512102068
 20
23.58748480983499
 10
101.3006512102067
 20
22.97378480983498
 10
101.4500512102067
 20
22.89898480983498
 10
101.6157512102067
 20
22.86998480983494
 10
101.7843512102067
 20
22.88788480983494
 10
101.9407512102067
 20
22.95098480983496
 10
102.5351512102067
 20
23.54538480983498
 10
102.5982512102067
 20
23.70178480983496
 10
102.6161512102068
 20
23.87038480983497
 10
102.5871512102067
 20
24.03608480983491
 10
102.5123512102067
 20
24.18548480983494
 10
101.8986512102067
 20
25.17838480983492
 10
101.8473512102067
 20
25.27958480983493
 10
101.8267512102067
 20
25.39198480983496
 10
101.8380512102067
 20
25.50548480983498
 10
101.8815512102067
 20
25.61088480983495
 10
102.3745512102068
 20
26.46478480983499
 10
102.4440512102067
 20
26.55518480983499
 10
102.5367512102067
 20
26.62168480983494
 10
102.6443512102067
 20
26.66008480983498
 10
102.7576512102067
 20
26.66628480983496
 10
103.9243512102067
 20
26.63118480983492
 10
104.0911512102067
 20
26.64118480983499
 10
104.2491512102067
 20
26.69888480983496
 10
104.3862512102067
 20
26.79868480983495
 10
104.4901512102067
 20
26.93158480983498
  0
LINE
  5
1C9B
330
1D4B
100
AcDbEntity
  8
Section
 62
    30
420
 16744192
370
     5
100
AcDbLine
 10
78.47265174608674
 20
-128.0
 30
0.0
 11
78.47265174608674
 21
-144.0
 31
0.0
  0
LINE
  5
1C9C
330
1D4B
100
AcDbEntity
  8
Section
 62
    30
420
 16744192
370
     5
100
AcDbLine
 10
109.4726514395093
 20
-128.0
 30
0.0
 11
109.4726514395093
 21
-144.0
 31
0.0
  0
LINE
  5
1C9D
330
1D4B
100
AcDbEntity
  8
Section
 62
    30
420
 16744192
370
     5
100
AcDbLine
 10
-16.5
 20
-187.0000000000001
 30
0.0
 11
-16.5
 21
-132.0
 31
0.0
  0
LINE
  5
1C9E
330
1D4B
100
AcDbEntity
  8
Section
 62
    30
420
 16744192
370
     5
100
AcDbLine
 10
16.5
 20
-187.0000000000001
 30
0.0
 11
16.5
 21
-132.0
 31
0.0
  0
LINE
  5
1C9F
330
1D4B
100
AcDbEntity
  8
Section
 62
    30
420
 16744192
370
     5
100
AcDbLine
 10
148.5
 20
-187.0
 30
0.0
 11
148.5
 21
-132.0
 31
0.0
  0
LINE
  5
1CA0
330
1D4B
100
AcDbEntity
  8
Section
 62
    30
420
 16744192
370
     5
100
AcDbLine
 10
181.5
 20
-186.9999999999999
 30
0.0
 11
181.5
 21
-131.9999996526473
 31
0.0
  0
ARC
  5
1CA1
330
1D4B
100
AcDbEntity
  8
Section
 62
    30
420
 16744192
370
     5
100
AcDbCircle
 10
-30.99999983387477
 20
-148.2500000000002
 30
0.0
 40
3.250000000000011
100
AcDbArc
 50
22.61986494804055
 51
157.3801350519594
  0
ARC
  5
1CA2
330
1D4B
100
AcDbEntity
  8
Section
 62
    30
420
 16744192
370
     5
100
AcDbCircle
 10
30.99999997482962
 20
-148.2500000000002
 30
0.0
 40
3.250000000000011
100
AcDbArc
 50
22.61986494804061
 51
157.3801350519594
1001
QCAD
1000
reversed:1
  0
ARC
  5
1CA3
330
1D4B
100
AcDbEntity
  8
Section
 62
    30
420
 16744192
370
     5
100
AcDbCircle
 10
50.00000028862178
 20
-172.25
 30
0.0
 40
3.250000000000011
100
AcDbArc
 50
22.61986494804061
 51
157.3801350519594
1001
QCAD
1000
reversed:1
  0
ARC
  5
1CA4
330
1D4B
100
AcDbEntity
  8
Section
 62
    30
420
 16744192
370
     5
100
AcDbCircle
 10
-50.00000028862178
 20
-172.25
 30
0.0
 40
3.250000000000011
100
AcDbArc
 50
22.61986494804059
 51
157.3801350519594
  0
ARC
  5
1CA5
330
1D4B
100
AcDbEntity
  8
Section
 62
    30
420
 16744192
370
     5
100
AcDbCircle
 10
134.0000000072612
 20
-148.2500000000002
 30
0.0
 40
3.250000000000011
100
AcDbArc
 50
22.6198649480405
 51
157.3801350519595
  0
ARC
  5
1CA6
330
1D4B
100
AcDbEntity
  8
Section
 62
    30
420
 16744192
370
     5
100
AcDbCircle
 10
195.9999998159657
 20
-148.2500000000001
 30
0.0
 40
3.250000000000011
100
AcDbArc
 50
22.6198649480405
 51
157.3801350519595
1001
QCAD
1000
reversed:1
  0
ARC
  5
1CA7
330
1D4B
100
AcDbEntity
  8
Section
 62
    30
420
 16744192
370
     5
100
AcDbCircle
 10
110.9726514395093
 20
-142.7500000000001
 30
0.0
 40
3.250000000000011
100
AcDbArc
 50
202.6198649480405
 51
337.3801350519595
1001
QCAD
1000
reversed:1
  0
ARC
  5
1CA8
330
1D4B
100
AcDbEntity
  8
Section
 62
    30
420
 16744192
370
     5
100
AcDbCircle
 10
-14.99999990435219
 20
-133.2500000000001
 30
0.0
 40
3.250000000000011
100
AcDbArc
 50
22.61986494804055
 51
157.3801350519594
  0
ARC
  5
1CA9
330
1D4B
100
AcDbEntity
  8
Section
 62
    30
420
 16744192
370
     5
100
AcDbCircle
 10
15.00000052186937
 20
-133.2500000000001
 30
0.0
 40
3.250000000000011
100
AcDbArc
 50
22.61986494804055
 51
157.3801350519594
  0
ARC
  5
1CAA
330
1D4B
100
AcDbEntity
  8
Section
 62
    30
420
 16744192
370
     5
100
AcDbCircle
 10
150.0000000956478
 20
-133.2500000000001
 30
0.0
 40
3.250000000000011
100
AcDbArc
 50
22.6198649480405
 51
157.3801350519595
  0
ARC
  5
1CAB
330
1D4B
100
AcDbEntity
  8
Section
 62
    30
420
 16744192
370
     5
100
AcDbCircle
 10
179.9999999043522
 20
-133.2500000000001
 30
0.0
 40
3.250000000000011
100
AcDbArc
 50
22.6198649480405
 51
157.3801350519595
1001
QCAD
1000
reversed:1
  0
ARC
  5
1CAC
330
1D4B
100
AcDbEntity
  8
Section
 62
    30
420
 16744192
370
     5
100
AcDbCircle
 10
79.97265174608674
 20
-142.75
 30
0.0
 40
3.250000000000011
100
AcDbArc
 50
202.6198649480405
 51
337.3801350519595
1001
QCAD
1000
reversed:1
  0
LWPOLYLINE
  5
1CAD
330
1D4B
100
AcDbEntity
  8
Section
 62
    30
420
 16744192
370
     5
100
AcDbPolyline
 90
        4
 70
   129
 43
0.0
 10
-28.0
 20
-184.9999999999999
 10
-34.0
 20
-184.9999999999999
 10
-34.0
 20
-182.9999999999999
 10
-28.0
 20
-183.0000000000001
  0
LWPOLYLINE
  5
1CAE
330
1D4B
100
AcDbEntity
  8
Section
 62
    30
420
 16744192
370
     5
100
AcDbPolyline
 90
        4
 70
   129
 43
0.0
 10
28.0
 20
-184.9999999999999
 10
34.0
 20
-184.9999999999999
 10
34.0
 20
-182.9999999999999
 10
28.0
 20
-183.0000000000001
  0
LWPOLYLINE
  5
1CAF
330
1D4B
100
AcDbEntity
  8
Section
 62
    30
420
 16744192
370
     5
100
AcDbPolyline
 90
        4
 70
   129
 43
0.0
 10
47.00000031379216
 20
-223.9999999999996
 10
53.00000031379216
 20
-223.9999999999996
 10
53.00000031379216
 20
-221.9999999999996
 10
47.00000031379216
 20
-221.9999999999999
  0
LWPOLYLINE
  5
1CB0
330
1D4B
100
AcDbEntity
  8
Section
 62
    30
420
 16744192
370
     5
100
AcDbPolyline
 90
        4
 70
   129
 43
0.0
 10
-47.00000031379216
 20
-223.9999999999996
 10
-53.00000031379216
 20
-223.9999999999997
 10
-53.00000031379216
 20
-221.9999999999996
 10
-47.00000031379216
 20
-221.9999999999998
  0
LWPOLYLINE
  5
1CB1
330
1D4B
100
AcDbEntity
  8
Section
 62
    30
420
 16744192
370
     5
100
AcDbPolyline
 90
        4
 70
   129
 43
0.0
 10
130.9999996158069
 20
-184.9999999999998
 10
136.9999996158069
 20
-184.9999999999999
 10
136.9999996158069
 20
-182.9999999999998
 10
130.9999996158069
 20
-183.0000000000001
  0
LWPOLYLINE
  5
1CB2
330
1D4B
100
AcDbEntity
  8
Section
 62
    30
420
 16744192
370
     5
100
AcDbPolyline
 90
        4
 70
   129
 43
0.0
 10
192.999999511769
 20
-184.9999999999998
 10
198.999999511769
 20
-184.9999999999998
 10
198.999999511769
 20
-182.9999999999998
 10
192.999999511769
 20
-183.0000000000001
  0
LWPOLYLINE
  5
1CB3
330
1D4B
100
AcDbEntity
  8
Section
 62
    30
420
 16744192
370
     5
100
AcDbPolyline
 90
        4
 70
   129
 43
0.0
 10
-18.0
 20
-185.0000000000002
 10
-12.0
 20
-184.9999999999998
 10
-12.0
 20
-182.9999999999999
 10
-18.0
 20
-183.0000000000003
  0
LWPOLYLINE
  5
1CB4
330
1D4B
100
AcDbEntity
  8
Section
 62
    30
420
 16744192
370
     5
100
AcDbPolyline
 90
        4
 70
   129
 43
0.0
 10
18.0
 20
-185.0
 10
12.0
 20
-185.0
 10
12.0
 20
-182.9999999999999
 10
18.0
 20
-183.0000000000003
  0
LWPOLYLINE
  5
1CB5
330
1D4B
100
AcDbEntity
  8
Section
 62
    30
420
 16744192
370
     5
100
AcDbPolyline
 90
        4
 70
   129
 43
0.0
 10
147.0
 20
-185.0000000000001
 10
153.0
 20
-185.0000000000001
 10
153.0
 20
-183.0000000000001
 10
147.0
 20
-183.0
  0
LWPOLYLINE
  5
1CB6
330
1D4B
100
AcDbEntity
  8
Section
 62
    30
420
 16744192
370
     5
100
AcDbPolyline
 90
        4
 70
   129
 43
0.0
 10
183.0
 20
-185.0000000000001
 10
177.0
 20
-185.0000000000001
 10
177.0
 20
-183.0000000000001
 10
183.0
 20
-182.9999999999999
  0
LINE
  5
1CB7
330
1D4B
100
AcDbEntity
  8
Section
 62
    30
420
 16744192
370
     5
100
AcDbLine
 10
78.47265174608674
 20
-128.0
 30
0.0
 11
81.47265174608674
 21
-128.0000000000001
 31
0.0
  0
LINE
  5
1CB8
330
1D4B
100
AcDbEntity
  8
Section
 62
    30
420
 16744192
370
     5
100
AcDbLine
 10
109.4726514395093
 20
-128.0
 30
0.0
 11
112.4726514395093
 21
-128.0
 31
0.0
  0
LINE
  5
1CB9
330
1D4B
100
AcDbEntity
  8
Section
 62
    30
420
 16744192
370
     5
100
AcDbLine
 10
-29.49999992952257
 20
-187.0000000000002
 30
0.0
 11
-32.49999992952257
 21
-187.0000000000004
 31
0.0
  0
LINE
  5
1CBA
330
1D4B
100
AcDbEntity
  8
Section
 62
    30
420
 16744192
370
     5
100
AcDbLine
 10
29.49999992952257
 20
-187.0000000000002
 30
0.0
 11
32.49999992952257
 21
-187.0000000000005
 31
0.0
  0
LINE
  5
1CBB
330
1D4B
100
AcDbEntity
  8
Section
 62
    30
420
 16744192
370
     5
100
AcDbLine
 10
48.50000038426953
 20
-226.0
 30
0.0
 11
51.50000038426953
 21
-226.0000000000002
 31
0.0
  0
LINE
  5
1CBC
330
1D4B
100
AcDbEntity
  8
Section
 62
    30
420
 16744192
370
     5
100
AcDbLine
 10
-48.50000038426958
 20
-226.0000000000001
 30
0.0
 11
-51.50000038426958
 21
-226.0000000000003
 31
0.0
  0
LINE
  5
1CBD
330
1D4B
100
AcDbEntity
  8
Section
 62
    30
420
 16744192
370
     5
100
AcDbLine
 10
194.5
 20
-183.0000000000004
 30
0.0
 11
197.5
 21
-183.0000000000001
 31
0.0
  0
LINE
  5
1CBE
330
1D4B
100
AcDbEntity
  8
Section
 62
    30
420
 16744192
370
     5
100
AcDbLine
 10
-16.5
 20
-187.0000000000001
 30
0.0
 11
-13.5
 21
-187.0000000000002
 31
0.0
  0
LINE
  5
1CBF
330
1D4B
100
AcDbEntity
  8
Section
 62
    30
420
 16744192
370
     5
100
AcDbLine
 10
16.5
 20
-187.0000000000001
 30
0.0
 11
13.5
 21
-187.0000000000002
 31
0.0
  0
LINE
  5
1CC0
330
1D4B
100
AcDbEntity
  8
Section
 62
    30
420
 16744192
370
     5
100
AcDbLine
 10
148.5
 20
-187.0
 30
0.0
 11
151.5
 21
-186.9999999999999
 31
0.0
  0
LINE
  5
1CC1
330
1D4B
100
AcDbEntity
  8
Section
 62
    30
420
 16744192
370
     5
100
AcDbLine
 10
132.4999996162798
 20
-187.0000000000003
 30
0.0
 11
135.4999996162798
 21
-187.0000000000002
 31
0.0
  0
LINE
  5
1CC2
330
1D4B
100
AcDbEntity
  8
Section
 62
    30
420
 16744192
370
     5
100
AcDbLine
 10
194.4999995122419
 20
-187.0000000000003
 30
0.0
 11
197.4999995122419
 21
-187.0000000000002
 31
0.0
  0
LINE
  5
1CC3
330
1D4B
100
AcDbEntity
  8
Section
 62
    30
420
 16744192
370
     5
100
AcDbLine
 10
181.5
 20
-186.9999999999999
 30
0.0
 11
178.5
 21
-187.0
 31
0.0
  0
CIRCLE
  5
A30
330
1D4B
100
AcDbEntity
  8
Plan
  6
DASHED
 62
    56
420
  8421376
370
     5
100
AcDbCircle
 10
165.0
 20
-0.0000000000000426
 30
0.0
 40
26.0
  0
CIRCLE
  5
A31
330
1D4B
100
AcDbEntity
  8
Plan
  6
DASHED
 62
    56
420
  8421376
370
     5
100
AcDbCircle
 10
0.0
 20
0.0
 30
0.0
 40
26.0
  0
CIRCLE
  5
A32
330
1D4B
100
AcDbEntity
  8
Plan
  6
DASHED
 62
    56
420
  8421376
370
     5
100
AcDbCircle
 10
165.0
 20
-0.0000000000000426
 30
0.0
 40
20.0
  0
CIRCLE
  5
A33
330
1D4B
100
AcDbEntity
  8
Plan
  6
DASHED
 62
    56
420
  8421376
370
     5
100
AcDbCircle
 10
0.0
 20
0.0
 30
0.0
 40
20.0
  0
CIRCLE
  5
A34
330
1D4B
100
AcDbEntity
  8
Plan
370
     5
100
AcDbCircle
 10
165.0
 20
-0.0000000000000426
 30
0.0
 40
22.0
  0
CIRCLE
  5
A35
330
1D4B
100
AcDbEntity
  8
Plan
370
     5
100
AcDbCircle
 10
0.0
 20
0.0
 30
0.0
 40
22.0
  0
CIRCLE
  5
A36
330
1D4B
100
AcDbEntity
  8
Plan
370
     5
100
AcDbCircle
 10
165.0
 20
-0.0000000000000426
 30
0.0
 40
24.0
  0
CIRCLE
  5
A37
330
1D4B
100
AcDbEntity
  8
Plan
370
     5
100
AcDbCircle
 10
0.0
 20
0.0
 30
0.0
 40
24.0
  0
LWPOLYLINE
  5
1CC4
330
1D4B
100
AcDbEntity
  8
Section
 62
     1
420
 16711680
370
     5
100
AcDbPolyline
 90
        4
 70
   129
 43
0.0
 10
-26.00000010739404
 20
-167.5000000000001
 10
-20.00000017787147
 20
-167.5000000000002
 10
-20.00000007047743
 20
-174.5000000000002
 10
-26.00000010739404
 20
-174.5000000000002
  0
LWPOLYLINE
  5
1CC5
330
1D4B
100
AcDbEntity
  8
Section
 62
     1
420
 16711680
370
     5
100
AcDbPolyline
 90
        4
 70
   129
 43
0.0
 10
26.0000001073941
 20
-167.5000000000001
 10
20.00000017787147
 20
-167.5000000000002
 10
20.00000007047743
 20
-174.5000000000002
 10
26.0000001073941
 20
-174.5000000000002
  0
LWPOLYLINE
  5
1CC6
330
1D4B
100
AcDbEntity
  8
Section
 62
     1
420
 16711680
370
     5
100
AcDbPolyline
 90
        4
 70
   129
 43
0.0
 10
139.0000001208184
 20
-155.5
 10
145.000000050341
 20
-155.5
 10
145.000000157735
 20
-162.4999999999999
 10
139.0000001208184
 20
-162.4999999999999
  0
LWPOLYLINE
  5
1CC7
330
1D4B
100
AcDbEntity
  8
Section
 62
     1
420
 16711680
370
     5
100
AcDbPolyline
 90
        4
 70
   129
 43
0.0
 10
138.9999999002768
 20
-167.4999999999999
 10
144.9999998297995
 20
-167.4999999999998
 10
144.9999999371935
 20
-174.4999999999998
 10
138.9999999002768
 20
-174.4999999999998
  0
LWPOLYLINE
  5
1CC8
330
1D4B
100
AcDbEntity
  8
Section
 62
     1
420
 16711680
370
     5
100
AcDbPolyline
 90
        4
 70
   129
 43
0.0
 10
191.0000007030953
 20
-167.4999999999997
 10
185.0000007735727
 20
-167.4999999999998
 10
185.0000006661787
 20
-174.4999999999998
 10
191.0000007030953
 20
-174.4999999999997
  0
LWPOLYLINE
  5
1CC9
330
1D4B
100
AcDbEntity
  8
Section
 62
     1
420
 16711680
370
     5
100
AcDbPolyline
 90
        4
 70
   129
 43
0.0
 10
-19.99999989260596
 20
-155.5
 10
-25.99999992952257
 20
-155.5000000000001
 10
-26.0
 20
-162.5
 10
-20.0
 20
-162.5000000000001
  0
LWPOLYLINE
  5
1CCA
330
1D4B
100
AcDbEntity
  8
Section
 62
     1
420
 16711680
370
     5
100
AcDbPolyline
 90
        4
 70
   129
 43
0.0
 10
19.99999989260601
 20
-155.5
 10
25.99999992952263
 20
-155.5000000000001
 10
26.0
 20
-162.5
 10
20.0
 20
-162.5000000000001
  0
LWPOLYLINE
  5
1CCB
330
1D4B
100
AcDbEntity
  8
Section
 62
     1
420
 16711680
370
     5
100
AcDbPolyline
 90
        4
 70
   129
 43
0.0
 10
185.0000000381837
 20
-155.4999999999998
 10
191.0000000751003
 20
-155.4999999999997
 10
191.0000001455778
 20
-162.4999999999997
 10
185.0000001455778
 20
-162.4999999999999
  0
HATCH
  5
1CCC
330
1D4B
100
AcDbEntity
  8
Section
 62
     1
420
 16711680
370
     5
100
AcDbHatch
 10
0.0
 20
0.0
 30
0.0
210
0.0
220
0.0
230
1.0
  2
JIS_WOOD
 70
     0
 71
     0
 91
        1
 92
        0
 93
        4
 72
     1
 10
139.0000002282124
 20
-162.4999999999999
 11
145.000000157735
 21
-162.4999999999999
 72
     1
 10
145.000000157735
 20
-162.4999999999999
 11
145.0000002651291
 21
-155.4999999999999
 72
     1
 10
145.0000002651291
 20
-155.4999999999999
 11
139.0000002282124
 21
-155.4999999999999
 72
     1
 10
139.0000002282124
 20
-155.4999999999999
 11
139.0000002282124
 21
-162.4999999999999
 97
        0
 75
     0
 76
     1
 52
0.0
 41
1.0
 77
     0
 78
     1
 53
45.0
 43
0.0
 44
0.0
 45
-0.4999999991609842
 46
0.4999999991609843
 79
     0
 98
        0
1001
ACAD
1010
0.0
1020
0.0
1030
0.0
  0
HATCH
  5
1CCD
330
1D4B
100
AcDbEntity
  8
Section
 62
     1
420
 16711680
370
     5
100
AcDbHatch
 10
0.0
 20
0.0
 30
0.0
210
0.0
220
0.0
230
1.0
  2
JIS_WOOD
 70
     0
 71
     0
 91
        1
 92
        0
 93
        4
 72
     1
 10
-19.99999989260596
 20
-155.5
 11
-25.99999992952257
 21
-155.5000000000001
 72
     1
 10
-25.99999992952257
 20
-155.5000000000001
 11
-26.0
 21
-162.5
 72
     1
 10
-26.0
 20
-162.5
 11
-20.0
 21
-162.5000000000001
 72
     1
 10
-20.0
 20
-162.5000000000001
 11
-19.99999989260596
 21
-155.5
 97
        0
 75
     0
 76
     1
 52
180.0
 41
1.0
 77
     0
 78
     1
 53
225.0
 43
0.0
 44
0.0
 45
0.4999999991609842
 46
-0.4999999991609844
 79
     0
 98
        0
1001
ACAD
1010
0.0
1020
0.0
1030
0.0
  0
HATCH
  5
1CCE
330
1D4B
100
AcDbEntity
  8
Section
 62
     1
420
 16711680
370
     5
100
AcDbHatch
 10
0.0
 20
0.0
 30
0.0
210
0.0
220
0.0
230
1.0
  2
JIS_WOOD
 70
     0
 71
     0
 91
        1
 92
        0
 93
        4
 72
     1
 10
19.99999989260601
 20
-155.5
 11
25.99999992952263
 21
-155.5000000000001
 72
     1
 10
25.99999992952263
 20
-155.5000000000001
 11
26.0
 21
-162.5
 72
     1
 10
26.0
 20
-162.5
 11
20.0
 21
-162.5000000000001
 72
     1
 10
20.0
 20
-162.5000000000001
 11
19.99999989260601
 21
-155.5
 97
        0
 75
     0
 76
     1
 52
0.0
 41
1.0
 77
     0
 78
     1
 53
45.0
 43
0.0
 44
0.0
 45
-0.4999999991609842
 46
0.4999999991609843
 79
     0
 98
        0
1001
ACAD
1010
0.0
1020
0.0
1030
0.0
  0
HATCH
  5
1CCF
330
1D4B
100
AcDbEntity
  8
Section
 62
     1
420
 16711680
370
     5
100
AcDbHatch
 10
0.0
 20
0.0
 30
0.0
210
0.0
220
0.0
230
1.0
  2
JIS_WOOD
 70
     0
 71
     0
 91
        1
 92
        0
 93
        4
 72
     1
 10
184.9999999291117
 20
-162.4999999999997
 11
190.9999999660283
 21
-162.4999999999997
 72
     1
 10
190.9999999660283
 20
-162.4999999999997
 11
191.0000000365058
 21
-155.4999999999997
 72
     1
 10
191.0000000365058
 20
-155.4999999999997
 11
185.0000000365058
 21
-155.4999999999997
 72
     1
 10
185.0000000365058
 20
-155.4999999999997
 11
184.9999999291117
 21
-162.4999999999997
 97
        0
 75
     0
 76
     1
 52
0.0
 41
1.0
 77
     0
 78
     1
 53
45.0
 43
0.0
 44
0.0
 45
-0.4999999991609842
 46
0.4999999991609843
 79
     0
 98
        0
1001
ACAD
1010
0.0
1020
0.0
1030
0.0
  0
CIRCLE
  5
A68
330
1D4B
100
AcDbEntity
  8
Plan
  6
DASHED
 62
    56
420
  8421376
370
     5
100
AcDbCircle
 10
165.0
 20
-0.0000000000000426
 30
0.0
 40
40.0
  0
CIRCLE
  5
A69
330
1D4B
100
AcDbEntity
  8
Plan
  6
DASHED
 62
    56
420
  8421376
370
     5
100
AcDbCircle
 10
0.0
 20
0.0
 30
0.0
 40
40.0
  0
CIRCLE
  5
1C6C
330
1D4B
100
AcDbEntity
  8
Base
  6
Continuous
 62
     5
420
      255
370
     5
100
AcDbCircle
 10
0.0
 20
200.0
 30
0.0
 40
40.0
  0
CIRCLE
  5
A6A
330
1D4B
100
AcDbEntity
  8
Plan
 62
    30
420
 16744192
370
     5
100
AcDbCircle
 10
138.1532124826824
 20
-15.50000000000003
 30
0.0
 40
1.5
  0
CIRCLE
  5
A6B
330
1D4B
100
AcDbEntity
  8
Plan
 62
    30
420
 16744192
370
     5
100
AcDbCircle
 10
-31.0
 20
-0.0000000000000426
 30
0.0
 40
1.5
  0
CIRCLE
  5
A6C
330
1D4B
100
AcDbEntity
  8
Plan
 62
    30
420
 16744192
370
     5
100
AcDbCircle
 10
165.0
 20
-31.00000000000003
 30
0.0
 40
1.5
  0
CIRCLE
  5
A6D
330
1D4B
100
AcDbEntity
  8
Plan
 62
    30
420
 16744192
370
     5
100
AcDbCircle
 10
-15.5
 20
-26.84678751731763
 30
0.0
 40
1.5
  0
CIRCLE
  5
A6E
330
1D4B
100
AcDbEntity
  8
Plan
 62
    30
420
 16744192
370
     5
100
AcDbCircle
 10
191.8467875173176
 20
-15.50000000000006
 30
0.0
 40
1.5
  0
CIRCLE
  5
A6F
330
1D4B
100
AcDbEntity
  8
Plan
 62
    30
420
 16744192
370
     5
100
AcDbCircle
 10
15.5
 20
-26.84678751731765
 30
0.0
 40
1.5
  0
CIRCLE
  5
A70
330
1D4B
100
AcDbEntity
  8
Plan
 62
    30
420
 16744192
370
     5
100
AcDbCircle
 10
191.8467875173176
 20
15.49999999999996
 30
0.0
 40
1.5
  0
CIRCLE
  5
A71
330
1D4B
100
AcDbEntity
  8
Plan
 62
    30
420
 16744192
370
     5
100
AcDbCircle
 10
31.0
 20
-0.0000000000000852
 30
0.0
 40
1.5
  0
CIRCLE
  5
A72
330
1D4B
100
AcDbEntity
  8
Plan
 62
    30
420
 16744192
370
     5
100
AcDbCircle
 10
165.0
 20
30.99999999999996
 30
0.0
 40
1.5
  0
CIRCLE
  5
A73
330
1D4B
100
AcDbEntity
  8
Plan
 62
    30
420
 16744192
370
     5
100
AcDbCircle
 10
15.5
 20
26.84678751731754
 30
0.0
 40
1.5
  0
CIRCLE
  5
A74
330
1D4B
100
AcDbEntity
  8
Plan
 62
    30
420
 16744192
370
     5
100
AcDbCircle
 10
138.1532124826824
 20
15.49999999999997
 30
0.0
 40
1.5
  0
CIRCLE
  5
A75
330
1D4B
100
AcDbEntity
  8
Plan
 62
    30
420
 16744192
370
     5
100
AcDbCircle
 10
-15.49999999999989
 20
26.84678751731761
 30
0.0
 40
1.5
  0
CIRCLE
  5
A76
330
1D4B
100
AcDbEntity
  8
Plan
 62
    30
420
 16744192
370
     5
100
AcDbCircle
 10
177.9903810567666
 20
7.499999999999956
 30
0.0
 40
1.5
  0
CIRCLE
  5
A77
330
1D4B
100
AcDbEntity
  8
Plan
 62
    30
420
 16744192
370
     5
100
AcDbCircle
 10
15.0
 20
-0.0000000000000284
 30
0.0
 40
1.5
  0
CIRCLE
  5
A78
330
1D4B
100
AcDbEntity
  8
Plan
 62
    30
420
 16744192
370
     5
100
AcDbCircle
 10
165.0
 20
14.99999999999996
 30
0.0
 40
1.5
  0
CIRCLE
  5
A79
330
1D4B
100
AcDbEntity
  8
Plan
 62
    30
420
 16744192
370
     5
100
AcDbCircle
 10
7.5
 20
12.9903810567665
 30
0.0
 40
1.5
  0
CIRCLE
  5
A7A
330
1D4B
100
AcDbEntity
  8
Plan
 62
    30
420
 16744192
370
     5
100
AcDbCircle
 10
152.0096189432334
 20
7.499999999999964
 30
0.0
 40
1.5
  0
CIRCLE
  5
A7B
330
1D4B
100
AcDbEntity
  8
Plan
 62
    30
420
 16744192
370
     5
100
AcDbCircle
 10
-7.499999999999886
 20
12.99038105676658
 30
0.0
 40
1.5
  0
CIRCLE
  5
A7C
330
1D4B
100
AcDbEntity
  8
Plan
 62
    30
420
 16744192
370
     5
100
AcDbCircle
 10
152.0096189432334
 20
-7.500000000000038
 30
0.0
 40
1.5
  0
CIRCLE
  5
A7D
330
1D4B
100
AcDbEntity
  8
Plan
 62
    30
420
 16744192
370
     5
100
AcDbCircle
 10
-15.0
 20
0.0
 30
0.0
 40
1.5
  0
CIRCLE
  5
A7E
330
1D4B
100
AcDbEntity
  8
Plan
 62
    30
420
 16744192
370
     5
100
AcDbCircle
 10
165.0
 20
-15.00000000000004
 30
0.0
 40
1.5
  0
CIRCLE
  5
A7F
330
1D4B
100
AcDbEntity
  8
Plan
 62
    30
420
 16744192
370
     5
100
AcDbCircle
 10
-7.5
 20
-12.99038105676661
 30
0.0
 40
1.5
  0
CIRCLE
  5
A80
330
1D4B
100
AcDbEntity
  8
Plan
 62
    30
420
 16744192
370
     5
100
AcDbCircle
 10
177.9903810567666
 20
-7.500000000000053
 30
0.0
 40
1.5
  0
CIRCLE
  5
A81
330
1D4B
100
AcDbEntity
  8
Plan
 62
    30
420
 16744192
370
     5
100
AcDbCircle
 10
7.499999999999886
 20
-12.99038105676663
 30
0.0
 40
1.5
  0
CIRCLE
  5
A82
330
1D4B
100
AcDbEntity
  8
Plan
 62
    30
420
 16744192
370
     5
100
AcDbCircle
 10
138.1532124826824
 20
-15.50000000000003
 30
0.0
 40
3.0
  0
CIRCLE
  5
A83
330
1D4B
100
AcDbEntity
  8
Plan
 62
    30
420
 16744192
370
     5
100
AcDbCircle
 10
-31.0
 20
-0.0000000000000426
 30
0.0
 40
3.0
  0
CIRCLE
  5
A84
330
1D4B
100
AcDbEntity
  8
Plan
 62
    30
420
 16744192
370
     5
100
AcDbCircle
 10
152.0096189432334
 20
-7.500000000000038
 30
0.0
 40
3.0
  0
CIRCLE
  5
A85
330
1D4B
100
AcDbEntity
  8
Plan
 62
    30
420
 16744192
370
     5
100
AcDbCircle
 10
-15.0
 20
0.0
 30
0.0
 40
3.0
  0
CIRCLE
  5
A86
330
1D4B
100
AcDbEntity
  8
Plan
 62
    30
420
 16744192
370
     5
100
AcDbCircle
 10
165.0
 20
-15.00000000000004
 30
0.0
 40
3.0
  0
CIRCLE
  5
A87
330
1D4B
100
AcDbEntity
  8
Plan
 62
    30
420
 16744192
370
     5
100
AcDbCircle
 10
-7.5
 20
-12.99038105676661
 30
0.0
 40
3.0
  0
CIRCLE
  5
A88
330
1D4B
100
AcDbEntity
  8
Plan
 62
    30
420
 16744192
370
     5
100
AcDbCircle
 10
152.0096189432334
 20
7.499999999999964
 30
0.0
 40
3.0
  0
CIRCLE
  5
A89
330
1D4B
100
AcDbEntity
  8
Plan
 62
    30
420
 16744192
370
     5
100
AcDbCircle
 10
-7.499999999999886
 20
12.99038105676658
 30
0.0
 40
3.0
  0
CIRCLE
  5
A8A
330
1D4B
100
AcDbEntity
  8
Plan
 62
    30
420
 16744192
370
     5
100
AcDbCircle
 10
138.1532124826824
 20
15.49999999999997
 30
0.0
 40
3.0
  0
CIRCLE
  5
A8B
330
1D4B
100
AcDbEntity
  8
Plan
 62
    30
420
 16744192
370
     5
100
AcDbCircle
 10
-15.49999999999989
 20
26.84678751731761
 30
0.0
 40
3.0
  0
CIRCLE
  5
A8C
330
1D4B
100
AcDbEntity
  8
Plan
 62
    30
420
 16744192
370
     5
100
AcDbCircle
 10
165.0
 20
30.99999999999996
 30
0.0
 40
3.0
  0
CIRCLE
  5
A8D
330
1D4B
100
AcDbEntity
  8
Plan
 62
    30
420
 16744192
370
     5
100
AcDbCircle
 10
15.5
 20
26.84678751731754
 30
0.0
 40
3.0
  0
CIRCLE
  5
A8E
330
1D4B
100
AcDbEntity
  8
Plan
 62
    30
420
 16744192
370
     5
100
AcDbCircle
 10
191.8467875173176
 20
15.49999999999996
 30
0.0
 40
3.0
  0
CIRCLE
  5
A8F
330
1D4B
100
AcDbEntity
  8
Plan
 62
    30
420
 16744192
370
     5
100
AcDbCircle
 10
31.0
 20
-0.0000000000000852
 30
0.0
 40
3.0
  0
CIRCLE
  5
A90
330
1D4B
100
AcDbEntity
  8
Plan
 62
    30
420
 16744192
370
     5
100
AcDbCircle
 10
177.9903810567666
 20
7.499999999999956
 30
0.0
 40
3.0
  0
CIRCLE
  5
A91
330
1D4B
100
AcDbEntity
  8
Plan
 62
    30
420
 16744192
370
     5
100
AcDbCircle
 10
15.0
 20
-0.0000000000000284
 30
0.0
 40
3.0
  0
CIRCLE
  5
A92
330
1D4B
100
AcDbEntity
  8
Plan
 62
    30
420
 16744192
370
     5
100
AcDbCircle
 10
177.9903810567666
 20
-7.500000000000053
 30
0.0
 40
3.0
  0
CIRCLE
  5
A93
330
1D4B
100
AcDbEntity
  8
Plan
 62
    30
420
 16744192
370
     5
100
AcDbCircle
 10
7.499999999999886
 20
-12.99038105676663
 30
0.0
 40
3.0
  0
CIRCLE
  5
A94
330
1D4B
100
AcDbEntity
  8
Plan
 62
    30
420
 16744192
370
     5
100
AcDbCircle
 10
191.8467875173176
 20
-15.50000000000006
 30
0.0
 40
3.0
  0
CIRCLE
  5
A95
330
1D4B
100
AcDbEntity
  8
Plan
 62
    30
420
 16744192
370
     5
100
AcDbCircle
 10
15.5
 20
-26.84678751731765
 30
0.0
 40
3.0
  0
CIRCLE
  5
A96
330
1D4B
100
AcDbEntity
  8
Plan
 62
    30
420
 16744192
370
     5
100
AcDbCircle
 10
165.0
 20
-31.00000000000003
 30
0.0
 40
3.0
  0
CIRCLE
  5
A97
330
1D4B
100
AcDbEntity
  8
Plan
 62
    30
420
 16744192
370
     5
100
AcDbCircle
 10
-15.5
 20
-26.84678751731763
 30
0.0
 40
3.0
  0
CIRCLE
  5
A98
330
1D4B
100
AcDbEntity
  8
Plan
 62
    30
420
 16744192
370
     5
100
AcDbCircle
 10
165.0
 20
14.99999999999996
 30
0.0
 40
3.0
  0
CIRCLE
  5
A99
330
1D4B
100
AcDbEntity
  8
Plan
 62
    30
420
 16744192
370
     5
100
AcDbCircle
 10
7.5
 20
12.9903810567665
 30
0.0
 40
3.0
  0
CIRCLE
  5
A9A
330
1D4B
100
AcDbEntity
  8
Plan
370
     5
100
AcDbCircle
 10
149.5
 20
-26.84678751731764
 30
0.0
 40
0.5
  0
CIRCLE
  5
A9B
330
1D4B
100
AcDbEntity
  8
Plan
370
     5
100
AcDbCircle
 10
-26.84678751731761
 20
-15.50000000000001
 30
0.0
 40
0.5
  0
CIRCLE
  5
A9C
330
1D4B
100
AcDbEntity
  8
Plan
370
     5
100
AcDbCircle
 10
180.4999999999999
 20
-26.84678751731769
 30
0.0
 40
0.5
  0
CIRCLE
  5
A9D
330
1D4B
100
AcDbEntity
  8
Plan
370
     5
100
AcDbCircle
 10
0.0
 20
-31.00000000000005
 30
0.0
 40
0.5
  0
CIRCLE
  5
A9E
330
1D4B
100
AcDbEntity
  8
Plan
370
     5
100
AcDbCircle
 10
196.0
 20
-0.0000000000000777
 30
0.0
 40
0.5
  0
CIRCLE
  5
A9F
330
1D4B
100
AcDbEntity
  8
Plan
370
     5
100
AcDbCircle
 10
26.84678751731761
 20
-15.50000000000007
 30
0.0
 40
0.5
  0
CIRCLE
  5
AA0
330
1D4B
100
AcDbEntity
  8
Plan
370
     5
100
AcDbCircle
 10
180.5
 20
26.84678751731754
 30
0.0
 40
0.5
  0
CIRCLE
  5
AA1
330
1D4B
100
AcDbEntity
  8
Plan
370
     5
100
AcDbCircle
 10
26.84678751731761
 20
15.49999999999996
 30
0.0
 40
0.5
  0
CIRCLE
  5
AA2
330
1D4B
100
AcDbEntity
  8
Plan
370
     5
100
AcDbCircle
 10
149.5000000000001
 20
26.84678751731762
 30
0.0
 40
0.5
  0
CIRCLE
  5
AA3
330
1D4B
100
AcDbEntity
  8
Plan
370
     5
100
AcDbCircle
 10
0.0000000000001137
 20
30.99999999999996
 30
0.0
 40
0.5
  0
CIRCLE
  5
AA4
330
1D4B
100
AcDbEntity
  8
Plan
370
     5
100
AcDbCircle
 10
134.0
 20
0.0000000000000025
 30
0.0
 40
0.5
  0
CIRCLE
  5
AA5
330
1D4B
100
AcDbEntity
  8
Plan
370
     5
100
AcDbCircle
 10
-26.84678751731749
 20
15.50000000000003
 30
0.0
 40
0.5
  0
CIRCLE
  5
AA6
330
1D4B
100
AcDbEntity
  8
Plan
370
     5
100
AcDbCircle
 10
172.5
 20
-12.99038105676662
 30
0.0
 40
0.5
  0
CIRCLE
  5
AA7
330
1D4B
100
AcDbEntity
  8
Plan
370
     5
100
AcDbCircle
 10
0.0
 20
-15.00000000000003
 30
0.0
 40
0.5
  0
CIRCLE
  5
AA8
330
1D4B
100
AcDbEntity
  8
Plan
370
     5
100
AcDbCircle
 10
180.0
 20
-0.0000000000000463
 30
0.0
 40
0.5
  0
CIRCLE
  5
AA9
330
1D4B
100
AcDbEntity
  8
Plan
370
     5
100
AcDbCircle
 10
12.99038105676661
 20
-7.5
 30
0.0
 40
0.5
  0
CIRCLE
  5
AAA
330
1D4B
100
AcDbEntity
  8
Plan
370
     5
100
AcDbCircle
 10
172.5
 20
12.99038105676654
 30
0.0
 40
0.5
  0
CIRCLE
  5
AAB
330
1D4B
100
AcDbEntity
  8
Plan
370
     5
100
AcDbCircle
 10
12.99038105676661
 20
7.499999999999901
 30
0.0
 40
0.5
  0
CIRCLE
  5
AAC
330
1D4B
100
AcDbEntity
  8
Plan
370
     5
100
AcDbCircle
 10
157.5
 20
12.99038105676654
 30
0.0
 40
0.5
  0
CIRCLE
  5
AAD
330
1D4B
100
AcDbEntity
  8
Plan
370
     5
100
AcDbCircle
 10
0.0000000000001137
 20
15.0
 30
0.0
 40
0.5
  0
CIRCLE
  5
AAE
330
1D4B
100
AcDbEntity
  8
Plan
370
     5
100
AcDbCircle
 10
150.0
 20
-0.0000000000000341
 30
0.0
 40
0.5
  0
CIRCLE
  5
AAF
330
1D4B
100
AcDbEntity
  8
Plan
370
     5
100
AcDbCircle
 10
-12.99038105676661
 20
7.499999999999972
 30
0.0
 40
0.5
  0
CIRCLE
  5
AB0
330
1D4B
100
AcDbEntity
  8
Plan
370
     5
100
AcDbCircle
 10
157.5
 20
-12.99038105676662
 30
0.0
 40
0.5
  0
CIRCLE
  5
AB1
330
1D4B
100
AcDbEntity
  8
Plan
370
     5
100
AcDbCircle
 10
-12.99038105676661
 20
-7.500000000000028
 30
0.0
 40
0.5
  0
LWPOLYLINE
  5
1CD0
330
1D4B
100
AcDbEntity
  8
Stepper
370
     5
100
AcDbPolyline
 90
       11
 70
     0
 43
0.0
 10
84.78765121020672
 20
-160.0
 10
95.78765121020672
 20
-160.0000000000001
 10
106.7876512102067
 20
-160.0
 10
106.7876512102067
 20
-146.0
 10
102.2876512102067
 20
-146.0
 10
102.2876512102067
 20
-139.0
 10
95.78765121020672
 20
-139.0
 10
89.28765121020672
 20
-139.0
 10
89.28765121020672
 20
-146.0
 10
84.78765121020672
 20
-146.0
 10
84.78765121020672
 20
-160.0
  0
LWPOLYLINE
  5
1CD1
330
1D4B
100
AcDbEntity
  8
Stepper
  6
DASHED2
370
     5
100
AcDbPolyline
 90
       11
 70
     0
 43
0.0
 10
58.21234878979328
 20
-160.0
 10
69.21234878979328
 20
-160.0000000000001
 10
80.21234878979328
 20
-160.0
 10
80.21234878979328
 20
-146.0
 10
75.71234878979328
 20
-146.0
 10
75.71234878979328
 20
-139.0
 10
69.21234878979328
 20
-139.0
 10
62.71234878979328
 20
-139.0
 10
62.71234878979328
 20
-146.0
 10
58.21234878979328
 20
-146.0
 10
58.21234878979328
 20
-160.0
  0
LWPOLYLINE
  5
1CD2
330
1D4B
100
AcDbEntity
  8
Section
370
     5
100
AcDbPolyline
 90
        4
 70
   129
 43
0.0
 10
160.0
 20
-144.0000000000001
 10
106.7876512102067
 20
-144.0
 10
106.7876512102067
 20
-132.0
 10
160.0
 20
-132.0
  0
LWPOLYLINE
  5
1CD3
330
1D4B
100
AcDbEntity
  8
Stepper
370
     5
100
AcDbPolyline
 90
        4
 70
   129
 43
0.0
 10
84.78765121020672
 20
-132.0
 10
106.7876512102067
 20
-132.0
 10
106.7876512102067
 20
-134.0
 10
84.78765121020672
 20
-134.0
  0
LWPOLYLINE
  5
1CD4
330
1D4B
100
AcDbEntity
  8
Stepper
  6
DASHED2
370
     5
100
AcDbPolyline
 90
        4
 70
   129
 43
0.0
 10
58.21234878979328
 20
-132.0
 10
80.21234878979328
 20
-132.0
 10
80.21234878979328
 20
-134.0
 10
58.21234878979328
 20
-134.0
  0
CIRCLE
  5
18C2
330
1D4B
100
AcDbEntity
  8
Stepper
 62
     1
420
 16711680
370
     5
100
AcDbCircle
 10
69.21234878979328
 20
-29.69848480983499
 30
0.0
 40
11.0
  0
CIRCLE
  5
1922
330
1D4B
100
AcDbEntity
  8
Stepper
 62
     1
420
 16711680
370
     5
100
AcDbCircle
 10
95.78765121020672
 20
29.69848480983495
 30
0.0
 40
11.0
  0
LWPOLYLINE
  5
1CD5
330
1D4B
100
AcDbEntity
  8
Section
370
     5
100
AcDbPolyline
 90
        4
 70
   129
 43
0.0
 10
225.0
 20
-143.9999999999995
 10
170.0
 20
-143.9999999999999
 10
170.0
 20
-132.0000000000002
 10
225.0
 20
-132.0000000000004
  0
LWPOLYLINE
  5
1CD6
330
1D4B
100
AcDbEntity
  8
Section
370
     5
100
AcDbPolyline
 90
        4
 70
   129
 43
0.0
 10
84.78765121020672
 20
-132.0000000000001
 10
5.0
 20
-131.9999999999998
 10
5.0
 20
-143.9999999999998
 10
84.78765121020672
 20
-144.0
  0
HATCH
  5
1CD7
330
1D4B
100
AcDbEntity
  8
Section
 62
     1
420
 16711680
370
     5
100
AcDbHatch
 10
0.0
 20
0.0
 30
0.0
210
0.0
220
0.0
230
1.0
  2
JIS_WOOD
 70
     0
 71
     0
 91
        1
 92
        0
 93
        4
 72
     1
 10
-26.00000010739404
 20
-167.5000000000001
 11
-20.00000017787147
 21
-167.5000000000002
 72
     1
 10
-20.00000017787147
 20
-167.5000000000002
 11
-20.00000007047743
 21
-174.5000000000002
 72
     1
 10
-20.00000007047743
 20
-174.5000000000002
 11
-26.00000010739404
 21
-174.5000000000002
 72
     1
 10
-26.00000010739404
 20
-174.5000000000002
 11
-26.00000010739404
 21
-167.5000000000001
 97
        0
 75
     0
 76
     1
 52
0.0
 41
1.0
 77
     0
 78
     1
 53
45.0
 43
0.0
 44
0.0
 45
-0.4999999991609842
 46
0.4999999991609843
 79
     0
 98
        0
1001
ACAD
1010
0.0
1020
0.0
1030
0.0
  0
HATCH
  5
1CD8
330
1D4B
100
AcDbEntity
  8
Section
 62
     1
420
 16711680
370
     5
100
AcDbHatch
 10
0.0
 20
0.0
 30
0.0
210
0.0
220
0.0
230
1.0
  2
JIS_WOOD
 70
     0
 71
     0
 91
        1
 92
        0
 93
        4
 72
     1
 10
26.0000001073941
 20
-167.5000000000001
 11
20.00000017787147
 21
-167.5000000000002
 72
     1
 10
20.00000017787147
 20
-167.5000000000002
 11
20.00000007047743
 21
-174.5000000000002
 72
     1
 10
20.00000007047743
 20
-174.5000000000002
 11
26.0000001073941
 21
-174.5000000000002
 72
     1
 10
26.0000001073941
 20
-174.5000000000002
 11
26.0000001073941
 21
-167.5000000000001
 97
        0
 75
     0
 76
     1
 52
180.0
 41
1.0
 77
     0
 78
     1
 53
225.0
 43
0.0
 44
0.0
 45
0.4999999991609842
 46
-0.4999999991609844
 79
     0
 98
        0
1001
ACAD
1010
0.0
1020
0.0
1030
0.0
  0
HATCH
  5
1CD9
330
1D4B
100
AcDbEntity
  8
Section
 62
     1
420
 16711680
370
     5
100
AcDbHatch
 10
0.0
 20
0.0
 30
0.0
210
0.0
220
0.0
230
1.0
  2
JIS_WOOD
 70
     0
 71
     0
 91
        1
 92
        0
 93
        4
 72
     1
 10
138.9999999002768
 20
-167.4999999999999
 11
144.9999998297995
 21
-167.4999999999998
 72
     1
 10
144.9999998297995
 20
-167.4999999999998
 11
144.9999999371935
 21
-174.4999999999998
 72
     1
 10
144.9999999371935
 20
-174.4999999999998
 11
138.9999999002768
 21
-174.4999999999998
 72
     1
 10
138.9999999002768
 20
-174.4999999999998
 11
138.9999999002768
 21
-167.4999999999999
 97
        0
 75
     0
 76
     1
 52
0.0
 41
1.0
 77
     0
 78
     1
 53
45.0
 43
0.0
 44
0.0
 45
-0.4999999991609842
 46
0.4999999991609843
 79
     0
 98
        0
1001
ACAD
1010
0.0
1020
0.0
1030
0.0
  0
HATCH
  5
1CDA
330
1D4B
100
AcDbEntity
  8
Section
 62
     1
420
 16711680
370
     5
100
AcDbHatch
 10
0.0
 20
0.0
 30
0.0
210
0.0
220
0.0
230
1.0
  2
JIS_WOOD
 70
     0
 71
     0
 91
        1
 92
        0
 93
        4
 72
     1
 10
191.0000007030953
 20
-167.4999999999997
 11
185.0000007735727
 21
-167.4999999999998
 72
     1
 10
185.0000007735727
 20
-167.4999999999998
 11
185.0000006661787
 21
-174.4999999999998
 72
     1
 10
185.0000006661787
 20
-174.4999999999998
 11
191.0000007030953
 21
-174.4999999999997
 72
     1
 10
191.0000007030953
 20
-174.4999999999997
 11
191.0000007030953
 21
-167.4999999999997
 97
        0
 75
     0
 76
     1
 52
180.0
 41
1.0
 77
     0
 78
     1
 53
225.0
 43
0.0
 44
0.0
 45
0.4999999991609842
 46
-0.4999999991609844
 79
     0
 98
        0
1001
ACAD
1010
0.0
1020
0.0
1030
0.0
  0
LINE
  5
1CDB
330
1D4B
100
AcDbEntity
  8
Section
 62
    30
420
 16744192
370
     5
100
AcDbLine
 10
-30.99999991533582
 20
-187.0000000000003
 30
0.0
 11
-30.99999987750425
 21
-147.0000000000002
 31
0.0
  0
LINE
  5
1CDC
330
1D4B
100
AcDbEntity
  8
Section
 62
    30
420
 16744192
370
     5
100
AcDbLine
 10
30.99999991533576
 20
-187.0000000000003
 30
0.0
 11
30.99999987750425
 21
-147.0000000000002
 31
0.0
  0
LINE
  5
1CDD
330
1D4B
100
AcDbEntity
  8
Section
 62
    30
420
 16744192
370
     5
100
AcDbLine
 10
50.00000038426953
 20
-226.0000000000001
 30
0.0
 11
50.0000003322512
 21
-171.0
 31
0.0
  0
LINE
  5
1CDE
330
1D4B
100
AcDbEntity
  8
Section
 62
    30
420
 16744192
370
     5
100
AcDbLine
 10
-50.00000038426958
 20
-226.0000000000003
 30
0.0
 11
-50.00000033225115
 21
-171.0
 31
0.0
  0
LINE
  5
1CDF
330
1D4B
100
AcDbEntity
  8
Section
 62
    30
420
 16744192
370
     5
100
AcDbLine
 10
133.999999602093
 20
-187.0000000000002
 30
0.0
 11
133.9999995642614
 21
-147.0000000000002
 31
0.0
  0
LINE
  5
1CE0
330
1D4B
100
AcDbEntity
  8
Section
 62
    30
420
 16744192
370
     5
100
AcDbLine
 10
195.9999994980552
 20
-187.0000000000003
 30
0.0
 11
195.9999994602236
 21
-147.0000000000003
 31
0.0
  0
LINE
  5
1CE1
330
1D4B
100
AcDbEntity
  8
Section
 62
    30
420
 16744192
370
     5
100
AcDbLine
 10
-29.49999992952257
 20
-187.0000000000002
 30
0.0
 11
-29.49999992952257
 21
-147.0000000000002
 31
0.0
  0
LINE
  5
1CE2
330
1D4B
100
AcDbEntity
  8
Section
 62
    30
420
 16744192
370
     5
100
AcDbLine
 10
29.49999992952257
 20
-187.0000000000002
 30
0.0
 11
29.49999992952263
 21
-147.0000000000002
 31
0.0
  0
LINE
  5
1CE3
330
1D4B
100
AcDbEntity
  8
Section
 62
    30
420
 16744192
370
     5
100
AcDbLine
 10
48.50000038426953
 20
-226.0
 30
0.0
 11
48.50000038426958
 21
-171.0
 31
0.0
  0
LINE
  5
1CE4
330
1D4B
100
AcDbEntity
  8
Section
 62
    30
420
 16744192
370
     5
100
AcDbLine
 10
-48.50000038426958
 20
-226.0000000000001
 30
0.0
 11
-48.50000038426958
 21
-171.0
 31
0.0
  0
LINE
  5
1CE5
330
1D4B
100
AcDbEntity
  8
Section
 62
    30
420
 16744192
370
     5
100
AcDbLine
 10
132.4961910873446
 20
-186.9380902987185
 30
0.0
 11
132.4999996162798
 21
-147.0000000000003
 31
0.0
  0
LINE
  5
1CE6
330
1D4B
100
AcDbEntity
  8
Section
 62
    30
420
 16744192
370
     5
100
AcDbLine
 10
194.499999512242
 20
-187.0000000000003
 30
0.0
 11
194.4999995122419
 21
-147.0000000000002
 31
0.0
  0
LINE
  5
1CE7
330
1D4B
100
AcDbEntity
  8
Section
 62
    30
420
 16744192
370
     5
100
AcDbLine
 10
-32.49999992952257
 20
-187.0000000000004
 30
0.0
 11
-32.49999992952257
 21
-147.0000000000002
 31
0.0
  0
LINE
  5
1CE8
330
1D4B
100
AcDbEntity
  8
Section
 62
    30
420
 16744192
370
     5
100
AcDbLine
 10
32.49999992952257
 20
-187.0000000000005
 30
0.0
 11
32.49999992952263
 21
-147.0000000000002
 31
0.0
  0
LINE
  5
1CE9
330
1D4B
100
AcDbEntity
  8
Section
 62
    30
420
 16744192
370
     5
100
AcDbLine
 10
51.50000038426953
 20
-226.0000000000002
 30
0.0
 11
51.50000038426958
 21
-171.0
 31
0.0
  0
LINE
  5
1CEA
330
1D4B
100
AcDbEntity
  8
Section
 62
    30
420
 16744192
370
     5
100
AcDbLine
 10
-51.50000038426958
 20
-226.0000000000001
 30
0.0
 11
-51.50000038426958
 21
-171.0
 31
0.0
  0
LINE
  5
1CEB
330
1D4B
100
AcDbEntity
  8
Section
 62
    30
420
 16744192
370
     5
100
AcDbLine
 10
135.4999996162798
 20
-187.0000000000002
 30
0.0
 11
135.4999996162798
 21
-147.0000000000003
 31
0.0
  0
LINE
  5
1CEC
330
1D4B
100
AcDbEntity
  8
Section
 62
    30
420
 16744192
370
     5
100
AcDbLine
 10
197.4999995122419
 20
-187.0000000000002
 30
0.0
 11
197.499999512242
 21
-147.0000000000002
 31
0.0
  0
LWPOLYLINE
  5
18C3
330
1D4B
100
AcDbEntity
  8
Stepper
 62
     5
420
      255
370
     5
100
AcDbPolyline
 90
        4
 70
   129
 43
0.0
 10
90.21234878979317
 20
-8.698484809834994
 10
48.21234878979321
 20
-8.69848480983508
 10
48.2123487897933
 20
-50.698484809835
 10
90.21234878979328
 20
-50.69848480983499
  0
LWPOLYLINE
  5
1923
330
1D4B
100
AcDbEntity
  8
Stepper
 62
     5
420
      255
370
     5
100
AcDbPolyline
 90
        4
 70
   129
 43
0.0
 10
74.78765121020683
 20
8.698484809834945
 10
116.7876512102068
 20
8.698484809835058
 10
116.7876512102067
 20
50.69848480983498
 10
74.7876512102067
 20
50.69848480983494
  0
LWPOLYLINE
  5
1CED
330
1D4B
100
AcDbEntity
  8
Section
370
     5
100
AcDbPolyline
 90
        8
 70
   129
 43
0.0
 10
191.0000007030953
 20
-174.5
 10
190.9999991156774
 20
-171.0000002517047
 10
320.0
 20
-171.0000000000001
 10
320.0
 20
-183.0000000000001
 10
190.999999095541
 20
-183.0000002517046
 10
189.0
 20
-183.0
 10
188.9999999999999
 20
-179.4999999999999
 10
188.9999999999999
 20
-174.4999999999997
  0
LWPOLYLINE
  5
1CEE
330
1D4B
100
AcDbEntity
  8
Stepper
370
     5
100
AcDbPolyline
 90
        4
 70
   129
 43
0.0
 10
75.28765121020672
 20
-132.0
 10
116.2876512102067
 20
-132.0000000000001
 10
116.2876512102066
 20
-85.0
 10
75.28765121020672
 20
-85.0
  0
LWPOLYLINE
  5
1CEF
330
1D4B
100
AcDbEntity
  8
Stepper
  6
DASHED2
370
     5
100
AcDbPolyline
 90
        4
 70
   129
 43
0.0
 10
48.71234878979328
 20
-132.0
 10
89.71234878979328
 20
-132.0000000000001
 10
89.71234878979317
 20
-85.00000000000003
 10
48.71234878979328
 20
-85.00000000000003
  0
LINE
  5
1CF0
330
1D4B
100
AcDbEntity
  8
Stepper
370
     5
100
AcDbLine
 10
84.78765121020672
 20
-157.9999999999998
 30
0.0
 11
106.7876512102068
 21
-158.0000000000001
 31
0.0
  0
LINE
  5
1CF1
330
1D4B
100
AcDbEntity
  8
Stepper
  6
DASHED2
370
     5
100
AcDbLine
 10
58.21234878979328
 20
-157.9999999999998
 30
0.0
 11
80.2123487897934
 21
-158.0000000000001
 31
0.0
  0
LINE
  5
1CF2
330
1D4B
100
AcDbEntity
  8
Stepper
370
     5
100
AcDbLine
 10
106.7876512102067
 20
-148.0
 30
0.0
 11
84.78765121020672
 21
-148.0
 31
0.0
  0
LINE
  5
1CF3
330
1D4B
100
AcDbEntity
  8
Stepper
  6
DASHED2
370
     5
100
AcDbLine
 10
80.21234878979328
 20
-148.0
 30
0.0
 11
58.21234878979328
 21
-148.0
 31
0.0
  0
CIRCLE
  5
B11
330
1D4B
100
AcDbEntity
  8
Plan
370
     5
100
AcDbCircle
 10
318.0000000000001
 20
-12.00000000000004
 30
0.0
 40
1.5
  0
CIRCLE
  5
B12
330
1D4B
100
AcDbEntity
  8
Plan
370
     5
100
AcDbCircle
 10
342.0000000000001
 20
-12.00000000000004
 30
0.0
 40
1.5
  0
CIRCLE
  5
B13
330
1D4B
100
AcDbEntity
  8
Plan
370
     5
100
AcDbCircle
 10
342.0000000000001
 20
11.99999999999996
 30
0.0
 40
1.5
  0
CIRCLE
  5
B14
330
1D4B
100
AcDbEntity
  8
Plan
370
     5
100
AcDbCircle
 10
318.0000000000001
 20
11.99999999999996
 30
0.0
 40
1.5
  0
CIRCLE
  5
B15
330
1D4B
100
AcDbEntity
  8
Plan
370
     5
100
AcDbCircle
 10
330.0
 20
-0.0000000000000426
 30
0.0
 40
10.0
  0
CIRCLE
  5
B16
330
1D4B
100
AcDbEntity
  8
Plan
370
     5
100
AcDbCircle
 10
165.0
 20
-0.0000000000000426
 30
0.0
 40
60.0
  0
LINE
  5
B17
330
1D4B
100
AcDbEntity
  8
Plan
370
     5
100
AcDbLine
 10
0.0000000000000142
 20
59.99999999999996
 30
0.0
 11
165.0
 21
59.99999999999996
 31
0.0
  0
LINE
  5
B18
330
1D4B
100
AcDbEntity
  8
Plan
370
     5
100
AcDbLine
 10
0.0
 20
-60.00000000000004
 30
0.0
 11
165.0
 21
-60.00000000000004
 31
0.0
  0
LWPOLYLINE
  5
1CF4
330
1D4B
100
AcDbEntity
  8
Section
370
     5
100
AcDbPolyline
 90
        4
 70
   129
 43
0.0
 10
-5.0
 20
-143.9999999999999
 10
-60.0
 20
-144.0
 10
-60.0
 20
-132.0
 10
-5.0
 20
-132.0
  0
LWPOLYLINE
  5
1CF5
330
1D4B
100
AcDbEntity
  8
Section
370
     5
100
AcDbPolyline
 90
        4
 70
   129
 43
0.0
 10
-60.00000027184103
 20
-222.0
 10
-5.0
 20
-222.0
 10
-5.0
 20
-210.0
 10
-60.0
 20
-210.0000000000004
  0
LWPOLYLINE
  5
1CF6
330
1D4B
100
AcDbEntity
  8
Section
370
     5
100
AcDbPolyline
 90
        4
 70
   129
 43
0.0
 10
339.999998889143
 20
-222.0
 10
339.9999989092793
 20
-210.0
 10
5.0
 20
-210.0
 10
5.0
 20
-222.0
  0
ARC
  5
B25
330
1D4B
100
AcDbEntity
  8
Plan
370
     5
100
AcDbCircle
 10
0.0
 20
0.0
 30
0.0
 40
60.0
100
AcDbArc
 50
90.00000000000006
 51
270.0
1001
QCAD
1000
reversed:1
  0
LWPOLYLINE
  5
1CF7
330
1D4B
100
AcDbEntity
  8
Section
370
     5
100
AcDbPolyline
 90
        8
 70
   129
 43
0.0
 10
105.000000588989
 20
-171.0
 10
138.999999900277
 20
-171.0000002517047
 10
139.0000002399584
 20
-174.4999999999998
 10
140.9999999213923
 20
-174.4999999999998
 10
141.0000003140963
 20
-179.4999999999999
 10
141.0
 20
-183.0
 10
138.999999900277
 20
-182.9999995342263
 10
105.000000588989
 20
-183.0
  0
LWPOLYLINE
  5
1CF8
330
1D4B
100
AcDbEntity
  8
Section
370
     5
100
AcDbPolyline
 90
        4
 70
   129
 43
0.0
 10
360.0
 20
-171.0000000000001
 10
340.0
 20
-171.0000000000001
 10
340.0
 20
-183.0000000000001
 10
360.0
 20
-183.0
  0
LINE
  5
1CF9
330
1D4B
100
AcDbEntity
  8
Section
370
     5
100
AcDbLine
 10
342.0000000000001
 20
-183.0
 30
0.0
 11
342.0000000000001
 21
-171.0000000000001
 31
0.0
  0
LINE
  5
1CFA
330
1D4B
100
AcDbEntity
  8
Section
370
     5
100
AcDbLine
 10
318.0000000000002
 20
-183.0
 30
0.0
 11
318.0000000000002
 21
-171.0000000000001
 31
0.0
  0
LINE
  5
B33
330
1D4B
100
AcDbEntity
  8
Plan
370
     5
100
AcDbLine
 10
335.4545454545454
 20
29.49996498106896
 30
0.0
 11
175.9090909090909
 21
58.99992996213796
 31
0.0
  0
LINE
  5
B34
330
1D4B
100
AcDbEntity
  8
Plan
370
     5
100
AcDbLine
 10
335.4545454545454
 20
-29.49996498106905
 30
0.0
 11
175.9090909090909
 21
-58.99992996213805
 31
0.0
  0
ARC
  5
B35
330
1D4B
100
AcDbEntity
  8
Plan
370
     5
100
AcDbCircle
 10
330.0
 20
-0.0000000000000426
 30
0.0
 40
30.0
100
AcDbArc
 50
280.4756816963899
 51
79.52431830361013
1001
QCAD
1000
reversed:1
  0
LWPOLYLINE
  5
18C4
330
1D4B
100
AcDbEntity
  8
Stepper
 62
     5
420
      255
370
     5
100
AcDbPolyline
 90
        4
 70
   129
 43
0.0
 10
90.21234878979331
 20
-8.698484809834994
 10
48.2123487897933
 20
-8.698484809834909
 10
48.2123487897933
 20
-50.698484809835
 10
90.2123487897933
 20
-50.69848480983504
  0
LWPOLYLINE
  5
18C5
330
1D4B
100
AcDbEntity
  8
Stepper
 62
     5
420
      255
370
     5
100
AcDbPolyline
 90
        4
 70
   129
 43
0.0
 10
96.65017105219721
 20
-18.33336670676483
 10
57.84723068672318
 20
-2.260662547431011
 10
41.77452652738937
 20
-41.06360291290515
 10
80.57746689286343
 20
-57.13630707223893
  0
LWPOLYLINE
  5
18C6
330
1D4B
100
AcDbEntity
  8
Stepper
 62
     5
420
      255
370
     5
100
AcDbPolyline
 90
        4
 70
   129
 43
0.0
 10
98.91083359962829
 20
-29.69848480983499
 10
69.21234878979335
 20
0.0000000000000711
 10
39.51386397995827
 20
-29.69848480983502
 10
69.2123487897933
 20
-59.39696961967001
  0
LWPOLYLINE
  5
18C7
330
1D4B
100
AcDbEntity
  8
Stepper
 62
     5
420
      255
370
     5
100
AcDbPolyline
 90
        4
 70
   129
 43
0.0
 10
96.65017105219721
 20
-41.06360291290513
 10
80.57746689286353
 20
-2.260662547431053
 10
41.77452652738936
 20
-18.33336670676489
 10
57.84723068672315
 20
-57.13630707223891
  0
LWPOLYLINE
  5
1924
330
1D4B
100
AcDbEntity
  8
Stepper
 62
     5
420
      255
370
     5
100
AcDbPolyline
 90
        4
 70
   129
 43
0.0
 10
66.08916640037171
 20
29.69848480983494
 10
95.78765121020666
 20
-0.0000000000000071
 10
125.4861360200417
 20
29.69848480983496
 10
95.78765121020668
 20
59.39696961966998
  0
LWPOLYLINE
  5
1925
330
1D4B
100
AcDbEntity
  8
Stepper
 62
     5
420
      255
370
     5
100
AcDbPolyline
 90
        4
 70
   129
 43
0.0
 10
68.34982894780279
 20
18.33336670676479
 10
107.1527693132768
 20
2.260662547430936
 10
123.2254734726106
 20
41.06360291290513
 10
84.42253310713659
 20
57.13630707223889
  0
LWPOLYLINE
  5
1926
330
1D4B
100
AcDbEntity
  8
Stepper
 62
     5
420
      255
370
     5
100
AcDbPolyline
 90
        4
 70
   129
 43
0.0
 10
74.78765121020672
 20
8.698484809834952
 10
116.7876512102067
 20
8.698484809834856
 10
116.7876512102067
 20
50.69848480983498
 10
74.78765121020672
 20
50.69848480983499
  0
LWPOLYLINE
  5
1927
330
1D4B
100
AcDbEntity
  8
Stepper
 62
     5
420
      255
370
     5
100
AcDbPolyline
 90
        4
 70
   129
 43
0.0
 10
68.34982894780282
 20
41.06360291290509
 10
84.42253310713647
 20
2.260662547431004
 10
123.2254734726106
 20
18.33336670676485
 10
107.1527693132768
 20
57.13630707223886
  0
LWPOLYLINE
  5
1CFB
330
1D4B
100
AcDbEntity
  8
Section
 62
   136
420
    32896
370
     5
100
AcDbPolyline
 90
       12
 70
     0
 43
0.0
 10
-19.99999990027698
 20
-159.0000000000001
 10
-20.00000023995847
 20
-155.5
 10
-21.99999992139226
 20
-155.5000000000001
 10
-22.0
 20
-150.5000000000001
 10
-22.0
 20
-147.0
 10
-19.99999990027698
 20
-146.9999997482953
 10
-15.00000016037188
 20
-147.0000000000001
 10
-4.999999900277032
 20
-146.9999997231249
 10
-4.999999900277032
 20
-153.0000000000001
 10
-4.999999900277032
 20
-159.0000000000001
 10
-14.99999990027698
 20
-159.0000000000003
 10
-19.99999990027698
 20
-159.0000000000001
  0
LWPOLYLINE
  5
1CFC
330
1D4B
100
AcDbEntity
  8
Section
 62
   136
420
    32896
370
     5
100
AcDbPolyline
 90
       12
 70
     0
 43
0.0
 10
-19.99999990027698
 20
-171.0000000000001
 10
-20.00000023995847
 20
-167.5
 10
-21.99999992139226
 20
-167.5000000000001
 10
-22.0
 20
-162.5000000000001
 10
-20.0
 20
-162.5000000000001
 10
-19.99999990027698
 20
-158.9999997482954
 10
-15.00000016037188
 20
-159.0000000000001
 10
-4.999999900277032
 20
-158.9999997231249
 10
-4.999999900277032
 20
-165.0000000000001
 10
-4.999999900277032
 20
-171.0000000000001
 10
-14.99999990027698
 20
-171.0000000000003
 10
-19.99999990027698
 20
-171.0000000000001
  0
LWPOLYLINE
  5
1CFD
330
1D4B
100
AcDbEntity
  8
Section
 62
   136
420
    32896
370
     5
100
AcDbPolyline
 90
       12
 70
     0
 43
0.0
 10
-19.9999999707544
 20
-183.0000000000002
 10
-22.0
 20
-183.0
 10
-21.99999999186969
 20
-179.5000000000002
 10
-22.00000007047743
 20
-174.5000000000002
 10
-20.00000007047743
 20
-174.5000000000002
 10
-19.9999999707544
 20
-170.9999997482955
 10
-15.00000023084931
 20
-171.0000000000003
 10
-4.999999970754402
 20
-170.9999997231251
 10
-4.999999970754402
 20
-177.0000000000003
 10
-4.999999970754402
 20
-183.0000000000002
 10
-14.9999999707544
 20
-183.0000000000004
 10
-19.9999999707544
 20
-183.0000000000002
  0
LWPOLYLINE
  5
1CFE
330
1D4B
100
AcDbEntity
  8
Section
 62
    56
420
  8421376
370
     5
100
AcDbPolyline
 90
       12
 70
     0
 43
0.0
 10
-26.00000009972302
 20
-171.0000000000001
 10
-25.99999976004153
 20
-167.5
 10
-24.00000007860774
 20
-167.5000000000001
 10
-24.0
 20
-162.5000000000001
 10
-26.0
 20
-162.5000000000001
 10
-26.00000009972302
 20
-158.9999997482954
 10
-30.99999983962812
 20
-159.0000000000001
 10
-40.0
 20
-159.0000000000001
 10
-40.0
 20
-165.0000000000001
 10
-40.0
 20
-171.0000000000001
 10
-31.00000009972302
 20
-171.0000000000003
 10
-26.00000009972302
 20
-171.0000000000001
  0
LWPOLYLINE
  5
1CFF
330
1D4B
100
AcDbEntity
  8
Section
 62
   136
420
    32896
370
     5
100
AcDbPolyline
 90
       12
 70
     0
 43
0.0
 10
19.99999990027703
 20
-159.0000000000001
 10
20.00000023995847
 20
-155.5
 10
21.99999992139226
 20
-155.5000000000001
 10
22.0
 20
-150.5000000000001
 10
22.0
 20
-146.9999997231249
 10
19.99999990027703
 20
-146.9999997482953
 10
15.00000016037188
 20
-147.0000000000001
 10
4.999999900277032
 20
-146.9999997231249
 10
4.999999900277032
 20
-153.0000000000001
 10
4.999999900277032
 20
-159.0000000000001
 10
14.99999990027703
 20
-159.0000000000003
 10
19.99999990027703
 20
-159.0000000000001
  0
LWPOLYLINE
  5
1D00
330
1D4B
100
AcDbEntity
  8
Section
 62
   136
420
    32896
370
     5
100
AcDbPolyline
 90
       12
 70
     0
 43
0.0
 10
19.99999990027703
 20
-171.0000000000001
 10
20.00000023995847
 20
-167.5
 10
21.99999992139226
 20
-167.5000000000001
 10
22.0
 20
-162.5000000000001
 10
20.0
 20
-162.5000000000001
 10
19.99999990027703
 20
-158.9999997482954
 10
15.00000016037188
 20
-159.0000000000001
 10
4.999999900277032
 20
-158.9999997231249
 10
4.999999900277032
 20
-165.0000000000001
 10
4.999999900277032
 20
-171.0000000000001
 10
14.99999990027703
 20
-171.0000000000003
 10
19.99999990027703
 20
-171.0000000000001
  0
LWPOLYLINE
  5
1D01
330
1D4B
100
AcDbEntity
  8
Section
 62
   136
420
    32896
370
     5
100
AcDbPolyline
 90
       12
 70
     0
 43
0.0
 10
19.9999999707544
 20
-183.0000000000002
 10
22.0
 20
-183.0
 10
21.99999999186969
 20
-179.5000000000002
 10
22.00000007047743
 20
-174.5000000000002
 10
20.00000007047743
 20
-174.5000000000002
 10
19.9999999707544
 20
-170.9999997482955
 10
15.00000023084931
 20
-171.0000000000003
 10
4.999999970754402
 20
-170.9999997231251
 10
4.999999970754402
 20
-177.0000000000003
 10
4.999999970754402
 20
-183.0000000000002
 10
14.9999999707544
 20
-183.0000000000004
 10
19.9999999707544
 20
-183.0000000000002
  0
LWPOLYLINE
  5
1D02
330
1D4B
100
AcDbEntity
  8
Section
 62
    56
420
  8421376
370
     5
100
AcDbPolyline
 90
       12
 70
     0
 43
0.0
 10
26.00000009972297
 20
-171.0000000000001
 10
25.99999976004153
 20
-167.5
 10
24.00000007860774
 20
-167.5000000000001
 10
24.0
 20
-162.5000000000001
 10
26.0
 20
-162.5000000000001
 10
26.00000009972297
 20
-158.9999997482954
 10
30.99999983962812
 20
-159.0000000000001
 10
40.0
 20
-159.0000000000001
 10
40.0
 20
-165.0000000000001
 10
40.0
 20
-171.0000000000001
 10
31.00000009972297
 20
-171.0000000000003
 10
26.00000009972297
 20
-171.0000000000001
  0
LWPOLYLINE
  5
1D03
330
1D4B
100
AcDbEntity
  8
Section
 62
    56
420
  8421376
370
     5
100
AcDbPolyline
 90
       12
 70
     0
 43
0.0
 10
-26.00000009972302
 20
-183.0
 10
-24.0
 20
-183.0
 10
-24.00000007860774
 20
-179.5
 10
-24.0
 20
-174.5
 10
-26.0
 20
-174.5
 10
-26.00000009972302
 20
-170.9999997482953
 10
-30.99999983962812
 20
-171.0000000000001
 10
-60.0
 20
-171.0
 10
-60.0
 20
-177.0
 10
-60.0
 20
-183.0
 10
-31.00000009972302
 20
-183.0000000000002
 10
-26.00000009972302
 20
-183.0
  0
LWPOLYLINE
  5
1D04
330
1D4B
100
AcDbEntity
  8
Section
 62
    56
420
  8421376
370
     5
100
AcDbPolyline
 90
       12
 70
     0
 43
0.0
 10
26.00000009972297
 20
-183.0
 10
24.0
 20
-183.0
 10
24.00000007860774
 20
-179.5
 10
24.0
 20
-174.5
 10
26.0
 20
-174.5
 10
26.00000009972297
 20
-170.9999997482953
 10
30.99999983962812
 20
-171.0000000000001
 10
60.0
 20
-171.0
 10
60.0
 20
-177.0
 10
60.0
 20
-183.0
 10
31.00000009972297
 20
-183.0000000000002
 10
26.00000009972297
 20
-183.0
  0
LWPOLYLINE
  5
1D05
330
1D4B
100
AcDbEntity
  8
Section
 62
   136
420
    32896
370
     5
100
AcDbPolyline
 90
       12
 70
     0
 43
0.0
 10
145.000000099723
 20
-170.9999999999999
 10
144.9999997600416
 20
-174.5
 10
143.0000000786077
 20
-174.4999999999999
 10
143.0
 20
-179.4999999999999
 10
143.0
 20
-183.0
 10
145.000000099723
 20
-183.0000002517046
 10
149.9999998396281
 20
-182.9999999999999
 10
160.000000099723
 20
-183.0000002768751
 10
160.000000099723
 20
-176.9999999999999
 10
160.000000099723
 20
-170.9999999999999
 10
150.000000099723
 20
-170.9999999999997
 10
145.000000099723
 20
-170.9999999999999
  0
LWPOLYLINE
  5
1D06
330
1D4B
100
AcDbEntity
  8
Section
 62
   136
420
    32896
370
     5
100
AcDbPolyline
 90
       12
 70
     0
 43
0.0
 10
145.0000000292456
 20
-158.9999999999998
 10
144.9999996895642
 20
-162.4999999999999
 10
143.0000000081303
 20
-162.4999999999998
 10
142.9999999295226
 20
-167.4999999999998
 10
144.9999999295226
 20
-167.4999999999998
 10
145.0000000292456
 20
-171.0000002517045
 10
149.9999997691507
 20
-170.9999999999997
 10
160.0000000292456
 20
-171.0000002768749
 10
160.0000000292456
 20
-164.9999999999997
 10
160.0000000292456
 20
-158.9999999999998
 10
150.0000000292456
 20
-158.9999999999996
 10
145.0000000292456
 20
-158.9999999999998
  0
LWPOLYLINE
  5
1D07
330
1D4B
100
AcDbEntity
  8
Section
 62
    56
420
  8421376
370
     5
100
AcDbPolyline
 90
       12
 70
     0
 43
0.0
 10
138.999999900277
 20
-158.9999999999999
 10
139.0000002399584
 20
-162.5
 10
140.9999999213923
 20
-162.4999999999999
 10
141.0
 20
-167.4999999999999
 10
139.0
 20
-167.4999999999999
 10
138.999999900277
 20
-171.0000002517047
 10
134.0000001603719
 20
-170.9999999999999
 10
125.0
 20
-170.9999999999999
 10
125.0
 20
-165.0
 10
125.0
 20
-159.0
 10
133.999999900277
 20
-158.9999999999997
 10
138.999999900277
 20
-158.9999999999999
  0
LWPOLYLINE
  5
1D08
330
1D4B
100
AcDbEntity
  8
Section
 62
    56
420
  8421376
370
     5
100
AcDbPolyline
 90
       12
 70
     0
 43
0.0
 10
191.000000099723
 20
-158.9999999999999
 10
190.9999997600416
 20
-162.5
 10
189.0000000786077
 20
-162.4999999999999
 10
189.0
 20
-167.4999999999999
 10
191.0
 20
-167.4999999999999
 10
191.000000099723
 20
-171.0000002517047
 10
195.9999998396281
 20
-170.9999999999999
 10
205.0
 20
-170.9999999999999
 10
205.0
 20
-165.0
 10
205.0
 20
-159.0000000000001
 10
196.000000099723
 20
-158.9999999999997
 10
191.000000099723
 20
-158.9999999999999
  0
LWPOLYLINE
  5
1D09
330
1D4B
100
AcDbEntity
  8
Section
 62
   136
420
    32896
370
     5
100
AcDbPolyline
 90
       12
 70
     0
 43
0.0
 10
184.999999900277
 20
-170.9999999999999
 10
185.0000002399585
 20
-174.5
 10
186.9999999213923
 20
-174.4999999999999
 10
187.0
 20
-179.4999999999999
 10
187.0
 20
-183.0
 10
184.999999900277
 20
-183.0000002517046
 10
180.0000001603719
 20
-182.9999999999999
 10
169.999999900277
 20
-183.0000002768751
 10
169.999999900277
 20
-176.9999999999999
 10
169.999999900277
 20
-170.9999999999999
 10
179.999999900277
 20
-170.9999999999997
 10
184.999999900277
 20
-170.9999999999999
  0
LWPOLYLINE
  5
1D0A
330
1D4B
100
AcDbEntity
  8
Section
 62
   136
420
    32896
370
     5
100
AcDbPolyline
 90
       12
 70
     0
 43
0.0
 10
184.9999999707544
 20
-158.9999999999998
 10
185.0000003104358
 20
-162.4999999999999
 10
186.9999999918697
 20
-162.4999999999998
 10
187.0000000704774
 20
-167.4999999999998
 10
185.0000000704774
 20
-167.4999999999998
 10
184.9999999707544
 20
-171.0000002517045
 10
180.0000002308493
 20
-170.9999999999997
 10
169.9999999707544
 20
-171.0000002768749
 10
169.9999999707544
 20
-164.9999999999997
 10
169.9999999707544
 20
-158.9999999999998
 10
179.9999999707544
 20
-158.9999999999996
 10
184.9999999707544
 20
-158.9999999999998
  0
LWPOLYLINE
  5
1D0B
330
1D4B
100
AcDbEntity
  8
Section
 62
   136
420
    32896
370
     5
100
AcDbPolyline
 90
       12
 70
     0
 43
0.0
 10
145.0000000292456
 20
-146.9999997231247
 10
143.0
 20
-147.0
 10
143.0000000081304
 20
-150.4999997231247
 10
142.9999999295226
 20
-155.4999997231246
 10
144.9999999295226
 20
-155.4999997231246
 10
145.0000000292456
 20
-158.9999999748294
 10
149.9999997691507
 20
-158.9999997231246
 10
160.0000000292456
 20
-158.9999999999998
 10
160.0000000292456
 20
-152.9999997231246
 10
160.0000000292456
 20
-146.9999997231247
 10
150.0000000292456
 20
-146.9999997231245
 10
145.0000000292456
 20
-146.9999997231247
  0
LWPOLYLINE
  5
1D0C
330
1D4B
100
AcDbEntity
  8
Section
 62
   136
420
    32896
370
     5
100
AcDbPolyline
 90
       12
 70
     0
 43
0.0
 10
184.9999998297996
 20
-146.9999997231246
 10
187.0
 20
-147.0
 10
186.9999998509149
 20
-150.4999997231246
 10
186.9999999295226
 20
-155.4999997231246
 10
184.9999999295226
 20
-155.4999997231246
 10
184.9999998297997
 20
-158.9999999748294
 10
180.0000000898945
 20
-158.9999997231246
 10
169.9999998297997
 20
-158.9999999999998
 10
169.9999998297997
 20
-152.9999997231246
 10
169.9999998297997
 20
-146.9999997231247
 10
179.9999998297996
 20
-146.9999997231245
 10
184.9999998297996
 20
-146.9999997231246
  0
LWPOLYLINE
  5
1D0D
330
1D4B
100
AcDbEntity
  8
Stepper
370
     5
100
AcDbPolyline
 90
        4
 70
   129
 43
0.0
 10
93.28765121020672
 20
-134.0
 10
98.28765121020672
 20
-134.0
 10
98.28765121020672
 20
-158.0
 10
93.28765121020672
 20
-158.0
  0
LWPOLYLINE
  5
1D0E
330
1D4B
100
AcDbEntity
  8
Stepper
  6
DASHED2
370
     5
100
AcDbPolyline
 90
        4
 70
   129
 43
0.0
 10
66.71234878979328
 20
-134.0
 10
71.71234878979328
 20
-134.0
 10
71.71234878979328
 20
-158.0
 10
66.71234878979328
 20
-158.0
  0
HATCH
  5
1D0F
330
1D4B
100
AcDbEntity
  8
Section
 62
   136
420
    32896
370
     5
100
AcDbHatch
 10
0.0
 20
0.0
 30
0.0
210
0.0
220
0.0
230
1.0
  2
JIS_WOOD
 70
     0
 71
     0
 91
        6
 92
        0
 93
       11
 72
     1
 10
184.999999900277
 20
-170.9999999999999
 11
185.0000002399585
 21
-174.5
 72
     1
 10
185.0000002399585
 20
-174.5
 11
186.9999999213923
 21
-174.4999999999999
 72
     1
 10
186.9999999213923
 20
-174.4999999999999
 11
187.0
 21
-179.4999999999999
 72
     1
 10
187.0
 20
-179.4999999999999
 11
187.0
 21
-183.0
 72
     1
 10
187.0
 20
-183.0
 11
184.999999900277
 21
-183.0000002517046
 72
     1
 10
184.999999900277
 20
-183.0000002517046
 11
180.0000001603719
 21
-182.9999999999999
 72
     1
 10
180.0000001603719
 20
-182.9999999999999
 11
169.999999900277
 21
-183.0000002768751
 72
     1
 10
169.999999900277
 20
-183.0000002768751
 11
169.999999900277
 21
-176.9999999999999
 72
     1
 10
169.999999900277
 20
-176.9999999999999
 11
169.999999900277
 21
-170.9999999999999
 72
     1
 10
169.999999900277
 20
-170.9999999999999
 11
179.999999900277
 21
-170.9999999999997
 72
     1
 10
179.999999900277
 20
-170.9999999999997
 11
184.999999900277
 21
-170.9999999999999
 97
        0
 92
        0
 93
       11
 72
     1
 10
184.9999999707544
 20
-158.9999999999998
 11
185.0000003104358
 21
-162.4999999999999
 72
     1
 10
185.0000003104358
 20
-162.4999999999999
 11
186.9999999918697
 21
-162.4999999999998
 72
     1
 10
186.9999999918697
 20
-162.4999999999998
 11
187.0000000704774
 21
-167.4999999999998
 72
     1
 10
187.0000000704774
 20
-167.4999999999998
 11
185.0000000704774
 21
-167.4999999999998
 72
     1
 10
185.0000000704774
 20
-167.4999999999998
 11
184.9999999707544
 21
-171.0000002517045
 72
     1
 10
184.9999999707544
 20
-171.0000002517045
 11
180.0000002308493
 21
-170.9999999999997
 72
     1
 10
180.0000002308493
 20
-170.9999999999997
 11
169.9999999707544
 21
-171.0000002768749
 72
     1
 10
169.9999999707544
 20
-171.0000002768749
 11
169.9999999707544
 21
-164.9999999999997
 72
     1
 10
169.9999999707544
 20
-164.9999999999997
 11
169.9999999707544
 21
-158.9999999999998
 72
     1
 10
169.9999999707544
 20
-158.9999999999998
 11
179.9999999707544
 21
-158.9999999999996
 72
     1
 10
179.9999999707544
 20
-158.9999999999996
 11
184.9999999707544
 21
-158.9999999999998
 97
        0
 92
        0
 93
       11
 72
     1
 10
145.0000000292456
 20
-146.9999997231247
 11
143.0
 21
-147.0
 72
     1
 10
143.0
 20
-147.0
 11
143.0000000081304
 21
-150.4999997231247
 72
     1
 10
143.0000000081304
 20
-150.4999997231247
 11
142.9999999295226
 21
-155.4999997231246
 72
     1
 10
142.9999999295226
 20
-155.4999997231246
 11
144.9999999295226
 21
-155.4999997231246
 72
     1
 10
144.9999999295226
 20
-155.4999997231246
 11
145.0000000292456
 21
-158.9999999748294
 72
     1
 10
145.0000000292456
 20
-158.9999999748294
 11
149.9999997691507
 21
-158.9999997231246
 72
     1
 10
149.9999997691507
 20
-158.9999997231246
 11
160.0000000292456
 21
-158.9999999999998
 72
     1
 10
160.0000000292456
 20
-158.9999999999998
 11
160.0000000292456
 21
-152.9999997231246
 72
     1
 10
160.0000000292456
 20
-152.9999997231246
 11
160.0000000292456
 21
-146.9999997231247
 72
     1
 10
160.0000000292456
 20
-146.9999997231247
 11
150.0000000292456
 21
-146.9999997231245
 72
     1
 10
150.0000000292456
 20
-146.9999997231245
 11
145.0000000292456
 21
-146.9999997231247
 97
        0
 92
        0
 93
       11
 72
     1
 10
145.000000099723
 20
-170.9999999999999
 11
144.9999997600416
 21
-174.5
 72
     1
 10
144.9999997600416
 20
-174.5
 11
143.0000000786077
 21
-174.4999999999999
 72
     1
 10
143.0000000786077
 20
-174.4999999999999
 11
143.0
 21
-179.4999999999999
 72
     1
 10
143.0
 20
-179.4999999999999
 11
143.0
 21
-183.0
 72
     1
 10
143.0
 20
-183.0
 11
145.000000099723
 21
-183.0000002517046
 72
     1
 10
145.000000099723
 20
-183.0000002517046
 11
149.9999998396281
 21
-182.9999999999999
 72
     1
 10
149.9999998396281
 20
-182.9999999999999
 11
160.000000099723
 21
-183.0000002768751
 72
     1
 10
160.000000099723
 20
-183.0000002768751
 11
160.000000099723
 21
-176.9999999999999
 72
     1
 10
160.000000099723
 20
-176.9999999999999
 11
160.000000099723
 21
-170.9999999999999
 72
     1
 10
160.000000099723
 20
-170.9999999999999
 11
150.000000099723
 21
-170.9999999999997
 72
     1
 10
150.000000099723
 20
-170.9999999999997
 11
145.000000099723
 21
-170.9999999999999
 97
        0
 92
        0
 93
       11
 72
     1
 10
184.9999998297996
 20
-146.9999997231246
 11
187.0
 21
-147.0
 72
     1
 10
187.0
 20
-147.0
 11
186.9999998509149
 21
-150.4999997231246
 72
     1
 10
186.9999998509149
 20
-150.4999997231246
 11
186.9999999295226
 21
-155.4999997231246
 72
     1
 10
186.9999999295226
 20
-155.4999997231246
 11
184.9999999295226
 21
-155.4999997231246
 72
     1
 10
184.9999999295226
 20
-155.4999997231246
 11
184.9999998297997
 21
-158.9999999748294
 72
     1
 10
184.9999998297997
 20
-158.9999999748294
 11
180.0000000898945
 21
-158.9999997231246
 72
     1
 10
180.0000000898945
 20
-158.9999997231246
 11
169.9999998297997
 21
-158.9999999999998
 72
     1
 10
169.9999998297997
 20
-158.9999999999998
 11
169.9999998297997
 21
-152.9999997231246
 72
     1
 10
169.9999998297997
 20
-152.9999997231246
 11
169.9999998297997
 21
-146.9999997231247
 72
     1
 10
169.9999998297997
 20
-146.9999997231247
 11
179.9999998297996
 21
-146.9999997231245
 72
     1
 10
179.9999998297996
 20
-146.9999997231245
 11
184.9999998297996
 21
-146.9999997231246
 97
        0
 92
        0
 93
       11
 72
     1
 10
145.0000000292456
 20
-158.9999999999998
 11
144.9999996895642
 21
-162.4999999999999
 72
     1
 10
144.9999996895642
 20
-162.4999999999999
 11
143.0000000081303
 21
-162.4999999999998
 72
     1
 10
143.0000000081303
 20
-162.4999999999998
 11
142.9999999295226
 21
-167.4999999999998
 72
     1
 10
142.9999999295226
 20
-167.4999999999998
 11
144.9999999295226
 21
-167.4999999999998
 72
     1
 10
144.9999999295226
 20
-167.4999999999998
 11
145.0000000292456
 21
-171.0000002517045
 72
     1
 10
145.0000000292456
 20
-171.0000002517045
 11
149.9999997691507
 21
-170.9999999999997
 72
     1
 10
149.9999997691507
 20
-170.9999999999997
 11
160.0000000292456
 21
-171.0000002768749
 72
     1
 10
160.0000000292456
 20
-171.0000002768749
 11
160.0000000292456
 21
-164.9999999999997
 72
     1
 10
160.0000000292456
 20
-164.9999999999997
 11
160.0000000292456
 21
-158.9999999999998
 72
     1
 10
160.0000000292456
 20
-158.9999999999998
 11
150.0000000292456
 21
-158.9999999999996
 72
     1
 10
150.0000000292456
 20
-158.9999999999996
 11
145.0000000292456
 21
-158.9999999999998
 97
        0
 75
     0
 76
     1
 52
0.0
 41
1.0
 77
     0
 78
     1
 53
45.0
 43
0.0
 44
0.0
 45
-0.4999999991609842
 46
0.4999999991609843
 79
     0
 98
        0
1001
ACAD
1010
0.0
1020
0.0
1030
0.0
  0
HATCH
  5
1D10
330
1D4B
100
AcDbEntity
  8
Section
 62
   136
420
    32896
370
     5
100
AcDbHatch
 10
0.0
 20
0.0
 30
0.0
210
0.0
220
0.0
230
1.0
  2
JIS_WOOD
 70
     0
 71
     0
 91
        6
 92
        0
 93
       11
 72
     1
 10
19.99999990027703
 20
-159.0000000000001
 11
20.00000023995847
 21
-155.5
 72
     1
 10
20.00000023995847
 20
-155.5
 11
21.99999992139226
 21
-155.5000000000001
 72
     1
 10
21.99999992139226
 20
-155.5000000000001
 11
22.0
 21
-150.5000000000001
 72
     1
 10
22.0
 20
-150.5000000000001
 11
22.0
 21
-146.9999997231249
 72
     1
 10
22.0
 20
-146.9999997231249
 11
19.99999990027703
 21
-146.9999997482953
 72
     1
 10
19.99999990027703
 20
-146.9999997482953
 11
15.00000016037188
 21
-147.0000000000001
 72
     1
 10
15.00000016037188
 20
-147.0000000000001
 11
4.999999900277032
 21
-146.9999997231249
 72
     1
 10
4.999999900277032
 20
-146.9999997231249
 11
4.999999900277032
 21
-153.0000000000001
 72
     1
 10
4.999999900277032
 20
-153.0000000000001
 11
4.999999900277032
 21
-159.0000000000001
 72
     1
 10
4.999999900277032
 20
-159.0000000000001
 11
14.99999990027703
 21
-159.0000000000003
 72
     1
 10
14.99999990027703
 20
-159.0000000000003
 11
19.99999990027703
 21
-159.0000000000001
 97
        0
 92
        0
 93
       11
 72
     1
 10
19.99999990027703
 20
-171.0000000000001
 11
20.00000023995847
 21
-167.5
 72
     1
 10
20.00000023995847
 20
-167.5
 11
21.99999992139226
 21
-167.5000000000001
 72
     1
 10
21.99999992139226
 20
-167.5000000000001
 11
22.0
 21
-162.5000000000001
 72
     1
 10
22.0
 20
-162.5000000000001
 11
20.0
 21
-162.5000000000001
 72
     1
 10
20.0
 20
-162.5000000000001
 11
19.99999990027703
 21
-158.9999997482954
 72
     1
 10
19.99999990027703
 20
-158.9999997482954
 11
15.00000016037188
 21
-159.0000000000001
 72
     1
 10
15.00000016037188
 20
-159.0000000000001
 11
4.999999900277032
 21
-158.9999997231249
 72
     1
 10
4.999999900277032
 20
-158.9999997231249
 11
4.999999900277032
 21
-165.0000000000001
 72
     1
 10
4.999999900277032
 20
-165.0000000000001
 11
4.999999900277032
 21
-171.0000000000001
 72
     1
 10
4.999999900277032
 20
-171.0000000000001
 11
14.99999990027703
 21
-171.0000000000003
 72
     1
 10
14.99999990027703
 20
-171.0000000000003
 11
19.99999990027703
 21
-171.0000000000001
 97
        0
 92
        0
 93
       11
 72
     1
 10
-19.99999990027698
 20
-159.0000000000001
 11
-20.00000023995847
 21
-155.5
 72
     1
 10
-20.00000023995847
 20
-155.5
 11
-21.99999992139226
 21
-155.5000000000001
 72
     1
 10
-21.99999992139226
 20
-155.5000000000001
 11
-22.0
 21
-150.5000000000001
 72
     1
 10
-22.0
 20
-150.5000000000001
 11
-22.0
 21
-147.0
 72
     1
 10
-22.0
 20
-147.0
 11
-19.99999990027698
 21
-146.9999997482953
 72
     1
 10
-19.99999990027698
 20
-146.9999997482953
 11
-15.00000016037188
 21
-147.0000000000001
 72
     1
 10
-15.00000016037188
 20
-147.0000000000001
 11
-4.999999900277032
 21
-146.9999997231249
 72
     1
 10
-4.999999900277032
 20
-146.9999997231249
 11
-4.999999900277032
 21
-153.0000000000001
 72
     1
 10
-4.999999900277032
 20
-153.0000000000001
 11
-4.999999900277032
 21
-159.0000000000001
 72
     1
 10
-4.999999900277032
 20
-159.0000000000001
 11
-14.99999990027698
 21
-159.0000000000003
 72
     1
 10
-14.99999990027698
 20
-159.0000000000003
 11
-19.99999990027698
 21
-159.0000000000001
 97
        0
 92
        0
 93
       11
 72
     1
 10
19.9999999707544
 20
-183.0000000000002
 11
22.0
 21
-183.0
 72
     1
 10
22.0
 20
-183.0
 11
21.99999999186969
 21
-179.5000000000002
 72
     1
 10
21.99999999186969
 20
-179.5000000000002
 11
22.00000007047743
 21
-174.5000000000002
 72
     1
 10
22.00000007047743
 20
-174.5000000000002
 11
20.00000007047743
 21
-174.5000000000002
 72
     1
 10
20.00000007047743
 20
-174.5000000000002
 11
19.9999999707544
 21
-170.9999997482955
 72
     1
 10
19.9999999707544
 20
-170.9999997482955
 11
15.00000023084931
 21
-171.0000000000003
 72
     1
 10
15.00000023084931
 20
-171.0000000000003
 11
4.999999970754402
 21
-170.9999997231251
 72
     1
 10
4.999999970754402
 20
-170.9999997231251
 11
4.999999970754402
 21
-177.0000000000003
 72
     1
 10
4.999999970754402
 20
-177.0000000000003
 11
4.999999970754402
 21
-183.0000000000002
 72
     1
 10
4.999999970754402
 20
-183.0000000000002
 11
14.9999999707544
 21
-183.0000000000004
 72
     1
 10
14.9999999707544
 20
-183.0000000000004
 11
19.9999999707544
 21
-183.0000000000002
 97
        0
 92
        0
 93
       11
 72
     1
 10
-19.99999990027698
 20
-171.0000000000001
 11
-20.00000023995847
 21
-167.5
 72
     1
 10
-20.00000023995847
 20
-167.5
 11
-21.99999992139226
 21
-167.5000000000001
 72
     1
 10
-21.99999992139226
 20
-167.5000000000001
 11
-22.0
 21
-162.5000000000001
 72
     1
 10
-22.0
 20
-162.5000000000001
 11
-20.0
 21
-162.5000000000001
 72
     1
 10
-20.0
 20
-162.5000000000001
 11
-19.99999990027698
 21
-158.9999997482954
 72
     1
 10
-19.99999990027698
 20
-158.9999997482954
 11
-15.00000016037188
 21
-159.0000000000001
 72
     1
 10
-15.00000016037188
 20
-159.0000000000001
 11
-4.999999900277032
 21
-158.9999997231249
 72
     1
 10
-4.999999900277032
 20
-158.9999997231249
 11
-4.999999900277032
 21
-165.0000000000001
 72
     1
 10
-4.999999900277032
 20
-165.0000000000001
 11
-4.999999900277032
 21
-171.0000000000001
 72
     1
 10
-4.999999900277032
 20
-171.0000000000001
 11
-14.99999990027698
 21
-171.0000000000003
 72
     1
 10
-14.99999990027698
 20
-171.0000000000003
 11
-19.99999990027698
 21
-171.0000000000001
 97
        0
 92
        0
 93
       11
 72
     1
 10
-19.9999999707544
 20
-183.0000000000002
 11
-22.0
 21
-183.0
 72
     1
 10
-22.0
 20
-183.0
 11
-21.99999999186969
 21
-179.5000000000002
 72
     1
 10
-21.99999999186969
 20
-179.5000000000002
 11
-22.00000007047743
 21
-174.5000000000002
 72
     1
 10
-22.00000007047743
 20
-174.5000000000002
 11
-20.00000007047743
 21
-174.5000000000002
 72
     1
 10
-20.00000007047743
 20
-174.5000000000002
 11
-19.9999999707544
 21
-170.9999997482955
 72
     1
 10
-19.9999999707544
 20
-170.9999997482955
 11
-15.00000023084931
 21
-171.0000000000003
 72
     1
 10
-15.00000023084931
 20
-171.0000000000003
 11
-4.999999970754402
 21
-170.9999997231251
 72
     1
 10
-4.999999970754402
 20
-170.9999997231251
 11
-4.999999970754402
 21
-177.0000000000003
 72
     1
 10
-4.999999970754402
 20
-177.0000000000003
 11
-4.999999970754402
 21
-183.0000000000002
 72
     1
 10
-4.999999970754402
 20
-183.0000000000002
 11
-14.9999999707544
 21
-183.0000000000004
 72
     1
 10
-14.9999999707544
 20
-183.0000000000004
 11
-19.9999999707544
 21
-183.0000000000002
 97
        0
 75
     0
 76
     1
 52
0.0
 41
1.0
 77
     0
 78
     1
 53
45.0
 43
0.0
 44
0.0
 45
-0.4999999991609842
 46
0.4999999991609843
 79
     0
 98
        0
1001
ACAD
1010
0.0
1020
0.0
1030
0.0
  0
CIRCLE
  5
161B
330
1D4B
100
AcDbEntity
  8
Plan
370
     5
100
AcDbCircle
 10
165.0
 20
-0.0000000000000426
 30
0.0
 40
5.0
  0
CIRCLE
  5
161C
330
1D4B
100
AcDbEntity
  8
Plan
370
     5
100
AcDbCircle
 10
0.0
 20
0.0
 30
0.0
 40
5.0
  0
CIRCLE
  5
1C6D
330
1D4B
100
AcDbEntity
  8
Base
  6
Continuous
 62
     1
420
 16711680
370
     5
100
AcDbCircle
 10
0.0
 20
200.0
 30
0.0
 40
5.0
  0
LWPOLYLINE
  5
1D11
330
1D4B
100
AcDbEntity
  8
Section
 62
    96
420
    32768
370
     5
100
AcDbPolyline
 90
       10
 70
     0
 43
0.0
 10
-55.2791999373834
 20
-147.0000000000002
 10
-30.99999987750425
 20
-147.0000000000002
 10
-23.99999982327722
 20
-147.0000000000002
 10
-23.99999972818864
 20
-155.5000000000001
 10
-26.00000003701757
 20
-155.5000000000001
 10
-26.00000009972302
 20
-158.9999998715107
 10
-40.0
 20
-159.0000000000001
 10
-40.49999992952257
 20
-159.0000000000001
 10
-55.2791999373834
 20
-159.0000000000003
 10
-55.2791999373834
 20
-147.0000000000002
  0
LWPOLYLINE
  5
1D12
330
1D4B
100
AcDbEntity
  8
Section
 62
    96
420
    32768
370
     5
100
AcDbPolyline
 90
       10
 70
     0
 43
0.0
 10
55.27919993738334
 20
-147.0000000000002
 10
30.99999987750425
 20
-147.0000000000002
 10
23.99999982327716
 20
-147.0000000000002
 10
23.99999972818864
 20
-155.5000000000001
 10
26.00000003701757
 20
-155.5000000000001
 10
26.00000009972297
 20
-158.9999998715107
 10
40.0
 20
-159.0000000000001
 10
40.49999992952257
 20
-159.0000000000001
 10
55.2791999373834
 20
-159.0000000000003
 10
55.27919993738334
 20
-147.0000000000002
  0
LWPOLYLINE
  5
1D13
330
1D4B
100
AcDbEntity
  8
Section
 62
    96
420
    32768
370
     5
100
AcDbPolyline
 90
       10
 70
     0
 43
0.0
 10
220.2791999373834
 20
-147.0000000000001
 10
195.9999998775043
 20
-147.0000000000002
 10
188.9999998232772
 20
-147.0000000000002
 10
188.999999728189
 20
-155.4999999999997
 10
191.0000000751003
 20
-155.4999999999997
 10
191.000000110339
 20
-158.9999992973158
 10
204.9999993841623
 20
-159.0000000000001
 10
205.4999999295226
 20
-159.0000000000001
 10
220.2791999373834
 20
-159.0000000000003
 10
220.2791999373834
 20
-147.0000000000001
  0
LWPOLYLINE
  5
1D14
330
1D4B
100
AcDbEntity
  8
Section
 62
    96
420
    32768
370
     5
100
AcDbPolyline
 90
       10
 70
     0
 43
0.0
 10
109.7208000626166
 20
-147.0000000000003
 10
134.0000001224957
 20
-147.0000000000002
 10
141.0000001767228
 20
-147.0000000000003
 10
141.0000002718112
 20
-149.5000000000001
 10
141.0000002718112
 20
-155.5
 10
139.0000001208184
 20
-155.5
 10
138.9999994949127
 20
-158.9999999999999
 10
124.5000000704774
 20
-159.0000000000001
 10
109.7208000626166
 20
-159.0000000000003
 10
109.7208000626166
 20
-147.0000000000003
  0
HATCH
  5
1D15
330
1D4B
100
AcDbEntity
  8
Section
 62
    96
420
    32768
370
     5
100
AcDbHatch
 10
0.0
 20
0.0
 30
0.0
210
0.0
220
0.0
230
1.0
  2
JIS_WOOD
 70
     0
 71
     0
 91
        2
 92
        0
 93
        9
 72
     1
 10
220.2791999373834
 20
-147.0000000000001
 11
195.9999998775043
 21
-147.0000000000002
 72
     1
 10
195.9999998775043
 20
-147.0000000000002
 11
188.9999998232772
 21
-147.0000000000002
 72
     1
 10
188.9999998232772
 20
-147.0000000000002
 11
188.9999997281888
 21
-149.5000000000001
 72
     1
 10
188.9999997281888
 20
-149.5000000000001
 11
188.999999728189
 21
-155.4999999999997
 72
     1
 10
188.999999728189
 20
-155.4999999999997
 11
191.0000000751003
 21
-155.4999999999997
 72
     1
 10
191.0000000751003
 20
-155.4999999999997
 11
191.000000110339
 21
-158.9999992973158
 72
     1
 10
191.000000110339
 20
-158.9999992973158
 11
205.4999999295226
 21
-159.0000000000001
 72
     1
 10
205.4999999295226
 20
-159.0000000000001
 11
220.2791999373834
 21
-159.0000000000003
 72
     1
 10
220.2791999373834
 20
-159.0000000000003
 11
220.2791999373834
 21
-147.0000000000001
 97
        0
 92
        0
 93
        9
 72
     1
 10
109.7208000626166
 20
-147.0000000000003
 11
134.0000001224957
 21
-147.0000000000002
 72
     1
 10
134.0000001224957
 20
-147.0000000000002
 11
141.0000001767228
 21
-147.0000000000003
 72
     1
 10
141.0000001767228
 20
-147.0000000000003
 11
141.0000002718112
 21
-149.5000000000001
 72
     1
 10
141.0000002718112
 20
-149.5000000000001
 11
141.0000002718112
 21
-155.4999999999999
 72
     1
 10
141.0000002718112
 20
-155.4999999999999
 11
139.0000001208184
 21
-155.4999999772981
 72
     1
 10
139.0000001208184
 20
-155.4999999772981
 11
139.0000001208184
 21
-158.999999374094
 72
     1
 10
139.0000001208184
 20
-158.999999374094
 11
124.5000000704774
 21
-159.0000000000001
 72
     1
 10
124.5000000704774
 20
-159.0000000000001
 11
109.7208000626166
 21
-159.0000000000003
 72
     1
 10
109.7208000626166
 20
-159.0000000000003
 11
109.7208000626166
 21
-147.0000000000003
 97
        0
 75
     0
 76
     1
 52
180.0
 41
1.0
 77
     0
 78
     1
 53
225.0
 43
0.0
 44
0.0
 45
0.4999999991609842
 46
-0.4999999991609844
 79
     0
 98
        0
1001
ACAD
1010
0.0
1020
0.0
1030
0.0
  0
HATCH
  5
1D16
330
1D4B
100
AcDbEntity
  8
Stepper
370
     5
100
AcDbHatch
 10
0.0
 20
0.0
 30
0.0
210
0.0
220
0.0
230
1.0
  2
JIS_WOOD
 70
     0
 71
     0
 91
        3
 92
        0
 93
        4
 72
     1
 10
84.78765121020672
 20
-132.0
 11
106.7876512102067
 21
-132.0
 72
     1
 10
106.7876512102067
 20
-132.0
 11
106.7876512102067
 21
-134.0
 72
     1
 10
106.7876512102067
 20
-134.0
 11
84.78765121020672
 21
-134.0
 72
     1
 10
84.78765121020672
 20
-134.0
 11
84.78765121020672
 21
-132.0
 97
        0
 92
        0
 93
        4
 72
     1
 10
93.28765121020672
 20
-134.0
 11
98.28765121020672
 21
-134.0
 72
     1
 10
98.28765121020672
 20
-134.0
 11
98.28765121020672
 21
-158.0
 72
     1
 10
98.28765121020672
 20
-158.0
 11
93.28765121020672
 21
-158.0
 72
     1
 10
93.28765121020672
 20
-158.0
 11
93.28765121020672
 21
-134.0
 97
        0
 92
        0
 93
        4
 72
     1
 10
75.28765121020672
 20
-132.0
 11
116.2876512102067
 21
-132.0000000000001
 72
     1
 10
116.2876512102067
 20
-132.0000000000001
 11
116.2876512102066
 21
-85.0
 72
     1
 10
116.2876512102066
 20
-85.0
 11
75.28765121020672
 21
-85.0
 72
     1
 10
75.28765121020672
 20
-85.0
 11
75.28765121020672
 21
-132.0
 97
        0
 75
     0
 76
     1
 52
0.0
 41
1.0
 77
     0
 78
     1
 53
45.0
 43
0.0
 44
0.0
 45
-0.4999999991609842
 46
0.4999999991609843
 79
     0
 98
        0
1001
ACAD
1010
0.0
1020
0.0
1030
0.0
  0
HATCH
  5
1D17
330
1D4B
100
AcDbEntity
  8
Stepper
370
     5
100
AcDbHatch
 10
0.0
 20
0.0
 30
0.0
210
0.0
220
0.0
230
1.0
  2
JIS_WOOD
 70
     0
 71
     0
 91
        1
 92
        0
 93
       10
 72
     1
 10
84.78765121020672
 20
-160.0
 11
95.78765121020672
 21
-160.0000000000001
 72
     1
 10
95.78765121020672
 20
-160.0000000000001
 11
106.7876512102067
 21
-160.0
 72
     1
 10
106.7876512102067
 20
-160.0
 11
106.7876512102067
 21
-146.0
 72
     1
 10
106.7876512102067
 20
-146.0
 11
102.2876512102067
 21
-146.0
 72
     1
 10
102.2876512102067
 20
-146.0
 11
102.2876512102067
 21
-139.0
 72
     1
 10
102.2876512102067
 20
-139.0
 11
95.78765121020672
 21
-139.0
 72
     1
 10
95.78765121020672
 20
-139.0
 11
89.28765121020672
 21
-139.0
 72
     1
 10
89.28765121020672
 20
-139.0
 11
89.28765121020672
 21
-146.0
 72
     1
 10
89.28765121020672
 20
-146.0
 11
84.78765121020672
 21
-146.0
 72
     1
 10
84.78765121020672
 20
-146.0
 11
84.78765121020672
 21
-160.0
 97
        0
 75
     0
 76
     1
 52
0.0
 41
1.0
 77
     0
 78
     1
 53
45.0
 43
0.0
 44
0.0
 45
-0.4999999991609842
 46
0.4999999991609843
 79
     0
 98
        0
1001
ACAD
1010
0.0
1020
0.0
1030
0.0
  0
HATCH
  5
1D18
330
1D4B
100
AcDbEntity
  8
Section
370
     5
100
AcDbHatch
 10
0.0
 20
0.0
 30
0.0
210
0.0
220
0.0
230
1.0
  2
JIS_WOOD
 70
     0
 71
     0
 91
        3
 92
        0
 93
        8
 72
     1
 10
191.0000007030953
 20
-174.5
 11
190.9999991156774
 21
-171.0000002517047
 72
     1
 10
190.9999991156774
 20
-171.0000002517047
 11
320.0
 21
-171.0000000000001
 72
     1
 10
320.0
 20
-171.0000000000001
 11
320.0
 21
-183.0000000000001
 72
     1
 10
320.0
 20
-183.0000000000001
 11
190.999999095541
 21
-183.0000002517046
 72
     1
 10
190.999999095541
 20
-183.0000002517046
 11
189.0
 21
-183.0
 72
     1
 10
189.0
 20
-183.0
 11
188.9999999999999
 21
-179.4999999999999
 72
     1
 10
188.9999999999999
 20
-179.4999999999999
 11
188.9999999999999
 21
-174.4999999999997
 72
     1
 10
188.9999999999999
 20
-174.4999999999997
 11
191.0000007030953
 21
-174.5
 97
        0
 92
        0
 93
        4
 72
     1
 10
360.0
 20
-171.0000000000001
 11
340.0
 21
-171.0000000000001
 72
     1
 10
340.0
 20
-171.0000000000001
 11
340.0
 21
-183.0000000000001
 72
     1
 10
340.0
 20
-183.0000000000001
 11
360.0
 21
-183.0
 72
     1
 10
360.0
 20
-183.0
 11
360.0
 21
-171.0000000000001
 97
        0
 92
        0
 93
        8
 72
     1
 10
105.000000588989
 20
-171.0
 11
138.999999900277
 21
-171.0000002517047
 72
     1
 10
138.999999900277
 20
-171.0000002517047
 11
139.0000002399584
 21
-174.4999999999998
 72
     1
 10
139.0000002399584
 20
-174.4999999999998
 11
140.9999999213923
 21
-174.4999999999998
 72
     1
 10
140.9999999213923
 20
-174.4999999999998
 11
141.0000003140963
 21
-179.4999999999999
 72
     1
 10
141.0000003140963
 20
-179.4999999999999
 11
141.0
 21
-183.0
 72
     1
 10
141.0
 20
-183.0
 11
138.999999900277
 21
-182.9999995342263
 72
     1
 10
138.999999900277
 20
-182.9999995342263
 11
105.000000588989
 21
-183.0
 72
     1
 10
105.000000588989
 20
-183.0
 11
105.000000588989
 21
-171.0
 97
        0
 75
     0
 76
     1
 52
0.0
 41
1.0
 77
     0
 78
     1
 53
45.0
 43
0.0
 44
0.0
 45
-0.4999999991609842
 46
0.4999999991609843
 79
     0
 98
        0
1001
ACAD
1010
0.0
1020
0.0
1030
0.0
  0
HATCH
  5
1D19
330
1D4B
100
AcDbEntity
  8
Section
 62
    56
420
  8421376
370
     5
100
AcDbHatch
 10
0.0
 20
0.0
 30
0.0
210
0.0
220
0.0
230
1.0
  2
JIS_WOOD
 70
     0
 71
     0
 91
        2
 92
        0
 93
       11
 72
     1
 10
138.999999900277
 20
-158.9999999999999
 11
139.0000002399584
 21
-162.5
 72
     1
 10
139.0000002399584
 20
-162.5
 11
140.9999999213923
 21
-162.4999999999999
 72
     1
 10
140.9999999213923
 20
-162.4999999999999
 11
141.0
 21
-167.4999999999999
 72
     1
 10
141.0
 20
-167.4999999999999
 11
139.0
 21
-167.4999999999999
 72
     1
 10
139.0
 20
-167.4999999999999
 11
138.999999900277
 21
-171.0000002517047
 72
     1
 10
138.999999900277
 20
-171.0000002517047
 11
134.0000001603719
 21
-170.9999999999999
 72
     1
 10
134.0000001603719
 20
-170.9999999999999
 11
125.0
 21
-170.9999999999999
 72
     1
 10
125.0
 20
-170.9999999999999
 11
125.0
 21
-165.0
 72
     1
 10
125.0
 20
-165.0
 11
125.0
 21
-159.0
 72
     1
 10
125.0
 20
-159.0
 11
133.999999900277
 21
-158.9999999999997
 72
     1
 10
133.999999900277
 20
-158.9999999999997
 11
138.999999900277
 21
-158.9999999999999
 97
        0
 92
        0
 93
       11
 72
     1
 10
191.000000099723
 20
-158.9999999999999
 11
190.9999997600416
 21
-162.5
 72
     1
 10
190.9999997600416
 20
-162.5
 11
189.0000000786077
 21
-162.4999999999999
 72
     1
 10
189.0000000786077
 20
-162.4999999999999
 11
189.0
 21
-167.4999999999999
 72
     1
 10
189.0
 20
-167.4999999999999
 11
191.0
 21
-167.4999999999999
 72
     1
 10
191.0
 20
-167.4999999999999
 11
191.000000099723
 21
-171.0000002517047
 72
     1
 10
191.000000099723
 20
-171.0000002517047
 11
195.9999998396281
 21
-170.9999999999999
 72
     1
 10
195.9999998396281
 20
-170.9999999999999
 11
205.0
 21
-170.9999999999999
 72
     1
 10
205.0
 20
-170.9999999999999
 11
205.0
 21
-165.0
 72
     1
 10
205.0
 20
-165.0
 11
205.0
 21
-159.0000000000001
 72
     1
 10
205.0
 20
-159.0000000000001
 11
196.000000099723
 21
-158.9999999999997
 72
     1
 10
196.000000099723
 20
-158.9999999999997
 11
191.000000099723
 21
-158.9999999999999
 97
        0
 75
     0
 76
     1
 52
0.0
 41
1.0
 77
     0
 78
     1
 53
45.0
 43
0.0
 44
0.0
 45
-0.4999999991609842
 46
0.4999999991609843
 79
     0
 98
        0
1001
ACAD
1010
0.0
1020
0.0
1030
0.0
  0
LWPOLYLINE
  5
1D1A
330
1D4B
100
AcDbEntity
  8
Section
370
     5
100
AcDbPolyline
 90
        4
 70
   129
 43
0.0
 10
-60.0
 20
-183.0
 10
-40.0
 20
-183.0
 10
-40.0
 20
-195.0
 10
-60.0
 20
-195.0
  0
LWPOLYLINE
  5
1D1B
330
1D4B
100
AcDbEntity
  8
Section
370
     5
100
AcDbPolyline
 90
        4
 70
   129
 43
0.0
 10
-60.0
 20
-195.0
 10
-40.00000028526563
 20
-195.0
 10
-40.00000028526563
 20
-207.0000000000002
 10
-60.0
 20
-207.0000000000002
  0
LWPOLYLINE
  5
1D1C
330
1D4B
100
AcDbEntity
  8
Section
370
     5
100
AcDbPolyline
 90
        4
 70
   129
 43
0.0
 10
60.0
 20
-183.0
 10
40.0
 20
-183.0
 10
40.0
 20
-195.0
 10
60.0
 20
-195.0
  0
LWPOLYLINE
  5
1D1D
330
1D4B
100
AcDbEntity
  8
Section
370
     5
100
AcDbPolyline
 90
        4
 70
   129
 43
0.0
 10
40.0
 20
-195.0
 10
59.99999954693152
 20
-195.0
 10
59.99999954693152
 20
-207.0
 10
40.0
 20
-207.0
  0
HATCH
  5
1D1E
330
1D4B
100
AcDbEntity
  8
Section
370
     5
100
AcDbHatch
 10
0.0
 20
0.0
 30
0.0
210
0.0
220
0.0
230
1.0
  2
JIS_WOOD
 70
     0
 71
     0
 91
        4
 92
        0
 93
        4
 72
     1
 10
-60.0
 20
-195.0
 11
-40.00000028526563
 21
-195.0
 72
     1
 10
-40.00000028526563
 20
-195.0
 11
-40.00000028526563
 21
-207.0000000000002
 72
     1
 10
-40.00000028526563
 20
-207.0000000000002
 11
-60.0
 21
-207.0000000000002
 72
     1
 10
-60.0
 20
-207.0000000000002
 11
-60.0
 21
-195.0
 97
        0
 92
        0
 93
        4
 72
     1
 10
-60.0
 20
-183.0
 11
-40.0
 21
-183.0
 72
     1
 10
-40.0
 20
-183.0
 11
-40.0
 21
-195.0
 72
     1
 10
-40.0
 20
-195.0
 11
-60.0
 21
-195.0
 72
     1
 10
-60.0
 20
-195.0
 11
-60.0
 21
-183.0
 97
        0
 92
        0
 93
        4
 72
     1
 10
40.0
 20
-195.0
 11
59.99999954693152
 21
-195.0
 72
     1
 10
59.99999954693152
 20
-195.0
 11
59.99999954693152
 21
-207.0
 72
     1
 10
59.99999954693152
 20
-207.0
 11
40.0
 21
-207.0
 72
     1
 10
40.0
 20
-207.0
 11
40.0
 21
-195.0
 97
        0
 92
        0
 93
        4
 72
     1
 10
60.0
 20
-183.0
 11
40.0
 21
-183.0
 72
     1
 10
40.0
 20
-183.0
 11
40.0
 21
-195.0
 72
     1
 10
40.0
 20
-195.0
 11
60.0
 21
-195.0
 72
     1
 10
60.0
 20
-195.0
 11
60.0
 21
-183.0
 97
        0
 75
     0
 76
     1
 52
0.0
 41
1.0
 77
     0
 78
     1
 53
45.0
 43
0.0
 44
0.0
 45
-0.4999999991609842
 46
0.4999999991609843
 79
     0
 98
        0
1001
ACAD
1010
0.0
1020
0.0
1030
0.0
  0
HATCH
  5
1D1F
330
1D4B
100
AcDbEntity
  8
Section
 62
    56
420
  8421376
370
     5
100
AcDbHatch
 10
0.0
 20
0.0
 30
0.0
210
0.0
220
0.0
230
1.0
  2
JIS_WOOD
 70
     0
 71
     0
 91
        4
 92
        0
 93
       11
 72
     1
 10
26.00000009972297
 20
-171.0000000000001
 11
25.99999976004153
 21
-167.5
 72
     1
 10
25.99999976004153
 20
-167.5
 11
24.00000007860774
 21
-167.5000000000001
 72
     1
 10
24.00000007860774
 20
-167.5000000000001
 11
24.0
 21
-162.5000000000001
 72
     1
 10
24.0
 20
-162.5000000000001
 11
26.0
 21
-162.5000000000001
 72
     1
 10
26.0
 20
-162.5000000000001
 11
26.00000009972297
 21
-158.9999997482954
 72
     1
 10
26.00000009972297
 20
-158.9999997482954
 11
30.99999983962812
 21
-159.0000000000001
 72
     1
 10
30.99999983962812
 20
-159.0000000000001
 11
40.0
 21
-159.0000000000001
 72
     1
 10
40.0
 20
-159.0000000000001
 11
40.0
 21
-165.0000000000001
 72
     1
 10
40.0
 20
-165.0000000000001
 11
40.0
 21
-171.0000000000001
 72
     1
 10
40.0
 20
-171.0000000000001
 11
31.00000009972297
 21
-171.0000000000003
 72
     1
 10
31.00000009972297
 20
-171.0000000000003
 11
26.00000009972297
 21
-171.0000000000001
 97
        0
 92
        0
 93
       11
 72
     1
 10
26.00000009972297
 20
-183.0
 11
24.0
 21
-183.0
 72
     1
 10
24.0
 20
-183.0
 11
24.00000007860774
 21
-179.5
 72
     1
 10
24.00000007860774
 20
-179.5
 11
24.0
 21
-174.5
 72
     1
 10
24.0
 20
-174.5
 11
26.0
 21
-174.5
 72
     1
 10
26.0
 20
-174.5
 11
26.00000009972297
 21
-170.9999997482953
 72
     1
 10
26.00000009972297
 20
-170.9999997482953
 11
30.99999983962812
 21
-171.0000000000001
 72
     1
 10
30.99999983962812
 20
-171.0000000000001
 11
60.0
 21
-171.0
 72
     1
 10
60.0
 20
-171.0
 11
60.0
 21
-177.0
 72
     1
 10
60.0
 20
-177.0
 11
60.0
 21
-183.0
 72
     1
 10
60.0
 20
-183.0
 11
31.00000009972297
 21
-183.0000000000002
 72
     1
 10
31.00000009972297
 20
-183.0000000000002
 11
26.00000009972297
 21
-183.0
 97
        0
 92
        0
 93
       11
 72
     1
 10
-26.00000009972302
 20
-183.0
 11
-24.0
 21
-183.0
 72
     1
 10
-24.0
 20
-183.0
 11
-24.00000007860774
 21
-179.5
 72
     1
 10
-24.00000007860774
 20
-179.5
 11
-24.0
 21
-174.5
 72
     1
 10
-24.0
 20
-174.5
 11
-26.0
 21
-174.5
 72
     1
 10
-26.0
 20
-174.5
 11
-26.00000009972302
 21
-170.9999997482953
 72
     1
 10
-26.00000009972302
 20
-170.9999997482953
 11
-30.99999983962812
 21
-171.0000000000001
 72
     1
 10
-30.99999983962812
 20
-171.0000000000001
 11
-60.0
 21
-171.0
 72
     1
 10
-60.0
 20
-171.0
 11
-60.0
 21
-177.0
 72
     1
 10
-60.0
 20
-177.0
 11
-60.0
 21
-183.0
 72
     1
 10
-60.0
 20
-183.0
 11
-31.00000009972302
 21
-183.0000000000002
 72
     1
 10
-31.00000009972302
 20
-183.0000000000002
 11
-26.00000009972302
 21
-183.0
 97
        0
 92
        0
 93
       11
 72
     1
 10
-26.00000009972302
 20
-171.0000000000001
 11
-25.99999976004153
 21
-167.5
 72
     1
 10
-25.99999976004153
 20
-167.5
 11
-24.00000007860774
 21
-167.5000000000001
 72
     1
 10
-24.00000007860774
 20
-167.5000000000001
 11
-24.0
 21
-162.5000000000001
 72
     1
 10
-24.0
 20
-162.5000000000001
 11
-26.0
 21
-162.5000000000001
 72
     1
 10
-26.0
 20
-162.5000000000001
 11
-26.00000009972302
 21
-158.9999997482954
 72
     1
 10
-26.00000009972302
 20
-158.9999997482954
 11
-30.99999983962812
 21
-159.0000000000001
 72
     1
 10
-30.99999983962812
 20
-159.0000000000001
 11
-40.0
 21
-159.0000000000001
 72
     1
 10
-40.0
 20
-159.0000000000001
 11
-40.0
 21
-165.0000000000001
 72
     1
 10
-40.0
 20
-165.0000000000001
 11
-40.0
 21
-171.0000000000001
 72
     1
 10
-40.0
 20
-171.0000000000001
 11
-31.00000009972302
 21
-171.0000000000003
 72
     1
 10
-31.00000009972302
 20
-171.0000000000003
 11
-26.00000009972302
 21
-171.0000000000001
 97
        0
 75
     0
 76
     1
 52
0.0
 41
1.0
 77
     0
 78
     1
 53
45.0
 43
0.0
 44
0.0
 45
-0.4999999991609842
 46
0.4999999991609843
 79
     0
 98
        0
1001
ACAD
1010
0.0
1020
0.0
1030
0.0
  0
HATCH
  5
1D20
330
1D4B
100
AcDbEntity
  8
Section
370
     5
100
AcDbHatch
 10
0.0
 20
0.0
 30
0.0
210
0.0
220
0.0
230
1.0
  2
JIS_WOOD
 70
     0
 71
     0
 91
        1
 92
        0
 93
        4
 72
     1
 10
-60.00000027184103
 20
-222.0
 11
-5.0
 21
-222.0
 72
     1
 10
-5.0
 20
-222.0
 11
-5.0
 21
-210.0
 72
     1
 10
-5.0
 20
-210.0
 11
-60.00000025170516
 21
-210.0000000000005
 72
     1
 10
-60.00000025170516
 20
-210.0000000000005
 11
-60.00000027184103
 21
-222.0
 97
        0
 75
     0
 76
     1
 52
0.0
 41
1.0
 77
     0
 78
     1
 53
45.0
 43
0.0
 44
0.0
 45
-0.4999999991609842
 46
0.4999999991609843
 79
     0
 98
        0
1001
ACAD
1010
0.0
1020
0.0
1030
0.0
  0
HATCH
  5
1D21
330
1D4B
100
AcDbEntity
  8
Section
370
     5
100
AcDbHatch
 10
0.0
 20
0.0
 30
0.0
210
0.0
220
0.0
230
1.0
  2
JIS_WOOD
 70
     0
 71
     0
 91
        1
 92
        0
 93
        4
 72
     1
 10
339.999998889143
 20
-222.0
 11
339.9999989092793
 21
-210.0
 72
     1
 10
339.9999989092793
 20
-210.0
 11
5.0
 21
-210.0
 72
     1
 10
5.0
 20
-210.0
 11
5.0
 21
-222.0
 72
     1
 10
5.0
 20
-222.0
 11
339.999998889143
 21
-222.0
 97
        0
 75
     0
 76
     1
 52
0.0
 41
1.0
 77
     0
 78
     1
 53
45.0
 43
0.0
 44
0.0
 45
-0.4999999991609842
 46
0.4999999991609843
 79
     0
 98
        0
1001
ACAD
1010
0.0
1020
0.0
1030
0.0
  0
LINE
  5
18C8
330
1D4B
100
AcDbEntity
  8
Stepper
370
     5
100
AcDbLine
 10
70.21234878979328
 20
-40.69848480983498
 30
0.0
 11
68.7123487897933
 21
-40.69848480983502
 31
0.0
  0
LINE
  5
1928
330
1D4B
100
AcDbEntity
  8
Stepper
370
     5
100
AcDbLine
 10
94.78765121020672
 20
40.69848480983494
 30
0.0
 11
96.28765121020672
 21
40.69848480983498
 31
0.0
  0
LINE
  5
18C9
330
1D4B
100
AcDbEntity
  8
Stepper
370
     5
100
AcDbLine
 10
70.2123487897933
 20
-18.69848480983504
 30
0.0
 11
68.71234878979328
 21
-18.69848480983505
 31
0.0
  0
LINE
  5
1929
330
1D4B
100
AcDbEntity
  8
Stepper
370
     5
100
AcDbLine
 10
94.78765121020672
 20
18.69848480983499
 30
0.0
 11
96.28765121020672
 21
18.698484809835
 31
0.0
  0
ARC
  5
18CA
330
1D4B
100
AcDbEntity
  8
Stepper
370
     5
100
AcDbCircle
 10
70.21234878979328
 20
-29.69848480983497
 30
0.0
 40
11.0
100
AcDbArc
 50
270.0
 51
89.99999999999999
  0
ARC
  5
192A
330
1D4B
100
AcDbEntity
  8
Stepper
370
     5
100
AcDbCircle
 10
94.78765121020672
 20
29.69848480983495
 30
0.0
 40
11.0
100
AcDbArc
 50
90.00000000000001
 51
270.0
  0
ARC
  5
18CB
330
1D4B
100
AcDbEntity
  8
Stepper
370
     5
100
AcDbCircle
 10
68.7123487897933
 20
-29.69848480983498
 30
0.0
 40
11.0
100
AcDbArc
 50
89.99999999999999
 51
270.0
1001
QCAD
1000
reversed:1
  0
ARC
  5
192B
330
1D4B
100
AcDbEntity
  8
Stepper
370
     5
100
AcDbCircle
 10
96.28765121020672
 20
29.69848480983495
 30
0.0
 40
11.0
100
AcDbArc
 50
270.0
 51
90.00000000000001
1001
QCAD
1000
reversed:1
  0
TEXT
  5
192C
330
1D4B
100
AcDbEntity
  8
Stepper
 62
     5
420
      255
370
     5
100
AcDbText
 10
80.57746689286353
 20
-3.260662547431053
 30
0.0
 40
2.0
  1
-0.5
  7
textstyle11
 11
80.57746689286353
 21
-2.260662547431053
 31
0.0
100
AcDbText
 73
     2
  0
TEXT
  5
1932
330
1D4B
100
AcDbEntity
  8
Stepper
 62
     5
420
      255
370
     5
100
AcDbText
 10
107.1527693132768
 20
56.13630707223886
 30
0.0
 40
2.0
  1
-0.5
  7
textstyle12
 11
107.1527693132768
 21
57.13630707223886
 31
0.0
100
AcDbText
 73
     2
  0
TEXT
  5
192D
330
1D4B
100
AcDbEntity
  8
Stepper
 62
     5
420
      255
370
     5
100
AcDbText
 10
90.21234878979331
 20
-9.698484809834993
 30
0.0
 40
2.0
  1
+0.0
  7
textstyle13
 11
90.21234878979331
 21
-8.698484809834993
 31
0.0
100
AcDbText
 73
     2
  0
TEXT
  5
1933
330
1D4B
100
AcDbEntity
  8
Stepper
 62
     5
420
      255
370
     5
100
AcDbText
 10
116.7876512102067
 20
49.69848480983498
 30
0.0
 40
2.0
  1
+0.0
  7
textstyle14
 11
116.7876512102067
 21
50.69848480983498
 31
0.0
100
AcDbText
 73
     2
  0
TEXT
  5
192E
330
1D4B
100
AcDbEntity
  8
Stepper
 62
     5
420
      255
370
     5
100
AcDbText
 10
96.65017105219721
 20
-19.33336670676483
 30
0.0
 40
2.0
  1
+0.5
  7
textstyle15
 11
96.65017105219721
 21
-18.33336670676483
 31
0.0
100
AcDbText
 73
     2
  0
TEXT
  5
1934
330
1D4B
100
AcDbEntity
  8
Stepper
 62
     5
420
      255
370
     5
100
AcDbText
 10
123.2254734726106
 20
40.06360291290513
 30
0.0
 40
2.0
  1
+0.5
  7
textstyle16
 11
123.2254734726106
 21
41.06360291290513
 31
0.0
100
AcDbText
 73
     2
  0
TEXT
  5
192F
330
1D4B
100
AcDbEntity
  8
Stepper
 62
     5
420
      255
370
     5
100
AcDbText
 10
98.91083359962835
 20
-30.69848480983494
 30
0.0
 40
2.0
  1
+1.0
  7
textstyle17
 11
98.91083359962835
 21
-29.69848480983494
 31
0.0
100
AcDbText
 73
     2
  0
TEXT
  5
1935
330
1D4B
100
AcDbEntity
  8
Stepper
 62
     5
420
      255
370
     5
100
AcDbText
 10
125.4861360200417
 20
28.69848480983496
 30
0.0
 40
2.0
  1
+1.0
  7
textstyle18
 11
125.4861360200417
 21
29.69848480983496
 31
0.0
100
AcDbText
 73
     2
  0
CIRCLE
  5
1930
330
1D4B
100
AcDbEntity
  8
Stepper
370
     5
100
AcDbCircle
 10
69.21234878979328
 20
-29.69848480983499
 30
0.0
 40
21.92030999999988
  0
CIRCLE
  5
1931
330
1D4B
100
AcDbEntity
  8
Stepper
370
     5
100
AcDbCircle
 10
95.78765121020672
 20
29.69848480983495
 30
0.0
 40
21.92030999999977
  0
POINT
  5
1936
330
1D4B
100
AcDbEntity
  8
Stepper
370
     5
100
AcDbPoint
 10
95.78765121020672
 20
29.69848480983495
 30
0.0
  0
POINT
  5
1937
330
1D4B
100
AcDbEntity
  8
Stepper
370
     5
100
AcDbPoint
 10
69.21234878979328
 20
-29.69848480983499
 30
0.0
  0
POINT
  5
1938
330
1D4B
100
AcDbEntity
  8
Plan
370
     5
100
AcDbPoint
 10
0.0
 20
0.0
 30
0.0
  0
POINT
  5
1939
330
1D4B
100
AcDbEntity
  8
Plan
370
     5
100
AcDbPoint
 10
165.0
 20
-0.0000000000000426
 30
0.0
  0
POINT
  5
193A
330
1D4B
100
AcDbEntity
  8
Plan
370
     5
100
AcDbPoint
 10
69.21234878979328
 20
-29.69848480983499
 30
0.0
  0
POINT
  5
193B
330
1D4B
100
AcDbEntity
  8
Plan
370
     5
100
AcDbPoint
 10
95.78765121020672
 20
29.69848480983495
 30
0.0
  0
HATCH
  5
1D22
330
1D4B
100
AcDbEntity
  8
Section
370
     5
100
AcDbHatch
 10
0.0
 20
0.0
 30
0.0
210
0.0
220
0.0
230
1.0
  2
JIS_WOOD
 70
     0
 71
     0
 91
        4
 92
        0
 93
        4
 72
     1
 10
225.0
 20
-143.9999999999995
 11
170.0
 21
-143.9999999999999
 72
     1
 10
170.0
 20
-143.9999999999999
 11
170.0
 21
-132.0000000000002
 72
     1
 10
170.0
 20
-132.0000000000002
 11
225.0
 21
-132.0000000000004
 72
     1
 10
225.0
 20
-132.0000000000004
 11
225.0
 21
-143.9999999999995
 97
        0
 92
        0
 93
        4
 72
     1
 10
84.472651592798
 20
-132.0000000000001
 11
5.0
 21
-131.9999999999998
 72
     1
 10
5.0
 20
-131.9999999999998
 11
5.0
 21
-143.9999999999998
 72
     1
 10
5.0
 20
-143.9999999999998
 11
84.78765121020672
 21
-144.0
 72
     1
 10
84.78765121020672
 20
-144.0
 11
84.472651592798
 21
-132.0000000000001
 97
        0
 92
        0
 93
        4
 72
     1
 10
-5.0
 20
-143.9999999999999
 11
-60.0
 21
-144.0
 72
     1
 10
-60.0
 20
-144.0
 11
-60.0
 21
-132.0
 72
     1
 10
-60.0
 20
-132.0
 11
-5.0
 21
-132.0
 72
     1
 10
-5.0
 20
-132.0
 11
-5.0
 21
-143.9999999999999
 97
        0
 92
        0
 93
        4
 72
     1
 10
160.0
 20
-144.0000000000001
 11
106.7876512102067
 21
-144.0
 72
     1
 10
106.7876512102067
 20
-144.0
 11
106.7876512102067
 21
-132.0
 72
     1
 10
106.7876512102067
 20
-132.0
 11
160.0
 21
-132.0
 72
     1
 10
160.0
 20
-132.0
 11
160.0
 21
-144.0000000000001
 97
        0
 75
     0
 76
     1
 52
0.0
 41
1.0
 77
     0
 78
     1
 53
45.0
 43
0.0
 44
0.0
 45
-0.4999999991609842
 46
0.4999999991609843
 79
     0
 98
        0
1001
ACAD
1010
0.0
1020
0.0
1030
0.0
  0
CIRCLE
  5
1AD7
330
1D4B
100
AcDbEntity
  8
Plan
370
     5
100
AcDbCircle
 10
0.0
 20
0.0
 30
0.0
 40
60.0
  0
CIRCLE
  5
1C6E
330
1D4B
100
AcDbEntity
  8
Base
  6
Continuous
 62
     5
420
      255
370
     5
100
AcDbCircle
 10
0.0
 20
200.0
 30
0.0
 40
60.0
  0
LWPOLYLINE
  5
1D23
330
1D4B
100
AcDbEntity
  8
Section
 62
     4
420
    65535
370
     5
100
AcDbPolyline
 90
        4
 70
   129
 43
0.0
 10
4.999999900277032
 20
-146.9999997231249
 10
22.0
 20
-146.9999997231249
 10
22.0
 20
-144.0
 10
4.999999900277032
 20
-144.0
  0
LWPOLYLINE
  5
1D24
330
1D4B
100
AcDbEntity
  8
Section
 62
     4
420
    65535
370
     5
100
AcDbPolyline
 90
        4
 70
   129
 43
0.0
 10
-22.0
 20
-147.0
 10
-5.0
 20
-147.0
 10
-5.0
 20
-144.0
 10
-22.0
 20
-144.0
  0
LWPOLYLINE
  5
1D25
330
1D4B
100
AcDbEntity
  8
Section
 62
   136
420
    32896
370
     5
100
AcDbPolyline
 90
        4
 70
   129
 43
0.0
 10
143.0
 20
-147.0
 10
160.0
 20
-147.0
 10
160.0
 20
-144.0
 10
143.0
 20
-144.0
  0
LWPOLYLINE
  5
1D26
330
1D4B
100
AcDbEntity
  8
Section
 62
   136
420
    32896
370
     5
100
AcDbPolyline
 90
        4
 70
   129
 43
0.0
 10
169.9999998297997
 20
-146.9999997231247
 10
187.0
 20
-146.9999997231247
 10
187.0
 20
-144.0
 10
169.9999998297997
 20
-144.0
  0
HATCH
  5
1D27
330
1D4B
100
AcDbEntity
  8
Section
 62
    96
420
    32768
370
     5
100
AcDbHatch
 10
0.0
 20
0.0
 30
0.0
210
0.0
220
0.0
230
1.0
  2
JIS_WOOD
 70
     0
 71
     0
 91
        2
 92
        0
 93
        9
 72
     1
 10
-55.2791999373834
 20
-147.0000000000002
 11
-30.99999987750425
 21
-147.0000000000002
 72
     1
 10
-30.99999987750425
 20
-147.0000000000002
 11
-23.99999982327722
 21
-147.0000000000002
 72
     1
 10
-23.99999982327722
 20
-147.0000000000002
 11
-23.99999972818864
 21
-155.5000000000001
 72
     1
 10
-23.99999972818864
 20
-155.5000000000001
 11
-26.00000003701757
 21
-155.5000000000001
 72
     1
 10
-26.00000003701757
 20
-155.5000000000001
 11
-26.00000009972302
 21
-158.9999998715107
 72
     1
 10
-26.00000009972302
 20
-158.9999998715107
 11
-40.0
 21
-159.0000000000001
 72
     1
 10
-40.0
 20
-159.0000000000001
 11
-40.49999992952257
 21
-159.0000000000001
 72
     1
 10
-40.49999992952257
 20
-159.0000000000001
 11
-55.2791999373834
 21
-159.0000000000003
 72
     1
 10
-55.2791999373834
 20
-159.0000000000003
 11
-55.2791999373834
 21
-147.0000000000002
 97
        0
 92
        0
 93
        9
 72
     1
 10
55.27919993738334
 20
-147.0000000000002
 11
30.99999987750425
 21
-147.0000000000002
 72
     1
 10
30.99999987750425
 20
-147.0000000000002
 11
23.99999982327716
 21
-147.0000000000002
 72
     1
 10
23.99999982327716
 20
-147.0000000000002
 11
23.99999972818864
 21
-155.5000000000001
 72
     1
 10
23.99999972818864
 20
-155.5000000000001
 11
26.00000003701757
 21
-155.5000000000001
 72
     1
 10
26.00000003701757
 20
-155.5000000000001
 11
26.00000009972297
 21
-158.9999998715107
 72
     1
 10
26.00000009972297
 20
-158.9999998715107
 11
40.0
 21
-159.0000000000001
 72
     1
 10
40.0
 20
-159.0000000000001
 11
40.49999992952257
 21
-159.0000000000001
 72
     1
 10
40.49999992952257
 20
-159.0000000000001
 11
55.2791999373834
 21
-159.0000000000003
 72
     1
 10
55.2791999373834
 20
-159.0000000000003
 11
55.27919993738334
 21
-147.0000000000002
 97
        0
 75
     0
 76
     1
 52
0.0
 41
1.0
 77
     0
 78
     1
 53
45.0
 43
0.0
 44
0.0
 45
-0.4999999991609842
 46
0.4999999991609843
 79
     0
 98
        0
1001
ACAD
1010
0.0
1020
0.0
1030
0.0
  0
LWPOLYLINE
  5
1C6F
330
1D4B
100
AcDbEntity
  8
Base
 62
     5
420
      255
370
     5
100
AcDbPolyline
 90
        5
 70
     0
 43
0.0
 10
77.96131661162781
 20
520.6587486911617
 10
199.3100326513947
 20
399.3100326513946
 10
79.80898663086805
 20
279.8089866308681
 10
-41.53972940889889
 20
401.1577026706351
 10
77.96131661162781
 20
520.6587486911616
  0
LWPOLYLINE
  5
1C70
330
1D4B
100
AcDbEntity
  8
Base
 62
     5
420
      255
370
     5
100
AcDbPolyline
 90
        5
 70
     0
 43
0.0
 10
199.3100326513947
 20
399.3100326513946
 10
320.6587486911617
 20
277.9613166116276
 10
201.157702670635
 20
158.4602705911012
 10
79.80898663086805
 20
279.8089866308681
 10
199.3100326513947
 20
399.3100326513947
  0
LWPOLYLINE
  5
1C71
330
1D4B
100
AcDbEntity
  8
Base
 62
     1
420
 16711680
370
     5
100
AcDbPolyline
 90
        4
 70
   129
 43
0.0
 10
-60.0
 20
140.0
 10
340.0
 20
140.0
 10
340.0
 20
540.0
 10
-60.0
 20
540.0
  0
CIRCLE
  5
1BC9
330
1D4B
100
AcDbEntity
  8
Plan
 62
    30
420
 16744192
370
     5
100
AcDbCircle
 10
-43.30127018922193
 20
-24.99999999999999
 30
0.0
 40
1.5
  0
CIRCLE
  5
1BCB
330
1D4B
100
AcDbEntity
  8
Plan
 62
    30
420
 16744192
370
     5
100
AcDbCircle
 10
-0.0000000000000092
 20
-49.99999999999999
 30
0.0
 40
1.5
  0
CIRCLE
  5
1BCD
330
1D4B
100
AcDbEntity
  8
Plan
 62
    30
420
 16744192
370
     5
100
AcDbCircle
 10
43.30127018922191
 20
-25.00000000000002
 30
0.0
 40
1.5
  0
CIRCLE
  5
1BCF
330
1D4B
100
AcDbEntity
  8
Plan
 62
    30
420
 16744192
370
     5
100
AcDbCircle
 10
43.30127018922195
 20
24.99999999999996
 30
0.0
 40
1.5
  0
CIRCLE
  5
1BD1
330
1D4B
100
AcDbEntity
  8
Plan
 62
    30
420
 16744192
370
     5
100
AcDbCircle
 10
0.0000000000000153
 20
49.99999999999999
 30
0.0
 40
1.5
  0
CIRCLE
  5
1BD3
330
1D4B
100
AcDbEntity
  8
Plan
 62
    30
420
 16744192
370
     5
100
AcDbCircle
 10
-43.30127018922189
 20
25.00000000000006
 30
0.0
 40
1.5
  0
CIRCLE
  5
1BD5
330
1D4B
100
AcDbEntity
  8
Plan
 62
    30
420
 16744192
370
     5
100
AcDbCircle
 10
-43.30127018922195
 20
-24.99999999999995
 30
0.0
 40
1.5
  0
CIRCLE
  5
1C72
330
1D4B
100
AcDbEntity
  8
Base
  6
Continuous
 62
     1
420
 16711680
370
     5
100
AcDbCircle
 10
-48.29629131445349
 20
187.059047744874
 30
0.0
 40
1.5
  0
CIRCLE
  5
1C73
330
1D4B
100
AcDbEntity
  8
Base
  6
Continuous
 62
     1
420
 16711680
370
     5
100
AcDbCircle
 10
-12.94095225512603
 20
151.7037086855466
 30
0.0
 40
1.5
  0
CIRCLE
  5
1C74
330
1D4B
100
AcDbEntity
  8
Base
  6
Continuous
 62
     1
420
 16711680
370
     5
100
AcDbCircle
 10
35.35533905932733
 20
164.6446609406726
 30
0.0
 40
1.5
  0
CIRCLE
  5
1C75
330
1D4B
100
AcDbEntity
  8
Base
  6
Continuous
 62
     1
420
 16711680
370
     5
100
AcDbCircle
 10
48.29629131445338
 20
212.940952255126
 30
0.0
 40
1.5
  0
CIRCLE
  5
1C76
330
1D4B
100
AcDbEntity
  8
Base
  6
Continuous
 62
     1
420
 16711680
370
     5
100
AcDbCircle
 10
12.94095225512604
 20
248.2962913144534
 30
0.0
 40
1.5
  0
CIRCLE
  5
1C77
330
1D4B
100
AcDbEntity
  8
Base
  6
Continuous
 62
     1
420
 16711680
370
     5
100
AcDbCircle
 10
-35.35533905932732
 20
235.3553390593274
 30
0.0
 40
1.5
  0
CIRCLE
  5
1C78
330
1D4B
100
AcDbEntity
  8
Base
  6
Continuous
 62
     1
420
 16711680
370
     5
100
AcDbCircle
 10
-48.29629131445348
 20
187.0590477448741
 30
0.0
 40
1.5
  0
CIRCLE
  5
1BCA
330
1D4B
100
AcDbEntity
  8
Plan
 62
    30
420
 16744192
370
     5
100
AcDbCircle
 10
-43.30127018922193
 20
-24.99999999999999
 30
0.0
 40
3.0
  0
CIRCLE
  5
1BCC
330
1D4B
100
AcDbEntity
  8
Plan
 62
    30
420
 16744192
370
     5
100
AcDbCircle
 10
-0.0000000000000092
 20
-49.99999999999999
 30
0.0
 40
3.0
  0
CIRCLE
  5
1BCE
330
1D4B
100
AcDbEntity
  8
Plan
 62
    30
420
 16744192
370
     5
100
AcDbCircle
 10
43.30127018922191
 20
-25.00000000000002
 30
0.0
 40
3.0
  0
CIRCLE
  5
1BD0
330
1D4B
100
AcDbEntity
  8
Plan
 62
    30
420
 16744192
370
     5
100
AcDbCircle
 10
43.30127018922195
 20
24.99999999999996
 30
0.0
 40
3.0
  0
CIRCLE
  5
1BD2
330
1D4B
100
AcDbEntity
  8
Plan
 62
    30
420
 16744192
370
     5
100
AcDbCircle
 10
0.0000000000000153
 20
49.99999999999999
 30
0.0
 40
3.0
  0
CIRCLE
  5
1BD4
330
1D4B
100
AcDbEntity
  8
Plan
 62
    30
420
 16744192
370
     5
100
AcDbCircle
 10
-43.30127018922189
 20
25.00000000000006
 30
0.0
 40
3.0
  0
CIRCLE
  5
1BD6
330
1D4B
100
AcDbEntity
  8
Plan
 62
    30
420
 16744192
370
     5
100
AcDbCircle
 10
-43.30127018922195
 20
-24.99999999999995
 30
0.0
 40
3.0
  0
CIRCLE
  5
1C7A
330
1D4B
100
AcDbEntity
  8
Base
  6
Continuous
 62
     5
420
      255
370
     5
100
AcDbCircle
 10
-12.94095225512603
 20
151.7037086855466
 30
0.0
 40
3.0
  0
CIRCLE
  5
1C7B
330
1D4B
100
AcDbEntity
  8
Base
  6
Continuous
 62
     5
420
      255
370
     5
100
AcDbCircle
 10
35.35533905932733
 20
164.6446609406726
 30
0.0
 40
3.0
  0
CIRCLE
  5
1C7C
330
1D4B
100
AcDbEntity
  8
Base
  6
Continuous
 62
     5
420
      255
370
     5
100
AcDbCircle
 10
48.29629131445338
 20
212.940952255126
 30
0.0
 40
3.0
  0
CIRCLE
  5
1C7D
330
1D4B
100
AcDbEntity
  8
Base
  6
Continuous
 62
     5
420
      255
370
     5
100
AcDbCircle
 10
12.94095225512604
 20
248.2962913144534
 30
0.0
 40
3.0
  0
CIRCLE
  5
1C7E
330
1D4B
100
AcDbEntity
  8
Base
  6
Continuous
 62
     5
420
      255
370
     5
100
AcDbCircle
 10
-35.35533905932732
 20
235.3553390593274
 30
0.0
 40
3.0
  0
CIRCLE
  5
1C7F
330
1D4B
100
AcDbEntity
  8
Base
  6
Continuous
 62
     5
420
      255
370
     5
100
AcDbCircle
 10
-48.29629131445348
 20
187.0590477448741
 30
0.0
 40
3.0
  0
CIRCLE
  5
1BD8
330
1D4B
100
AcDbEntity
  8
Plan
370
     5
100
AcDbCircle
 10
-24.99999999999999
 20
-43.30127018922193
 30
0.0
 40
0.5
  0
CIRCLE
  5
1BD9
330
1D4B
100
AcDbEntity
  8
Plan
370
     5
100
AcDbCircle
 10
25.0
 20
-43.30127018922192
 30
0.0
 40
0.5
  0
CIRCLE
  5
1BDA
330
1D4B
100
AcDbEntity
  8
Plan
370
     5
100
AcDbCircle
 10
49.99999999999999
 20
-0.0000000000000122
 30
0.0
 40
0.5
  0
CIRCLE
  5
1BDB
330
1D4B
100
AcDbEntity
  8
Plan
370
     5
100
AcDbCircle
 10
24.99999999999998
 20
43.30127018922194
 30
0.0
 40
0.5
  0
CIRCLE
  5
1BDC
330
1D4B
100
AcDbEntity
  8
Plan
370
     5
100
AcDbCircle
 10
-25.00000000000004
 20
43.30127018922191
 30
0.0
 40
0.5
  0
CIRCLE
  5
1BDD
330
1D4B
100
AcDbEntity
  8
Plan
370
     5
100
AcDbCircle
 10
-49.99999999999999
 20
0.0000000000000184
 30
0.0
 40
0.5
  0
CIRCLE
  5
1BDE
330
1D4B
100
AcDbEntity
  8
Plan
370
     5
100
AcDbCircle
 10
-24.99999999999999
 20
-43.30127018922193
 30
0.0
 40
0.5
  0
CIRCLE
  5
1C80
330
1D4B
100
AcDbEntity
  8
Base
  6
Continuous
 62
     1
420
 16711680
370
     5
100
AcDbCircle
 10
-35.35533905932739
 20
164.6446609406727
 30
0.0
 40
0.5
  0
CIRCLE
  5
1C81
330
1D4B
100
AcDbEntity
  8
Base
  6
Continuous
 62
     1
420
 16711680
370
     5
100
AcDbCircle
 10
12.94095225512605
 20
151.7037086855466
 30
0.0
 40
0.5
  0
CIRCLE
  5
1C82
330
1D4B
100
AcDbEntity
  8
Base
  6
Continuous
 62
     1
420
 16711680
370
     5
100
AcDbCircle
 10
48.29629131445341
 20
187.059047744874
 30
0.0
 40
0.5
  0
CIRCLE
  5
1C83
330
1D4B
100
AcDbEntity
  8
Base
  6
Continuous
 62
     1
420
 16711680
370
     5
100
AcDbCircle
 10
35.35533905932738
 20
235.3553390593274
 30
0.0
 40
0.5
  0
CIRCLE
  5
1C84
330
1D4B
100
AcDbEntity
  8
Base
  6
Continuous
 62
     1
420
 16711680
370
     5
100
AcDbCircle
 10
-12.94095225512617
 20
248.2962913144534
 30
0.0
 40
0.5
  0
CIRCLE
  5
1C85
330
1D4B
100
AcDbEntity
  8
Base
  6
Continuous
 62
     1
420
 16711680
370
     5
100
AcDbCircle
 10
-48.29629131445341
 20
212.9409522551261
 30
0.0
 40
0.5
  0
CIRCLE
  5
1C86
330
1D4B
100
AcDbEntity
  8
Base
  6
Continuous
 62
     1
420
 16711680
370
     5
100
AcDbCircle
 10
-35.35533905932739
 20
164.6446609406727
 30
0.0
 40
0.5
  0
HATCH
  5
1D28
330
1D4B
100
AcDbEntity
  8
Section
 62
     4
420
    65535
100
AcDbHatch
 10
0.0
 20
0.0
 30
0.0
210
0.0
220
0.0
230
1.0
  2
JIS_WOOD
 70
     0
 71
     0
 91
        4
 92
        0
 93
        4
 72
     1
 10
4.999999900277032
 20
-146.9999997231249
 11
22.0
 21
-146.9999997231249
 72
     1
 10
22.0
 20
-146.9999997231249
 11
22.0
 21
-144.0
 72
     1
 10
22.0
 20
-144.0
 11
4.999999900277032
 21
-144.0
 72
     1
 10
4.999999900277032
 20
-144.0
 11
4.999999900277032
 21
-146.9999997231249
 97
        0
 92
        0
 93
        4
 72
     1
 10
-22.0
 20
-147.0
 11
-5.0
 21
-147.0
 72
     1
 10
-5.0
 20
-147.0
 11
-5.0
 21
-144.0
 72
     1
 10
-5.0
 20
-144.0
 11
-22.0
 21
-144.0
 72
     1
 10
-22.0
 20
-144.0
 11
-22.0
 21
-147.0
 97
        0
 92
        0
 93
        4
 72
     1
 10
143.0
 20
-147.0
 11
160.0
 21
-147.0
 72
     1
 10
160.0
 20
-147.0
 11
160.0
 21
-144.0
 72
     1
 10
160.0
 20
-144.0
 11
143.0
 21
-144.0
 72
     1
 10
143.0
 20
-144.0
 11
143.0
 21
-147.0
 97
        0
 92
        0
 93
        4
 72
     1
 10
169.9999998297997
 20
-146.9999997231247
 11
187.0
 21
-146.9999997231247
 72
     1
 10
187.0
 20
-146.9999997231247
 11
187.0
 21
-144.0
 72
     1
 10
187.0
 20
-144.0
 11
169.9999998297997
 21
-144.0
 72
     1
 10
169.9999998297997
 20
-144.0
 11
169.9999998297997
 21
-146.9999997231247
 97
        0
 75
     0
 76
     1
 52
0.0
 41
1.0
 77
     0
 78
     1
 53
45.0
 43
0.0
 44
0.0
 45
-0.4999999991609842
 46
0.4999999991609843
 79
     0
 98
        0
1001
ACAD
1010
0.0
1020
0.0
1030
0.0
  0
CIRCLE
  5
1C87
330
1D4B
100
AcDbEntity
  8
Base
 62
     5
420
      255
100
AcDbCircle
 10
310.0
 20
170.0
 30
0.0
 40
20.0
  0
CIRCLE
  5
1C88
330
1D4B
100
AcDbEntity
  8
Base
  6
Continuous
 62
     5
420
      255
100
AcDbCircle
 10
-30.0
 20
170.0
 30
0.0
 40
20.0
  0
CIRCLE
  5
1C89
330
1D4B
100
AcDbEntity
  8
Base
 62
     5
420
      255
100
AcDbCircle
 10
-30.0
 20
510.0
 30
0.0
 40
20.0
  0
CIRCLE
  5
1C8A
330
1D4B
100
AcDbEntity
  8
Base
 62
     5
420
      255
100
AcDbCircle
 10
310.0
 20
510.0
 30
0.0
 40
20.0
  0
CIRCLE
  5
1C8B
330
1D4B
100
AcDbEntity
  8
Base
 62
     1
420
 16711680
100
AcDbCircle
 10
310.0
 20
510.0
 30
0.0
 40
0.5
  0
CIRCLE
  5
1C8C
330
1D4B
100
AcDbEntity
  8
Base
 62
     1
420
 16711680
100
AcDbCircle
 10
-30.0
 20
510.0
 30
0.0
 40
0.5
  0
CIRCLE
  5
1C8D
330
1D4B
100
AcDbEntity
  8
Base
 62
     1
420
 16711680
100
AcDbCircle
 10
310.0
 20
170.0
 30
0.0
 40
0.5
  0
CIRCLE
  5
1C8E
330
1D4B
100
AcDbEntity
  8
Base
  6
Continuous
 62
     1
420
 16711680
100
AcDbCircle
 10
-30.0
 20
170.0
 30
0.0
 40
0.5
  0
LWPOLYLINE
  5
1D29
330
1D4B
100
AcDbEntity
  8
Section
100
AcDbPolyline
 90
        4
 70
   129
 43
0.0
 10
-50.00000045642457
 20
-222.0
 10
-10.00000052354579
 20
-222.0
 10
-10.0
 20
-234.0
 10
-50.0
 20
-234.0
  0
LWPOLYLINE
  5
1D2A
330
1D4B
100
AcDbEntity
  8
Section
100
AcDbPolyline
 90
        4
 70
   129
 43
0.0
 10
289.9999989730447
 20
-222.0
 10
330.0
 20
-222.0
 10
330.0
 20
-234.0
 10
289.9999989730447
 20
-234.0
  0
LWPOLYLINE
  5
1D2B
330
1D4B
100
AcDbEntity
  8
Section
 62
     4
420
    65535
100
AcDbPolyline
 90
        4
 70
   129
 43
0.0
 10
-60.0
 20
-210.0000000000004
 10
-40.00000028526563
 20
-210.0000000000004
 10
-40.00000028526563
 20
-207.0000000000002
 10
-60.0
 20
-207.0000000000002
  0
LWPOLYLINE
  5
1D2C
330
1D4B
100
AcDbEntity
  8
Section
 62
     4
420
    65535
100
AcDbPolyline
 90
        4
 70
   129
 43
0.0
 10
39.99999941268908
 20
-210.0
 10
59.99999954693152
 20
-210.0
 10
59.99999954693152
 20
-207.0
 10
39.99999941268908
 20
-207.0
  0
HATCH
  5
1D2D
330
1D4B
100
AcDbEntity
  8
Section
 62
     4
420
    65535
100
AcDbHatch
 10
0.0
 20
0.0
 30
0.0
210
0.0
220
0.0
230
1.0
  2
JIS_WOOD
 70
     0
 71
     0
 91
        2
 92
        0
 93
        4
 72
     1
 10
-60.0
 20
-210.0000000000004
 11
-40.00000028526563
 21
-210.0000000000004
 72
     1
 10
-40.00000028526563
 20
-210.0000000000004
 11
-40.00000028526563
 21
-207.0000000000002
 72
     1
 10
-40.00000028526563
 20
-207.0000000000002
 11
-60.0
 21
-207.0000000000002
 72
     1
 10
-60.0
 20
-207.0000000000002
 11
-60.0
 21
-210.0000000000004
 97
        0
 92
        0
 93
        4
 72
     1
 10
39.99999941268908
 20
-210.0
 11
59.99999954693152
 21
-210.0
 72
     1
 10
59.99999954693152
 20
-210.0
 11
59.99999954693152
 21
-207.0
 72
     1
 10
59.99999954693152
 20
-207.0
 11
39.99999941268908
 21
-207.0
 72
     1
 10
39.99999941268908
 20
-207.0
 11
39.99999941268908
 21
-210.0
 97
        0
 75
     0
 76
     1
 52
0.0
 41
1.0
 77
     0
 78
     1
 53
45.0
 43
0.0
 44
0.0
 45
-0.4999999991609842
 46
0.4999999991609843
 79
     0
 98
        0
1001
ACAD
1010
0.0
1020
0.0
1030
0.0
  0
VIEWPORT
  5
1E10
330
1D47
100
AcDbEntity
 67
     1
  8
0
 62
   178
420
        0
100
AcDbViewport
 10
128.5
 20
97.5
 30
0.0
 40
314.226
 41
222.18
 68
     1
 69
     1
 12
128.5
 22
97.5
 13
0.0
 23
0.0
 14
10.0
 24
10.0
 15
10.0
 25
10.0
 16
0.0
 26
0.0
 36
1.0
 17
0.0
 27
0.0
 37
0.0
 42
50.0
 43
0.0
 44
0.0
 45
222.18
 50
0.0
 51
0.0
 72
   100
 90
   557152
  1

281
     0
 71
     1
 74
     0
110
0.0
120
0.0
130
0.0
111
1.0
121
0.0
131
0.0
112
0.0
122
1.0
132
0.0
 79
     0
146
0.0
170
     0
 61
     5
348
1D5B
292
     1
282
     1
141
0.0
142
0.0
 63
   256
361
1E11
  0
ENDSEC
  0
SECTION
  2
OBJECTS
  0
DICTIONARY
  5
1D39
330
0
100
AcDbDictionary
281
     1
  3
ACAD_DETAILVIEWSTYLE
350
1E21
  3
ACAD_GROUP
350
1D3A
  3
ACAD_LAYOUT
350
1D46
  3
ACAD_MATERIAL
350
1D6F
  3
ACAD_MLEADERSTYLE
350
1D97
  3
ACAD_MLINESTYLE
350
1D43
  3
ACAD_PLOTSETTINGS
350
1D45
  3
ACAD_PLOTSTYLENAME
350
1D3B
  3
ACAD_SCALELIST
350
1D73
  3
ACAD_SECTIONVIEWSTYLE
350
1E22
  3
ACAD_TABLESTYLE
350
1D95
  3
ACAD_VISUALSTYLE
350
1D56
  3
ACDB_RECOMPOSE_DATA
350
1E1E
  3
AcDbVariableDictionary
350
1E1A
  3
QCAD_OBJECTS
350
1D9B
  0
SUN
  5
1D99
330
1D55
100
AcDbSun
 90
        1
290
     0
 63
     7
421
 16777215
 40
1.0
291
     1
 91
  2455826
 92
 54000000
292
     0
 70
     2
 71
   256
280
     1
  0
SUN
  5
1E11
330
1E10
100
AcDbSun
 90
        1
290
     0
 63
     7
421
 16777215
 40
1.0
291
     1
 91
  2455826
 92
 54000000
292
     0
 70
     2
 71
   256
280
     1
  0
DICTIONARY
  5
1E21
102
{ACAD_REACTORS
330
1D39
102
}
330
1D39
100
AcDbDictionary
281
     1
  0
DICTIONARY
  5
1D3A
102
{ACAD_REACTORS
330
1D39
102
}
330
1D39
100
AcDbDictionary
281
     1
  0
DICTIONARY
  5
1D46
102
{ACAD_REACTORS
330
1D39
102
}
330
1D39
100
AcDbDictionary
281
     1
  3
Layout1
350
1D4A
  3
Model
350
1D4E
  0
DICTIONARY
  5
1D6F
102
{ACAD_REACTORS
330
1D39
102
}
330
1D39
100
AcDbDictionary
281
     1
  3
ByBlock
350
1D71
  3
ByLayer
350
1D70
  3
Global
350
1D72
  0
DICTIONARY
  5
1D97
102
{ACAD_REACTORS
330
1D39
102
}
330
1D39
100
AcDbDictionary
281
     1
  3
Standard
350
1D98
  0
DICTIONARY
  5
1D43
102
{ACAD_REACTORS
330
1D39
102
}
330
1D39
100
AcDbDictionary
281
     1
  3
Standard
350
1D44
  0
DICTIONARY
  5
1D45
102
{ACAD_REACTORS
330
1D39
102
}
330
1D39
100
AcDbDictionary
281
     1
  0
ACDBDICTIONARYWDFLT
  5
1D3B
102
{ACAD_REACTORS
330
1D39
102
}
330
1D39
100
AcDbDictionary
281
     1
  3
Normal
350
1D3C
100
AcDbDictionaryWithDefault
340
1D3C
  0
DICTIONARY
  5
1D73
102
{ACAD_REACTORS
330
1D39
102
}
330
1D39
100
AcDbDictionary
281
     1
  3
A0
350
1D74
  3
A1
350
1D75
  3
A2
350
1D76
  3
A3
350
1D77
  3
A4
350
1D78
  3
A5
350
1D79
  3
A6
350
1D7A
  3
A7
350
1D7B
  3
A8
350
1D7C
  3
A9
350
1D7D
  3
B0
350
1D7E
  3
B1
350
1D7F
  3
B2
350
1D80
  3
B3
350
1D81
  3
B4
350
1D82
  3
B5
350
1D83
  3
B6
350
1D84
  3
B7
350
1D85
  3
B8
350
1D86
  3
B9
350
1D87
  3
C0
350
1D88
  3
C1
350
1D89
  3
C2
350
1D8A
  3
C3
350
1D8B
  3
C4
350
1D8C
  3
C5
350
1D8D
  3
C6
350
1D8E
  3
C7
350
1D8F
  3
C8
350
1D90
  3
C9
350
1D91
  3
D0
350
1D92
  3
D1
350
1D93
  3
D2
350
1D94
  0
DICTIONARY
  5
1E22
102
{ACAD_REACTORS
330
1D39
102
}
330
1D39
100
AcDbDictionary
281
     1
  0
DICTIONARY
  5
1D95
102
{ACAD_REACTORS
330
1D39
102
}
330
1D39
100
AcDbDictionary
281
     1
  3
Standard
350
1D96
  0
DICTIONARY
  5
1D56
102
{ACAD_REACTORS
330
1D39
102
}
330
1D39
100
AcDbDictionary
281
     1
  3
2dWireframe
350
1D5B
  3
Basic
350
1D5E
  3
Brighten
350
1D62
  3
ColorChange
350
1D66
  3
Conceptual
350
1D60
  3
Dim
350
1D61
  3
EdgeColorOff
350
1D69
  3
Facepattern
350
1D65
  3
Flat
350
1D57
  3
FlatWithEdges
350
1D58
  3
Gouraud
350
1D59
  3
GouraudWithEdges
350
1D5A
  3
Hidden
350
1D5D
  3
JitterOff
350
1D67
  3
Linepattern
350
1D64
  3
OverhangOff
350
1D68
  3
Realistic
350
1D5F
  3
Shaded
350
1D6E
  3
Shaded with edges
350
1D6D
  3
Shades of Gray
350
1D6A
  3
Sketchy
350
1D6B
  3
Thicken
350
1D63
  3
Wireframe
350
1D5C
  3
X-Ray
350
1D6C
  0
XRECORD
  5
1E1E
102
{ACAD_REACTORS
330
1D39
102
}
330
1D39
100
AcDbXrecord
280
     1
 90
        1
330
1D96
  0
DICTIONARY
  5
1E1A
102
{ACAD_REACTORS
330
1D39
102
}
330
1D39
100
AcDbDictionary
281
     1
  3
CANNOSCALE
350
1E1B
  3
CMLEADERSTYLE
350
1E20
  3
CTABLESTYLE
350
1E1F
  0
DICTIONARY
  5
1D9B
102
{ACAD_REACTORS
330
1D39
102
}
330
1D39
100
AcDbDictionary
281
     1
  3
ColorSettings/BackgroundColor
350
1D9D
  3
ColorSettings/ColorMode
350
1D9E
  3
Grid/DisplayGrid00
350
1D9F
  3
Grid/DisplayGrid01
350
1DA0
  3
Grid/DisplayGrid02
350
1DA1
  3
Grid/DisplayGrid03
350
1DA2
  3
Grid/GridSpacingX00
350
1DA3
  3
Grid/GridSpacingX01
350
1DA4
  3
Grid/GridSpacingX02
350
1DA5
  3
Grid/GridSpacingX03
350
1DA6
  3
Grid/GridSpacingY00
350
1DA7
  3
Grid/GridSpacingY01
350
1DA8
  3
Grid/GridSpacingY02
350
1DA9
  3
Grid/GridSpacingY03
350
1DAA
  3
Grid/IsometricGrid00
350
1DAB
  3
Grid/IsometricGrid01
350
1DAC
  3
Grid/IsometricGrid02
350
1DAD
  3
Grid/IsometricGrid03
350
1DAE
  3
Grid/IsometricProjection00
350
1DAF
  3
Grid/IsometricProjection01
350
1DB0
  3
Grid/IsometricProjection02
350
1DB1
  3
Grid/IsometricProjection03
350
1DB2
  3
Grid/MetaGridSpacingX00
350
1DB3
  3
Grid/MetaGridSpacingX01
350
1DB4
  3
Grid/MetaGridSpacingX02
350
1DB5
  3
Grid/MetaGridSpacingX03
350
1DB6
  3
Grid/MetaGridSpacingY00
350
1DB7
  3
Grid/MetaGridSpacingY01
350
1DB8
  3
Grid/MetaGridSpacingY02
350
1DB9
  3
Grid/MetaGridSpacingY03
350
1DBA
  3
MultiPageSettings/Columns
350
1DBB
  3
MultiPageSettings/GlueMarginsBottom
350
1DBC
  3
MultiPageSettings/GlueMarginsLeft
350
1DBD
  3
MultiPageSettings/GlueMarginsRight
350
1DBE
  3
MultiPageSettings/GlueMarginsTop
350
1DBF
  3
MultiPageSettings/PrintCropMarks
350
1DC0
  3
MultiPageSettings/Rows
350
1DC1
  3
PageSettings/OffsetX
350
1DC2
  3
PageSettings/OffsetY
350
1DC3
  3
PageSettings/PageOrientation
350
1DC4
  3
PageSettings/PaperHeight
350
1DC5
  3
PageSettings/PaperWidth
350
1DC6
  3
PageSettings/Scale
350
1DC7
  3
PageSettings/ShowPaperBorders
350
1DC8
  3
QCADVersion
350
1DC9
  3
UnitSettings/PaperUnit
350
1DCA
  3
ViewportCenter
350
1DCB
  3
ViewportHeight
350
1DCC
  3
ViewportWidth
350
1DCD
  0
LAYOUT
  5
1D4A
102
{ACAD_REACTORS
330
1D46
102
}
330
1D46
100
AcDbPlotSettings
  1

  2
none_device
  4
ISO_A4_(210.00_x_297.00_MM)
  6

 40
7.5
 41
20.0
 42
7.5
 43
20.0
 44
210.0
 45
297.0
 46
0.0
 47
0.0
 48
0.0
 49
0.0
140
0.0
141
0.0
142
1.0
143
1.0
 70
   688
 72
     1
 73
     1
 74
     5
  7

 75
    16
 76
     0
 77
     2
 78
   300
147
1.0
148
0.0
149
0.0
100
AcDbLayout
  1
Layout1
 70
     1
 71
     0
 10
-20.0
 20
-7.5
 11
277.0
 21
202.5
 12
0.0
 22
0.0
 32
0.0
 14
0.0
 24
0.0
 34
0.0
 15
0.0
 25
0.0
 35
0.0
146
0.0
 13
0.0
 23
0.0
 33
0.0
 16
1.0
 26
0.0
 36
0.0
 17
0.0
 27
1.0
 37
0.0
 76
     0
330
1D47
331
1E10
  0
LAYOUT
  5
1D4E
102
{ACAD_REACTORS
330
1D46
102
}
330
1D46
100
AcDbPlotSettings
  1

  2
none_device
  4
Letter_(8.50_x_11.00_Inches)
  6

 40
6.35
 41
6.35
 42
6.35000508
 43
6.35000508
 44
215.9
 45
279.4
 46
0.0
 47
0.0
 48
0.0
 49
0.0
140
0.0
141
0.0
142
1.0
143
1.0
 70
  1712
 72
     0
 73
     0
 74
     0
  7

 75
     0
 76
     0
 77
     2
 78
   300
147
1.0
148
0.0
149
0.0
100
AcDbLayout
  1
Model
 70
     1
 71
     0
 10
0.0
 20
0.0
 11
12.0
 21
9.0
 12
0.0
 22
0.0
 32
0.0
 14
360.0
 24
540.0
 34
0.0
 15
-60.00000027184103
 25
-234.0
 35
0.0
146
0.0
 13
0.0
 23
0.0
 33
0.0
 16
1.0
 26
0.0
 36
0.0
 17
0.0
 27
1.0
 37
0.0
 76
     0
330
1D4B
331
1D55
  0
MATERIAL
  5
1D71
102
{ACAD_REACTORS
330
1D6F
102
}
330
1D6F
100
AcDbMaterial
  1
ByBlock
 72
     1
 94
      127
  0
MATERIAL
  5
1D70
102
{ACAD_REACTORS
330
1D6F
102
}
330
1D6F
100
AcDbMaterial
  1
ByLayer
 72
     1
 94
      127
  0
MATERIAL
  5
1D72
102
{ACAD_REACTORS
330
1D6F
102
}
330
1D6F
100
AcDbMaterial
  1
Global
 72
     1
 94
      127
  0
MLEADERSTYLE
  5
1D98
102
{ACAD_REACTORS
330
1D97
102
}
330
1D97
100
AcDbMLeaderStyle
179
     2
170
     2
171
     1
172
     0
 90
        2
 40
0.0
 41
0.0
173
     1
 91
-1056964608
340
1D40
 92
       -2
290
     1
 42
0.09
291
     1
 43
0.36
  3
Standard
341
0
 44
0.18
300

342
1D3E
174
     1
178
     6
175
     1
176
     0
 93
-1056964608
 45
0.18
292
     0
297
     0
 46
0.18
343
0
 94
-1056964608
 47
1.0
 49
1.0
140
1.0
293
     1
141
0.0
294
     1
177
     0
142
1.0
295
     0
296
     0
143
0.125
271
     0
272
     9
273
     9
298
     0
  0
MLINESTYLE
  5
1D44
102
{ACAD_REACTORS
330
1D43
102
}
330
1D43
100
AcDbMlineStyle
  2
Standard
 70
     0
  3

 62
   256
 51
90.0
 52
90.0
 71
     2
 49
0.5
 62
   256
  6
BYLAYER
 49
-0.5
 62
   256
  6
BYLAYER
  0
ACDBPLACEHOLDER
  5
1D3C
102
{ACAD_REACTORS
330
1D3B
102
}
330
1D3B
  0
SCALE
  5
1D74
102
{ACAD_REACTORS
330
1D73
102
}
330
1D73
100
AcDbScale
 70
     0
300
1:1
140
1.0
141
1.0
290
     1
  0
SCALE
  5
1D75
102
{ACAD_REACTORS
330
1D73
102
}
330
1D73
100
AcDbScale
 70
     0
300
1:2
140
1.0
141
2.0
290
     0
  0
SCALE
  5
1D76
102
{ACAD_REACTORS
330
1D73
102
}
330
1D73
100
AcDbScale
 70
     0
300
1:4
140
1.0
141
4.0
290
     0
  0
SCALE
  5
1D77
102
{ACAD_REACTORS
330
1D73
102
}
330
1D73
100
AcDbScale
 70
     0
300
1:5
140
1.0
141
5.0
290
     0
  0
SCALE
  5
1D78
102
{ACAD_REACTORS
330
1D73
102
}
330
1D73
100
AcDbScale
 70
     0
300
1:8
140
1.0
141
8.0
290
     0
  0
SCALE
  5
1D79
102
{ACAD_REACTORS
330
1D73
102
}
330
1D73
100
AcDbScale
 70
     0
300
1:10
140
1.0
141
10.0
290
     0
  0
SCALE
  5
1D7A
102
{ACAD_REACTORS
330
1D73
102
}
330
1D73
100
AcDbScale
 70
     0
300
1:16
140
1.0
141
16.0
290
     0
  0
SCALE
  5
1D7B
102
{ACAD_REACTORS
330
1D73
102
}
330
1D73
100
AcDbScale
 70
     0
300
1:20
140
1.0
141
20.0
290
     0
  0
SCALE
  5
1D7C
102
{ACAD_REACTORS
330
1D73
102
}
330
1D73
100
AcDbScale
 70
     0
300
1:30
140
1.0
141
30.0
290
     0
  0
SCALE
  5
1D7D
102
{ACAD_REACTORS
330
1D73
102
}
330
1D73
100
AcDbScale
 70
     0
300
1:40
140
1.0
141
40.0
290
     0
  0
SCALE
  5
1D7E
102
{ACAD_REACTORS
330
1D73
102
}
330
1D73
100
AcDbScale
 70
     0
300
1:50
140
1.0
141
50.0
290
     0
  0
SCALE
  5
1D7F
102
{ACAD_REACTORS
330
1D73
102
}
330
1D73
100
AcDbScale
 70
     0
300
1:100
140
1.0
141
100.0
290
     0
  0
SCALE
  5
1D80
102
{ACAD_REACTORS
330
1D73
102
}
330
1D73
100
AcDbScale
 70
     0
300
2:1
140
2.0
141
1.0
290
     0
  0
SCALE
  5
1D81
102
{ACAD_REACTORS
330
1D73
102
}
330
1D73
100
AcDbScale
 70
     0
300
4:1
140
4.0
141
1.0
290
     0
  0
SCALE
  5
1D82
102
{ACAD_REACTORS
330
1D73
102
}
330
1D73
100
AcDbScale
 70
     0
300
8:1
140
8.0
141
1.0
290
     0
  0
SCALE
  5
1D83
102
{ACAD_REACTORS
330
1D73
102
}
330
1D73
100
AcDbScale
 70
     0
300
10:1
140
10.0
141
1.0
290
     0
  0
SCALE
  5
1D84
102
{ACAD_REACTORS
330
1D73
102
}
330
1D73
100
AcDbScale
 70
     0
300
100:1
140
100.0
141
1.0
290
     0
  0
SCALE
  5
1D85
102
{ACAD_REACTORS
330
1D73
102
}
330
1D73
100
AcDbScale
 70
     0
300
1/128" = 1'-0"
140
0.0078125
141
12.0
290
     0
  0
SCALE
  5
1D86
102
{ACAD_REACTORS
330
1D73
102
}
330
1D73
100
AcDbScale
 70
     0
300
1/64" = 1'-0"
140
0.015625
141
12.0
290
     0
  0
SCALE
  5
1D87
102
{ACAD_REACTORS
330
1D73
102
}
330
1D73
100
AcDbScale
 70
     0
300
1/32" = 1'-0"
140
0.03125
141
12.0
290
     0
  0
SCALE
  5
1D88
102
{ACAD_REACTORS
330
1D73
102
}
330
1D73
100
AcDbScale
 70
     0
300
1/16" = 1'-0"
140
0.0625
141
12.0
290
     0
  0
SCALE
  5
1D89
102
{ACAD_REACTORS
330
1D73
102
}
330
1D73
100
AcDbScale
 70
     0
300
3/32" = 1'-0"
140
0.09375
141
12.0
290
     0
  0
SCALE
  5
1D8A
102
{ACAD_REACTORS
330
1D73
102
}
330
1D73
100
AcDbScale
 70
     0
300
1/8" = 1'-0"
140
0.125
141
12.0
290
     0
  0
SCALE
  5
1D8B
102
{ACAD_REACTORS
330
1D73
102
}
330
1D73
100
AcDbScale
 70
     0
300
3/16" = 1'-0"
140
0.1875
141
12.0
290
     0
  0
SCALE
  5
1D8C
102
{ACAD_REACTORS
330
1D73
102
}
330
1D73
100
AcDbScale
 70
     0
300
1/4" = 1'-0"
140
0.25
141
12.0
290
     0
  0
SCALE
  5
1D8D
102
{ACAD_REACTORS
330
1D73
102
}
330
1D73
100
AcDbScale
 70
     0
300
3/8" = 1'-0"
140
0.375
141
12.0
290
     0
  0
SCALE
  5
1D8E
102
{ACAD_REACTORS
330
1D73
102
}
330
1D73
100
AcDbScale
 70
     0
300
1/2" = 1'-0"
140
0.5
141
12.0
290
     0
  0
SCALE
  5
1D8F
102
{ACAD_REACTORS
330
1D73
102
}
330
1D73
100
AcDbScale
 70
     0
300
3/4" = 1'-0"
140
0.75
141
12.0
290
     0
  0
SCALE
  5
1D90
102
{ACAD_REACTORS
330
1D73
102
}
330
1D73
100
AcDbScale
 70
     0
300
1" = 1'-0"
140
1.0
141
12.0
290
     0
  0
SCALE
  5
1D91
102
{ACAD_REACTORS
330
1D73
102
}
330
1D73
100
AcDbScale
 70
     0
300
1-1/2" = 1'-0"
140
1.5
141
12.0
290
     0
  0
SCALE
  5
1D92
102
{ACAD_REACTORS
330
1D73
102
}
330
1D73
100
AcDbScale
 70
     0
300
3" = 1'-0"
140
3.0
141
12.0
290
     0
  0
SCALE
  5
1D93
102
{ACAD_REACTORS
330
1D73
102
}
330
1D73
100
AcDbScale
 70
     0
300
6" = 1'-0"
140
6.0
141
12.0
290
     0
  0
SCALE
  5
1D94
102
{ACAD_REACTORS
330
1D73
102
}
330
1D73
100
AcDbScale
 70
     0
300
1'-0" = 1'-0"
140
12.0
141
12.0
290
     0
  0
TABLESTYLE
  5
1D96
102
{ACAD_REACTORS
330
1D95
102
}
102
{ACAD_XDICTIONARY
360
1E1C
102
}
330
1D95
100
AcDbTableStyle
  3
Standard
 70
     0
 71
     0
 40
0.06
 41
0.06
280
     0
281
     0
  7
Standard
140
0.18
170
     2
 62
     0
 63
   257
283
     0
 90
        4
 91
        0
  1

274
    -2
284
     1
 64
     0
275
    -2
285
     1
 65
     0
276
    -2
286
     1
 66
     0
277
    -2
287
     1
 67
     0
278
    -2
288
     1
 68
     0
279
    -2
289
     1
 69
     0
  7
Standard
140
0.25
170
     5
 62
     0
 63
   257
283
     0
 90
        4
 91
        0
  1

274
    -2
284
     1
 64
     0
275
    -2
285
     1
 65
     0
276
    -2
286
     1
 66
     0
277
    -2
287
     1
 67
     0
278
    -2
288
     1
 68
     0
279
    -2
289
     1
 69
     0
  7
Standard
140
0.18
170
     5
 62
     0
 63
   257
283
     0
 90
        4
 91
        0
  1

274
    -2
284
     1
 64
     0
275
    -2
285
     1
 65
     0
276
    -2
286
     1
 66
     0
277
    -2
287
     1
 67
     0
278
    -2
288
     1
 68
     0
279
    -2
289
     1
 69
     0
  0
VISUALSTYLE
  5
1D5B
102
{ACAD_REACTORS
330
1D56
102
}
330
1D56
100
AcDbVisualStyle
  2
2dWireframe
 70
     4
177
     3
291
     0
 70
    58
 90
        0
176
     1
 90
        2
176
     1
 90
        0
176
     1
 90
        0
176
     1
 40
0.6
176
     1
 40
30.0
176
     1
 62
     7
420
 16777215
176
     1
 90
        1
176
     1
 90
        4
176
     1
 62
     7
176
     1
 62
   257
176
     1
 90
        1
176
     1
 90
        1
176
     1
 40
1.0
176
     1
 90
        0
176
     1
 62
   257
176
     1
 40
1.0
176
     1
 90
        1
176
     1
 90
        6
176
     1
 90
        2
176
     1
 62
     7
176
     1
 90
        5
176
     1
 90
        0
176
     1
 90
        0
176
     1
290
     0
176
     1
 90
        1
176
     1
 40
0.0
176
     1
 90
        0
176
     1
290
     1
176
     1
290
     1
176
     1
290
     0
176
     1
290
     0
176
     1
290
     0
176
     1
290
     0
176
     1
290
     0
176
     1
290
     0
176
     1
290
     0
176
     1
 90
       50
176
     1
 40
0.0
176
     1
 40
1.0
176
     1
 90
        0
176
     1
 62
   178
420
        0
176
     1
 90
       50
176
     1
 90
        3
176
     1
 62
     5
420
      255
176
     1
290
     0
176
     1
 90
       50
176
     1
 90
       50
176
     1
 90
       50
176
     1
290
     0
176
     1
 90
       50
176
     1
 62
   256
176
     0
 40
1.0
176
     0
 90
        2
176
     1
  1
strokes_ogs.tif
176
     1
290
     0
176
     1
 40
1.0
176
     1
 40
1.0
176
     1
  0
VISUALSTYLE
  5
1D5E
102
{ACAD_REACTORS
330
1D56
102
}
330
1D56
100
AcDbVisualStyle
  2
Basic
 70
     7
177
     3
291
     1
 70
    58
 90
        1
176
     1
 90
        0
176
     1
 90
        1
176
     1
 90
        0
176
     1
 40
0.6
176
     1
 40
30.0
176
     1
 62
     7
420
 16777215
176
     1
 90
        0
176
     1
 90
        4
176
     1
 62
     7
176
     1
 62
   257
176
     1
 90
        1
176
     1
 90
        1
176
     1
 40
1.0
176
     1
 90
        8
176
     1
 62
     7
176
     1
 40
1.0
176
     1
 90
        1
176
     1
 90
        6
176
     1
 90
        2
176
     1
 62
     7
176
     1
 90
        5
176
     1
 90
        0
176
     1
 90
        0
176
     1
290
     0
176
     1
 90
        1
176
     1
 40
0.0
176
     1
 90
        0
176
     1
290
     0
176
     1
290
     1
176
     1
290
     1
176
     1
290
     0
176
     1
290
     0
176
     1
290
     0
176
     1
290
     0
176
     1
290
     0
176
     1
290
     0
176
     1
 90
       50
176
     1
 40
0.0
176
     1
 40
1.0
176
     1
 90
        0
176
     1
 62
   178
420
        0
176
     1
 90
       50
176
     1
 90
        3
176
     1
 62
     5
420
      255
176
     1
290
     0
176
     1
 90
       50
176
     1
 90
       50
176
     1
 90
       50
176
     1
290
     0
176
     1
 90
       50
176
     1
 62
   256
176
     0
 40
1.0
176
     0
 90
        2
176
     1
  1
strokes_ogs.tif
176
     1
290
     0
176
     1
 40
1.0
176
     1
 40
1.0
176
     1
  0
VISUALSTYLE
  5
1D62
102
{ACAD_REACTORS
330
1D56
102
}
330
1D56
100
AcDbVisualStyle
  2
Brighten
 70
    12
177
     3
291
     1
 70
    58
 90
        2
176
     1
 90
        2
176
     1
 90
        0
176
     1
 90
        0
176
     1
 40
0.6
176
     1
 40
30.0
176
     1
 62
     7
420
 16777215
176
     1
 90
        1
176
     1
 90
        4
176
     1
 62
     7
176
     1
 62
   257
176
     1
 90
        1
176
     1
 90
        1
176
     1
 40
1.0
176
     1
 90
        8
176
     1
 62
     7
176
     1
 40
1.0
176
     1
 90
        1
176
     1
 90
        6
176
     1
 90
        2
176
     1
 62
     7
176
     1
 90
        5
176
     1
 90
        0
176
     1
 90
        0
176
     1
290
     0
176
     1
 90
        1
176
     1
 40
50.0
176
     1
 90
        0
176
     1
290
     0
176
     1
290
     1
176
     1
290
     1
176
     1
290
     0
176
     1
290
     0
176
     1
290
     0
176
     1
290
     0
176
     1
290
     0
176
     1
290
     0
176
     1
 90
       50
176
     1
 40
0.0
176
     1
 40
1.0
176
     1
 90
        0
176
     1
 62
   178
420
        0
176
     1
 90
       50
176
     1
 90
        3
176
     1
 62
     5
420
      255
176
     1
290
     0
176
     1
 90
       50
176
     1
 90
       50
176
     1
 90
       50
176
     1
290
     0
176
     1
 90
       50
176
     1
 62
   256
176
     0
 40
1.0
176
     0
 90
        2
176
     1
  1
strokes_ogs.tif
176
     1
290
     0
176
     1
 40
1.0
176
     1
 40
1.0
176
     1
  0
VISUALSTYLE
  5
1D66
102
{ACAD_REACTORS
330
1D56
102
}
330
1D56
100
AcDbVisualStyle
  2
ColorChange
 70
    16
177
     3
291
     1
 70
    58
 90
        2
176
     1
 90
        2
176
     1
 90
        3
176
     1
 90
        0
176
     1
 40
0.6
176
     1
 40
30.0
176
     1
 62
     8
420
  8421504
176
     1
 90
        1
176
     1
 90
        4
176
     1
 62
     7
176
     1
 62
   257
176
     1
 90
        1
176
     1
 90
        1
176
     1
 40
1.0
176
     1
 90
        8
176
     1
 62
     8
420
  8421504
176
     1
 40
1.0
176
     1
 90
        1
176
     1
 90
        6
176
     1
 90
        2
176
     1
 62
     7
176
     1
 90
        5
176
     1
 90
        0
176
     1
 90
        0
176
     1
290
     0
176
     1
 90
        1
176
     1
 40
0.0
176
     1
 90
        0
176
     1
290
     0
176
     1
290
     1
176
     1
290
     1
176
     1
290
     0
176
     1
290
     0
176
     1
290
     0
176
     1
290
     0
176
     1
290
     0
176
     1
290
     0
176
     1
 90
       50
176
     1
 40
0.0
176
     1
 40
1.0
176
     1
 90
        0
176
     1
 62
   178
420
        0
176
     1
 90
       50
176
     1
 90
        3
176
     1
 62
     5
420
      255
176
     1
290
     0
176
     1
 90
       50
176
     1
 90
       50
176
     1
 90
       50
176
     1
290
     0
176
     1
 90
       50
176
     1
 62
   256
176
     0
 40
1.0
176
     0
 90
        2
176
     1
  1
strokes_ogs.tif
176
     1
290
     0
176
     1
 40
1.0
176
     1
 40
1.0
176
     1
  0
VISUALSTYLE
  5
1D60
102
{ACAD_REACTORS
330
1D56
102
}
330
1D56
100
AcDbVisualStyle
  2
Conceptual
 70
     9
177
     3
291
     0
 70
    58
 90
        3
176
     1
 90
        2
176
     1
 90
        0
176
     1
 90
        0
176
     1
 40
0.6
176
     1
 40
30.0
176
     1
 62
     7
420
 16777215
176
     1
 90
        2
176
     1
 90
        2
176
     1
 62
     7
176
     1
 62
   257
176
     1
 90
        1
176
     1
 90
        1
176
     1
 40
179.0
176
     1
 90
        8
176
     1
 62
     7
176
     1
 40
1.0
176
     1
 90
        1
176
     1
 90
        6
176
     1
 90
        2
176
     1
 62
     7
176
     1
 90
        3
176
     1
 90
        0
176
     1
 90
        0
176
     1
290
     0
176
     1
 90
        1
176
     1
 40
0.0
176
     1
 90
        0
176
     1
290
     0
176
     1
290
     1
176
     1
290
     1
176
     1
290
     0
176
     1
290
     0
176
     1
290
     0
176
     1
290
     0
176
     1
290
     0
176
     1
290
     0
176
     1
 90
       50
176
     1
 40
0.0
176
     1
 40
1.0
176
     1
 90
        0
176
     1
 62
   178
420
        0
176
     1
 90
       50
176
     1
 90
        3
176
     1
 62
     5
420
      255
176
     1
290
     0
176
     1
 90
       50
176
     1
 90
       50
176
     1
 90
       50
176
     1
290
     0
176
     1
 90
       50
176
     1
 62
   256
176
     0
 40
1.0
176
     0
 90
        2
176
     1
  1
strokes_ogs.tif
176
     1
290
     0
176
     1
 40
1.0
176
     1
 40
1.0
176
     1
  0
VISUALSTYLE
  5
1D61
102
{ACAD_REACTORS
330
1D56
102
}
330
1D56
100
AcDbVisualStyle
  2
Dim
 70
    11
177
     3
291
     1
 70
    58
 90
        2
176
     1
 90
        2
176
     1
 90
        0
176
     1
 90
        0
176
     1
 40
0.6
176
     1
 40
30.0
176
     1
 62
     7
420
 16777215
176
     1
 90
        1
176
     1
 90
        4
176
     1
 62
     7
176
     1
 62
   257
176
     1
 90
        1
176
     1
 90
        1
176
     1
 40
1.0
176
     1
 90
        8
176
     1
 62
     7
176
     1
 40
1.0
176
     1
 90
        1
176
     1
 90
        6
176
     1
 90
        2
176
     1
 62
     7
176
     1
 90
        5
176
     1
 90
        0
176
     1
 90
        0
176
     1
290
     0
176
     1
 90
        1
176
     1
 40
-50.0
176
     1
 90
        0
176
     1
290
     0
176
     1
290
     1
176
     1
290
     1
176
     1
290
     0
176
     1
290
     0
176
     1
290
     0
176
     1
290
     0
176
     1
290
     0
176
     1
290
     0
176
     1
 90
       50
176
     1
 40
0.0
176
     1
 40
1.0
176
     1
 90
        0
176
     1
 62
   178
420
        0
176
     1
 90
       50
176
     1
 90
        3
176
     1
 62
     5
420
      255
176
     1
290
     0
176
     1
 90
       50
176
     1
 90
       50
176
     1
 90
       50
176
     1
290
     0
176
     1
 90
       50
176
     1
 62
   256
176
     0
 40
1.0
176
     0
 90
        2
176
     1
  1
strokes_ogs.tif
176
     1
290
     0
176
     1
 40
1.0
176
     1
 40
1.0
176
     1
  0
VISUALSTYLE
  5
1D69
102
{ACAD_REACTORS
330
1D56
102
}
330
1D56
100
AcDbVisualStyle
  2
EdgeColorOff
 70
    22
177
     3
291
     1
 70
    58
 90
        2
176
     0
 90
        2
176
     0
 90
        0
176
     0
 90
        0
176
     0
 40
0.6
176
     0
 40
30.0
176
     0
 62
     7
420
 16777215
176
     0
 90
        1
176
     0
 90
        4
176
     0
 62
     7
176
     0
 62
   257
176
     0
 90
        1
176
     0
 90
        1
176
     0
 40
1.0
176
     0
 90
        8
176
     2
 62
     7
176
     0
 40
1.0
176
     0
 90
        1
176
     0
 90
        6
176
     0
 90
        2
176
     0
 62
     7
176
     0
 90
        5
176
     0
 90
        0
176
     0
 90
        0
176
     0
290
     0
176
     0
 90
        1
176
     0
 40
0.0
176
     0
 90
        0
176
     0
290
     0
176
     0
290
     1
176
     0
290
     1
176
     0
290
     0
176
     0
290
     0
176
     0
290
     0
176
     0
290
     0
176
     0
290
     0
176
     0
290
     0
176
     0
 90
       50
176
     0
 40
0.0
176
     0
 40
1.0
176
     0
 90
        0
176
     0
 62
   178
420
        0
176
     0
 90
       50
176
     0
 90
        3
176
     0
 62
     5
420
      255
176
     0
290
     0
176
     0
 90
       50
176
     0
 90
       50
176
     0
 90
       50
176
     0
290
     0
176
     0
 90
       50
176
     0
 62
   256
176
     0
 40
1.0
176
     0
 90
        2
176
     0
  1
strokes_ogs.tif
176
     0
290
     0
176
     0
 40
1.0
176
     0
 40
1.0
176
     0
  0
VISUALSTYLE
  5
1D65
102
{ACAD_REACTORS
330
1D56
102
}
330
1D56
100
AcDbVisualStyle
  2
Facepattern
 70
    15
177
     3
291
     1
 70
    58
 90
        2
176
     1
 90
        2
176
     1
 90
        0
176
     1
 90
        0
176
     1
 40
0.6
176
     1
 40
30.0
176
     1
 62
     7
420
 16777215
176
     1
 90
        1
176
     1
 90
        4
176
     1
 62
     7
176
     1
 62
   257
176
     1
 90
        1
176
     1
 90
        1
176
     1
 40
1.0
176
     1
 90
        8
176
     1
 62
     7
176
     1
 40
1.0
176
     1
 90
        1
176
     1
 90
        6
176
     1
 90
        2
176
     1
 62
     7
176
     1
 90
        5
176
     1
 90
        0
176
     1
 90
        0
176
     1
290
     0
176
     1
 90
        1
176
     1
 40
0.0
176
     1
 90
        0
176
     1
290
     0
176
     1
290
     1
176
     1
290
     1
176
     1
290
     0
176
     1
290
     0
176
     1
290
     0
176
     1
290
     0
176
     1
290
     0
176
     1
290
     0
176
     1
 90
       50
176
     1
 40
0.0
176
     1
 40
1.0
176
     1
 90
        0
176
     1
 62
   178
420
        0
176
     1
 90
       50
176
     1
 90
        3
176
     1
 62
     5
420
      255
176
     1
290
     0
176
     1
 90
       50
176
     1
 90
       50
176
     1
 90
       50
176
     1
290
     0
176
     1
 90
       50
176
     1
 62
   256
176
     0
 40
1.0
176
     0
 90
        2
176
     1
  1
strokes_ogs.tif
176
     1
290
     0
176
     1
 40
1.0
176
     1
 40
1.0
176
     1
  0
VISUALSTYLE
  5
1D57
102
{ACAD_REACTORS
330
1D56
102
}
330
1D56
100
AcDbVisualStyle
  2
Flat
 70
     0
177
     3
291
     1
 70
    58
 90
        2
176
     1
 90
        1
176
     1
 90
        1
176
     1
 90
        2
176
     1
 40
0.6
176
     1
 40
30.0
176
     1
 62
     7
420
 16777215
176
     1
 90
        0
176
     1
 90
        0
176
     1
 62
     7
176
     1
 62
   257
176
     1
 90
        1
176
     1
 90
        1
176
     1
 40
1.0
176
     1
 90
        8
176
     1
 62
     7
176
     1
 40
1.0
176
     1
 90
        1
176
     1
 90
        6
176
     1
 90
        2
176
     1
 62
     7
176
     1
 90
        5
176
     1
 90
        0
176
     1
 90
        0
176
     1
290
     0
176
     1
 90
       13
176
     1
 40
0.0
176
     1
 90
        0
176
     1
290
     0
176
     1
290
     1
176
     1
290
     1
176
     1
290
     0
176
     1
290
     0
176
     1
290
     0
176
     1
290
     0
176
     1
290
     0
176
     1
290
     0
176
     1
 90
       50
176
     1
 40
0.0
176
     1
 40
1.0
176
     1
 90
        0
176
     1
 62
   178
420
        0
176
     1
 90
       50
176
     1
 90
        3
176
     1
 62
     5
420
      255
176
     1
290
     0
176
     1
 90
       50
176
     1
 90
       50
176
     1
 90
       50
176
     1
290
     0
176
     1
 90
       50
176
     1
 62
   256
176
     0
 40
1.0
176
     0
 90
        2
176
     1
  1
strokes_ogs.tif
176
     1
290
     0
176
     1
 40
1.0
176
     1
 40
1.0
176
     1
  0
VISUALSTYLE
  5
1D58
102
{ACAD_REACTORS
330
1D56
102
}
330
1D56
100
AcDbVisualStyle
  2
FlatWithEdges
 70
     1
177
     3
291
     1
 70
    58
 90
        2
176
     1
 90
        1
176
     1
 90
        1
176
     1
 90
        2
176
     1
 40
0.6
176
     1
 40
30.0
176
     1
 62
     7
420
 16777215
176
     1
 90
        1
176
     1
 90
        0
176
     1
 62
     7
176
     1
 62
   257
176
     1
 90
        1
176
     1
 90
        1
176
     1
 40
1.0
176
     1
 90
        0
176
     1
 62
   257
176
     1
 40
1.0
176
     1
 90
        1
176
     1
 90
        6
176
     1
 90
        2
176
     1
 62
     7
176
     1
 90
        5
176
     1
 90
        0
176
     1
 90
        0
176
     1
290
     0
176
     1
 90
       13
176
     1
 40
0.0
176
     1
 90
        0
176
     1
290
     0
176
     1
290
     1
176
     1
290
     1
176
     1
290
     0
176
     1
290
     0
176
     1
290
     0
176
     1
290
     0
176
     1
290
     0
176
     1
290
     0
176
     1
 90
       50
176
     1
 40
0.0
176
     1
 40
1.0
176
     1
 90
        0
176
     1
 62
   178
420
        0
176
     1
 90
       50
176
     1
 90
        3
176
     1
 62
     5
420
      255
176
     1
290
     0
176
     1
 90
       50
176
     1
 90
       50
176
     1
 90
       50
176
     1
290
     0
176
     1
 90
       50
176
     1
 62
   256
176
     0
 40
1.0
176
     0
 90
        2
176
     1
  1
strokes_ogs.tif
176
     1
290
     0
176
     1
 40
1.0
176
     1
 40
1.0
176
     1
  0
VISUALSTYLE
  5
1D59
102
{ACAD_REACTORS
330
1D56
102
}
330
1D56
100
AcDbVisualStyle
  2
Gouraud
 70
     2
177
     3
291
     1
 70
    58
 90
        2
176
     1
 90
        2
176
     1
 90
        1
176
     1
 90
        2
176
     1
 40
0.6
176
     1
 40
30.0
176
     1
 62
     7
420
 16777215
176
     1
 90
        0
176
     1
 90
        0
176
     1
 62
     7
176
     1
 62
   257
176
     1
 90
        1
176
     1
 90
        1
176
     1
 40
1.0
176
     1
 90
        0
176
     1
 62
     7
176
     1
 40
1.0
176
     1
 90
        1
176
     1
 90
        6
176
     1
 90
        2
176
     1
 62
     7
176
     1
 90
        5
176
     1
 90
        0
176
     1
 90
        0
176
     1
290
     0
176
     1
 90
       13
176
     1
 40
0.0
176
     1
 90
        0
176
     1
290
     0
176
     1
290
     1
176
     1
290
     1
176
     1
290
     0
176
     1
290
     0
176
     1
290
     0
176
     1
290
     0
176
     1
290
     0
176
     1
290
     0
176
     1
 90
       50
176
     1
 40
0.0
176
     1
 40
1.0
176
     1
 90
        0
176
     1
 62
   178
420
        0
176
     1
 90
       50
176
     1
 90
        3
176
     1
 62
     5
420
      255
176
     1
290
     0
176
     1
 90
       50
176
     1
 90
       50
176
     1
 90
       50
176
     1
290
     0
176
     1
 90
       50
176
     1
 62
   256
176
     0
 40
1.0
176
     0
 90
        2
176
     1
  1
strokes_ogs.tif
176
     1
290
     0
176
     1
 40
1.0
176
     1
 40
1.0
176
     1
  0
VISUALSTYLE
  5
1D5A
102
{ACAD_REACTORS
330
1D56
102
}
330
1D56
100
AcDbVisualStyle
  2
GouraudWithEdges
 70
     3
177
     3
291
     1
 70
    58
 90
        2
176
     1
 90
        2
176
     1
 90
        1
176
     1
 90
        2
176
     1
 40
0.6
176
     1
 40
30.0
176
     1
 62
     7
420
 16777215
176
     1
 90
        1
176
     1
 90
        0
176
     1
 62
     7
176
     1
 62
   257
176
     1
 90
        1
176
     1
 90
        1
176
     1
 40
1.0
176
     1
 90
        0
176
     1
 62
   257
176
     1
 40
1.0
176
     1
 90
        1
176
     1
 90
        6
176
     1
 90
        2
176
     1
 62
     7
176
     1
 90
        5
176
     1
 90
        0
176
     1
 90
        0
176
     1
290
     0
176
     1
 90
       13
176
     1
 40
0.0
176
     1
 90
        0
176
     1
290
     0
176
     1
290
     1
176
     1
290
     1
176
     1
290
     0
176
     1
290
     0
176
     1
290
     0
176
     1
290
     0
176
     1
290
     0
176
     1
290
     0
176
     1
 90
       50
176
     1
 40
0.0
176
     1
 40
1.0
176
     1
 90
        0
176
     1
 62
   178
420
        0
176
     1
 90
       50
176
     1
 90
        3
176
     1
 62
     5
420
      255
176
     1
290
     0
176
     1
 90
       50
176
     1
 90
       50
176
     1
 90
       50
176
     1
290
     0
176
     1
 90
       50
176
     1
 62
   256
176
     0
 40
1.0
176
     0
 90
        2
176
     1
  1
strokes_ogs.tif
176
     1
290
     0
176
     1
 40
1.0
176
     1
 40
1.0
176
     1
  0
VISUALSTYLE
  5
1D5D
102
{ACAD_REACTORS
330
1D56
102
}
330
1D56
100
AcDbVisualStyle
  2
Hidden
 70
     6
177
     3
291
     0
 70
    58
 90
        1
176
     1
 90
        2
176
     1
 90
        2
176
     1
 90
        0
176
     1
 40
0.6
176
     1
 40
30.0
176
     1
 62
     7
420
 16777215
176
     1
 90
        2
176
     1
 90
        2
176
     1
 62
     7
176
     1
 62
   257
176
     1
 90
        2
176
     1
 90
        1
176
     1
 40
40.0
176
     1
 90
        0
176
     1
 62
   257
176
     1
 40
1.0
176
     1
 90
        1
176
     1
 90
        6
176
     1
 90
        2
176
     1
 62
     7
176
     1
 90
        3
176
     1
 90
        0
176
     1
 90
        0
176
     1
290
     0
176
     1
 90
        1
176
     1
 40
0.0
176
     1
 90
        0
176
     1
290
     0
176
     1
290
     1
176
     1
290
     1
176
     1
290
     0
176
     1
290
     0
176
     1
290
     0
176
     1
290
     0
176
     1
290
     0
176
     1
290
     0
176
     1
 90
       50
176
     1
 40
0.0
176
     1
 40
1.0
176
     1
 90
        0
176
     1
 62
   178
420
        0
176
     1
 90
       50
176
     1
 90
        3
176
     1
 62
     5
420
      255
176
     1
290
     0
176
     1
 90
       50
176
     1
 90
       50
176
     1
 90
       50
176
     1
290
     0
176
     1
 90
       50
176
     1
 62
   256
176
     0
 40
1.0
176
     0
 90
        2
176
     1
  1
strokes_ogs.tif
176
     1
290
     0
176
     1
 40
1.0
176
     1
 40
1.0
176
     1
  0
VISUALSTYLE
  5
1D67
102
{ACAD_REACTORS
330
1D56
102
}
330
1D56
100
AcDbVisualStyle
  2
JitterOff
 70
    20
177
     3
291
     1
 70
    58
 90
        2
176
     0
 90
        2
176
     0
 90
        0
176
     0
 90
        0
176
     0
 40
0.6
176
     0
 40
30.0
176
     0
 62
     7
420
 16777215
176
     0
 90
        1
176
     0
 90
        4
176
     0
 62
     7
176
     0
 62
   257
176
     0
 90
        1
176
     0
 90
        1
176
     0
 40
1.0
176
     0
 90
       10
176
     2
 62
     7
176
     0
 40
1.0
176
     0
 90
        1
176
     0
 90
        6
176
     0
 90
        2
176
     0
 62
     7
176
     0
 90
        5
176
     0
 90
        0
176
     0
 90
        0
176
     0
290
     0
176
     0
 90
        1
176
     0
 40
0.0
176
     0
 90
        0
176
     0
290
     0
176
     0
290
     1
176
     0
290
     1
176
     0
290
     0
176
     0
290
     0
176
     0
290
     0
176
     0
290
     0
176
     0
290
     0
176
     0
290
     0
176
     0
 90
       50
176
     0
 40
0.0
176
     0
 40
1.0
176
     0
 90
        0
176
     0
 62
   178
420
        0
176
     0
 90
       50
176
     0
 90
        3
176
     0
 62
     5
420
      255
176
     0
290
     0
176
     0
 90
       50
176
     0
 90
       50
176
     0
 90
       50
176
     0
290
     0
176
     0
 90
       50
176
     0
 62
   256
176
     0
 40
1.0
176
     0
 90
        2
176
     0
  1
strokes_ogs.tif
176
     0
290
     0
176
     0
 40
1.0
176
     0
 40
1.0
176
     0
  0
VISUALSTYLE
  5
1D64
102
{ACAD_REACTORS
330
1D56
102
}
330
1D56
100
AcDbVisualStyle
  2
Linepattern
 70
    14
177
     3
291
     1
 70
    58
 90
        2
176
     1
 90
        2
176
     1
 90
        0
176
     1
 90
        0
176
     1
 40
0.6
176
     1
 40
30.0
176
     1
 62
     7
420
 16777215
176
     1
 90
        1
176
     1
 90
        4
176
     1
 62
     7
176
     1
 62
   257
176
     1
 90
        7
176
     1
 90
        7
176
     1
 40
1.0
176
     1
 90
        8
176
     1
 62
     7
176
     1
 40
1.0
176
     1
 90
        1
176
     1
 90
        6
176
     1
 90
        2
176
     1
 62
     7
176
     1
 90
        5
176
     1
 90
        0
176
     1
 90
        0
176
     1
290
     0
176
     1
 90
        1
176
     1
 40
0.0
176
     1
 90
        0
176
     1
290
     0
176
     1
290
     1
176
     1
290
     1
176
     1
290
     0
176
     1
290
     0
176
     1
290
     0
176
     1
290
     0
176
     1
290
     0
176
     1
290
     0
176
     1
 90
       50
176
     1
 40
0.0
176
     1
 40
1.0
176
     1
 90
        0
176
     1
 62
   178
420
        0
176
     1
 90
       50
176
     1
 90
        3
176
     1
 62
     5
420
      255
176
     1
290
     0
176
     1
 90
       50
176
     1
 90
       50
176
     1
 90
       50
176
     1
290
     0
176
     1
 90
       50
176
     1
 62
   256
176
     0
 40
1.0
176
     0
 90
        2
176
     1
  1
strokes_ogs.tif
176
     1
290
     0
176
     1
 40
1.0
176
     1
 40
1.0
176
     1
  0
VISUALSTYLE
  5
1D68
102
{ACAD_REACTORS
330
1D56
102
}
330
1D56
100
AcDbVisualStyle
  2
OverhangOff
 70
    21
177
     3
291
     1
 70
    58
 90
        2
176
     0
 90
        2
176
     0
 90
        0
176
     0
 90
        0
176
     0
 40
0.6
176
     0
 40
30.0
176
     0
 62
     7
420
 16777215
176
     0
 90
        1
176
     0
 90
        4
176
     0
 62
     7
176
     0
 62
   257
176
     0
 90
        1
176
     0
 90
        1
176
     0
 40
1.0
176
     0
 90
        9
176
     2
 62
     7
176
     0
 40
1.0
176
     0
 90
        1
176
     0
 90
        6
176
     0
 90
        2
176
     0
 62
     7
176
     0
 90
        5
176
     0
 90
        0
176
     0
 90
        0
176
     0
290
     0
176
     0
 90
        1
176
     0
 40
0.0
176
     0
 90
        0
176
     0
290
     0
176
     0
290
     1
176
     0
290
     1
176
     0
290
     0
176
     0
290
     0
176
     0
290
     0
176
     0
290
     0
176
     0
290
     0
176
     0
290
     0
176
     0
 90
       50
176
     0
 40
0.0
176
     0
 40
1.0
176
     0
 90
        0
176
     0
 62
   178
420
        0
176
     0
 90
       50
176
     0
 90
        3
176
     0
 62
     5
420
      255
176
     0
290
     0
176
     0
 90
       50
176
     0
 90
       50
176
     0
 90
       50
176
     0
290
     0
176
     0
 90
       50
176
     0
 62
   256
176
     0
 40
1.0
176
     0
 90
        2
176
     0
  1
strokes_ogs.tif
176
     0
290
     0
176
     0
 40
1.0
176
     0
 40
1.0
176
     0
  0
VISUALSTYLE
  5
1D5F
102
{ACAD_REACTORS
330
1D56
102
}
330
1D56
100
AcDbVisualStyle
  2
Realistic
 70
     8
177
     3
291
     0
 70
    58
 90
        2
176
     1
 90
        3
176
     1
 90
        0
176
     1
 90
        2
176
     1
 40
0.6
176
     1
 40
30.0
176
     1
 62
     7
420
 16777215
176
     1
 90
        0
176
     1
 90
        0
176
     1
 62
     7
176
     1
 62
   257
176
     1
 90
        1
176
     1
 90
        1
176
     1
 40
1.0
176
     1
 90
        8
176
     1
 62
   257
176
     1
 40
1.0
176
     1
 90
        1
176
     1
 90
        6
176
     1
 90
        2
176
     1
 62
     7
176
     1
 90
        3
176
     1
 90
        0
176
     1
 90
        0
176
     1
290
     0
176
     1
 90
       13
176
     1
 40
0.0
176
     1
 90
        0
176
     1
290
     0
176
     1
290
     1
176
     1
290
     1
176
     1
290
     0
176
     1
290
     0
176
     1
290
     0
176
     1
290
     0
176
     1
290
     0
176
     1
290
     0
176
     1
 90
       50
176
     1
 40
0.0
176
     1
 40
1.0
176
     1
 90
        0
176
     1
 62
   178
420
        0
176
     1
 90
       50
176
     1
 90
        3
176
     1
 62
     5
420
      255
176
     1
290
     0
176
     1
 90
       50
176
     1
 90
       50
176
     1
 90
       50
176
     1
290
     0
176
     1
 90
       50
176
     1
 62
   256
176
     0
 40
1.0
176
     0
 90
        2
176
     1
  1
strokes_ogs.tif
176
     1
290
     0
176
     1
 40
1.0
176
     1
 40
1.0
176
     1
  0
VISUALSTYLE
  5
1D6E
102
{ACAD_REACTORS
330
1D56
102
}
330
1D56
100
AcDbVisualStyle
  2
Shaded
 70
    27
177
     3
291
     0
 70
    58
 90
        2
176
     1
 90
        2
176
     1
 90
        1
176
     1
 90
        2
176
     1
 40
0.6
176
     1
 40
30.0
176
     1
 62
     7
420
 16777215
176
     1
 90
        0
176
     1
 90
        4
176
     1
 62
     7
176
     1
 62
   257
176
     1
 90
        1
176
     1
 90
        1
176
     1
 40
1.0
176
     1
 90
        8
176
     1
 62
   257
176
     1
 40
1.0
176
     1
 90
        1
176
     1
 90
        6
176
     1
 90
        2
176
     1
 62
     8
420
  7895160
176
     1
 90
        3
176
     1
 90
        0
176
     1
 90
        0
176
     1
290
     0
176
     1
 90
        5
176
     1
 40
0.0
176
     1
 90
        0
176
     1
290
     0
176
     1
290
     1
176
     1
290
     1
176
     1
290
     0
176
     1
290
     0
176
     1
290
     0
176
     1
290
     0
176
     1
290
     0
176
     1
290
     0
176
     1
 90
       50
176
     1
 40
0.0
176
     1
 40
1.0
176
     1
 90
        0
176
     1
 62
   178
420
        0
176
     1
 90
       50
176
     1
 90
        3
176
     1
 62
     5
420
      255
176
     1
290
     0
176
     1
 90
       50
176
     1
 90
       50
176
     1
 90
       50
176
     1
290
     0
176
     1
 90
       50
176
     1
 62
   256
176
     0
 40
1.0
176
     0
 90
        2
176
     1
  1
strokes_ogs.tif
176
     1
290
     0
176
     1
 40
1.0
176
     1
 40
1.0
176
     1
  0
VISUALSTYLE
  5
1D6D
102
{ACAD_REACTORS
330
1D56
102
}
330
1D56
100
AcDbVisualStyle
  2
Shaded with edges
 70
    26
177
     3
291
     0
 70
    58
 90
        2
176
     1
 90
        2
176
     1
 90
        1
176
     1
 90
        2
176
     1
 40
0.6
176
     1
 40
30.0
176
     1
 62
     7
420
 16777215
176
     1
 90
        1
176
     1
 90
       10
176
     1
 62
     7
176
     1
 62
   257
176
     1
 90
        2
176
     1
 90
        1
176
     1
 40
1.0
176
     1
 90
        8
176
     1
 62
   257
176
     1
 40
1.0
176
     1
 90
        1
176
     1
 90
        6
176
     1
 90
        2
176
     1
 62
     7
176
     1
 90
        3
176
     1
 90
        0
176
     1
 90
        0
176
     1
290
     0
176
     1
 90
        5
176
     1
 40
0.0
176
     1
 90
        0
176
     1
290
     0
176
     1
290
     1
176
     1
290
     1
176
     1
290
     0
176
     1
290
     0
176
     1
290
     0
176
     1
290
     0
176
     1
290
     0
176
     1
290
     0
176
     1
 90
       50
176
     1
 40
0.0
176
     1
 40
1.0
176
     1
 90
        0
176
     1
 62
   178
420
        0
176
     1
 90
       50
176
     1
 90
        3
176
     1
 62
     5
420
      255
176
     1
290
     0
176
     1
 90
       50
176
     1
 90
       50
176
     1
 90
       50
176
     1
290
     0
176
     1
 90
       50
176
     1
 62
   256
176
     0
 40
1.0
176
     0
 90
        2
176
     1
  1
strokes_ogs.tif
176
     1
290
     0
176
     1
 40
1.0
176
     1
 40
1.0
176
     1
  0
VISUALSTYLE
  5
1D6A
102
{ACAD_REACTORS
330
1D56
102
}
330
1D56
100
AcDbVisualStyle
  2
Shades of Gray
 70
    23
177
     3
291
     0
 70
    58
 90
        2
176
     1
 90
        2
176
     1
 90
        3
176
     1
 90
        0
176
     1
 40
0.6
176
     1
 40
30.0
176
     1
 62
     7
420
 16777215
176
     1
 90
        2
176
     1
 90
        2
176
     1
 62
     7
176
     1
 62
     7
176
     1
 90
        1
176
     1
 90
        1
176
     1
 40
40.0
176
     1
 90
        8
176
     1
 62
     7
176
     1
 40
1.0
176
     1
 90
        1
176
     1
 90
        6
176
     1
 90
        2
176
     1
 62
     7
176
     1
 90
        3
176
     1
 90
        0
176
     1
 90
        0
176
     1
290
     0
176
     1
 90
        1
176
     1
 40
0.0
176
     1
 90
        0
176
     1
290
     0
176
     1
290
     1
176
     1
290
     1
176
     1
290
     0
176
     1
290
     0
176
     1
290
     0
176
     1
290
     0
176
     1
290
     0
176
     1
290
     0
176
     1
 90
       50
176
     1
 40
0.0
176
     1
 40
1.0
176
     1
 90
        0
176
     1
 62
   178
420
        0
176
     1
 90
       50
176
     1
 90
        3
176
     1
 62
     5
420
      255
176
     1
290
     0
176
     1
 90
       50
176
     1
 90
       50
176
     1
 90
       50
176
     1
290
     0
176
     1
 90
       50
176
     1
 62
   256
176
     0
 40
1.0
176
     0
 90
        2
176
     1
  1
strokes_ogs.tif
176
     1
290
     0
176
     1
 40
1.0
176
     1
 40
1.0
176
     1
  0
VISUALSTYLE
  5
1D6B
102
{ACAD_REACTORS
330
1D56
102
}
330
1D56
100
AcDbVisualStyle
  2
Sketchy
 70
    24
177
     3
291
     0
 70
    58
 90
        1
176
     1
 90
        2
176
     1
 90
        2
176
     1
 90
        0
176
     1
 40
0.6
176
     1
 40
30.0
176
     1
 62
     7
420
 16777215
176
     1
 90
        2
176
     1
 90
        2
176
     1
 62
     7
176
     1
 62
     7
176
     1
 90
        1
176
     1
 90
        1
176
     1
 40
40.0
176
     1
 90
       11
176
     1
 62
     7
176
     1
 40
1.0
176
     1
 90
        1
176
     1
 90
        6
176
     1
 90
        2
176
     1
 62
     7
176
     1
 90
        6
176
     1
 90
        0
176
     1
 90
        0
176
     1
290
     0
176
     1
 90
        1
176
     1
 40
0.0
176
     1
 90
        0
176
     1
290
     0
176
     1
290
     1
176
     1
290
     1
176
     1
290
     0
176
     1
290
     0
176
     1
290
     0
176
     1
290
     0
176
     1
290
     0
176
     1
290
     0
176
     1
 90
       50
176
     1
 40
0.0
176
     1
 40
1.0
176
     1
 90
        0
176
     1
 62
   178
420
        0
176
     1
 90
       50
176
     1
 90
        3
176
     1
 62
     5
420
      255
176
     1
290
     0
176
     1
 90
       50
176
     1
 90
       50
176
     1
 90
       50
176
     1
290
     0
176
     1
 90
       50
176
     1
 62
   256
176
     0
 40
1.0
176
     0
 90
        2
176
     1
  1
strokes_ogs.tif
176
     1
290
     0
176
     1
 40
1.0
176
     1
 40
1.0
176
     1
  0
VISUALSTYLE
  5
1D63
102
{ACAD_REACTORS
330
1D56
102
}
330
1D56
100
AcDbVisualStyle
  2
Thicken
 70
    13
177
     3
291
     1
 70
    58
 90
        2
176
     1
 90
        2
176
     1
 90
        0
176
     1
 90
        0
176
     1
 40
0.6
176
     1
 40
30.0
176
     1
 62
     7
420
 16777215
176
     1
 90
        1
176
     1
 90
        4
176
     1
 62
     7
176
     1
 62
   257
176
     1
 90
        1
176
     1
 90
        1
176
     1
 40
1.0
176
     1
 90
       12
176
     1
 62
     7
176
     1
 40
1.0
176
     1
 90
        1
176
     1
 90
        6
176
     1
 90
        2
176
     1
 62
     7
176
     1
 90
        5
176
     1
 90
        0
176
     1
 90
        0
176
     1
290
     0
176
     1
 90
        1
176
     1
 40
0.0
176
     1
 90
        0
176
     1
290
     0
176
     1
290
     1
176
     1
290
     1
176
     1
290
     0
176
     1
290
     0
176
     1
290
     0
176
     1
290
     0
176
     1
290
     0
176
     1
290
     0
176
     1
 90
       50
176
     1
 40
0.0
176
     1
 40
1.0
176
     1
 90
        0
176
     1
 62
   178
420
        0
176
     1
 90
       50
176
     1
 90
        3
176
     1
 62
     5
420
      255
176
     1
290
     0
176
     1
 90
       50
176
     1
 90
       50
176
     1
 90
       50
176
     1
290
     0
176
     1
 90
       50
176
     1
 62
   256
176
     0
 40
1.0
176
     0
 90
        2
176
     1
  1
strokes_ogs.tif
176
     1
290
     0
176
     1
 40
1.0
176
     1
 40
1.0
176
     1
  0
VISUALSTYLE
  5
1D5C
102
{ACAD_REACTORS
330
1D56
102
}
330
1D56
100
AcDbVisualStyle
  2
Wireframe
 70
     5
177
     3
291
     0
 70
    58
 90
        0
176
     1
 90
        2
176
     1
 90
        0
176
     1
 90
        0
176
     1
 40
0.6
176
     1
 40
30.0
176
     1
 62
     7
420
 16777215
176
     1
 90
        1
176
     1
 90
        4
176
     1
 62
     7
176
     1
 62
   257
176
     1
 90
        1
176
     1
 90
        1
176
     1
 40
1.0
176
     1
 90
        0
176
     1
 62
   257
176
     1
 40
1.0
176
     1
 90
        1
176
     1
 90
        6
176
     1
 90
        2
176
     1
 62
     7
176
     1
 90
        3
176
     1
 90
        0
176
     1
 90
        0
176
     1
290
     0
176
     1
 90
        1
176
     1
 40
0.0
176
     1
 90
        0
176
     1
290
     0
176
     1
290
     1
176
     1
290
     1
176
     1
290
     0
176
     1
290
     0
176
     1
290
     0
176
     1
290
     0
176
     1
290
     0
176
     1
290
     0
176
     1
 90
       50
176
     1
 40
0.0
176
     1
 40
1.0
176
     1
 90
        0
176
     1
 62
   178
420
        0
176
     1
 90
       50
176
     1
 90
        3
176
     1
 62
     5
420
      255
176
     1
290
     0
176
     1
 90
       50
176
     1
 90
       50
176
     1
 90
       50
176
     1
290
     0
176
     1
 90
       50
176
     1
 62
   256
176
     0
 40
1.0
176
     0
 90
        2
176
     1
  1
strokes_ogs.tif
176
     1
290
     0
176
     1
 40
1.0
176
     1
 40
1.0
176
     1
  0
VISUALSTYLE
  5
1D6C
102
{ACAD_REACTORS
330
1D56
102
}
330
1D56
100
AcDbVisualStyle
  2
X-Ray
 70
    25
177
     3
291
     0
 70
    58
 90
        2
176
     1
 90
        2
176
     1
 90
        1
176
     1
 90
        1
176
     1
 40
0.5
176
     1
 40
30.0
176
     1
 62
     7
420
 16777215
176
     1
 90
        1
176
     1
 90
        0
176
     1
 62
     7
176
     1
 62
   257
176
     1
 90
        1
176
     1
 90
        1
176
     1
 40
1.0
176
     1
 90
        8
176
     1
 62
     7
176
     1
 40
1.0
176
     1
 90
        1
176
     1
 90
        6
176
     1
 90
        2
176
     1
 62
     7
176
     1
 90
        3
176
     1
 90
        0
176
     1
 90
        0
176
     1
290
     0
176
     1
 90
       13
176
     1
 40
0.0
176
     1
 90
        0
176
     1
290
     0
176
     1
290
     1
176
     1
290
     1
176
     1
290
     0
176
     1
290
     0
176
     1
290
     0
176
     1
290
     0
176
     1
290
     0
176
     1
290
     0
176
     1
 90
       50
176
     1
 40
0.0
176
     1
 40
1.0
176
     1
 90
        0
176
     1
 62
   178
420
        0
176
     1
 90
       50
176
     1
 90
        3
176
     1
 62
     5
420
      255
176
     1
290
     0
176
     1
 90
       50
176
     1
 90
       50
176
     1
 90
       50
176
     1
290
     0
176
     1
 90
       50
176
     1
 62
   256
176
     0
 40
1.0
176
     0
 90
        2
176
     1
  1
strokes_ogs.tif
176
     1
290
     0
176
     1
 40
1.0
176
     1
 40
1.0
176
     1
  0
DICTIONARYVAR
  5
1E1B
102
{ACAD_REACTORS
330
1E1A
102
}
330
1E1A
100
DictionaryVariables
280
     0
  1
1:1
  0
DICTIONARYVAR
  5
1E20
102
{ACAD_REACTORS
330
1E1A
102
}
330
1E1A
100
DictionaryVariables
280
     0
  1
Standard
  0
DICTIONARYVAR
  5
1E1F
102
{ACAD_REACTORS
330
1E1A
102
}
330
1E1A
100
DictionaryVariables
280
     0
  1
Standard
  0
XRECORD
  5
1D9D
102
{ACAD_REACTORS
330
1D9B
102
}
330
1D9B
100
AcDbXrecord
280
     1
1000
#ffffff
  0
XRECORD
  5
1D9E
102
{ACAD_REACTORS
330
1D9B
102
}
330
1D9B
100
AcDbXrecord
280
     1
1000
FullColor
  0
XRECORD
  5
1D9F
102
{ACAD_REACTORS
330
1D9B
102
}
330
1D9B
100
AcDbXrecord
280
     1
290
     1
  0
XRECORD
  5
1DA0
102
{ACAD_REACTORS
330
1D9B
102
}
330
1D9B
100
AcDbXrecord
280
     1
290
     1
  0
XRECORD
  5
1DA1
102
{ACAD_REACTORS
330
1D9B
102
}
330
1D9B
100
AcDbXrecord
280
     1
290
     1
  0
XRECORD
  5
1DA2
102
{ACAD_REACTORS
330
1D9B
102
}
330
1D9B
100
AcDbXrecord
280
     1
290
     1
  0
XRECORD
  5
1DA3
102
{ACAD_REACTORS
330
1D9B
102
}
330
1D9B
100
AcDbXrecord
280
     1
1000
auto
  0
XRECORD
  5
1DA4
102
{ACAD_REACTORS
330
1D9B
102
}
330
1D9B
100
AcDbXrecord
280
     1
1000
auto
  0
XRECORD
  5
1DA5
102
{ACAD_REACTORS
330
1D9B
102
}
330
1D9B
100
AcDbXrecord
280
     1
1000
auto
  0
XRECORD
  5
1DA6
102
{ACAD_REACTORS
330
1D9B
102
}
330
1D9B
100
AcDbXrecord
280
     1
1000
auto
  0
XRECORD
  5
1DA7
102
{ACAD_REACTORS
330
1D9B
102
}
330
1D9B
100
AcDbXrecord
280
     1
1000
auto
  0
XRECORD
  5
1DA8
102
{ACAD_REACTORS
330
1D9B
102
}
330
1D9B
100
AcDbXrecord
280
     1
1000
auto
  0
XRECORD
  5
1DA9
102
{ACAD_REACTORS
330
1D9B
102
}
330
1D9B
100
AcDbXrecord
280
     1
1000
auto
  0
XRECORD
  5
1DAA
102
{ACAD_REACTORS
330
1D9B
102
}
330
1D9B
100
AcDbXrecord
280
     1
1000
auto
  0
XRECORD
  5
1DAB
102
{ACAD_REACTORS
330
1D9B
102
}
330
1D9B
100
AcDbXrecord
280
     1
290
     0
  0
XRECORD
  5
1DAC
102
{ACAD_REACTORS
330
1D9B
102
}
330
1D9B
100
AcDbXrecord
280
     1
290
     0
  0
XRECORD
  5
1DAD
102
{ACAD_REACTORS
330
1D9B
102
}
330
1D9B
100
AcDbXrecord
280
     1
290
     0
  0
XRECORD
  5
1DAE
102
{ACAD_REACTORS
330
1D9B
102
}
330
1D9B
100
AcDbXrecord
280
     1
290
     0
  0
XRECORD
  5
1DAF
102
{ACAD_REACTORS
330
1D9B
102
}
330
1D9B
100
AcDbXrecord
280
     1
 90
    65537
  0
XRECORD
  5
1DB0
102
{ACAD_REACTORS
330
1D9B
102
}
330
1D9B
100
AcDbXrecord
280
     1
 90
    65537
  0
XRECORD
  5
1DB1
102
{ACAD_REACTORS
330
1D9B
102
}
330
1D9B
100
AcDbXrecord
280
     1
 90
    65537
  0
XRECORD
  5
1DB2
102
{ACAD_REACTORS
330
1D9B
102
}
330
1D9B
100
AcDbXrecord
280
     1
 90
    65537
  0
XRECORD
  5
1DB3
102
{ACAD_REACTORS
330
1D9B
102
}
330
1D9B
100
AcDbXrecord
280
     1
1000
auto
  0
XRECORD
  5
1DB4
102
{ACAD_REACTORS
330
1D9B
102
}
330
1D9B
100
AcDbXrecord
280
     1
1000
auto
  0
XRECORD
  5
1DB5
102
{ACAD_REACTORS
330
1D9B
102
}
330
1D9B
100
AcDbXrecord
280
     1
1000
auto
  0
XRECORD
  5
1DB6
102
{ACAD_REACTORS
330
1D9B
102
}
330
1D9B
100
AcDbXrecord
280
     1
1000
auto
  0
XRECORD
  5
1DB7
102
{ACAD_REACTORS
330
1D9B
102
}
330
1D9B
100
AcDbXrecord
280
     1
1000
auto
  0
XRECORD
  5
1DB8
102
{ACAD_REACTORS
330
1D9B
102
}
330
1D9B
100
AcDbXrecord
280
     1
1000
auto
  0
XRECORD
  5
1DB9
102
{ACAD_REACTORS
330
1D9B
102
}
330
1D9B
100
AcDbXrecord
280
     1
1000
auto
  0
XRECORD
  5
1DBA
102
{ACAD_REACTORS
330
1D9B
102
}
330
1D9B
100
AcDbXrecord
280
     1
1000
auto
  0
XRECORD
  5
1DBB
102
{ACAD_REACTORS
330
1D9B
102
}
330
1D9B
100
AcDbXrecord
280
     1
 90
        1
  0
XRECORD
  5
1DBC
102
{ACAD_REACTORS
330
1D9B
102
}
330
1D9B
100
AcDbXrecord
280
     1
 40
10.0
  0
XRECORD
  5
1DBD
102
{ACAD_REACTORS
330
1D9B
102
}
330
1D9B
100
AcDbXrecord
280
     1
 40
10.0
  0
XRECORD
  5
1DBE
102
{ACAD_REACTORS
330
1D9B
102
}
330
1D9B
100
AcDbXrecord
280
     1
 40
10.0
  0
XRECORD
  5
1DBF
102
{ACAD_REACTORS
330
1D9B
102
}
330
1D9B
100
AcDbXrecord
280
     1
 40
10.0
  0
XRECORD
  5
1DC0
102
{ACAD_REACTORS
330
1D9B
102
}
330
1D9B
100
AcDbXrecord
280
     1
290
     0
  0
XRECORD
  5
1DC1
102
{ACAD_REACTORS
330
1D9B
102
}
330
1D9B
100
AcDbXrecord
280
     1
 90
        1
  0
XRECORD
  5
1DC2
102
{ACAD_REACTORS
330
1D9B
102
}
330
1D9B
100
AcDbXrecord
280
     1
 40
0.0
  0
XRECORD
  5
1DC3
102
{ACAD_REACTORS
330
1D9B
102
}
330
1D9B
100
AcDbXrecord
280
     1
 40
0.0
  0
XRECORD
  5
1DC4
102
{ACAD_REACTORS
330
1D9B
102
}
330
1D9B
100
AcDbXrecord
280
     1
1000
Portrait
  0
XRECORD
  5
1DC5
102
{ACAD_REACTORS
330
1D9B
102
}
330
1D9B
100
AcDbXrecord
280
     1
 40
297.0
  0
XRECORD
  5
1DC6
102
{ACAD_REACTORS
330
1D9B
102
}
330
1D9B
100
AcDbXrecord
280
     1
 40
210.0
  0
XRECORD
  5
1DC7
102
{ACAD_REACTORS
330
1D9B
102
}
330
1D9B
100
AcDbXrecord
280
     1
1000
1:1
  0
XRECORD
  5
1DC8
102
{ACAD_REACTORS
330
1D9B
102
}
330
1D9B
100
AcDbXrecord
280
     1
290
     1
  0
XRECORD
  5
1DC9
102
{ACAD_REACTORS
330
1D9B
102
}
330
1D9B
100
AcDbXrecord
280
     1
1000
3.22.0
  0
XRECORD
  5
1DCA
102
{ACAD_REACTORS
330
1D9B
102
}
330
1D9B
100
AcDbXrecord
280
     1
 90
        4
  0
XRECORD
  5
1DCB
102
{ACAD_REACTORS
330
1D9B
102
}
330
1D9B
100
AcDbXrecord
280
     1
  0
XRECORD
  5
1DCC
102
{ACAD_REACTORS
330
1D9B
102
}
330
1D9B
100
AcDbXrecord
280
     1
 40
674.575433416458
  0
XRECORD
  5
1DCD
102
{ACAD_REACTORS
330
1D9B
102
}
330
1D9B
100
AcDbXrecord
280
     1
 40
1392.527114214462
  0
DICTIONARY
  5
1E1C
330
1D96
100
AcDbDictionary
280
     1
281
     1
  3
ACAD_ROUNDTRIP_2008_TABLESTYLE_CELLSTYLEMAP
360
1E1D
  0
CELLSTYLEMAP
  5
1E1D
102
{ACAD_REACTORS
330
1E1C
102
}
330
1E1C
100
AcDbCellStyleMap
 90
        3
300
CELLSTYLE
  1
TABLEFORMAT_BEGIN
 90
        5
170
     1
 91
        0
 92
    32768
 62
   257
 93
        1
300
CONTENTFORMAT
  1
CONTENTFORMAT_BEGIN
 90
        0
 91
        0
 92
        4
 93
        0
300

 40
0.0
140
1.0
 94
        5
 62
     0
340
1D3E
144
0.25
309
CONTENTFORMAT_END
171
     1
301
MARGIN
  1
CELLMARGIN_BEGIN
 40
0.06
 40
0.06
 40
0.06
 40
0.06
 40
0.06
 40
0.06
309
CELLMARGIN_END
 94
        6
 95
        1
302
GRIDFORMAT
  1
GRIDFORMAT_BEGIN
 90
        0
 91
        1
 62
     0
 92
       -2
340
1D40
 93
        0
 40
0.045
309
GRIDFORMAT_END
 95
        2
302
GRIDFORMAT
  1
GRIDFORMAT_BEGIN
 90
        0
 91
        1
 62
     0
 92
       -2
340
1D40
 93
        0
 40
0.045
309
GRIDFORMAT_END
 95
        4
302
GRIDFORMAT
  1
GRIDFORMAT_BEGIN
 90
        0
 91
        1
 62
     0
 92
       -2
340
1D40
 93
        0
 40
0.045
309
GRIDFORMAT_END
 95
        8
302
GRIDFORMAT
  1
GRIDFORMAT_BEGIN
 90
        0
 91
        1
 62
     0
 92
       -2
340
1D40
 93
        0
 40
0.045
309
GRIDFORMAT_END
 95
       16
302
GRIDFORMAT
  1
GRIDFORMAT_BEGIN
 90
        0
 91
        1
 62
     0
 92
       -2
340
1D40
 93
        0
 40
0.045
309
GRIDFORMAT_END
 95
       32
302
GRIDFORMAT
  1
GRIDFORMAT_BEGIN
 90
        0
 91
        1
 62
     0
 92
       -2
340
1D40
 93
        0
 40
0.045
309
GRIDFORMAT_END
309
TABLEFORMAT_END
  1
CELLSTYLE_BEGIN
 90
        1
 91
        1
300
_TITLE
309
CELLSTYLE_END
300
CELLSTYLE
  1
TABLEFORMAT_BEGIN
 90
        5
170
     1
 91
        0
 92
        0
 62
   257
 93
        1
300
CONTENTFORMAT
  1
CONTENTFORMAT_BEGIN
 90
        0
 91
        0
 92
        4
 93
        0
300

 40
0.0
140
1.0
 94
        5
 62
     0
340
1D3E
144
0.18
309
CONTENTFORMAT_END
171
     1
301
MARGIN
  1
CELLMARGIN_BEGIN
 40
0.06
 40
0.06
 40
0.06
 40
0.06
 40
0.06
 40
0.06
309
CELLMARGIN_END
 94
        6
 95
        1
302
GRIDFORMAT
  1
GRIDFORMAT_BEGIN
 90
        0
 91
        1
 62
     0
 92
       -2
340
1D40
 93
        0
 40
0.045
309
GRIDFORMAT_END
 95
        2
302
GRIDFORMAT
  1
GRIDFORMAT_BEGIN
 90
        0
 91
        1
 62
     0
 92
       -2
340
1D40
 93
        0
 40
0.045
309
GRIDFORMAT_END
 95
        4
302
GRIDFORMAT
  1
GRIDFORMAT_BEGIN
 90
        0
 91
        1
 62
     0
 92
       -2
340
1D40
 93
        0
 40
0.045
309
GRIDFORMAT_END
 95
        8
302
GRIDFORMAT
  1
GRIDFORMAT_BEGIN
 90
        0
 91
        1
 62
     0
 92
       -2
340
1D40
 93
        0
 40
0.045
309
GRIDFORMAT_END
 95
       16
302
GRIDFORMAT
  1
GRIDFORMAT_BEGIN
 90
        0
 91
        1
 62
     0
 92
       -2
340
1D40
 93
        0
 40
0.045
309
GRIDFORMAT_END
 95
       32
302
GRIDFORMAT
  1
GRIDFORMAT_BEGIN
 90
        0
 91
        1
 62
     0
 92
       -2
340
1D40
 93
        0
 40
0.045
309
GRIDFORMAT_END
309
TABLEFORMAT_END
  1
CELLSTYLE_BEGIN
 90
        2
 91
        1
300
_HEADER
309
CELLSTYLE_END
300
CELLSTYLE
  1
TABLEFORMAT_BEGIN
 90
        5
170
     1
 91
        0
 92
        0
 62
   257
 93
        1
300
CONTENTFORMAT
  1
CONTENTFORMAT_BEGIN
 90
        0
 91
        0
 92
        4
 93
        0
300

 40
0.0
140
1.0
 94
        2
 62
     0
340
1D3E
144
0.18
309
CONTENTFORMAT_END
171
     1
301
MARGIN
  1
CELLMARGIN_BEGIN
 40
0.06
 40
0.06
 40
0.06
 40
0.06
 40
0.06
 40
0.06
309
CELLMARGIN_END
 94
        6
 95
        1
302
GRIDFORMAT
  1
GRIDFORMAT_BEGIN
 90
        0
 91
        1
 62
     0
 92
       -2
340
1D40
 93
        0
 40
0.045
309
GRIDFORMAT_END
 95
        2
302
GRIDFORMAT
  1
GRIDFORMAT_BEGIN
 90
        0
 91
        1
 62
     0
 92
       -2
340
1D40
 93
        0
 40
0.045
309
GRIDFORMAT_END
 95
        4
302
GRIDFORMAT
  1
GRIDFORMAT_BEGIN
 90
        0
 91
        1
 62
     0
 92
       -2
340
1D40
 93
        0
 40
0.045
309
GRIDFORMAT_END
 95
        8
302
GRIDFORMAT
  1
GRIDFORMAT_BEGIN
 90
        0
 91
        1
 62
     0
 92
       -2
340
1D40
 93
        0
 40
0.045
309
GRIDFORMAT_END
 95
       16
302
GRIDFORMAT
  1
GRIDFORMAT_BEGIN
 90
        0
 91
        1
 62
     0
 92
       -2
340
1D40
 93
        0
 40
0.045
309
GRIDFORMAT_END
 95
       32
302
GRIDFORMAT
  1
GRIDFORMAT_BEGIN
 90
        0
 91
        1
 62
     0
 92
       -2
340
1D40
 93
        0
 40
0.045
309
GRIDFORMAT_END
309
TABLEFORMAT_END
  1
CELLSTYLE_BEGIN
 90
        3
 91
        2
300
_DATA
309
CELLSTYLE_END
  0
ENDSEC
  0
EOF
