  0
SECTION
  2
HEADER
  9
$ACADVER
  1
AC1027
  9
$ACADMAINTVER
 70
   105
  9
$DWGCODEPAGE
  3
ANSI_1252
  9
$REQUIREDVERSIONS
160
                 0
  9
$INSBASE
 10
0.0
 20
0.0
 30
0.0
  9
$EXTMIN
 10
40.48689999999999
 20
90.48689999999999
 30
0.0
  9
$EXTMAX
 10
-40.4869
 20
-18.00000000000033
 30
0.0
  9
$LIMMIN
 10
0.0
 20
0.0
  9
$LIMMAX
 10
12.0
 20
9.0
  9
$ORTHOMODE
 70
     0
  9
$REGENMODE
 70
     1
  9
$FILLMODE
 70
     1
  9
$QTEXTMODE
 70
     0
  9
$MIRRTEXT
 70
     1
  9
$LTSCALE
 40
1.0
  9
$ATTMODE
 70
     1
  9
$TEXTSIZE
 40
0.2
  9
$TRACEWID
 40
0.05
  9
$TEXTSTYLE
  7
Standard
  9
$CLAYER
  8
0
  9
$CELTYPE
  6
ByLayer
  9
$CECOLOR
 62
   256
  9
$CELTSCALE
 40
1.0
  9
$DISPSILH
 70
     0
  9
$DIMSCALE
 40
1.0
  9
$DIMASZ
 40
2.5
  9
$DIMEXO
 40
0.625
  9
$DIMDLI
 40
5.0
  9
$DIMRND
 40
0.0
  9
$DIMDLE
 40
0.0
  9
$DIMEXE
 40
1.25
  9
$DIMTP
 40
0.0
  9
$DIMTM
 40
0.0
  9
$DIMTXT
 40
2.5
  9
$DIMCEN
 40
0.09
  9
$DIMTSZ
 40
0.0
  9
$DIMTOL
 70
     0
  9
$DIMLIM
 70
     0
  9
$DIMTIH
 70
     1
  9
$DIMTOH
 70
     1
  9
$DIMSE1
 70
     0
  9
$DIMSE2
 70
     0
  9
$DIMTAD
 70
     0
  9
$DIMZIN
 70
     8
  9
$DIMBLK
  1

  9
$DIMASO
 70
     1
  9
$DIMSHO
 70
     1
  9
$DIMPOST
  1

  9
$DIMAPOST
  1

  9
$DIMALT
 70
     0
  9
$DIMALTD
 70
     2
  9
$DIMALTF
 40
25.4
  9
$DIMLFAC
 40
1.0
  9
$DIMTOFL
 70
     0
  9
$DIMTVP
 40
0.0
  9
$DIMTIX
 70
     0
  9
$DIMSOXD
 70
     0
  9
$DIMSAH
 70
     0
  9
$DIMBLK1
  1

  9
$DIMBLK2
  1

  9
$DIMSTYLE
  2
Standard
  9
$DIMCLRD
 70
     0
  9
$DIMCLRE
 70
     0
  9
$DIMCLRT
 70
     0
  9
$DIMTFAC
 40
1.0
  9
$DIMGAP
 40
0.625
  9
$DIMJUST
 70
     0
  9
$DIMSD1
 70
     0
  9
$DIMSD2
 70
     0
  9
$DIMTOLJ
 70
     1
  9
$DIMTZIN
 70
     0
  9
$DIMALTZ
 70
     0
  9
$DIMALTTZ
 70
     0
  9
$DIMUPT
 70
     0
  9
$DIMDEC
 70
     4
  9
$DIMTDEC
 70
     4
  9
$DIMALTU
 70
     2
  9
$DIMALTTD
 70
     2
  9
$DIMTXSTY
  7
Standard
  9
$DIMAUNIT
 70
     0
  9
$DIMADEC
 70
     0
  9
$DIMALTRND
 40
0.0
  9
$DIMAZIN
 70
     2
  9
$DIMDSEP
 70
    46
  9
$DIMATFIT
 70
     3
  9
$DIMFRAC
 70
     0
  9
$DIMLDRBLK
  1

  9
$DIMLUNIT
 70
     2
  9
$DIMLWD
 70
    -2
  9
$DIMLWE
 70
    -2
  9
$DIMTMOVE
 70
     0
  9
$DIMFXL
 40
1.0
  9
$DIMFXLON
 70
     0
  9
$DIMJOGANG
 40
0.7853981633974483
  9
$DIMTFILL
 70
     0
  9
$DIMTFILLCLR
 70
     0
  9
$DIMARCSYM
 70
     0
  9
$DIMLTYPE
  6

  9
$DIMLTEX1
  6

  9
$DIMLTEX2
  6

  9
$DIMTXTDIRECTION
 70
     0
  9
$LUNITS
 70
     2
  9
$LUPREC
 70
     4
  9
$SKETCHINC
 40
0.1
  9
$FILLETRAD
 40
0.5
  9
$AUNITS
 70
     0
  9
$AUPREC
 70
     0
  9
$MENU
  1
.
  9
$ELEVATION
 40
0.0
  9
$PELEVATION
 40
0.0
  9
$THICKNESS
 40
0.0
  9
$LIMCHECK
 70
     0
  9
$CHAMFERA
 40
0.0
  9
$CHAMFERB
 40
0.0
  9
$CHAMFERC
 40
0.0
  9
$CHAMFERD
 40
0.0
  9
$SKPOLY
 70
     0
  9
$TDCREATE
 40
2458629.472958993
  9
$TDUCREATE
 40
2458629.13962566
  9
$TDUPDATE
 40
2458629.472959144
  9
$TDUUPDATE
 40
2458629.13962581
  9
$TDINDWG
 40
0.0000000116
  9
$TDUSRTIMER
 40
0.0000000116
  9
$USRTIMER
 70
     1
  9
$ANGBASE
 50
0.0
  9
$ANGDIR
 70
     0
  9
$PDMODE
 70
     0
  9
$PDSIZE
 40
0.0
  9
$PLINEWID
 40
0.0
  9
$SPLFRAME
 70
     0
  9
$SPLINETYPE
 70
     6
  9
$SPLINESEGS
 70
     8
  9
$HANDSEED
  5
16F
  9
$SURFTAB1
 70
     6
  9
$SURFTAB2
 70
     6
  9
$SURFTYPE
 70
     6
  9
$SURFU
 70
     6
  9
$SURFV
 70
     6
  9
$UCSBASE
  2

  9
$UCSNAME
  2

  9
$UCSORG
 10
0.0
 20
0.0
 30
0.0
  9
$UCSXDIR
 10
1.0
 20
0.0
 30
0.0
  9
$UCSYDIR
 10
0.0
 20
1.0
 30
0.0
  9
$UCSORTHOREF
  2

  9
$UCSORTHOVIEW
 70
     0
  9
$UCSORGTOP
 10
0.0
 20
0.0
 30
0.0
  9
$UCSORGBOTTOM
 10
0.0
 20
0.0
 30
0.0
  9
$UCSORGLEFT
 10
0.0
 20
0.0
 30
0.0
  9
$UCSORGRIGHT
 10
0.0
 20
0.0
 30
0.0
  9
$UCSORGFRONT
 10
0.0
 20
0.0
 30
0.0
  9
$UCSORGBACK
 10
0.0
 20
0.0
 30
0.0
  9
$PUCSBASE
  2

  9
$PUCSNAME
  2

  9
$PUCSORG
 10
0.0
 20
0.0
 30
0.0
  9
$PUCSXDIR
 10
1.0
 20
0.0
 30
0.0
  9
$PUCSYDIR
 10
0.0
 20
1.0
 30
0.0
  9
$PUCSORTHOREF
  2

  9
$PUCSORTHOVIEW
 70
     0
  9
$PUCSORGTOP
 10
0.0
 20
0.0
 30
0.0
  9
$PUCSORGBOTTOM
 10
0.0
 20
0.0
 30
0.0
  9
$PUCSORGLEFT
 10
0.0
 20
0.0
 30
0.0
  9
$PUCSORGRIGHT
 10
0.0
 20
0.0
 30
0.0
  9
$PUCSORGFRONT
 10
0.0
 20
0.0
 30
0.0
  9
$PUCSORGBACK
 10
0.0
 20
0.0
 30
0.0
  9
$USERI1
 70
     0
  9
$USERI2
 70
     0
  9
$USERI3
 70
     0
  9
$USERI4
 70
     0
  9
$USERI5
 70
     0
  9
$USERR1
 40
0.0
  9
$USERR2
 40
0.0
  9
$USERR3
 40
0.0
  9
$USERR4
 40
0.0
  9
$USERR5
 40
0.0
  9
$WORLDVIEW
 70
     1
  9
$SHADEDGE
 70
     3
  9
$SHADEDIF
 70
    70
  9
$TILEMODE
 70
     1
  9
$MAXACTVP
 70
    64
  9
$PINSBASE
 10
0.0
 20
0.0
 30
0.0
  9
$PLIMCHECK
 70
     0
  9
$PEXTMIN
 10
0.0
 20
0.0
 30
0.0
  9
$PEXTMAX
 10
0.0
 20
0.0
 30
0.0
  9
$PLIMMIN
 10
-20.0
 20
-7.5
  9
$PLIMMAX
 10
277.0
 20
202.5
  9
$UNITMODE
 70
     0
  9
$VISRETAIN
 70
     1
  9
$PLINEGEN
 70
     0
  9
$PSLTSCALE
 70
     1
  9
$TREEDEPTH
 70
  3020
  9
$CMLSTYLE
  2
Standard
  9
$CMLJUST
 70
     0
  9
$CMLSCALE
 40
1.0
  9
$PROXYGRAPHICS
 70
     1
  9
$MEASUREMENT
 70
     1
  9
$CELWEIGHT
370
    -1
  9
$ENDCAPS
280
     0
  9
$JOINSTYLE
280
     0
  9
$LWDISPLAY
290
     0
  9
$INSUNITS
 70
     4
  9
$HYPERLINKBASE
  1

  9
$STYLESHEET
  1

  9
$XEDIT
290
     1
  9
$CEPSNTYPE
380
     0
  9
$PSTYLEMODE
290
     1
  9
$FINGERPRINTGUID
  2
{36367235-3174-3075-3877-716275727265}
  9
$VERSIONGUID
  2
{FAEB1C32-E019-11D5-929B-00C0DF256EC4}
  9
$EXTNAMES
290
     1
  9
$PSVPSCALE
 40
0.0
  9
$OLESTARTUP
290
     0
  9
$SORTENTS
280
   127
  9
$INDEXCTL
280
     0
  9
$HIDETEXT
280
     1
  9
$XCLIPFRAME
280
     2
  9
$HALOGAP
280
     0
  9
$OBSCOLOR
 70
   257
  9
$OBSLTYPE
280
     0
  9
$INTERSECTIONDISPLAY
280
     0
  9
$INTERSECTIONCOLOR
 70
   257
  9
$DIMASSOC
280
     2
  9
$PROJECTNAME
  1

  9
$CAMERADISPLAY
290
     0
  9
$LENSLENGTH
 40
50.0
  9
$CAMERAHEIGHT
 40
0.0
  9
$STEPSPERSEC
 40
2.0
  9
$STEPSIZE
 40
6.0
  9
$3DDWFPREC
 40
2.0
  9
$PSOLWIDTH
 40
0.25
  9
$PSOLHEIGHT
 40
4.0
  9
$LOFTANG1
 40
1.570796326794897
  9
$LOFTANG2
 40
1.570796326794897
  9
$LOFTMAG1
 40
0.0
  9
$LOFTMAG2
 40
0.0
  9
$LOFTPARAM
 70
     7
  9
$LOFTNORMALS
280
     1
  9
$LATITUDE
 40
37.795
  9
$LONGITUDE
 40
-122.394
  9
$NORTHDIRECTION
 40
0.0
  9
$TIMEZONE
 70
 -8000
  9
$LIGHTGLYPHDISPLAY
280
     1
  9
$TILEMODELIGHTSYNCH
280
     1
  9
$CMATERIAL
347
CA
  9
$SOLIDHIST
280
     0
  9
$SHOWHIST
280
     1
  9
$DWFFRAME
280
     2
  9
$DGNFRAME
280
     2
  9
$REALWORLDSCALE
290
     1
  9
$INTERFERECOLOR
 62
   256
  9
$CSHADOW
280
     0
  9
$SHADOWPLANELOCATION
 40
0.0
  0
ENDSEC
  0
SECTION
  2
CLASSES
  0
CLASS
  1
ACDBDICTIONARYWDFLT
  2
AcDbDictionaryWithDefault
  3
ObjectDBX Classes
 90
        0
 91
        3
280
     0
281
     0
  0
CLASS
  1
VISUALSTYLE
  2
AcDbVisualStyle
  3
ObjectDBX Classes
 90
     4095
 91
        3
280
     0
281
     0
  0
CLASS
  1
MATERIAL
  2
AcDbMaterial
  3
ObjectDBX Classes
 90
     1153
 91
        3
280
     0
281
     0
  0
CLASS
  1
SCALE
  2
AcDbScale
  3
ObjectDBX Classes
 90
     1153
 91
        3
280
     0
281
     0
  0
CLASS
  1
TABLESTYLE
  2
AcDbTableStyle
  3
ObjectDBX Classes
 90
     4095
 91
        3
280
     0
281
     0
  0
CLASS
  1
MLEADERSTYLE
  2
AcDbMLeaderStyle
  3
ACDB_MLEADERSTYLE_CLASS
 90
     4095
 91
        3
280
     0
281
     0
  0
CLASS
  1
SUN
  2
AcDbSun
  3
SCENEOE
 90
     1153
 91
        3
280
     0
281
     0
  0
CLASS
  1
DICTIONARYVAR
  2
AcDbDictionaryVar
  3
ObjectDBX Classes
 90
        0
 91
        3
280
     0
281
     0
  0
CLASS
  1
CELLSTYLEMAP
  2
AcDbCellStyleMap
  3
ObjectDBX Classes
 90
     1152
 91
        3
280
     0
281
     0
  0
ENDSEC
  0
SECTION
  2
TABLES
  0
TABLE
  2
VPORT
  5
8F
330
0
100
AcDbSymbolTable
 70
     1
  0
VPORT
  5
AF
330
8F
100
AcDbSymbolTableRecord
100
AcDbViewportTableRecord
  2
*Active
 70
     0
 10
0.0
 20
0.0
 11
1.0
 21
1.0
 12
-18.25283691041454
 22
26.50930390601741
 13
0.0
 23
0.0
 14
0.5
 24
0.5
 15
0.5
 25
0.5
 16
0.0
 26
0.0
 36
1.0
 17
0.0
 27
0.0
 37
0.0
 40
279.2473126502398
 41
2.06430155210643
 42
50.0
 43
0.0
 44
0.0
 50
0.0
 51
0.0
 71
     0
 72
   100
 73
     1
 74
     3
 75
     0
 76
     0
 77
     0
 78
     0
281
     0
 65
     1
110
0.0
120
0.0
130
0.0
111
1.0
121
0.0
131
0.0
112
0.0
122
1.0
132
0.0
 79
     0
146
0.0
348
B5
 60
     3
 61
     5
292
     1
282
     1
141
0.0
142
0.0
 63
   250
361
F3
  0
ENDTAB
  0
TABLE
  2
LTYPE
  5
8C
330
0
100
AcDbSymbolTable
 70
    48
  0
LTYPE
  5
9A
330
8C
100
AcDbSymbolTableRecord
100
AcDbLinetypeTableRecord
  2
ByBlock
 70
     0
  3

 72
    65
 73
     0
 40
0.0
  0
LTYPE
  5
9B
330
8C
100
AcDbSymbolTableRecord
100
AcDbLinetypeTableRecord
  2
ByLayer
 70
     0
  3

 72
    65
 73
     0
 40
0.0
  0
LTYPE
  5
9C
330
8C
100
AcDbSymbolTableRecord
100
AcDbLinetypeTableRecord
  2
Continuous
 70
     0
  3
Solid line
 72
    65
 73
     0
 40
0.0
  0
LTYPE
  5
128
330
8C
100
AcDbSymbolTableRecord
100
AcDbLinetypeTableRecord
  2
ACAD_ISO04W100
 70
     0
  3
ISO long-dash dot ____ . ____ . ____ . ____ . _
 72
    65
 73
     4
 40
30.0
 49
24.0
 74
     0
 49
-3.0
 74
     0
 49
0.0
 74
     0
 49
-3.0
 74
     0
  0
LTYPE
  5
129
330
8C
100
AcDbSymbolTableRecord
100
AcDbLinetypeTableRecord
  2
ACAD_ISO05W100
 70
     0
  3
ISO long-dash double-dot ____ .. ____ .. ____ . 
 72
    65
 73
     6
 40
33.0
 49
24.0
 74
     0
 49
-3.0
 74
     0
 49
0.0
 74
     0
 49
-3.0
 74
     0
 49
0.0
 74
     0
 49
-3.0
 74
     0
  0
LTYPE
  5
12A
330
8C
100
AcDbSymbolTableRecord
100
AcDbLinetypeTableRecord
  2
ACAD_ISO02W100
 70
     0
  3
ISO dash __ __ __ __ __ __ __ __ __ __ __ __ __
 72
    65
 73
     2
 40
15.0
 49
12.0
 74
     0
 49
-3.0
 74
     0
  0
LTYPE
  5
12B
330
8C
100
AcDbSymbolTableRecord
100
AcDbLinetypeTableRecord
  2
ACAD_ISO03W100
 70
     0
  3
ISO dash space __    __    __    __    __    __
 72
    65
 73
     2
 40
30.0
 49
12.0
 74
     0
 49
-18.0
 74
     0
  0
LTYPE
  5
12C
330
8C
100
AcDbSymbolTableRecord
100
AcDbLinetypeTableRecord
  2
ACAD_ISO08W100
 70
     0
  3
ISO long-dash short-dash ____ __ ____ __ ____ _
 72
    65
 73
     4
 40
36.0
 49
24.0
 74
     0
 49
-3.0
 74
     0
 49
6.0
 74
     0
 49
-3.0
 74
     0
  0
LTYPE
  5
12D
330
8C
100
AcDbSymbolTableRecord
100
AcDbLinetypeTableRecord
  2
ACAD_ISO09W100
 70
     0
  3
ISO long-dash double-short-dash ____ __ __ ____
 72
    65
 73
     6
 40
45.0
 49
24.0
 74
     0
 49
-3.0
 74
     0
 49
6.0
 74
     0
 49
-3.0
 74
     0
 49
6.0
 74
     0
 49
-3.0
 74
     0
  0
LTYPE
  5
12E
330
8C
100
AcDbSymbolTableRecord
100
AcDbLinetypeTableRecord
  2
ACAD_ISO06W100
 70
     0
  3
ISO long-dash triple-dot ____ ... ____ ... ____
 72
    65
 73
     8
 40
36.0
 49
24.0
 74
     0
 49
-3.0
 74
     0
 49
0.0
 74
     0
 49
-3.0
 74
     0
 49
0.0
 74
     0
 49
-3.0
 74
     0
 49
0.0
 74
     0
 49
-3.0
 74
     0
  0
LTYPE
  5
12F
330
8C
100
AcDbSymbolTableRecord
100
AcDbLinetypeTableRecord
  2
ACAD_ISO07W100
 70
     0
  3
ISO dot . . . . . . . . . . . . . . . . . . . . 
 72
    65
 73
     2
 40
3.0
 49
0.0
 74
     0
 49
-3.0
 74
     0
  0
LTYPE
  5
130
330
8C
100
AcDbSymbolTableRecord
100
AcDbLinetypeTableRecord
  2
PHANTOM
 70
     0
  3
Phantom ______  __  __  ______  __  __  ______ 
 72
    65
 73
     6
 40
63.50000000000001
 49
31.75
 74
     0
 49
-6.35
 74
     0
 49
6.35
 74
     0
 49
-6.35
 74
     0
 49
6.35
 74
     0
 49
-6.35
 74
     0
  0
LTYPE
  5
131
330
8C
100
AcDbSymbolTableRecord
100
AcDbLinetypeTableRecord
  2
PHANTOM2
 70
     0
  3
Phantom (.5x) ___ _ _ ___ _ _ ___ _ _ ___ _ _
 72
    65
 73
     6
 40
31.75
 49
15.875
 74
     0
 49
-3.175
 74
     0
 49
3.175
 74
     0
 49
-3.175
 74
     0
 49
3.175
 74
     0
 49
-3.175
 74
     0
  0
LTYPE
  5
132
330
8C
100
AcDbSymbolTableRecord
100
AcDbLinetypeTableRecord
  2
HIDDENX2
 70
     0
  3
Hidden (2x) ____ ____ ____ ____ ____ ____ ____ 
 72
    65
 73
     2
 40
19.05
 49
12.7
 74
     0
 49
-6.35
 74
     0
  0
LTYPE
  5
134
330
8C
100
AcDbSymbolTableRecord
100
AcDbLinetypeTableRecord
  2
HOT_WATER_SUPPLY
 70
     0
  3
Hot water supply ---- HW ---- HW ---- HW ----
 72
    65
 73
     3
 40
22.86
 49
12.7
 74
     0
 49
-5.08
 74
     2
 75
     0
340
133
 46
2.54
 50
0.0
 44
-2.54
 45
-1.27
  9
HW
 49
-5.08
 74
     0
  0
LTYPE
  5
137
330
8C
100
AcDbSymbolTableRecord
100
AcDbLinetypeTableRecord
  2
ZIGZAG
 70
     0
  3
Zig zag /\/\/\/\/\/\/\/\/\/\/\/\/\/\/\/\/\/\/\/\/\/\/\/
 72
    65
 73
     4
 40
20.32254
 49
0.00254
 74
     0
 49
-5.08
 74
     2
 75
     0
340
135
 46
5.08
 50
0.0
 44
-5.08
 45
0.0
  9
ZIG
 49
-10.16
 74
     2
 75
     0
340
136
 46
5.08
 50
180.0
 44
5.08
 45
0.0
  9
ZIG
 49
-5.08
 74
     0
  0
LTYPE
  5
138
330
8C
100
AcDbSymbolTableRecord
100
AcDbLinetypeTableRecord
  2
PHANTOMX2
 70
     0
  3
Phantom (2x) ____________    ____    ____   _
 72
    65
 73
     6
 40
127.0
 49
63.5
 74
     0
 49
-12.7
 74
     0
 49
12.7
 74
     0
 49
-12.7
 74
     0
 49
12.7
 74
     0
 49
-12.7
 74
     0
  0
LTYPE
  5
13A
330
8C
100
AcDbSymbolTableRecord
100
AcDbLinetypeTableRecord
  2
TRACKS
 70
     0
  3
Tracks -|-|-|-|-|-|-|-|-|-|-|-|-|-|-|-|-|-|-|-|-|-|-|-|-
 72
    65
 73
     2
 40
7.62
 49
3.81
 74
     2
 75
     0
340
139
 46
6.35
 50
0.0
 44
0.0
 45
0.0
  9
TRACK1
 49
3.81
 74
     0
  0
LTYPE
  5
13B
330
8C
100
AcDbSymbolTableRecord
100
AcDbLinetypeTableRecord
  2
DASHEDX2
 70
     0
  3
Dashed (2x) ____  ____  ____  ____  ____  ___
 72
    65
 73
     2
 40
38.09999999999999
 49
25.4
 74
     0
 49
-12.7
 74
     0
  0
LTYPE
  5
13C
330
8C
100
AcDbSymbolTableRecord
100
AcDbLinetypeTableRecord
  2
DIVIDE
 70
     0
  3
Divide ____ . . ____ . . ____ . . ____ . . ____
 72
    65
 73
     6
 40
31.75
 49
12.7
 74
     0
 49
-6.35
 74
     0
 49
0.0
 74
     0
 49
-6.35
 74
     0
 49
0.0
 74
     0
 49
-6.35
 74
     0
  0
LTYPE
  5
13D
330
8C
100
AcDbSymbolTableRecord
100
AcDbLinetypeTableRecord
  2
DASHED
 70
     0
  3
Dashed __ __ __ __ __ __ __ __ __ __ __ __ __ _
 72
    65
 73
     2
 40
19.05
 49
12.7
 74
     0
 49
-6.35
 74
     0
  0
LTYPE
  5
13E
330
8C
100
AcDbSymbolTableRecord
100
AcDbLinetypeTableRecord
  2
DASHED2
 70
     0
  3
Dashed (.5x) _ _ _ _ _ _ _ _ _ _ _ _ _ _ _ _ _ 
 72
    65
 73
     2
 40
9.524999999999999
 49
6.35
 74
     0
 49
-3.175
 74
     0
  0
LTYPE
  5
13F
330
8C
100
AcDbSymbolTableRecord
100
AcDbLinetypeTableRecord
  2
DOT
 70
     0
  3
Dot . . . . . . . . . . . . . . . . . . . . . . . .
 72
    65
 73
     2
 40
6.35
 49
0.0
 74
     0
 49
-6.35
 74
     0
  0
LTYPE
  5
140
330
8C
100
AcDbSymbolTableRecord
100
AcDbLinetypeTableRecord
  2
DOT2
 70
     0
  3
Dot (.5x) ........................................
 72
    65
 73
     2
 40
3.175
 49
0.0
 74
     0
 49
-3.175
 74
     0
  0
LTYPE
  5
141
330
8C
100
AcDbSymbolTableRecord
100
AcDbLinetypeTableRecord
  2
DIVIDE2
 70
     0
  3
Divide (.5x) __..__..__..__..__..__..__..__.._
 72
    65
 73
     6
 40
15.875
 49
6.35
 74
     0
 49
-3.175
 74
     0
 49
0.0
 74
     0
 49
-3.175
 74
     0
 49
0.0
 74
     0
 49
-3.175
 74
     0
  0
LTYPE
  5
142
330
8C
100
AcDbSymbolTableRecord
100
AcDbLinetypeTableRecord
  2
DIVIDEX2
 70
     0
  3
Divide (2x) ________  .  .  ________  .  .  _
 72
    65
 73
     6
 40
63.5
 49
25.4
 74
     0
 49
-12.7
 74
     0
 49
0.0
 74
     0
 49
-12.7
 74
     0
 49
0.0
 74
     0
 49
-12.7
 74
     0
  0
LTYPE
  5
144
330
8C
100
AcDbSymbolTableRecord
100
AcDbLinetypeTableRecord
  2
DRAINAGE2
 70
     0
  3
Drainage reversed----<----<----<----
 72
    65
 73
     2
 40
10.16
 49
5.08
 74
     2
 75
     0
340
143
 46
2.54
 50
0.0
 44
0.0
 45
0.0
  9
RIGHT_ARROW
 49
5.08
 74
     0
  0
LTYPE
  5
146
330
8C
100
AcDbSymbolTableRecord
100
AcDbLinetypeTableRecord
  2
FENCELINE1
 70
     0
  3
Fenceline circle ----0-----0----0-----0----0-----0--
 72
    65
 73
     4
 40
36.83
 49
6.35
 74
     0
 49
-2.54
 74
     2
 75
     0
340
145
 46
2.54
 50
0.0
 44
-2.54
 45
0.0
  9
CIRC1
 49
-2.54
 74
     0
 49
25.4
 74
     0
  0
LTYPE
  5
147
330
8C
100
AcDbSymbolTableRecord
100
AcDbLinetypeTableRecord
  2
DOTX2
 70
     0
  3
Dot (2x) .  .  .  .  .  .  .  .  .  .  .  .  .  .
 72
    65
 73
     2
 40
12.7
 49
0.0
 74
     0
 49
-12.7
 74
     0
  0
LTYPE
  5
149
330
8C
100
AcDbSymbolTableRecord
100
AcDbLinetypeTableRecord
  2
DRAINAGE
 70
     0
  3
Drainage ---->---->---->----
 72
    65
 73
     2
 40
10.16
 49
5.08
 74
     2
 75
     0
340
148
 46
2.54
 50
180.0
 44
0.0
 45
0.0
  9
RIGHT_ARROW
 49
5.08
 74
     0
  0
LTYPE
  5
14A
330
8C
100
AcDbSymbolTableRecord
100
AcDbLinetypeTableRecord
  2
HIDDEN
 70
     0
  3
Hidden __ __ __ __ __ __ __ __ __ __ __ __ __ __
 72
    65
 73
     2
 40
9.524999999999999
 49
6.35
 74
     0
 49
-3.175
 74
     0
  0
LTYPE
  5
14B
330
8C
100
AcDbSymbolTableRecord
100
AcDbLinetypeTableRecord
  2
HIDDEN2
 70
     0
  3
Hidden (.5x) _ _ _ _ _ _ _ _ _ _ _ _ _ _ _ _ _ 
 72
    65
 73
     2
 40
4.762499999999999
 49
3.175
 74
     0
 49
-1.5875
 74
     0
  0
LTYPE
  5
14D
330
8C
100
AcDbSymbolTableRecord
100
AcDbLinetypeTableRecord
  2
FENCELINE2
 70
     0
  3
Fenceline square ----[]-----[]----[]-----[]----[]---
 72
    65
 73
     4
 40
36.83
 49
6.35
 74
     0
 49
-2.54
 74
     2
 75
     0
340
14C
 46
2.54
 50
0.0
 44
-2.54
 45
0.0
  9
BOX
 49
-2.54
 74
     0
 49
25.4
 74
     0
  0
LTYPE
  5
14F
330
8C
100
AcDbSymbolTableRecord
100
AcDbLinetypeTableRecord
  2
GAS_LINE
 70
     0
  3
Gas line ----GAS----GAS----GAS----GAS----GAS----GAS--
 72
    65
 73
     3
 40
24.13
 49
12.7
 74
     0
 49
-5.08
 74
     2
 75
     0
340
14E
 46
2.54
 50
0.0
 44
-2.54
 45
-1.27
  9
GAS
 49
-6.35
 74
     0
  0
LTYPE
  5
150
330
8C
100
AcDbSymbolTableRecord
100
AcDbLinetypeTableRecord
  2
ACAD_ISO12W100
 70
     0
  3
ISO dash double-dot __ . . __ . . __ . . __ . . 
 72
    65
 73
     6
 40
21.0
 49
12.0
 74
     0
 49
-3.0
 74
     0
 49
0.0
 74
     0
 49
-3.0
 74
     0
 49
0.0
 74
     0
 49
-3.0
 74
     0
  0
LTYPE
  5
151
330
8C
100
AcDbSymbolTableRecord
100
AcDbLinetypeTableRecord
  2
ACAD_ISO13W100
 70
     0
  3
ISO double-dash double-dot __ __ . . __ __ . . _
 72
    65
 73
     8
 40
36.0
 49
12.0
 74
     0
 49
-3.0
 74
     0
 49
12.0
 74
     0
 49
-3.0
 74
     0
 49
0.0
 74
     0
 49
-3.0
 74
     0
 49
0.0
 74
     0
 49
-3.0
 74
     0
  0
LTYPE
  5
152
330
8C
100
AcDbSymbolTableRecord
100
AcDbLinetypeTableRecord
  2
ACAD_ISO10W100
 70
     0
  3
ISO dash dot __ . __ . __ . __ . __ . __ . __ . 
 72
    65
 73
     4
 40
18.0
 49
12.0
 74
     0
 49
-3.0
 74
     0
 49
0.0
 74
     0
 49
-3.0
 74
     0
  0
LTYPE
  5
153
330
8C
100
AcDbSymbolTableRecord
100
AcDbLinetypeTableRecord
  2
ACAD_ISO11W100
 70
     0
  3
ISO double-dash dot __ __ . __ __ . __ __ . __ _
 72
    65
 73
     6
 40
33.0
 49
12.0
 74
     0
 49
-3.0
 74
     0
 49
12.0
 74
     0
 49
-3.0
 74
     0
 49
0.0
 74
     0
 49
-3.0
 74
     0
  0
LTYPE
  5
156
330
8C
100
AcDbSymbolTableRecord
100
AcDbLinetypeTableRecord
  2
BATTING
 70
     0
  3
Batting SSSSSSSSSSSSSSSSSSSSSSSSSSSSSSSSSSSSSSSSSSSSSSS
 72
    65
 73
     4
 40
10.16254
 49
0.00254
 74
     0
 49
-2.54
 74
     2
 75
     0
340
154
 46
2.54
 50
0.0
 44
-2.54
 45
0.0
  9
BAT
 49
-5.08
 74
     2
 75
     0
340
155
 46
2.54
 50
180.0
 44
2.54
 45
0.0
  9
BAT
 49
-2.54
 74
     0
  0
LTYPE
  5
157
330
8C
100
AcDbSymbolTableRecord
100
AcDbLinetypeTableRecord
  2
BORDER
 70
     0
  3
Border __ __ . __ __ . __ __ . __ __ . __ __ .
 72
    65
 73
     6
 40
44.45
 49
12.7
 74
     0
 49
-6.35
 74
     0
 49
12.7
 74
     0
 49
-6.35
 74
     0
 49
0.0
 74
     0
 49
-6.35
 74
     0
  0
LTYPE
  5
158
330
8C
100
AcDbSymbolTableRecord
100
AcDbLinetypeTableRecord
  2
ACAD_ISO14W100
 70
     0
  3
ISO dash triple-dot __ . . . __ . . . __ . . . _
 72
    65
 73
     8
 40
24.0
 49
12.0
 74
     0
 49
-3.0
 74
     0
 49
0.0
 74
     0
 49
-3.0
 74
     0
 49
0.0
 74
     0
 49
-3.0
 74
     0
 49
0.0
 74
     0
 49
-3.0
 74
     0
  0
LTYPE
  5
159
330
8C
100
AcDbSymbolTableRecord
100
AcDbLinetypeTableRecord
  2
ACAD_ISO15W100
 70
     0
  3
ISO double-dash triple-dot __ __ . . . __ __ . .
 72
    65
 73
    10
 40
39.0
 49
12.0
 74
     0
 49
-3.0
 74
     0
 49
12.0
 74
     0
 49
-3.0
 74
     0
 49
0.0
 74
     0
 49
-3.0
 74
     0
 49
0.0
 74
     0
 49
-3.0
 74
     0
 49
0.0
 74
     0
 49
-3.0
 74
     0
  0
LTYPE
  5
15A
330
8C
100
AcDbSymbolTableRecord
100
AcDbLinetypeTableRecord
  2
CENTER
 70
     0
  3
Center ____ _ ____ _ ____ _ ____ _ ____ _ ____
 72
    65
 73
     4
 40
50.8
 49
31.75
 74
     0
 49
-6.35
 74
     0
 49
6.35
 74
     0
 49
-6.35
 74
     0
  0
LTYPE
  5
15B
330
8C
100
AcDbSymbolTableRecord
100
AcDbLinetypeTableRecord
  2
CENTER2
 70
     0
  3
Center (.5x) ___ _ ___ _ ___ _ ___ _ ___ _ ___
 72
    65
 73
     4
 40
28.575
 49
19.05
 74
     0
 49
-3.175
 74
     0
 49
3.175
 74
     0
 49
-3.175
 74
     0
  0
LTYPE
  5
15C
330
8C
100
AcDbSymbolTableRecord
100
AcDbLinetypeTableRecord
  2
BORDER2
 70
     0
  3
Border (.5x) __.__.__.__.__.__.__.__.__.__.__.
 72
    65
 73
     6
 40
22.225
 49
6.35
 74
     0
 49
-3.175
 74
     0
 49
6.35
 74
     0
 49
-3.175
 74
     0
 49
0.0
 74
     0
 49
-3.175
 74
     0
  0
LTYPE
  5
15D
330
8C
100
AcDbSymbolTableRecord
100
AcDbLinetypeTableRecord
  2
BORDERX2
 70
     0
  3
Border (2x) ____  ____  .  ____  ____  .  ___
 72
    65
 73
     6
 40
88.89999999999999
 49
25.4
 74
     0
 49
-12.7
 74
     0
 49
25.4
 74
     0
 49
-12.7
 74
     0
 49
0.0
 74
     0
 49
-12.7
 74
     0
  0
LTYPE
  5
15E
330
8C
100
AcDbSymbolTableRecord
100
AcDbLinetypeTableRecord
  2
DASHDOT2
 70
     0
  3
Dash dot (.5x) _._._._._._._._._._._._._._._.
 72
    65
 73
     4
 40
12.7
 49
6.35
 74
     0
 49
-3.175
 74
     0
 49
0.0
 74
     0
 49
-3.175
 74
     0
  0
LTYPE
  5
15F
330
8C
100
AcDbSymbolTableRecord
100
AcDbLinetypeTableRecord
  2
DASHDOTX2
 70
     0
  3
Dash dot (2x) ____  .  ____  .  ____  .  ___
 72
    65
 73
     4
 40
50.8
 49
25.4
 74
     0
 49
-12.7
 74
     0
 49
0.0
 74
     0
 49
-12.7
 74
     0
  0
LTYPE
  5
160
330
8C
100
AcDbSymbolTableRecord
100
AcDbLinetypeTableRecord
  2
CENTERX2
 70
     0
  3
Center (2x) ________  __  ________  __  _____
 72
    65
 73
     4
 40
101.6
 49
63.5
 74
     0
 49
-12.7
 74
     0
 49
12.7
 74
     0
 49
-12.7
 74
     0
  0
LTYPE
  5
161
330
8C
100
AcDbSymbolTableRecord
100
AcDbLinetypeTableRecord
  2
DASHDOT
 70
     0
  3
Dash dot __ . __ . __ . __ . __ . __ . __ . __
 72
    65
 73
     4
 40
25.4
 49
12.7
 74
     0
 49
-6.35
 74
     0
 49
0.0
 74
     0
 49
-6.35
 74
     0
  0
ENDTAB
  0
TABLE
  2
LAYER
  5
8A
330
0
100
AcDbSymbolTable
 70
     3
  0
LAYER
  5
97
330
8A
100
AcDbSymbolTableRecord
100
AcDbLayerTableRecord
  2
0
 70
     0
 62
     7
420
 16777215
  6
Continuous
370
    25
390
96
347
CC
348
0
  0
LAYER
  5
162
330
8A
100
AcDbSymbolTableRecord
100
AcDbLayerTableRecord
  2
Design_No_Kerf
 70
     0
 62
     1
420
 16711680
  6
Continuous
370
     0
390
96
347
CC
348
0
  0
LAYER
  5
163
330
8A
100
AcDbSymbolTableRecord
100
AcDbLayerTableRecord
  2
Section
 70
     0
 62
     7
420
 16777215
  6
Continuous
370
    -3
390
96
347
CC
348
0
  0
ENDTAB
  0
TABLE
  2
STYLE
  5
8B
330
0
100
AcDbSymbolTable
 70
    12
  0
STYLE
  5
98
330
8B
100
AcDbSymbolTableRecord
100
AcDbTextStyleTableRecord
  2
Standard
 70
     0
 40
0.0
 41
1.0
 50
0.0
 71
     0
 42
0.2
  3
txt
  4

  0
STYLE
  5
133
330
8B
100
AcDbSymbolTableRecord
100
AcDbTextStyleTableRecord
  2
textstyle0
 70
     0
 40
0.0
 41
1.0
 50
0.0
 71
     0
 42
0.2
  3
STANDARD
  4

  0
STYLE
  5
135
330
8B
100
AcDbSymbolTableRecord
100
AcDbTextStyleTableRecord
  2
textstyle1
 70
     0
 40
0.0
 41
1.0
 50
0.0
 71
     0
 42
0.2
  3
ltypeshp.shx
  4

  0
STYLE
  5
136
330
8B
100
AcDbSymbolTableRecord
100
AcDbTextStyleTableRecord
  2
textstyle2
 70
     0
 40
0.0
 41
1.0
 50
0.0
 71
     0
 42
0.2
  3
ltypeshp.shx
  4

  0
STYLE
  5
139
330
8B
100
AcDbSymbolTableRecord
100
AcDbTextStyleTableRecord
  2
textstyle3
 70
     0
 40
0.0
 41
1.0
 50
0.0
 71
     0
 42
0.2
  3
ltypeshp.shx
  4

  0
STYLE
  5
143
330
8B
100
AcDbSymbolTableRecord
100
AcDbTextStyleTableRecord
  2
textstyle4
 70
     0
 40
0.0
 41
1.0
 50
0.0
 71
     0
 42
0.2
  3
qcadshp.shx
  4

  0
STYLE
  5
145
330
8B
100
AcDbSymbolTableRecord
100
AcDbTextStyleTableRecord
  2
textstyle5
 70
     0
 40
0.0
 41
1.0
 50
0.0
 71
     0
 42
0.2
  3
ltypeshp.shx
  4

  0
STYLE
  5
148
330
8B
100
AcDbSymbolTableRecord
100
AcDbTextStyleTableRecord
  2
textstyle6
 70
     0
 40
0.0
 41
1.0
 50
0.0
 71
     0
 42
0.2
  3
qcadshp.shx
  4

  0
STYLE
  5
14C
330
8B
100
AcDbSymbolTableRecord
100
AcDbTextStyleTableRecord
  2
textstyle7
 70
     0
 40
0.0
 41
1.0
 50
0.0
 71
     0
 42
0.2
  3
ltypeshp.shx
  4

  0
STYLE
  5
14E
330
8B
100
AcDbSymbolTableRecord
100
AcDbTextStyleTableRecord
  2
textstyle8
 70
     0
 40
0.0
 41
1.0
 50
0.0
 71
     0
 42
0.2
  3
STANDARD
  4

  0
STYLE
  5
154
330
8B
100
AcDbSymbolTableRecord
100
AcDbTextStyleTableRecord
  2
textstyle9
 70
     0
 40
0.0
 41
1.0
 50
0.0
 71
     0
 42
0.2
  3
ltypeshp.shx
  4

  0
STYLE
  5
155
330
8B
100
AcDbSymbolTableRecord
100
AcDbTextStyleTableRecord
  2
textstyle10
 70
     0
 40
0.0
 41
1.0
 50
0.0
 71
     0
 42
0.2
  3
ltypeshp.shx
  4

  0
ENDTAB
  0
TABLE
  2
VIEW
  5
8D
330
0
100
AcDbSymbolTable
 70
     0
  0
ENDTAB
  0
TABLE
  2
UCS
  5
8E
330
0
100
AcDbSymbolTable
 70
     0
  0
ENDTAB
  0
TABLE
  2
APPID
  5
90
330
0
100
AcDbSymbolTable
 70
     2
  0
APPID
  5
99
330
90
100
AcDbSymbolTableRecord
100
AcDbRegAppTableRecord
  2
ACAD
 70
     0
  0
APPID
  5
F4
330
90
100
AcDbSymbolTableRecord
100
AcDbRegAppTableRecord
  2
QCAD
 70
     0
  0
ENDTAB
  0
TABLE
  2
DIMSTYLE
  5
91
330
0
100
AcDbSymbolTable
 70
     2
100
AcDbDimStyleTable
  0
DIMSTYLE
105
AD
330
91
100
AcDbSymbolTableRecord
100
AcDbDimStyleTableRecord
  2
Standard
 70
     0
178
     0
340
98
  0
DIMSTYLE
105
127
330
91
100
AcDbSymbolTableRecord
100
AcDbDimStyleTableRecord
  2
QCADDimStyle
 70
     0
 41
2.5
 42
0.625
 44
1.25
 73
     0
 77
     1
140
2.5
147
0.625
178
     0
340
98
  0
ENDTAB
  0
TABLE
  2
BLOCK_RECORD
  5
89
330
0
100
AcDbSymbolTable
 70
     0
  0
BLOCK_RECORD
  5
A5
330
89
100
AcDbSymbolTableRecord
100
AcDbBlockTableRecord
  2
*Model_Space
340
A8
 70
     0
280
     1
281
     0
  0
BLOCK_RECORD
  5
A1
330
89
100
AcDbSymbolTableRecord
100
AcDbBlockTableRecord
  2
*Paper_Space
340
A4
 70
     0
280
     1
281
     0
  0
ENDTAB
  0
ENDSEC
  0
SECTION
  2
BLOCKS
  0
BLOCK
  5
A6
330
A5
100
AcDbEntity
  8
0
100
AcDbBlockBegin
  2
*Model_Space
 70
     0
 10
0.0
 20
0.0
 30
0.0
  3
*Model_Space
  1

  0
ENDBLK
  5
A7
330
A5
100
AcDbEntity
  8
0
100
AcDbBlockEnd
  0
BLOCK
  5
A2
330
A1
100
AcDbEntity
 67
     1
  8
0
100
AcDbBlockBegin
  2
*Paper_Space
 70
     0
 10
0.0
 20
0.0
 30
0.0
  3
*Paper_Space
  1

  0
ENDBLK
  5
A3
330
A1
100
AcDbEntity
 67
     1
  8
0
100
AcDbBlockEnd
  0
ENDSEC
  0
SECTION
  2
ENTITIES
  0
LWPOLYLINE
  5
64
330
A5
100
AcDbEntity
  8
Design_No_Kerf
 62
     1
420
 16711680
100
AcDbPolyline
 90
     3072
 70
   129
 43
0.0
 10
40.48689999999999
 20
49.25999999999999
 10
40.46289999999999
 20
49.33199999999999
 10
40.40789999999998
 20
49.38300000000001
 10
40.33690000000001
 20
49.40000000000001
 10
40.23570000000001
 20
49.40899999999999
 10
40.13470000000001
 20
49.43600000000001
 10
40.03970000000001
 20
49.488
 10
39.9537
 20
49.53999999999999
 10
39.87970000000001
 20
49.614
 10
39.81970000000001
 20
49.69999999999999
 10
39.7757
 20
49.79499999999999
 10
39.74869999999999
 20
49.89599999999999
 10
39.74869999999999
 20
50.10400000000001
 10
39.7757
 20
50.20500000000001
 10
39.81970000000001
 20
50.30000000000001
 10
39.87970000000001
 20
50.386
 10
39.9537
 20
50.46000000000001
 10
40.03970000000001
 20
50.512
 10
40.13470000000001
 20
50.56399999999999
 10
40.23570000000001
 20
50.59100000000001
 10
40.33690000000001
 20
50.59999999999999
 10
40.40789999999998
 20
50.61699999999999
 10
40.46289999999999
 20
50.66800000000001
 10
40.48689999999999
 20
50.74000000000001
 10
40.4744
 20
51.2475
 10
40.4469
 20
51.31819999999999
 10
40.3895
 20
51.3665
 10
40.31780000000001
 20
51.38
 10
40.21620000000001
 20
51.38399999999999
 10
40.114
 20
51.40600000000001
 10
40.01659999999998
 20
51.45330000000001
 10
39.9281
 20
51.501
 10
39.85059999999999
 20
51.57130000000001
 10
39.78640000000001
 20
51.6542
 10
39.73779999999999
 20
51.74690000000001
 10
39.70589999999999
 20
51.84649999999999
 10
39.69569999999999
 20
52.05420000000001
 10
39.71770000000001
 20
52.15649999999999
 10
39.75700000000001
 20
52.2535
 10
39.81270000000001
 20
52.34229999999999
 10
39.88300000000001
 20
52.41990000000001
 10
39.96629999999999
 20
52.476
 10
40.05860000000001
 20
52.5326
 10
40.15819999999999
 20
52.56460000000001
 10
40.25889999999998
 20
52.57849999999999
 10
40.32900000000001
 20
52.59899999999999
 10
40.38139999999999
 20
52.65260000000001
 10
40.40180000000001
 20
52.72569999999999
 10
40.36449999999999
 20
53.232
 10
40.33350000000002
 20
53.3013
 10
40.27379999999999
 20
53.3466
 10
40.20150000000001
 20
53.35659999999999
 10
40.09980000000002
 20
53.35560000000001
 10
39.9967
 20
53.37260000000001
 10
39.89699999999999
 20
53.41499999999999
 10
39.8064
 20
53.45840000000001
 10
39.72550000000001
 20
53.5247
 10
39.65729999999999
 20
53.6045
 10
39.60419999999999
 20
53.69470000000001
 10
39.5675
 20
53.79259999999999
 10
39.5471
 20
53.99950000000001
 10
39.56399999999999
 20
54.1027
 10
39.5985
 20
54.20160000000001
 10
39.6498
 20
54.29300000000001
 10
39.71620000000001
 20
54.37389999999999
 10
39.79669999999999
 20
54.4341
 10
39.8861
 20
54.49520000000001
 10
39.98400000000001
 20
54.53190000000001
 10
40.0839
 20
54.55080000000001
 10
40.15289999999999
 20
54.57470000000001
 10
40.20259999999999
 20
54.63079999999999
 10
40.21940000000001
 20
54.70480000000001
 10
40.15729999999999
 20
55.20869999999999
 10
40.12299999999999
 20
55.2764
 10
40.06110000000001
 20
55.31870000000001
 10
39.98840000000001
 20
55.32509999999999
 10
39.8869
 20
55.3192
 10
39.78300000000002
 20
55.33109999999999
 10
39.6814
 20
55.36859999999999
 10
39.58870000000002
 20
55.4074
 10
39.50470000000001
 20
55.46969999999999
 10
39.43270000000001
 20
55.54599999999999
 10
39.37520000000001
 20
55.6335
 10
39.33369999999999
 20
55.7295
 10
39.3032
 20
55.93520000000001
 10
39.3151
 20
56.03909999999999
 10
39.34469999999999
 20
56.1395
 10
39.3914
 20
56.23339999999999
 10
39.4537
 20
56.31739999999999
 10
39.53120000000001
 20
56.38149999999999
 10
39.61750000000001
 20
56.4469
 10
39.71350000000001
 20
56.48840000000001
 10
39.81229999999999
 20
56.51220000000001
 10
39.88
 20
56.5394
 10
39.92689999999999
 20
56.59790000000001
 10
39.9401
 20
56.67269999999999
 10
39.85329999999999
 20
57.1728
 10
39.81569999999999
 20
57.2388
 10
39.75190000000001
 20
57.27799999999999
 10
39.6789
 20
57.2809
 10
39.5778
 20
57.26990000000001
 10
39.4735
 20
57.27670000000001
 10
39.37020000000001
 20
57.3092
 10
39.2757
 20
57.3434
 10
39.18869999999998
 20
57.4016
 10
39.1131
 20
57.4742
 10
39.0514
 20
57.55879999999999
 10
39.0052
 20
57.65260000000001
 10
38.96459999999999
 20
57.85660000000001
 10
38.97140000000002
 20
57.96090000000001
 10
38.99600000000001
 20
58.06270000000001
 10
39.03809999999999
 20
58.15870000000001
 10
39.09620000000001
 20
58.2457
 10
39.1704
 20
58.3135
 10
39.2535
 20
58.38300000000001
 10
39.34729999999999
 20
58.42920000000001
 10
39.44479999999999
 20
58.45779999999999
 10
39.5111
 20
58.48830000000001
 10
39.55510000000001
 20
58.54910000000001
 10
39.56459999999998
 20
58.62440000000001
 10
39.45339999999999
 20
59.11969999999999
 10
39.4126
 20
59.18369999999999
 10
39.34690000000001
 20
59.21979999999999
 10
39.2739
 20
59.2191
 10
39.17349999999999
 20
59.20320000000001
 10
39.06889999999999
 20
59.20480000000001
 10
38.9641
 20
59.23220000000001
 10
38.8681
 20
59.26169999999999
 10
38.7783
 20
59.31549999999999
 10
38.69919999999999
 20
59.3844
 10
38.63339999999999
 20
59.4658
 10
38.58269999999999
 20
59.5573
 10
38.53219999999999
 20
59.75900000000001
 10
38.53379999999999
 20
59.86359999999999
 10
38.55340000000001
 20
59.96639999999999
 10
38.5907
 20
60.06440000000001
 10
38.64449999999999
 20
60.1542
 10
38.71530000000001
 20
60.22550000000001
 10
38.79480000000001
 20
60.29900000000001
 10
38.88630000000001
 20
60.34979999999999
 10
38.98230000000001
 20
60.38310000000001
 10
39.047
 20
60.41679999999999
 10
39.08799999999999
 20
60.47970000000001
 10
39.09379999999999
 20
60.55529999999999
 10
38.95839999999998
 20
61.0446
 10
38.9145
 20
61.10650000000001
 10
38.84710000000001
 20
61.13939999999999
 10
38.77420000000001
 20
61.13499999999999
 10
38.6747
 20
61.11420000000001
 10
38.5702
 20
61.11080000000001
 10
38.46420000000001
 20
61.13290000000001
 10
38.36680000000001
 20
61.15770000000001
 10
38.27449999999999
 20
61.2071
 10
38.19210000000001
 20
61.27199999999999
 10
38.1224
 20
61.3501
 10
38.06729999999999
 20
61.43889999999999
 10
38.0069
 20
61.63800000000001
 10
38.0034
 20
61.7424
 10
38.018
 20
61.84610000000001
 10
38.0504
 20
61.94579999999999
 10
38.09969999999998
 20
62.03809999999999
 10
38.1669
 20
62.1129
 10
38.24279999999999
 20
62.1902
 10
38.33160000000001
 20
62.24529999999999
 10
38.42580000000001
 20
62.2834
 10
38.4889
 20
62.3202
 10
38.52670000000001
 20
62.38499999999999
 10
38.52870000000001
 20
62.46090000000001
 10
38.36950000000002
 20
62.94290000000001
 10
38.3227
 20
63.0026
 10
38.25370000000001
 20
63.03210000000001
 10
38.18110000000001
 20
63.02420000000001
 10
38.08279999999999
 20
62.99850000000001
 10
37.9786
 20
62.98990000000001
 10
37.8716
 20
63.0069
 10
37.7731
 20
63.02690000000001
 10
37.67849999999999
 20
63.07159999999999
 10
37.59300000000002
 20
63.13239999999999
 10
37.5196
 20
63.20699999999999
 10
37.46019999999999
 20
63.29300000000001
 10
37.39009999999999
 20
63.4888
 10
37.38150000000002
 20
63.59299999999999
 10
37.39089999999999
 20
63.69730000000001
 10
37.41839999999999
 20
63.79849999999999
 10
37.4632
 20
63.8931
 10
37.5266
 20
63.971
 10
37.5986
 20
64.05199999999999
 10
37.68459999999999
 20
64.1114
 10
37.77680000000001
 20
64.154
 10
37.83799999999999
 20
64.19389999999999
 10
37.87260000000001
 20
64.26050000000001
 10
37.87090000000001
 20
64.3364
 10
37.68819999999999
 20
64.81
 10
37.63849999999999
 20
64.8673
 10
37.56819999999999
 20
64.89339999999999
 10
37.49610000000001
 20
64.8819
 10
37.3991
 20
64.85149999999999
 10
37.2954
 20
64.83779999999999
 10
37.18780000000001
 20
64.8495
 10
37.08840000000001
 20
64.8646
 10
36.99170000000001
 20
64.90469999999999
 10
36.9034
 20
64.96119999999999
 10
36.82640000000001
 20
65.03210000000001
 10
36.7628
 20
65.11510000000001
 10
36.6832
 20
65.3072
 10
36.6695
 20
65.4109
 10
36.6738
 20
65.5155
 10
36.69630000000001
 20
65.61789999999999
 10
36.7363
 20
65.71459999999999
 10
36.79590000000002
 20
65.7955
 10
36.8638
 20
65.87989999999999
 10
36.94669999999999
 20
65.9435
 10
37.0368
 20
65.9906
 10
37.0959
 20
66.0335
 10
37.12720000000002
 20
66.10159999999999
 10
37.12180000000001
 20
66.1773
 10
36.9161
 20
66.6414
 10
36.86359999999999
 20
66.69630000000001
 10
36.7921
 20
66.71879999999999
 10
36.72069999999999
 20
66.7039
 10
36.62530000000001
 20
66.6687
 10
36.5224
 20
66.6499
 10
36.4143
 20
66.65629999999999
 10
36.31440000000001
 20
66.66659999999999
 10
36.2158
 20
66.70179999999999
 10
36.12479999999999
 20
66.75389999999999
 10
36.0444
 20
66.821
 10
35.9768
 20
66.9007
 10
35.8879
 20
67.08879999999999
 10
35.8691
 20
67.1916
 10
35.8683
 20
67.2963
 10
35.88580000000002
 20
67.3997
 10
35.92099999999999
 20
67.4982
 10
35.97649999999999
 20
67.582
 10
36.0402
 20
67.6696
 10
36.1199
 20
67.7372
 10
36.20760000000001
 20
67.7886
 10
36.2645
 20
67.83439999999999
 10
36.29239999999999
 20
67.904
 10
36.2833
 20
67.9793
 10
36.05510000000001
 20
68.43279999999999
 10
36.0
 20
68.48500000000001
 10
35.92740000000001
 20
68.50399999999999
 10
35.85679999999999
 20
68.4855
 10
35.76330000000002
 20
68.44569999999999
 10
35.66149999999999
 20
68.4219
 10
35.5532
 20
68.423
 10
35.4528
 20
68.42830000000001
 10
35.3527
 20
68.4587
 10
35.25919999999999
 20
68.50630000000001
 10
35.1756
 20
68.5693
 10
35.10419999999999
 20
68.6457
 10
35.00620000000001
 20
68.82910000000001
 10
34.98239999999998
 20
68.93090000000001
 10
34.97640000000001
 20
69.03540000000001
 10
34.9888
 20
69.1396
 10
35.01910000000001
 20
69.2397
 10
35.07050000000001
 20
69.3261
 10
35.12970000000001
 20
69.4168
 10
35.20609999999999
 20
69.4882
 10
35.2911
 20
69.5438
 10
35.34569999999999
 20
69.5923
 10
35.37020000000001
 20
69.66319999999999
 10
35.35739999999998
 20
69.738
 10
35.10720000000001
 20
70.1797
 10
35.0496
 20
70.22909999999999
 10
34.97620000000001
 20
70.24459999999999
 10
34.9066
 20
70.2227
 10
34.8151
 20
70.17830000000001
 10
34.71459999999999
 20
70.14959999999999
 10
34.60640000000001
 20
70.14529999999999
 10
34.5059
 20
70.1457
 10
34.40440000000001
 20
70.1712
 10
34.30869999999999
 20
70.2141
 10
34.22210000000001
 20
70.27289999999999
 10
34.14699999999999
 20
70.3457
 10
34.0401
 20
70.5241
 10
34.01130000000001
 20
70.62459999999999
 10
34.00020000000001
 20
70.7287
 10
34.00749999999999
 20
70.83330000000001
 10
34.03289999999998
 20
70.9348
 10
34.07990000000001
 20
71.02369999999999
 10
34.13470000000001
 20
71.1171
 10
34.20740000000001
 20
71.19220000000001
 10
34.28970000000001
 20
71.25200000000001
 10
34.34180000000001
 20
71.303
 10
34.36279999999999
 20
71.3751
 10
34.34629999999999
 20
71.44909999999999
 10
34.07480000000001
 20
71.87799999999999
 10
34.01480000000001
 20
71.9246
 10
33.94069999999999
 20
71.93639999999999
 10
33.8723
 20
71.9111
 10
33.78309999999999
 20
71.8623
 10
33.6841
 20
71.8287
 10
33.5762
 20
71.81909999999999
 10
33.47579999999999
 20
71.81459999999998
 10
33.3732
 20
71.83500000000001
 10
33.27549999999999
 20
71.8732
 10
33.18610000000001
 20
71.92770000000002
 10
33.10759999999999
 20
71.9967
 10
32.99199999999999
 20
72.1696
 10
32.95839999999998
 20
72.26859999999999
 10
32.94220000000001
 20
72.37209999999999
 10
32.9443
 20
72.4769
 10
32.96469999999999
 20
72.5795
 10
33.00729999999999
 20
72.67060000000001
 10
33.0574
 20
72.76660000000001
 10
33.12639999999999
 20
72.8451
 10
33.2056
 20
72.90889999999999
 10
33.2552
 20
72.9624
 10
33.27260000000001
 20
73.03540000000001
 10
33.2525
 20
73.1086
 10
32.96019999999999
 20
73.52359999999999
 10
32.898
 20
73.56720000000001
 10
32.8235
 20
73.5754
 10
32.75630000000001
 20
73.54669999999999
 10
32.6696
 20
73.49369999999999
 10
32.57240000000002
 20
73.45519999999999
 10
32.46520000000001
 20
73.44040000000001
 10
32.36509999999998
 20
73.43090000000001
 10
32.26159999999999
 20
73.44630000000001
 10
32.16219999999998
 20
73.4796
 10
32.0702
 20
73.52969999999999
 10
31.98840000000001
 20
73.59469999999999
 10
31.86449999999999
 20
73.7618
 10
31.82599999999999
 20
73.85900000000001
 10
31.8047
 20
73.9615
 10
31.80170000000001
 20
74.06630000000001
 10
31.81710000000001
 20
74.16980000000001
 10
31.8552
 20
74.2628
 10
31.90049999999999
 20
74.3612
 10
31.96549999999999
 20
74.44310000000002
 10
32.04149999999998
 20
74.51060000000001
 10
32.08840000000001
 20
74.56649999999999
 10
32.10220000000001
 20
74.6403
 10
32.07859999999999
 20
74.7124
 10
31.7663
 20
75.11259999999999
 10
31.702
 20
75.15299999999999
 10
31.62719999999999
 20
75.1576
 10
31.5615
 20
75.1257
 10
31.47749999999999
 20
75.0684
 10
31.38229999999999
 20
75.02520000000001
 10
31.27590000000001
 20
75.0051
 10
31.1764
 20
74.99080000000001
 10
31.07229999999998
 20
75.001
 10
30.97129999999999
 20
75.02940000000001
 10
30.87709999999998
 20
75.07490000000001
 10
30.7921
 20
75.13589999999999
 10
30.6602
 20
75.29669999999999
 10
30.61699999999999
 20
75.39189999999999
 10
30.5907
 20
75.4932
 10
30.58250000000001
 20
75.5978
 10
30.59280000000001
 20
75.7019
 10
30.62630000000001
 20
75.79669999999999
 10
30.66669999999999
 20
75.8971
 10
30.7277
 20
75.9821
 10
30.80019999999999
 20
76.05330000000001
 10
30.8443
 20
76.1115
 10
30.8545
 20
76.1858
 10
30.82730000000001
 20
76.25659999999999
 10
30.4958
 20
76.64099999999999
 10
30.42959999999999
 20
76.67830000000001
 10
30.3546
 20
76.6791
 10
30.29060000000001
 20
76.644
 10
30.20959999999999
 20
76.58269999999999
 10
30.11660000000001
 20
76.5349
 10
30.01130000000001
 20
76.5096
 10
29.9126
 20
76.4904
 10
29.8081
 20
76.49549999999999
 10
29.70589999999999
 20
76.519
 10
29.6095
 20
76.5598
 10
29.52170000000001
 20
76.6165
 10
29.38200000000001
 20
76.7706
 10
29.33420000000001
 20
76.86359999999999
 10
29.303
 20
76.96350000000001
 10
29.28970000000001
 20
77.0676
 10
29.29480000000001
 20
77.1721
 10
29.3236
 20
77.26839999999999
 10
29.35910000000001
 20
77.3707
 10
29.41579999999999
 20
77.45850000000002
 10
29.4847
 20
77.5332
 10
29.52590000000001
 20
77.5935
 10
29.5324
 20
77.66820000000001
 10
29.50190000000001
 20
77.73759999999999
 10
29.15180000000001
 20
78.1053
 10
29.0839
 20
78.13919999999999
 10
29.00900000000001
 20
78.13640000000001
 10
28.9468
 20
78.09819999999999
 10
28.86879999999999
 20
78.03300000000002
 10
28.7783
 20
77.98070000000001
 10
28.67439999999999
 20
77.9503
 10
28.57679999999999
 20
77.9262
 10
28.47210000000001
 20
77.9262
 10
28.3689
 20
77.94460000000001
 10
28.2706
 20
77.98070000000001
 10
28.18010000000001
 20
78.03300000000002
 10
28.03300000000002
 20
78.18010000000001
 10
27.9807
 20
78.2706
 10
27.94460000000001
 20
78.3689
 10
27.92619999999999
 20
78.47210000000001
 10
27.92619999999999
 20
78.57679999999999
 10
27.9503
 20
78.67439999999999
 10
27.9807
 20
78.7783
 10
28.03300000000002
 20
78.8688
 10
28.09819999999999
 20
78.9468
 10
28.13640000000001
 20
79.00900000000001
 10
28.13919999999999
 20
79.0839
 10
28.1053
 20
79.15180000000001
 10
27.7376
 20
79.5019
 10
27.6682
 20
79.5324
 10
27.59350000000001
 20
79.52590000000001
 10
27.53319999999999
 20
79.4847
 10
27.4585
 20
79.41579999999999
 10
27.3707
 20
79.35910000000001
 10
27.2684
 20
79.3236
 10
27.1721
 20
79.29480000000001
 10
27.0676
 20
79.28970000000001
 10
26.9635
 20
79.303
 10
26.86360000000001
 20
79.33420000000001
 10
26.7706
 20
79.382
 10
26.6165
 20
79.52170000000001
 10
26.5598
 20
79.6095
 10
26.51900000000001
 20
79.70589999999999
 10
26.49549999999999
 20
79.8081
 10
26.49039999999999
 20
79.9126
 10
26.50960000000001
 20
80.0113
 10
26.53489999999999
 20
80.1166
 10
26.5827
 20
80.2096
 10
26.64400000000001
 20
80.29060000000001
 10
26.67910000000001
 20
80.3546
 10
26.67830000000001
 20
80.4296
 10
26.64099999999999
 20
80.4958
 10
26.25659999999999
 20
80.82730000000001
 10
26.1858
 20
80.8545
 10
26.11150000000001
 20
80.8443
 10
26.05330000000001
 20
80.80019999999999
 10
25.9821
 20
80.7277
 10
25.89709999999999
 20
80.66669999999999
 10
25.7967
 20
80.62630000000001
 10
25.70189999999999
 20
80.59280000000001
 10
25.59780000000001
 20
80.58250000000001
 10
25.4932
 20
80.5907
 10
25.39189999999999
 20
80.61699999999999
 10
25.2967
 20
80.6602
 10
25.13589999999999
 20
80.7921
 10
25.0749
 20
80.87709999999998
 10
25.0294
 20
80.97129999999999
 10
25.001
 20
81.07229999999998
 10
24.99080000000001
 20
81.1764
 10
25.0051
 20
81.27590000000001
 10
25.0252
 20
81.38229999999999
 10
25.0684
 20
81.47749999999999
 10
25.12569999999999
 20
81.5615
 10
25.1576
 20
81.62719999999999
 10
25.15299999999999
 20
81.702
 10
25.1126
 20
81.7663
 10
24.7124
 20
82.0786
 10
24.6403
 20
82.10220000000001
 10
24.5665
 20
82.08840000000001
 10
24.5106
 20
82.04149999999998
 10
24.4431
 20
81.96549999999999
 10
24.3612
 20
81.9005
 10
24.2628
 20
81.8552
 10
24.1698
 20
81.81710000000001
 10
24.0663
 20
81.80170000000001
 10
23.9615
 20
81.8047
 10
23.85900000000001
 20
81.826
 10
23.76179999999999
 20
81.86449999999999
 10
23.5947
 20
81.98840000000001
 10
23.52969999999999
 20
82.0702
 10
23.4796
 20
82.16219999999998
 10
23.44630000000001
 20
82.26159999999999
 10
23.43090000000001
 20
82.36509999999998
 10
23.4404
 20
82.46520000000001
 10
23.4552
 20
82.57240000000002
 10
23.4937
 20
82.6696
 10
23.5467
 20
82.75630000000001
 10
23.5754
 20
82.8235
 10
23.5672
 20
82.898
 10
23.5236
 20
82.96019999999999
 10
23.1086
 20
83.2525
 10
23.0354
 20
83.27260000000001
 10
22.9624
 20
83.2552
 10
22.9089
 20
83.2056
 10
22.8451
 20
83.12639999999999
 10
22.7666
 20
83.0574
 10
22.67060000000001
 20
83.00729999999999
 10
22.5795
 20
82.9647
 10
22.4769
 20
82.9443
 10
22.3721
 20
82.94220000000001
 10
22.26859999999999
 20
82.95839999999998
 10
22.1696
 20
82.99199999999999
 10
21.9967
 20
83.10759999999999
 10
21.9277
 20
83.18610000000001
 10
21.8732
 20
83.2755
 10
21.83500000000001
 20
83.3732
 10
21.8146
 20
83.47579999999999
 10
21.81909999999999
 20
83.5762
 10
21.8287
 20
83.6841
 10
21.8623
 20
83.78309999999999
 10
21.9111
 20
83.8723
 10
21.93639999999999
 20
83.94069999999999
 10
21.9246
 20
84.01480000000001
 10
21.878
 20
84.07480000000001
 10
21.4491
 20
84.34629999999999
 10
21.3751
 20
84.3628
 10
21.303
 20
84.3418
 10
21.252
 20
84.28970000000001
 10
21.1922
 20
84.2074
 10
21.11709999999999
 20
84.13470000000001
 10
21.02370000000001
 20
84.07990000000001
 10
20.9348
 20
84.03289999999998
 10
20.83330000000001
 20
84.0075
 10
20.7287
 20
84.0002
 10
20.6246
 20
84.0113
 10
20.5241
 20
84.0401
 10
20.34569999999999
 20
84.14699999999999
 10
20.27289999999999
 20
84.22210000000001
 10
20.2141
 20
84.30869999999999
 10
20.1712
 20
84.40440000000001
 10
20.14570000000001
 20
84.5059
 10
20.14529999999999
 20
84.60640000000001
 10
20.14959999999999
 20
84.71459999999999
 10
20.17830000000001
 20
84.8151
 10
20.2227
 20
84.9066
 10
20.24459999999999
 20
84.9762
 10
20.2291
 20
85.0496
 10
20.1797
 20
85.1072
 10
19.738
 20
85.35739999999998
 10
19.6632
 20
85.37020000000001
 10
19.59229999999999
 20
85.3457
 10
19.5438
 20
85.2911
 10
19.48820000000001
 20
85.20609999999999
 10
19.41679999999999
 20
85.12970000000001
 10
19.3261
 20
85.07050000000001
 10
19.2397
 20
85.01910000000001
 10
19.1396
 20
84.9888
 10
19.0354
 20
84.97640000000001
 10
18.93090000000001
 20
84.98239999999998
 10
18.8291
 20
85.0062
 10
18.64570000000001
 20
85.10419999999999
 10
18.5693
 20
85.1756
 10
18.5063
 20
85.25919999999999
 10
18.45869999999999
 20
85.3527
 10
18.42830000000001
 20
85.4528
 10
18.423
 20
85.5532
 10
18.42189999999999
 20
85.66149999999999
 10
18.4457
 20
85.76330000000002
 10
18.4855
 20
85.85679999999999
 10
18.504
 20
85.9274
 10
18.485
 20
86.0
 10
18.4328
 20
86.05510000000001
 10
17.97929999999999
 20
86.2833
 10
17.904
 20
86.29239999999999
 10
17.8344
 20
86.2645
 10
17.7886
 20
86.20760000000001
 10
17.7372
 20
86.1199
 10
17.6696
 20
86.0402
 10
17.58199999999999
 20
85.97649999999999
 10
17.4982
 20
85.92099999999999
 10
17.3997
 20
85.88580000000002
 10
17.2963
 20
85.8683
 10
17.19159999999999
 20
85.8691
 10
17.08879999999999
 20
85.8879
 10
16.9007
 20
85.9768
 10
16.821
 20
86.0444
 10
16.7539
 20
86.1248
 10
16.70179999999999
 20
86.2158
 10
16.6666
 20
86.3144
 10
16.6563
 20
86.4143
 10
16.6499
 20
86.5224
 10
16.6687
 20
86.62530000000001
 10
16.7039
 20
86.7207
 10
16.7188
 20
86.7921
 10
16.69630000000001
 20
86.86359999999999
 10
16.6414
 20
86.9161
 10
16.1773
 20
87.12180000000001
 10
16.1016
 20
87.12720000000002
 10
16.0335
 20
87.0959
 10
15.9906
 20
87.0368
 10
15.9435
 20
86.94669999999999
 10
15.87989999999999
 20
86.8638
 10
15.7955
 20
86.79590000000002
 10
15.7146
 20
86.7363
 10
15.61790000000001
 20
86.69630000000001
 10
15.5155
 20
86.6738
 10
15.4109
 20
86.6695
 10
15.30719999999999
 20
86.6832
 10
15.1151
 20
86.7628
 10
15.0321
 20
86.8264
 10
14.96120000000001
 20
86.9034
 10
14.90470000000001
 20
86.99170000000001
 10
14.8646
 20
87.08840000000001
 10
14.84950000000001
 20
87.18780000000001
 10
14.8378
 20
87.2954
 10
14.8515
 20
87.3991
 10
14.8819
 20
87.49610000000001
 10
14.8934
 20
87.56819999999999
 10
14.8673
 20
87.6385
 10
14.81
 20
87.6882
 10
14.3364
 20
87.8709
 10
14.26050000000001
 20
87.8726
 10
14.1939
 20
87.838
 10
14.154
 20
87.77680000000001
 10
14.1114
 20
87.68459999999999
 10
14.05199999999999
 20
87.5986
 10
13.971
 20
87.5266
 10
13.8931
 20
87.4632
 10
13.7985
 20
87.41839999999999
 10
13.6973
 20
87.39089999999999
 10
13.593
 20
87.38150000000002
 10
13.4888
 20
87.39009999999999
 10
13.29300000000001
 20
87.46019999999999
 10
13.20699999999999
 20
87.5196
 10
13.1324
 20
87.59300000000002
 10
13.0716
 20
87.67849999999999
 10
13.0269
 20
87.7731
 10
13.0069
 20
87.8716
 10
12.98990000000001
 20
87.9786
 10
12.99850000000001
 20
88.08279999999999
 10
13.02420000000001
 20
88.18110000000001
 10
13.0321
 20
88.25370000000001
 10
13.0026
 20
88.3227
 10
12.94289999999999
 20
88.36950000000002
 10
12.4609
 20
88.52870000000001
 10
12.38500000000001
 20
88.5267
 10
12.3202
 20
88.4889
 10
12.2834
 20
88.42580000000001
 10
12.2453
 20
88.33160000000001
 10
12.1902
 20
88.24279999999999
 10
12.1129
 20
88.1669
 10
12.0381
 20
88.09969999999998
 10
11.94580000000001
 20
88.0504
 10
11.84610000000001
 20
88.018
 10
11.7424
 20
88.0034
 10
11.63800000000001
 20
88.0069
 10
11.4389
 20
88.06729999999999
 10
11.3501
 20
88.1224
 10
11.27200000000001
 20
88.19210000000001
 10
11.2071
 20
88.27449999999999
 10
11.15770000000001
 20
88.36680000000001
 10
11.13290000000001
 20
88.4642
 10
11.1108
 20
88.5702
 10
11.1142
 20
88.6747
 10
11.13500000000001
 20
88.77420000000001
 10
11.13939999999999
 20
88.84710000000001
 10
11.1065
 20
88.9145
 10
11.0446
 20
88.95839999999998
 10
10.5553
 20
89.09379999999999
 10
10.47969999999999
 20
89.088
 10
10.41679999999999
 20
89.047
 10
10.3831
 20
88.98230000000001
 10
10.3498
 20
88.8863
 10
10.29900000000001
 20
88.79480000000001
 10
10.2255
 20
88.71530000000001
 10
10.1542
 20
88.6445
 10
10.06440000000001
 20
88.5907
 10
9.966399999999993
 20
88.55340000000001
 10
9.863600000000012
 20
88.53379999999999
 10
9.759
 20
88.53219999999999
 10
9.557299999999998
 20
88.58269999999999
 10
9.465800000000002
 20
88.6334
 10
9.3844
 20
88.69919999999999
 10
9.3155
 20
88.7783
 10
9.261699999999998
 20
88.8681
 10
9.232200000000013
 20
88.9641
 10
9.204800000000013
 20
89.06889999999999
 10
9.203200000000002
 20
89.17349999999999
 10
9.219099999999997
 20
89.2739
 10
9.219799999999992
 20
89.3469
 10
9.183700000000002
 20
89.4126
 10
9.119699999999987
 20
89.45339999999999
 10
8.624399999999987
 20
89.56459999999998
 10
8.549100000000003
 20
89.55510000000001
 10
8.488300000000002
 20
89.5111
 10
8.457800000000013
 20
89.44479999999999
 10
8.429199999999987
 20
89.34729999999999
 10
8.383000000000003
 20
89.2535
 10
8.313499999999998
 20
89.1704
 10
8.2457
 20
89.09620000000001
 10
8.158700000000003
 20
89.03809999999999
 10
8.062700000000007
 20
88.99600000000001
 10
7.960900000000002
 20
88.97140000000002
 10
7.8566
 20
88.96459999999999
 10
7.652600000000007
 20
89.0052
 10
7.558800000000012
 20
89.0514
 10
7.474200000000003
 20
89.1131
 10
7.401600000000002
 20
89.18869999999998
 10
7.343400000000003
 20
89.2757
 10
7.309199999999997
 20
89.37020000000001
 10
7.276700000000012
 20
89.4735
 10
7.269900000000007
 20
89.5778
 10
7.280900000000003
 20
89.6789
 10
7.278000000000013
 20
89.7519
 10
7.238799999999998
 20
89.81569999999999
 10
7.172800000000002
 20
89.85329999999999
 10
6.672700000000013
 20
89.9401
 10
6.597900000000003
 20
89.92689999999999
 10
6.539400000000001
 20
89.88
 10
6.512200000000007
 20
89.8123
 10
6.488399999999999
 20
89.71350000000001
 10
6.446899999999999
 20
89.6175
 10
6.381500000000003
 20
89.53120000000001
 10
6.317400000000013
 20
89.4537
 10
6.233400000000003
 20
89.3914
 10
6.139499999999998
 20
89.34469999999999
 10
6.039099999999998
 20
89.3151
 10
5.935199999999988
 20
89.3032
 10
5.729500000000002
 20
89.3337
 10
5.633499999999998
 20
89.3752
 10
5.546000000000006
 20
89.43270000000001
 10
5.469700000000003
 20
89.50470000000001
 10
5.407400000000003
 20
89.58870000000002
 10
5.368600000000001
 20
89.6814
 10
5.331100000000013
 20
89.78300000000002
 10
5.319200000000002
 20
89.8869
 10
5.325100000000013
 20
89.98840000000001
 10
5.318700000000007
 20
90.06110000000001
 10
5.276400000000002
 20
90.12299999999999
 10
5.208699999999993
 20
90.15729999999999
 10
4.704800000000013
 20
90.21940000000001
 10
4.630799999999986
 20
90.20259999999999
 10
4.574700000000007
 20
90.15289999999999
 10
4.550800000000002
 20
90.0839
 10
4.531900000000007
 20
89.98400000000001
 10
4.495199999999997
 20
89.8861
 10
4.434100000000001
 20
89.79669999999999
 10
4.373900000000013
 20
89.71620000000001
 10
4.293000000000013
 20
89.6498
 10
4.201599999999999
 20
89.5985
 10
4.102699999999999
 20
89.564
 10
3.999499999999998
 20
89.5471
 10
3.792599999999993
 20
89.5675
 10
3.694699999999997
 20
89.60419999999999
 10
3.604500000000002
 20
89.65729999999999
 10
3.524700000000003
 20
89.72550000000001
 10
3.458399999999997
 20
89.8064
 10
3.415000000000013
 20
89.89699999999999
 10
3.372600000000013
 20
89.9967
 10
3.355600000000003
 20
90.09980000000002
 10
3.3566
 20
90.20150000000001
 10
3.346600000000002
 20
90.2738
 10
3.301299999999998
 20
90.33350000000002
 10
3.231999999999999
 20
90.36449999999999
 10
2.725700000000003
 20
90.40180000000001
 10
2.652600000000007
 20
90.38139999999999
 10
2.598999999999997
 20
90.32900000000001
 10
2.578500000000012
 20
90.25889999999998
 10
2.564599999999999
 20
90.1582
 10
2.532600000000002
 20
90.05860000000001
 10
2.475999999999999
 20
89.96629999999999
 10
2.419899999999998
 20
89.88300000000001
 10
2.342299999999987
 20
89.8127
 10
2.253500000000003
 20
89.757
 10
2.156499999999987
 20
89.71770000000001
 10
2.054199999999987
 20
89.69569999999999
 10
1.846500000000013
 20
89.70589999999999
 10
1.746899999999997
 20
89.7378
 10
1.654200000000003
 20
89.78640000000001
 10
1.571299999999987
 20
89.85059999999999
 10
1.500999999999998
 20
89.9281
 10
1.453299999999999
 20
90.01659999999998
 10
1.406000000000013
 20
90.114
 10
1.384
 20
90.21620000000001
 10
1.380000000000003
 20
90.3178
 10
1.366500000000002
 20
90.3895
 10
1.318199999999997
 20
90.4469
 10
1.247500000000002
 20
90.4744
 10
0.7399999999999878
 20
90.48689999999999
 10
0.6680000000000135
 20
90.46289999999999
 10
0.6169999999999973
 20
90.40789999999998
 10
0.5999999999999872
 20
90.33690000000001
 10
0.5909999999999869
 20
90.23570000000001
 10
0.563999999999993
 20
90.13470000000001
 10
0.5120000000000005
 20
90.03970000000001
 10
0.4599999999999866
 20
89.9537
 10
0.3860000000000028
 20
89.87970000000001
 10
0.2999999999999972
 20
89.81970000000001
 10
0.2049999999999983
 20
89.7757
 10
0.1039999999999992
 20
89.74869999999999
 10
-0.1039999999999992
 20
89.74869999999999
 10
-0.2049999999999983
 20
89.7757
 10
-0.2999999999999972
 20
89.81970000000001
 10
-0.3860000000000028
 20
89.87970000000001
 10
-0.4599999999999866
 20
89.9537
 10
-0.5120000000000005
 20
90.03970000000001
 10
-0.563999999999993
 20
90.13470000000001
 10
-0.5909999999999869
 20
90.23570000000001
 10
-0.5999999999999872
 20
90.33690000000001
 10
-0.6169999999999973
 20
90.40789999999998
 10
-0.6680000000000135
 20
90.46289999999999
 10
-0.7399999999999878
 20
90.48689999999999
 10
-1.247500000000002
 20
90.4744
 10
-1.318199999999997
 20
90.4469
 10
-1.366500000000002
 20
90.3895
 10
-1.380000000000003
 20
90.3178
 10
-1.384
 20
90.21620000000001
 10
-1.406000000000013
 20
90.114
 10
-1.453299999999999
 20
90.01659999999998
 10
-1.500999999999998
 20
89.9281
 10
-1.571299999999987
 20
89.85059999999999
 10
-1.654200000000003
 20
89.78640000000001
 10
-1.746899999999997
 20
89.7378
 10
-1.846500000000013
 20
89.70589999999999
 10
-2.054199999999987
 20
89.69569999999999
 10
-2.156499999999987
 20
89.71770000000001
 10
-2.253500000000003
 20
89.757
 10
-2.342299999999987
 20
89.8127
 10
-2.419899999999998
 20
89.88300000000001
 10
-2.475999999999999
 20
89.96629999999999
 10
-2.532600000000002
 20
90.05860000000001
 10
-2.564599999999999
 20
90.1582
 10
-2.578500000000012
 20
90.25889999999998
 10
-2.598999999999997
 20
90.32900000000001
 10
-2.652600000000007
 20
90.38139999999999
 10
-2.725700000000003
 20
90.40180000000001
 10
-3.231999999999999
 20
90.36449999999999
 10
-3.301299999999998
 20
90.33350000000002
 10
-3.346600000000002
 20
90.2738
 10
-3.3566
 20
90.20150000000001
 10
-3.355600000000003
 20
90.09980000000002
 10
-3.372600000000013
 20
89.9967
 10
-3.415000000000013
 20
89.89699999999999
 10
-3.458399999999997
 20
89.8064
 10
-3.524700000000003
 20
89.72550000000001
 10
-3.604500000000002
 20
89.65729999999999
 10
-3.694699999999997
 20
89.60419999999999
 10
-3.792599999999993
 20
89.5675
 10
-3.999499999999998
 20
89.5471
 10
-4.102699999999999
 20
89.564
 10
-4.201599999999999
 20
89.5985
 10
-4.293000000000013
 20
89.6498
 10
-4.373900000000013
 20
89.71620000000001
 10
-4.434100000000001
 20
89.79669999999999
 10
-4.495199999999997
 20
89.8861
 10
-4.531900000000007
 20
89.98400000000001
 10
-4.550800000000002
 20
90.0839
 10
-4.574700000000007
 20
90.15289999999999
 10
-4.630799999999986
 20
90.20259999999999
 10
-4.704800000000013
 20
90.21940000000001
 10
-5.208699999999993
 20
90.15729999999999
 10
-5.276400000000002
 20
90.12299999999999
 10
-5.318700000000007
 20
90.06110000000001
 10
-5.325100000000013
 20
89.98840000000001
 10
-5.319200000000002
 20
89.8869
 10
-5.331100000000013
 20
89.78300000000002
 10
-5.368600000000001
 20
89.6814
 10
-5.407400000000003
 20
89.58870000000002
 10
-5.469700000000003
 20
89.50470000000001
 10
-5.546000000000006
 20
89.43270000000001
 10
-5.633499999999998
 20
89.3752
 10
-5.729500000000002
 20
89.3337
 10
-5.935199999999988
 20
89.3032
 10
-6.039099999999998
 20
89.3151
 10
-6.139499999999998
 20
89.34469999999999
 10
-6.233400000000003
 20
89.3914
 10
-6.317400000000013
 20
89.4537
 10
-6.381500000000003
 20
89.53120000000001
 10
-6.446899999999999
 20
89.6175
 10
-6.488399999999999
 20
89.71350000000001
 10
-6.512200000000007
 20
89.8123
 10
-6.539400000000001
 20
89.88
 10
-6.597900000000003
 20
89.92689999999999
 10
-6.672700000000013
 20
89.9401
 10
-7.172800000000002
 20
89.85329999999999
 10
-7.238799999999998
 20
89.81569999999999
 10
-7.278000000000013
 20
89.7519
 10
-7.280900000000003
 20
89.6789
 10
-7.269900000000007
 20
89.5778
 10
-7.276700000000012
 20
89.4735
 10
-7.309199999999997
 20
89.37020000000001
 10
-7.343400000000003
 20
89.2757
 10
-7.401600000000002
 20
89.18869999999998
 10
-7.474200000000003
 20
89.1131
 10
-7.558800000000012
 20
89.0514
 10
-7.652600000000007
 20
89.0052
 10
-7.8566
 20
88.96459999999999
 10
-7.960900000000002
 20
88.97140000000002
 10
-8.062700000000007
 20
88.99600000000001
 10
-8.158700000000003
 20
89.03809999999999
 10
-8.2457
 20
89.09620000000001
 10
-8.313499999999998
 20
89.1704
 10
-8.383000000000003
 20
89.2535
 10
-8.429199999999987
 20
89.34729999999999
 10
-8.457800000000013
 20
89.44479999999999
 10
-8.488300000000002
 20
89.5111
 10
-8.549100000000003
 20
89.55510000000001
 10
-8.624399999999987
 20
89.56459999999998
 10
-9.119699999999987
 20
89.45339999999999
 10
-9.183700000000002
 20
89.4126
 10
-9.219799999999992
 20
89.3469
 10
-9.219099999999997
 20
89.2739
 10
-9.203200000000002
 20
89.17349999999999
 10
-9.204800000000013
 20
89.06889999999999
 10
-9.232200000000013
 20
88.9641
 10
-9.261699999999998
 20
88.8681
 10
-9.3155
 20
88.7783
 10
-9.3844
 20
88.69919999999999
 10
-9.465800000000002
 20
88.6334
 10
-9.557299999999998
 20
88.58269999999999
 10
-9.759
 20
88.53219999999999
 10
-9.863600000000012
 20
88.53379999999999
 10
-9.966399999999993
 20
88.55340000000001
 10
-10.06440000000001
 20
88.5907
 10
-10.1542
 20
88.6445
 10
-10.2255
 20
88.71530000000001
 10
-10.29900000000001
 20
88.79480000000001
 10
-10.3498
 20
88.8863
 10
-10.3831
 20
88.98230000000001
 10
-10.41679999999999
 20
89.047
 10
-10.47969999999999
 20
89.088
 10
-10.5553
 20
89.09379999999999
 10
-11.0446
 20
88.95839999999998
 10
-11.1065
 20
88.9145
 10
-11.13939999999999
 20
88.84710000000001
 10
-11.13500000000001
 20
88.77420000000001
 10
-11.1142
 20
88.6747
 10
-11.1108
 20
88.5702
 10
-11.13290000000001
 20
88.4642
 10
-11.15770000000001
 20
88.36680000000001
 10
-11.2071
 20
88.27449999999999
 10
-11.27200000000001
 20
88.19210000000001
 10
-11.3501
 20
88.1224
 10
-11.4389
 20
88.06729999999999
 10
-11.63800000000001
 20
88.0069
 10
-11.7424
 20
88.0034
 10
-11.84610000000001
 20
88.018
 10
-11.94580000000001
 20
88.0504
 10
-12.0381
 20
88.09969999999998
 10
-12.1129
 20
88.1669
 10
-12.1902
 20
88.24279999999999
 10
-12.2453
 20
88.33160000000001
 10
-12.2834
 20
88.42580000000001
 10
-12.3202
 20
88.4889
 10
-12.38500000000001
 20
88.5267
 10
-12.4609
 20
88.52870000000001
 10
-12.94289999999999
 20
88.36950000000002
 10
-13.0026
 20
88.3227
 10
-13.0321
 20
88.25370000000001
 10
-13.02420000000001
 20
88.18110000000001
 10
-12.99850000000001
 20
88.08279999999999
 10
-12.98990000000001
 20
87.9786
 10
-13.0069
 20
87.8716
 10
-13.0269
 20
87.7731
 10
-13.0716
 20
87.67849999999999
 10
-13.1324
 20
87.59300000000002
 10
-13.20699999999999
 20
87.5196
 10
-13.29300000000001
 20
87.46019999999999
 10
-13.4888
 20
87.39009999999999
 10
-13.593
 20
87.38150000000002
 10
-13.6973
 20
87.39089999999999
 10
-13.7985
 20
87.41839999999999
 10
-13.8931
 20
87.4632
 10
-13.971
 20
87.5266
 10
-14.05199999999999
 20
87.5986
 10
-14.1114
 20
87.68459999999999
 10
-14.154
 20
87.77680000000001
 10
-14.1939
 20
87.838
 10
-14.26050000000001
 20
87.8726
 10
-14.3364
 20
87.8709
 10
-14.81
 20
87.6882
 10
-14.8673
 20
87.6385
 10
-14.8934
 20
87.56819999999999
 10
-14.8819
 20
87.49610000000001
 10
-14.8515
 20
87.3991
 10
-14.8378
 20
87.2954
 10
-14.84950000000001
 20
87.18780000000001
 10
-14.8646
 20
87.08840000000001
 10
-14.90470000000001
 20
86.99170000000001
 10
-14.96120000000001
 20
86.9034
 10
-15.0321
 20
86.8264
 10
-15.1151
 20
86.7628
 10
-15.30719999999999
 20
86.6832
 10
-15.4109
 20
86.6695
 10
-15.5155
 20
86.6738
 10
-15.61790000000001
 20
86.69630000000001
 10
-15.7146
 20
86.7363
 10
-15.7955
 20
86.79590000000002
 10
-15.87989999999999
 20
86.8638
 10
-15.9435
 20
86.94669999999999
 10
-15.9906
 20
87.0368
 10
-16.0335
 20
87.0959
 10
-16.1016
 20
87.12720000000002
 10
-16.1773
 20
87.12180000000001
 10
-16.6414
 20
86.9161
 10
-16.69630000000001
 20
86.86359999999999
 10
-16.7188
 20
86.7921
 10
-16.7039
 20
86.7207
 10
-16.6687
 20
86.62530000000001
 10
-16.6499
 20
86.5224
 10
-16.6563
 20
86.4143
 10
-16.6666
 20
86.3144
 10
-16.70179999999999
 20
86.2158
 10
-16.7539
 20
86.1248
 10
-16.821
 20
86.0444
 10
-16.9007
 20
85.9768
 10
-17.08879999999999
 20
85.8879
 10
-17.19159999999999
 20
85.8691
 10
-17.2963
 20
85.8683
 10
-17.3997
 20
85.88580000000002
 10
-17.4982
 20
85.92099999999999
 10
-17.58199999999999
 20
85.97649999999999
 10
-17.6696
 20
86.0402
 10
-17.7372
 20
86.1199
 10
-17.7886
 20
86.20760000000001
 10
-17.8344
 20
86.2645
 10
-17.904
 20
86.29239999999999
 10
-17.97929999999999
 20
86.2833
 10
-18.4328
 20
86.05510000000001
 10
-18.485
 20
86.0
 10
-18.504
 20
85.9274
 10
-18.4855
 20
85.85679999999999
 10
-18.4457
 20
85.76330000000002
 10
-18.42189999999999
 20
85.66149999999999
 10
-18.423
 20
85.5532
 10
-18.42830000000001
 20
85.4528
 10
-18.45869999999999
 20
85.3527
 10
-18.5063
 20
85.25919999999999
 10
-18.5693
 20
85.1756
 10
-18.64570000000001
 20
85.10419999999999
 10
-18.8291
 20
85.0062
 10
-18.93090000000001
 20
84.98239999999998
 10
-19.0354
 20
84.97640000000001
 10
-19.1396
 20
84.9888
 10
-19.2397
 20
85.01910000000001
 10
-19.3261
 20
85.07050000000001
 10
-19.41679999999999
 20
85.12970000000001
 10
-19.48820000000001
 20
85.20609999999999
 10
-19.5438
 20
85.2911
 10
-19.59229999999999
 20
85.3457
 10
-19.6632
 20
85.37020000000001
 10
-19.738
 20
85.35739999999998
 10
-20.1797
 20
85.1072
 10
-20.2291
 20
85.0496
 10
-20.24459999999999
 20
84.9762
 10
-20.2227
 20
84.9066
 10
-20.17830000000001
 20
84.8151
 10
-20.14959999999999
 20
84.71459999999999
 10
-20.14529999999999
 20
84.60640000000001
 10
-20.14570000000001
 20
84.5059
 10
-20.1712
 20
84.40440000000001
 10
-20.2141
 20
84.30869999999999
 10
-20.27289999999999
 20
84.22210000000001
 10
-20.34569999999999
 20
84.14699999999999
 10
-20.5241
 20
84.0401
 10
-20.6246
 20
84.0113
 10
-20.7287
 20
84.0002
 10
-20.83330000000001
 20
84.0075
 10
-20.9348
 20
84.03289999999998
 10
-21.02370000000001
 20
84.07990000000001
 10
-21.11709999999999
 20
84.13470000000001
 10
-21.1922
 20
84.2074
 10
-21.252
 20
84.28970000000001
 10
-21.303
 20
84.3418
 10
-21.3751
 20
84.3628
 10
-21.4491
 20
84.34629999999999
 10
-21.878
 20
84.07480000000001
 10
-21.9246
 20
84.01480000000001
 10
-21.93639999999999
 20
83.94069999999999
 10
-21.9111
 20
83.8723
 10
-21.8623
 20
83.78309999999999
 10
-21.8287
 20
83.6841
 10
-21.81909999999999
 20
83.5762
 10
-21.8146
 20
83.47579999999999
 10
-21.83500000000001
 20
83.3732
 10
-21.8732
 20
83.2755
 10
-21.9277
 20
83.18610000000001
 10
-21.9967
 20
83.10759999999999
 10
-22.1696
 20
82.99199999999999
 10
-22.26859999999999
 20
82.95839999999998
 10
-22.3721
 20
82.94220000000001
 10
-22.4769
 20
82.9443
 10
-22.5795
 20
82.9647
 10
-22.67060000000001
 20
83.00729999999999
 10
-22.7666
 20
83.0574
 10
-22.8451
 20
83.12639999999999
 10
-22.9089
 20
83.2056
 10
-22.9624
 20
83.2552
 10
-23.0354
 20
83.27260000000001
 10
-23.1086
 20
83.2525
 10
-23.5236
 20
82.96019999999999
 10
-23.5672
 20
82.898
 10
-23.5754
 20
82.8235
 10
-23.5467
 20
82.75630000000001
 10
-23.4937
 20
82.6696
 10
-23.4552
 20
82.57240000000002
 10
-23.4404
 20
82.46520000000001
 10
-23.43090000000001
 20
82.36509999999998
 10
-23.44630000000001
 20
82.26159999999999
 10
-23.4796
 20
82.16219999999998
 10
-23.52969999999999
 20
82.0702
 10
-23.5947
 20
81.98840000000001
 10
-23.76179999999999
 20
81.86449999999999
 10
-23.85900000000001
 20
81.826
 10
-23.9615
 20
81.8047
 10
-24.0663
 20
81.80170000000001
 10
-24.1698
 20
81.81710000000001
 10
-24.2628
 20
81.8552
 10
-24.3612
 20
81.9005
 10
-24.4431
 20
81.96549999999999
 10
-24.5106
 20
82.04149999999998
 10
-24.5665
 20
82.08840000000001
 10
-24.6403
 20
82.10220000000001
 10
-24.7124
 20
82.0786
 10
-25.1126
 20
81.7663
 10
-25.15299999999999
 20
81.702
 10
-25.1576
 20
81.62719999999999
 10
-25.12569999999999
 20
81.5615
 10
-25.0684
 20
81.47749999999999
 10
-25.0252
 20
81.38229999999999
 10
-25.0051
 20
81.27590000000001
 10
-24.99080000000001
 20
81.1764
 10
-25.001
 20
81.07229999999998
 10
-25.0294
 20
80.97129999999999
 10
-25.0749
 20
80.87709999999998
 10
-25.13589999999999
 20
80.7921
 10
-25.2967
 20
80.6602
 10
-25.39189999999999
 20
80.61699999999999
 10
-25.4932
 20
80.5907
 10
-25.59780000000001
 20
80.58250000000001
 10
-25.70189999999999
 20
80.59280000000001
 10
-25.7967
 20
80.62630000000001
 10
-25.89709999999999
 20
80.66669999999999
 10
-25.9821
 20
80.7277
 10
-26.05330000000001
 20
80.80019999999999
 10
-26.11150000000001
 20
80.8443
 10
-26.1858
 20
80.8545
 10
-26.25659999999999
 20
80.82730000000001
 10
-26.64099999999999
 20
80.4958
 10
-26.67830000000001
 20
80.4296
 10
-26.67910000000001
 20
80.3546
 10
-26.64400000000001
 20
80.29060000000001
 10
-26.5827
 20
80.2096
 10
-26.53489999999999
 20
80.1166
 10
-26.50960000000001
 20
80.0113
 10
-26.49039999999999
 20
79.9126
 10
-26.49549999999999
 20
79.8081
 10
-26.51900000000001
 20
79.70589999999999
 10
-26.5598
 20
79.6095
 10
-26.6165
 20
79.52170000000001
 10
-26.7706
 20
79.382
 10
-26.86360000000001
 20
79.33420000000001
 10
-26.9635
 20
79.303
 10
-27.0676
 20
79.28970000000001
 10
-27.1721
 20
79.29480000000001
 10
-27.2684
 20
79.3236
 10
-27.3707
 20
79.35910000000001
 10
-27.4585
 20
79.41579999999999
 10
-27.53319999999999
 20
79.4847
 10
-27.59350000000001
 20
79.52590000000001
 10
-27.6682
 20
79.5324
 10
-27.7376
 20
79.5019
 10
-28.1053
 20
79.15180000000001
 10
-28.1392
 20
79.0839
 10
-28.13639999999999
 20
79.00900000000001
 10
-28.09819999999999
 20
78.9468
 10
-28.033
 20
78.8688
 10
-27.9807
 20
78.7783
 10
-27.9503
 20
78.67439999999999
 10
-27.92619999999999
 20
78.57679999999999
 10
-27.92619999999999
 20
78.47210000000001
 10
-27.94460000000001
 20
78.3689
 10
-27.9807
 20
78.2706
 10
-28.033
 20
78.18010000000001
 10
-28.1801
 20
78.03300000000002
 10
-28.2706
 20
77.98070000000001
 10
-28.3689
 20
77.94460000000001
 10
-28.4721
 20
77.9262
 10
-28.57679999999999
 20
77.9262
 10
-28.67439999999999
 20
77.9503
 10
-28.7783
 20
77.98070000000001
 10
-28.86879999999999
 20
78.03300000000002
 10
-28.9468
 20
78.09819999999999
 10
-29.009
 20
78.13640000000001
 10
-29.0839
 20
78.13919999999999
 10
-29.15180000000001
 20
78.1053
 10
-29.50190000000001
 20
77.73759999999999
 10
-29.5324
 20
77.66820000000001
 10
-29.52590000000001
 20
77.5935
 10
-29.4847
 20
77.5332
 10
-29.4158
 20
77.45850000000002
 10
-29.3591
 20
77.3707
 10
-29.3236
 20
77.26839999999999
 10
-29.2948
 20
77.1721
 10
-29.2897
 20
77.0676
 10
-29.303
 20
76.96350000000001
 10
-29.3342
 20
76.86359999999999
 10
-29.38200000000001
 20
76.7706
 10
-29.5217
 20
76.6165
 10
-29.6095
 20
76.5598
 10
-29.7059
 20
76.519
 10
-29.8081
 20
76.49549999999999
 10
-29.9126
 20
76.4904
 10
-30.01130000000001
 20
76.5096
 10
-30.11660000000001
 20
76.5349
 10
-30.20959999999999
 20
76.58269999999999
 10
-30.2906
 20
76.644
 10
-30.3546
 20
76.6791
 10
-30.42959999999999
 20
76.67830000000001
 10
-30.4958
 20
76.64099999999999
 10
-30.82730000000001
 20
76.25659999999999
 10
-30.8545
 20
76.1858
 10
-30.8443
 20
76.1115
 10
-30.8002
 20
76.05330000000001
 10
-30.7277
 20
75.9821
 10
-30.66669999999999
 20
75.8971
 10
-30.6263
 20
75.79669999999999
 10
-30.5928
 20
75.7019
 10
-30.5825
 20
75.5978
 10
-30.5907
 20
75.4932
 10
-30.617
 20
75.39189999999999
 10
-30.6602
 20
75.29669999999999
 10
-30.7921
 20
75.13589999999999
 10
-30.8771
 20
75.07490000000001
 10
-30.9713
 20
75.02940000000001
 10
-31.0723
 20
75.001
 10
-31.1764
 20
74.99080000000001
 10
-31.27590000000001
 20
75.0051
 10
-31.3823
 20
75.02520000000001
 10
-31.47749999999999
 20
75.0684
 10
-31.5615
 20
75.1257
 10
-31.6272
 20
75.1576
 10
-31.702
 20
75.15299999999999
 10
-31.7663
 20
75.11259999999999
 10
-32.07859999999999
 20
74.7124
 10
-32.10220000000001
 20
74.6403
 10
-32.08840000000001
 20
74.56649999999999
 10
-32.0415
 20
74.51060000000001
 10
-31.96549999999999
 20
74.44310000000002
 10
-31.90049999999999
 20
74.3612
 10
-31.8552
 20
74.2628
 10
-31.8171
 20
74.16980000000001
 10
-31.8017
 20
74.06630000000001
 10
-31.8047
 20
73.9615
 10
-31.82599999999999
 20
73.85900000000001
 10
-31.86449999999999
 20
73.7618
 10
-31.9884
 20
73.59469999999999
 10
-32.0702
 20
73.52969999999999
 10
-32.1622
 20
73.4796
 10
-32.2616
 20
73.44630000000001
 10
-32.3651
 20
73.43090000000001
 10
-32.46520000000001
 20
73.44040000000001
 10
-32.5724
 20
73.45519999999999
 10
-32.6696
 20
73.49369999999999
 10
-32.75630000000001
 20
73.54669999999999
 10
-32.8235
 20
73.5754
 10
-32.898
 20
73.56720000000001
 10
-32.9602
 20
73.52359999999999
 10
-33.2525
 20
73.1086
 10
-33.2726
 20
73.03540000000001
 10
-33.2552
 20
72.9624
 10
-33.2056
 20
72.90889999999999
 10
-33.12639999999999
 20
72.8451
 10
-33.0574
 20
72.76660000000001
 10
-33.0073
 20
72.67060000000001
 10
-32.96469999999999
 20
72.5795
 10
-32.9443
 20
72.4769
 10
-32.9422
 20
72.37209999999999
 10
-32.9584
 20
72.26859999999999
 10
-32.99199999999999
 20
72.1696
 10
-33.10759999999999
 20
71.9967
 10
-33.18610000000001
 20
71.92770000000002
 10
-33.27549999999999
 20
71.8732
 10
-33.3732
 20
71.83500000000001
 10
-33.47579999999999
 20
71.81459999999998
 10
-33.5762
 20
71.81909999999999
 10
-33.6841
 20
71.8287
 10
-33.78309999999999
 20
71.8623
 10
-33.8723
 20
71.9111
 10
-33.94069999999999
 20
71.93639999999999
 10
-34.01480000000001
 20
71.9246
 10
-34.07480000000001
 20
71.87799999999999
 10
-34.3463
 20
71.44909999999999
 10
-34.36279999999999
 20
71.3751
 10
-34.34180000000001
 20
71.303
 10
-34.28970000000001
 20
71.25200000000001
 10
-34.20740000000001
 20
71.19220000000001
 10
-34.13470000000001
 20
71.1171
 10
-34.07990000000001
 20
71.02369999999999
 10
-34.0329
 20
70.9348
 10
-34.00749999999999
 20
70.83330000000001
 10
-34.00020000000001
 20
70.7287
 10
-34.01130000000001
 20
70.62459999999999
 10
-34.0401
 20
70.5241
 10
-34.14699999999999
 20
70.3457
 10
-34.2221
 20
70.27289999999999
 10
-34.3087
 20
70.2141
 10
-34.40440000000001
 20
70.1712
 10
-34.5059
 20
70.1457
 10
-34.60640000000001
 20
70.14529999999999
 10
-34.71459999999999
 20
70.14959999999999
 10
-34.8151
 20
70.17830000000001
 10
-34.9066
 20
70.2227
 10
-34.97620000000001
 20
70.24459999999999
 10
-35.0496
 20
70.22909999999999
 10
-35.10720000000001
 20
70.1797
 10
-35.3574
 20
69.738
 10
-35.3702
 20
69.66319999999999
 10
-35.34569999999999
 20
69.5923
 10
-35.2911
 20
69.5438
 10
-35.20609999999999
 20
69.4882
 10
-35.1297
 20
69.4168
 10
-35.07050000000001
 20
69.3261
 10
-35.01910000000001
 20
69.2397
 10
-34.9888
 20
69.1396
 10
-34.9764
 20
69.03540000000001
 10
-34.9824
 20
68.93090000000001
 10
-35.00620000000001
 20
68.82910000000001
 10
-35.10419999999999
 20
68.6457
 10
-35.1756
 20
68.5693
 10
-35.25919999999999
 20
68.50630000000001
 10
-35.3527
 20
68.4587
 10
-35.4528
 20
68.42830000000001
 10
-35.5532
 20
68.423
 10
-35.66149999999999
 20
68.4219
 10
-35.7633
 20
68.44569999999999
 10
-35.85679999999999
 20
68.4855
 10
-35.92740000000001
 20
68.50399999999999
 10
-36.0
 20
68.48500000000001
 10
-36.0551
 20
68.43279999999999
 10
-36.2833
 20
67.9793
 10
-36.2924
 20
67.904
 10
-36.2645
 20
67.83439999999999
 10
-36.2076
 20
67.7886
 10
-36.1199
 20
67.7372
 10
-36.0402
 20
67.6696
 10
-35.9765
 20
67.582
 10
-35.92099999999999
 20
67.4982
 10
-35.8858
 20
67.3997
 10
-35.8683
 20
67.2963
 10
-35.8691
 20
67.1916
 10
-35.8879
 20
67.08879999999999
 10
-35.9768
 20
66.9007
 10
-36.0444
 20
66.821
 10
-36.1248
 20
66.75389999999999
 10
-36.2158
 20
66.70179999999999
 10
-36.3144
 20
66.66659999999999
 10
-36.4143
 20
66.65629999999999
 10
-36.5224
 20
66.6499
 10
-36.6253
 20
66.6687
 10
-36.7207
 20
66.7039
 10
-36.7921
 20
66.71879999999999
 10
-36.8636
 20
66.69630000000001
 10
-36.9161
 20
66.6414
 10
-37.1218
 20
66.1773
 10
-37.1272
 20
66.10159999999999
 10
-37.0959
 20
66.0335
 10
-37.0368
 20
65.9906
 10
-36.9467
 20
65.9435
 10
-36.8638
 20
65.87989999999999
 10
-36.7959
 20
65.7955
 10
-36.7363
 20
65.71459999999999
 10
-36.6963
 20
65.61789999999999
 10
-36.6738
 20
65.5155
 10
-36.6695
 20
65.4109
 10
-36.6832
 20
65.3072
 10
-36.7628
 20
65.11510000000001
 10
-36.8264
 20
65.03210000000001
 10
-36.9034
 20
64.96119999999999
 10
-36.9917
 20
64.90469999999999
 10
-37.0884
 20
64.8646
 10
-37.1878
 20
64.8495
 10
-37.2954
 20
64.83779999999999
 10
-37.3991
 20
64.85149999999999
 10
-37.4961
 20
64.8819
 10
-37.5682
 20
64.89339999999999
 10
-37.6385
 20
64.8673
 10
-37.6882
 20
64.81
 10
-37.8709
 20
64.3364
 10
-37.8726
 20
64.26050000000001
 10
-37.838
 20
64.19389999999999
 10
-37.7768
 20
64.154
 10
-37.6846
 20
64.1114
 10
-37.5986
 20
64.05199999999999
 10
-37.5266
 20
63.971
 10
-37.4632
 20
63.8931
 10
-37.4184
 20
63.79849999999999
 10
-37.3909
 20
63.69730000000001
 10
-37.3815
 20
63.59299999999999
 10
-37.3901
 20
63.4888
 10
-37.4602
 20
63.29300000000001
 10
-37.5196
 20
63.20699999999999
 10
-37.593
 20
63.13239999999999
 10
-37.6785
 20
63.07159999999999
 10
-37.7731
 20
63.02690000000001
 10
-37.8716
 20
63.0069
 10
-37.9786
 20
62.98990000000001
 10
-38.0828
 20
62.99850000000001
 10
-38.1811
 20
63.02420000000001
 10
-38.2537
 20
63.03210000000001
 10
-38.3227
 20
63.0026
 10
-38.3695
 20
62.94290000000001
 10
-38.5287
 20
62.46090000000001
 10
-38.5267
 20
62.38499999999999
 10
-38.4889
 20
62.3202
 10
-38.4258
 20
62.2834
 10
-38.3316
 20
62.24529999999999
 10
-38.2428
 20
62.1902
 10
-38.1669
 20
62.1129
 10
-38.0997
 20
62.03809999999999
 10
-38.0504
 20
61.94579999999999
 10
-38.018
 20
61.84610000000001
 10
-38.0034
 20
61.7424
 10
-38.0069
 20
61.63800000000001
 10
-38.0673
 20
61.43889999999999
 10
-38.1224
 20
61.3501
 10
-38.1921
 20
61.27199999999999
 10
-38.2745
 20
61.2071
 10
-38.3668
 20
61.15770000000001
 10
-38.4642
 20
61.13290000000001
 10
-38.5702
 20
61.11080000000001
 10
-38.6747
 20
61.11420000000001
 10
-38.7742
 20
61.13499999999999
 10
-38.8471
 20
61.13939999999999
 10
-38.9145
 20
61.10650000000001
 10
-38.9584
 20
61.0446
 10
-39.0938
 20
60.55529999999999
 10
-39.088
 20
60.47970000000001
 10
-39.047
 20
60.41679999999999
 10
-38.9823
 20
60.38310000000001
 10
-38.8863
 20
60.34979999999999
 10
-38.7948
 20
60.29900000000001
 10
-38.7153
 20
60.22550000000001
 10
-38.6445
 20
60.1542
 10
-38.5907
 20
60.06440000000001
 10
-38.5534
 20
59.96639999999999
 10
-38.5338
 20
59.86359999999999
 10
-38.5322
 20
59.75900000000001
 10
-38.5827
 20
59.5573
 10
-38.6334
 20
59.4658
 10
-38.6992
 20
59.3844
 10
-38.7783
 20
59.31549999999999
 10
-38.8681
 20
59.26169999999999
 10
-38.9641
 20
59.23220000000001
 10
-39.0689
 20
59.20480000000001
 10
-39.1735
 20
59.20320000000001
 10
-39.2739
 20
59.2191
 10
-39.3469
 20
59.21979999999999
 10
-39.4126
 20
59.18369999999999
 10
-39.4534
 20
59.11969999999999
 10
-39.5646
 20
58.62440000000001
 10
-39.5551
 20
58.54910000000001
 10
-39.5111
 20
58.48830000000001
 10
-39.4448
 20
58.45779999999999
 10
-39.3473
 20
58.42920000000001
 10
-39.2535
 20
58.38300000000001
 10
-39.1704
 20
58.3135
 10
-39.0962
 20
58.2457
 10
-39.0381
 20
58.15870000000001
 10
-38.996
 20
58.06270000000001
 10
-38.9714
 20
57.96090000000001
 10
-38.9646
 20
57.85660000000001
 10
-39.0052
 20
57.65260000000001
 10
-39.0514
 20
57.55879999999999
 10
-39.1131
 20
57.4742
 10
-39.1887
 20
57.4016
 10
-39.2757
 20
57.3434
 10
-39.3702
 20
57.3092
 10
-39.4735
 20
57.27670000000001
 10
-39.5778
 20
57.26990000000001
 10
-39.6789
 20
57.2809
 10
-39.7519
 20
57.27799999999999
 10
-39.8157
 20
57.2388
 10
-39.8533
 20
57.1728
 10
-39.9401
 20
56.67269999999999
 10
-39.9269
 20
56.59790000000001
 10
-39.88
 20
56.5394
 10
-39.8123
 20
56.51220000000001
 10
-39.7135
 20
56.48840000000001
 10
-39.6175
 20
56.4469
 10
-39.5312
 20
56.38149999999999
 10
-39.4537
 20
56.31739999999999
 10
-39.3914
 20
56.23339999999999
 10
-39.3447
 20
56.1395
 10
-39.3151
 20
56.03909999999999
 10
-39.3032
 20
55.93520000000001
 10
-39.3337
 20
55.7295
 10
-39.3752
 20
55.6335
 10
-39.4327
 20
55.54599999999999
 10
-39.5047
 20
55.46969999999999
 10
-39.5887
 20
55.4074
 10
-39.6814
 20
55.36859999999999
 10
-39.783
 20
55.33109999999999
 10
-39.8869
 20
55.3192
 10
-39.9884
 20
55.32509999999999
 10
-40.0611
 20
55.31870000000001
 10
-40.123
 20
55.2764
 10
-40.1573
 20
55.20869999999999
 10
-40.2194
 20
54.70480000000001
 10
-40.2026
 20
54.63079999999999
 10
-40.1529
 20
54.57470000000001
 10
-40.0839
 20
54.55080000000001
 10
-39.984
 20
54.53190000000001
 10
-39.8861
 20
54.49520000000001
 10
-39.7967
 20
54.4341
 10
-39.7162
 20
54.37389999999999
 10
-39.6498
 20
54.29300000000001
 10
-39.5985
 20
54.20160000000001
 10
-39.564
 20
54.1027
 10
-39.5471
 20
53.99950000000001
 10
-39.5675
 20
53.79259999999999
 10
-39.6042
 20
53.69470000000001
 10
-39.6573
 20
53.6045
 10
-39.7255
 20
53.5247
 10
-39.8064
 20
53.45840000000001
 10
-39.897
 20
53.41499999999999
 10
-39.9967
 20
53.37260000000001
 10
-40.0998
 20
53.35560000000001
 10
-40.2015
 20
53.35659999999999
 10
-40.2738
 20
53.3466
 10
-40.3335
 20
53.3013
 10
-40.3645
 20
53.232
 10
-40.4018
 20
52.72569999999999
 10
-40.3814
 20
52.65260000000001
 10
-40.329
 20
52.59899999999999
 10
-40.2589
 20
52.57849999999999
 10
-40.1582
 20
52.56460000000001
 10
-40.0586
 20
52.5326
 10
-39.9663
 20
52.476
 10
-39.883
 20
52.41990000000001
 10
-39.8127
 20
52.34229999999999
 10
-39.757
 20
52.2535
 10
-39.7177
 20
52.15649999999999
 10
-39.6957
 20
52.05420000000001
 10
-39.7059
 20
51.84649999999999
 10
-39.7378
 20
51.74690000000001
 10
-39.7864
 20
51.6542
 10
-39.8506
 20
51.57130000000001
 10
-39.9281
 20
51.501
 10
-40.0166
 20
51.45330000000001
 10
-40.114
 20
51.40600000000001
 10
-40.2162
 20
51.38399999999999
 10
-40.3178
 20
51.38
 10
-40.3895
 20
51.3665
 10
-40.4469
 20
51.31819999999999
 10
-40.4744
 20
51.2475
 10
-40.4869
 20
50.74000000000001
 10
-40.4629
 20
50.66800000000001
 10
-40.4079
 20
50.61699999999999
 10
-40.3369
 20
50.59999999999999
 10
-40.2357
 20
50.59100000000001
 10
-40.1347
 20
50.56399999999999
 10
-40.0397
 20
50.512
 10
-39.9537
 20
50.46000000000001
 10
-39.8797
 20
50.386
 10
-39.8197
 20
50.30000000000001
 10
-39.7757
 20
50.20500000000001
 10
-39.7487
 20
50.10400000000001
 10
-39.7487
 20
49.89599999999999
 10
-39.7757
 20
49.79499999999999
 10
-39.8197
 20
49.69999999999999
 10
-39.8797
 20
49.614
 10
-39.9537
 20
49.53999999999999
 10
-40.0397
 20
49.488
 10
-40.1347
 20
49.43600000000001
 10
-40.2357
 20
49.40899999999999
 10
-40.3369
 20
49.40000000000001
 10
-40.4079
 20
49.38300000000001
 10
-40.4629
 20
49.33199999999999
 10
-40.4869
 20
49.25999999999999
 10
-40.4744
 20
48.7525
 10
-40.4469
 20
48.68180000000001
 10
-40.3895
 20
48.6335
 10
-40.3178
 20
48.62
 10
-40.2162
 20
48.61600000000001
 10
-40.114
 20
48.59399999999999
 10
-40.0166
 20
48.54669999999999
 10
-39.9281
 20
48.499
 10
-39.8506
 20
48.42869999999999
 10
-39.7864
 20
48.3458
 10
-39.7378
 20
48.25309999999999
 10
-39.7059
 20
48.15350000000001
 10
-39.6957
 20
47.94579999999999
 10
-39.7177
 20
47.84350000000001
 10
-39.757
 20
47.7465
 10
-39.8127
 20
47.65770000000001
 10
-39.883
 20
47.58009999999999
 10
-39.9663
 20
47.524
 10
-40.0586
 20
47.4674
 10
-40.1582
 20
47.43539999999999
 10
-40.2589
 20
47.42150000000001
 10
-40.329
 20
47.40100000000001
 10
-40.3814
 20
47.34739999999999
 10
-40.4018
 20
47.27430000000001
 10
-40.3645
 20
46.768
 10
-40.3335
 20
46.6987
 10
-40.2738
 20
46.6534
 10
-40.2015
 20
46.64340000000001
 10
-40.0998
 20
46.64439999999999
 10
-39.9967
 20
46.62739999999999
 10
-39.897
 20
46.58500000000001
 10
-39.8064
 20
46.54159999999999
 10
-39.7255
 20
46.4753
 10
-39.6573
 20
46.3955
 10
-39.6042
 20
46.30529999999999
 10
-39.5675
 20
46.20740000000001
 10
-39.5471
 20
46.00049999999999
 10
-39.564
 20
45.8973
 10
-39.5985
 20
45.79839999999999
 10
-39.6498
 20
45.70699999999999
 10
-39.7162
 20
45.62610000000001
 10
-39.7967
 20
45.5659
 10
-39.8861
 20
45.50479999999999
 10
-39.984
 20
45.46809999999999
 10
-40.0839
 20
45.44919999999999
 10
-40.1529
 20
45.42529999999999
 10
-40.2026
 20
45.36920000000001
 10
-40.2194
 20
45.29519999999999
 10
-40.1573
 20
44.79130000000001
 10
-40.123
 20
44.7236
 10
-40.0611
 20
44.68129999999999
 10
-39.9884
 20
44.67490000000001
 10
-39.8869
 20
44.6808
 10
-39.783
 20
44.66890000000001
 10
-39.6814
 20
44.63140000000001
 10
-39.5887
 20
44.5926
 10
-39.5047
 20
44.53030000000001
 10
-39.4327
 20
44.45400000000001
 10
-39.3752
 20
44.3665
 10
-39.3337
 20
44.2705
 10
-39.3032
 20
44.06479999999999
 10
-39.3151
 20
43.96090000000001
 10
-39.3447
 20
43.8605
 10
-39.3914
 20
43.76660000000001
 10
-39.4537
 20
43.68260000000001
 10
-39.5312
 20
43.61850000000001
 10
-39.6175
 20
43.5531
 10
-39.7135
 20
43.51159999999999
 10
-39.8123
 20
43.48779999999999
 10
-39.88
 20
43.4606
 10
-39.9269
 20
43.40209999999999
 10
-39.9401
 20
43.32730000000001
 10
-39.8533
 20
42.8272
 10
-39.8157
 20
42.7612
 10
-39.7519
 20
42.72200000000001
 10
-39.6789
 20
42.7191
 10
-39.5778
 20
42.73009999999999
 10
-39.4735
 20
42.72329999999999
 10
-39.3702
 20
42.6908
 10
-39.2757
 20
42.6566
 10
-39.1887
 20
42.5984
 10
-39.1131
 20
42.5258
 10
-39.0514
 20
42.44120000000001
 10
-39.0052
 20
42.34739999999999
 10
-38.9646
 20
42.14339999999999
 10
-38.9714
 20
42.03909999999999
 10
-38.996
 20
41.93729999999999
 10
-39.0381
 20
41.84129999999999
 10
-39.0962
 20
41.7543
 10
-39.1704
 20
41.6865
 10
-39.2535
 20
41.61699999999999
 10
-39.3473
 20
41.57079999999999
 10
-39.4448
 20
41.54220000000001
 10
-39.5111
 20
41.51169999999999
 10
-39.5551
 20
41.45089999999999
 10
-39.5646
 20
41.37559999999999
 10
-39.4534
 20
40.88030000000001
 10
-39.4126
 20
40.81630000000001
 10
-39.3469
 20
40.78020000000001
 10
-39.2739
 20
40.7809
 10
-39.1735
 20
40.79679999999999
 10
-39.0689
 20
40.79519999999999
 10
-38.9641
 20
40.76779999999999
 10
-38.8681
 20
40.73830000000001
 10
-38.7783
 20
40.68450000000001
 10
-38.6992
 20
40.6156
 10
-38.6334
 20
40.5342
 10
-38.5827
 20
40.4427
 10
-38.5322
 20
40.24099999999999
 10
-38.5338
 20
40.13640000000001
 10
-38.5534
 20
40.03360000000001
 10
-38.5907
 20
39.93559999999999
 10
-38.6445
 20
39.8458
 10
-38.7153
 20
39.77449999999999
 10
-38.7948
 20
39.70099999999999
 10
-38.8863
 20
39.65020000000001
 10
-38.9823
 20
39.61689999999999
 10
-39.047
 20
39.58320000000001
 10
-39.088
 20
39.52029999999999
 10
-39.0938
 20
39.44470000000001
 10
-38.9584
 20
38.9554
 10
-38.9145
 20
38.89349999999999
 10
-38.8471
 20
38.86060000000001
 10
-38.7742
 20
38.86500000000001
 10
-38.6747
 20
38.88579999999999
 10
-38.5702
 20
38.88919999999999
 10
-38.4642
 20
38.86709999999999
 10
-38.3668
 20
38.84229999999999
 10
-38.2745
 20
38.7929
 10
-38.1921
 20
38.72800000000001
 10
-38.1224
 20
38.6499
 10
-38.0673
 20
38.56110000000001
 10
-38.0069
 20
38.36199999999999
 10
-38.0034
 20
38.2576
 10
-38.018
 20
38.15389999999999
 10
-38.0504
 20
38.05420000000001
 10
-38.0997
 20
37.96190000000001
 10
-38.1669
 20
37.8871
 10
-38.2428
 20
37.8098
 10
-38.3316
 20
37.75470000000001
 10
-38.4258
 20
37.7166
 10
-38.4889
 20
37.6798
 10
-38.5267
 20
37.61500000000001
 10
-38.5287
 20
37.53909999999999
 10
-38.3695
 20
37.05709999999999
 10
-38.3227
 20
36.9974
 10
-38.2537
 20
36.96789999999999
 10
-38.1811
 20
36.97579999999999
 10
-38.0828
 20
37.00149999999999
 10
-37.9786
 20
37.01009999999999
 10
-37.8716
 20
36.9931
 10
-37.7731
 20
36.97309999999999
 10
-37.6785
 20
36.92840000000001
 10
-37.593
 20
36.86760000000001
 10
-37.5196
 20
36.79300000000001
 10
-37.4602
 20
36.70699999999999
 10
-37.3901
 20
36.5112
 10
-37.3815
 20
36.40700000000001
 10
-37.3909
 20
36.30269999999999
 10
-37.4184
 20
36.20150000000001
 10
-37.4632
 20
36.1069
 10
-37.5266
 20
36.029
 10
-37.5986
 20
35.94800000000001
 10
-37.6846
 20
35.8886
 10
-37.7768
 20
35.846
 10
-37.838
 20
35.80610000000001
 10
-37.8726
 20
35.73949999999999
 10
-37.8709
 20
35.6636
 10
-37.6882
 20
35.19
 10
-37.6385
 20
35.1327
 10
-37.5682
 20
35.10660000000001
 10
-37.4961
 20
35.1181
 10
-37.3991
 20
35.14850000000001
 10
-37.2954
 20
35.16220000000001
 10
-37.1878
 20
35.15049999999999
 10
-37.0884
 20
35.1354
 10
-36.9917
 20
35.09530000000001
 10
-36.9034
 20
35.03880000000001
 10
-36.8264
 20
34.96789999999999
 10
-36.7628
 20
34.88489999999999
 10
-36.6832
 20
34.69280000000001
 10
-36.6695
 20
34.5891
 10
-36.6738
 20
34.4845
 10
-36.6963
 20
34.38210000000001
 10
-36.7363
 20
34.28540000000001
 10
-36.7959
 20
34.2045
 10
-36.8638
 20
34.12010000000001
 10
-36.9467
 20
34.0565
 10
-37.0368
 20
34.0094
 10
-37.0959
 20
33.9665
 10
-37.1272
 20
33.89840000000001
 10
-37.1218
 20
33.8227
 10
-36.9161
 20
33.3586
 10
-36.8636
 20
33.30369999999999
 10
-36.7921
 20
33.28120000000001
 10
-36.7207
 20
33.2961
 10
-36.6253
 20
33.3313
 10
-36.5224
 20
33.3501
 10
-36.4143
 20
33.34370000000001
 10
-36.3144
 20
33.33340000000001
 10
-36.2158
 20
33.29820000000001
 10
-36.1248
 20
33.24610000000001
 10
-36.0444
 20
33.179
 10
-35.9768
 20
33.0993
 10
-35.8879
 20
32.91120000000001
 10
-35.8691
 20
32.80840000000001
 10
-35.8683
 20
32.7037
 10
-35.8858
 20
32.6003
 10
-35.92099999999999
 20
32.5018
 10
-35.9765
 20
32.41800000000001
 10
-36.0402
 20
32.3304
 10
-36.1199
 20
32.2628
 10
-36.2076
 20
32.2114
 10
-36.2645
 20
32.16560000000001
 10
-36.2924
 20
32.096
 10
-36.2833
 20
32.02070000000001
 10
-36.0551
 20
31.56720000000001
 10
-36.0
 20
31.51499999999999
 10
-35.92740000000001
 20
31.49600000000001
 10
-35.85679999999999
 20
31.5145
 10
-35.7633
 20
31.55430000000001
 10
-35.66149999999999
 20
31.57810000000001
 10
-35.5532
 20
31.577
 10
-35.4528
 20
31.57169999999999
 10
-35.3527
 20
31.54130000000001
 10
-35.25919999999999
 20
31.49369999999999
 10
-35.1756
 20
31.4307
 10
-35.10419999999999
 20
31.35429999999999
 10
-35.00620000000001
 20
31.17089999999999
 10
-34.9824
 20
31.06909999999999
 10
-34.9764
 20
30.96459999999999
 10
-34.9888
 20
30.8604
 10
-35.01910000000001
 20
30.7603
 10
-35.07050000000001
 20
30.6739
 10
-35.1297
 20
30.58320000000001
 10
-35.20609999999999
 20
30.51179999999999
 10
-35.2911
 20
30.4562
 10
-35.34569999999999
 20
30.40770000000001
 10
-35.3702
 20
30.33680000000001
 10
-35.3574
 20
30.262
 10
-35.10720000000001
 20
29.8203
 10
-35.0496
 20
29.77090000000001
 10
-34.97620000000001
 20
29.75540000000001
 10
-34.9066
 20
29.7773
 10
-34.8151
 20
29.82169999999999
 10
-34.71459999999999
 20
29.85040000000001
 10
-34.60640000000001
 20
29.85470000000001
 10
-34.5059
 20
29.85429999999999
 10
-34.40440000000001
 20
29.8288
 10
-34.3087
 20
29.7859
 10
-34.2221
 20
29.72710000000001
 10
-34.14699999999999
 20
29.65430000000001
 10
-34.0401
 20
29.4759
 10
-34.01130000000001
 20
29.37540000000001
 10
-34.00020000000001
 20
29.2713
 10
-34.00749999999999
 20
29.16669999999999
 10
-34.0329
 20
29.0652
 10
-34.07990000000001
 20
28.97630000000001
 10
-34.13470000000001
 20
28.88290000000001
 10
-34.20740000000001
 20
28.80779999999999
 10
-34.28970000000001
 20
28.74799999999999
 10
-34.34180000000001
 20
28.697
 10
-34.36279999999999
 20
28.6249
 10
-34.3463
 20
28.55090000000001
 10
-34.07480000000001
 20
28.12200000000001
 10
-34.01480000000001
 20
28.0754
 10
-33.94069999999999
 20
28.06360000000001
 10
-33.8723
 20
28.0889
 10
-33.78309999999999
 20
28.1377
 10
-33.6841
 20
28.1713
 10
-33.5762
 20
28.18090000000001
 10
-33.47579999999999
 20
28.18540000000002
 10
-33.3732
 20
28.16499999999999
 10
-33.27549999999999
 20
28.1268
 10
-33.18610000000001
 20
28.07229999999998
 10
-33.10759999999999
 20
28.0033
 10
-32.99199999999999
 20
27.8304
 10
-32.9584
 20
27.73140000000001
 10
-32.9422
 20
27.62790000000001
 10
-32.9443
 20
27.5231
 10
-32.96469999999999
 20
27.4205
 10
-33.0073
 20
27.32939999999999
 10
-33.0574
 20
27.23339999999999
 10
-33.12639999999999
 20
27.1549
 10
-33.2056
 20
27.09110000000001
 10
-33.2552
 20
27.0376
 10
-33.2726
 20
26.96459999999999
 10
-33.2525
 20
26.8914
 10
-32.9602
 20
26.47640000000001
 10
-32.898
 20
26.43279999999999
 10
-32.8235
 20
26.4246
 10
-32.75630000000001
 20
26.45330000000001
 10
-32.6696
 20
26.50630000000001
 10
-32.5724
 20
26.54480000000001
 10
-32.46520000000001
 20
26.55959999999999
 10
-32.3651
 20
26.56909999999999
 10
-32.2616
 20
26.55369999999999
 10
-32.1622
 20
26.5204
 10
-32.0702
 20
26.47030000000001
 10
-31.9884
 20
26.40530000000001
 10
-31.86449999999999
 20
26.23820000000001
 10
-31.82599999999999
 20
26.14099999999999
 10
-31.8047
 20
26.0385
 10
-31.8017
 20
25.93369999999999
 10
-31.8171
 20
25.83019999999999
 10
-31.8552
 20
25.7372
 10
-31.90049999999999
 20
25.6388
 10
-31.96549999999999
 20
25.55689999999998
 10
-32.0415
 20
25.48939999999999
 10
-32.08840000000001
 20
25.43350000000001
 10
-32.10220000000001
 20
25.3597
 10
-32.07859999999999
 20
25.2876
 10
-31.7663
 20
24.88740000000001
 10
-31.702
 20
24.84700000000001
 10
-31.6272
 20
24.8424
 10
-31.5615
 20
24.87430000000001
 10
-31.47749999999999
 20
24.9316
 10
-31.3823
 20
24.97479999999999
 10
-31.27590000000001
 20
24.9949
 10
-31.1764
 20
25.00919999999999
 10
-31.0723
 20
24.999
 10
-30.9713
 20
24.97059999999999
 10
-30.8771
 20
24.92509999999999
 10
-30.7921
 20
24.86410000000001
 10
-30.6602
 20
24.70330000000001
 10
-30.617
 20
24.60810000000001
 10
-30.5907
 20
24.5068
 10
-30.5825
 20
24.40219999999999
 10
-30.5928
 20
24.29810000000001
 10
-30.6263
 20
24.20330000000001
 10
-30.66669999999999
 20
24.10290000000001
 10
-30.7277
 20
24.0179
 10
-30.8002
 20
23.94669999999999
 10
-30.8443
 20
23.88849999999999
 10
-30.8545
 20
23.8142
 10
-30.82730000000001
 20
23.74340000000001
 10
-30.4958
 20
23.35900000000001
 10
-30.42959999999999
 20
23.32169999999999
 10
-30.3546
 20
23.32089999999999
 10
-30.2906
 20
23.35599999999999
 10
-30.20959999999999
 20
23.41730000000001
 10
-30.11660000000001
 20
23.46510000000001
 10
-30.01130000000001
 20
23.49039999999999
 10
-29.9126
 20
23.50960000000001
 10
-29.8081
 20
23.50450000000001
 10
-29.7059
 20
23.48099999999999
 10
-29.6095
 20
23.4402
 10
-29.5217
 20
23.3835
 10
-29.38200000000001
 20
23.2294
 10
-29.3342
 20
23.13640000000001
 10
-29.303
 20
23.03649999999999
 10
-29.2897
 20
22.9324
 10
-29.2948
 20
22.8279
 10
-29.3236
 20
22.73160000000001
 10
-29.3591
 20
22.6293
 10
-29.4158
 20
22.54149999999998
 10
-29.4847
 20
22.46680000000001
 10
-29.52590000000001
 20
22.40649999999999
 10
-29.5324
 20
22.33179999999999
 10
-29.50190000000001
 20
22.26240000000001
 10
-29.15180000000001
 20
21.8947
 10
-29.0839
 20
21.86080000000001
 10
-29.009
 20
21.86359999999999
 10
-28.9468
 20
21.90180000000001
 10
-28.86879999999999
 20
21.96699999999998
 10
-28.7783
 20
22.01929999999999
 10
-28.67439999999999
 20
22.0497
 10
-28.57679999999999
 20
22.07380000000001
 10
-28.4721
 20
22.07380000000001
 10
-28.3689
 20
22.05539999999999
 10
-28.2706
 20
22.01929999999999
 10
-28.1801
 20
21.96699999999998
 10
-28.033
 20
21.81989999999999
 10
-27.9807
 20
21.7294
 10
-27.94460000000001
 20
21.6311
 10
-27.92619999999999
 20
21.52789999999999
 10
-27.92619999999999
 20
21.42320000000001
 10
-27.9503
 20
21.32560000000001
 10
-27.9807
 20
21.2217
 10
-28.033
 20
21.13120000000001
 10
-28.09819999999999
 20
21.0532
 10
-28.13639999999999
 20
20.99099999999999
 10
-28.1392
 20
20.9161
 10
-28.1053
 20
20.84819999999999
 10
-27.7376
 20
20.49809999999999
 10
-27.6682
 20
20.4676
 10
-27.59350000000001
 20
20.47409999999999
 10
-27.53319999999999
 20
20.5153
 10
-27.4585
 20
20.58420000000001
 10
-27.3707
 20
20.64089999999999
 10
-27.2684
 20
20.6764
 10
-27.1721
 20
20.70519999999999
 10
-27.0676
 20
20.71029999999999
 10
-26.9635
 20
20.697
 10
-26.86360000000001
 20
20.66579999999999
 10
-26.7706
 20
20.61799999999999
 10
-26.6165
 20
20.47829999999999
 10
-26.5598
 20
20.3905
 10
-26.51900000000001
 20
20.29410000000001
 10
-26.49549999999999
 20
20.1919
 10
-26.49039999999999
 20
20.0874
 10
-26.50960000000001
 20
19.98869999999999
 10
-26.53489999999999
 20
19.88339999999999
 10
-26.5827
 20
19.79040000000001
 10
-26.64400000000001
 20
19.70939999999999
 10
-26.67910000000001
 20
19.6454
 10
-26.67830000000001
 20
19.57040000000001
 10
-26.64099999999999
 20
19.5042
 10
-26.25659999999999
 20
19.17269999999999
 10
-26.1858
 20
19.1455
 10
-26.11150000000001
 20
19.1557
 10
-26.05330000000001
 20
19.19980000000001
 10
-25.9821
 20
19.2723
 10
-25.89709999999999
 20
19.33330000000001
 10
-25.7967
 20
19.37369999999999
 10
-25.70189999999999
 20
19.40719999999999
 10
-25.59780000000001
 20
19.41749999999999
 10
-25.4932
 20
19.4093
 10
-25.39189999999999
 20
19.38300000000001
 10
-25.2967
 20
19.3398
 10
-25.13589999999999
 20
19.2079
 10
-25.0749
 20
19.12290000000002
 10
-25.0294
 20
19.02870000000001
 10
-25.001
 20
18.92770000000002
 10
-24.99080000000001
 20
18.8236
 10
-25.0051
 20
18.72409999999999
 10
-25.0252
 20
18.61770000000001
 10
-25.0684
 20
18.52250000000001
 10
-25.12569999999999
 20
18.4385
 10
-25.1576
 20
18.37280000000001
 10
-25.15299999999999
 20
18.298
 10
-25.1126
 20
18.2337
 10
-24.7124
 20
17.92140000000001
 10
-24.6403
 20
17.89779999999999
 10
-24.5665
 20
17.91159999999999
 10
-24.5106
 20
17.95850000000002
 10
-24.4431
 20
18.03450000000001
 10
-24.3612
 20
18.09950000000001
 10
-24.2628
 20
18.1448
 10
-24.1698
 20
18.18289999999999
 10
-24.0663
 20
18.19829999999999
 10
-23.9615
 20
18.1953
 10
-23.85900000000001
 20
18.17400000000001
 10
-23.76179999999999
 20
18.13550000000001
 10
-23.5947
 20
18.01159999999999
 10
-23.52969999999999
 20
17.9298
 10
-23.4796
 20
17.83780000000002
 10
-23.44630000000001
 20
17.73840000000001
 10
-23.43090000000001
 20
17.63490000000002
 10
-23.4404
 20
17.53479999999999
 10
-23.4552
 20
17.42759999999998
 10
-23.4937
 20
17.3304
 10
-23.5467
 20
17.24369999999999
 10
-23.5754
 20
17.1765
 10
-23.5672
 20
17.102
 10
-23.5236
 20
17.03980000000001
 10
-23.1086
 20
16.7475
 10
-23.0354
 20
16.72739999999999
 10
-22.9624
 20
16.7448
 10
-22.9089
 20
16.7944
 10
-22.8451
 20
16.87360000000001
 10
-22.7666
 20
16.9426
 10
-22.67060000000001
 20
16.99270000000001
 10
-22.5795
 20
17.03530000000001
 10
-22.4769
 20
17.0557
 10
-22.3721
 20
17.05779999999999
 10
-22.26859999999999
 20
17.04160000000002
 10
-22.1696
 20
17.00800000000001
 10
-21.9967
 20
16.89240000000001
 10
-21.9277
 20
16.81389999999999
 10
-21.8732
 20
16.72450000000001
 10
-21.83500000000001
 20
16.6268
 10
-21.8146
 20
16.52420000000001
 10
-21.81909999999999
 20
16.4238
 10
-21.8287
 20
16.3159
 10
-21.8623
 20
16.21690000000001
 10
-21.9111
 20
16.1277
 10
-21.93639999999999
 20
16.05930000000001
 10
-21.9246
 20
15.98519999999999
 10
-21.878
 20
15.92519999999999
 10
-21.4491
 20
15.65370000000001
 10
-21.3751
 20
15.63720000000001
 10
-21.303
 20
15.65819999999999
 10
-21.252
 20
15.71029999999999
 10
-21.1922
 20
15.79259999999999
 10
-21.11709999999999
 20
15.86529999999999
 10
-21.02370000000001
 20
15.92009999999999
 10
-20.9348
 20
15.96710000000002
 10
-20.83330000000001
 20
15.99250000000001
 10
-20.7287
 20
15.99979999999999
 10
-20.6246
 20
15.98869999999999
 10
-20.5241
 20
15.9599
 10
-20.34569999999999
 20
15.85300000000001
 10
-20.27289999999999
 20
15.77789999999999
 10
-20.2141
 20
15.69130000000001
 10
-20.1712
 20
15.59559999999999
 10
-20.14570000000001
 20
15.4941
 10
-20.14529999999999
 20
15.39359999999999
 10
-20.14959999999999
 20
15.28540000000001
 10
-20.17830000000001
 20
15.1849
 10
-20.2227
 20
15.0934
 10
-20.24459999999999
 20
15.02379999999999
 10
-20.2291
 20
14.9504
 10
-20.1797
 20
14.89279999999999
 10
-19.738
 20
14.64260000000002
 10
-19.6632
 20
14.62979999999999
 10
-19.59229999999999
 20
14.65430000000001
 10
-19.5438
 20
14.7089
 10
-19.48820000000001
 20
14.79390000000001
 10
-19.41679999999999
 20
14.87029999999999
 10
-19.3261
 20
14.92949999999999
 10
-19.2397
 20
14.98089999999999
 10
-19.1396
 20
15.0112
 10
-19.0354
 20
15.02359999999999
 10
-18.93090000000001
 20
15.01760000000002
 10
-18.8291
 20
14.99379999999999
 10
-18.64570000000001
 20
14.89580000000001
 10
-18.5693
 20
14.8244
 10
-18.5063
 20
14.74080000000001
 10
-18.45869999999999
 20
14.6473
 10
-18.42830000000001
 20
14.5472
 10
-18.423
 20
14.4468
 10
-18.42189999999999
 20
14.33850000000001
 10
-18.4457
 20
14.23669999999998
 10
-18.4855
 20
14.14320000000001
 10
-18.504
 20
14.07259999999999
 10
-18.485
 20
14.0
 10
-18.4328
 20
13.94489999999999
 10
-17.97929999999999
 20
13.7167
 10
-17.904
 20
13.70760000000001
 10
-17.8344
 20
13.7355
 10
-17.7886
 20
13.79239999999999
 10
-17.7372
 20
13.8801
 10
-17.6696
 20
13.9598
 10
-17.58199999999999
 20
14.02350000000001
 10
-17.4982
 20
14.07900000000001
 10
-17.3997
 20
14.11419999999998
 10
-17.2963
 20
14.1317
 10
-17.19159999999999
 20
14.1309
 10
-17.08879999999999
 20
14.1121
 10
-16.9007
 20
14.0232
 10
-16.821
 20
13.9556
 10
-16.7539
 20
13.87520000000001
 10
-16.70179999999999
 20
13.7842
 10
-16.6666
 20
13.68559999999999
 10
-16.6563
 20
13.5857
 10
-16.6499
 20
13.4776
 10
-16.6687
 20
13.37469999999999
 10
-16.7039
 20
13.27930000000001
 10
-16.7188
 20
13.2079
 10
-16.69630000000001
 20
13.13640000000001
 10
-16.6414
 20
13.0839
 10
-16.1773
 20
12.87819999999999
 10
-16.1016
 20
12.87279999999998
 10
-16.0335
 20
12.9041
 10
-15.9906
 20
12.9632
 10
-15.9435
 20
13.05330000000001
 10
-15.87989999999999
 20
13.1362
 10
-15.7955
 20
13.20409999999998
 10
-15.7146
 20
13.2637
 10
-15.61790000000001
 20
13.30369999999999
 10
-15.5155
 20
13.3262
 10
-15.4109
 20
13.3305
 10
-15.30719999999999
 20
13.3168
 10
-15.1151
 20
13.2372
 10
-15.0321
 20
13.17359999999999
 10
-14.96120000000001
 20
13.0966
 10
-14.90470000000001
 20
13.00829999999999
 10
-14.8646
 20
12.91159999999999
 10
-14.84950000000001
 20
12.81219999999999
 10
-14.8378
 20
12.7046
 10
-14.8515
 20
12.6009
 10
-14.8819
 20
12.50389999999999
 10
-14.8934
 20
12.43180000000001
 10
-14.8673
 20
12.36150000000001
 10
-14.81
 20
12.31180000000001
 10
-14.3364
 20
12.12909999999999
 10
-14.26050000000001
 20
12.12739999999999
 10
-14.1939
 20
12.16200000000001
 10
-14.154
 20
12.22319999999999
 10
-14.1114
 20
12.31540000000001
 10
-14.05199999999999
 20
12.4014
 10
-13.971
 20
12.4734
 10
-13.8931
 20
12.5368
 10
-13.7985
 20
12.58160000000001
 10
-13.6973
 20
12.60910000000001
 10
-13.593
 20
12.61849999999998
 10
-13.4888
 20
12.60990000000001
 10
-13.29300000000001
 20
12.53980000000001
 10
-13.20699999999999
 20
12.4804
 10
-13.1324
 20
12.40699999999998
 10
-13.0716
 20
12.32150000000001
 10
-13.0269
 20
12.2269
 10
-13.0069
 20
12.1284
 10
-12.98990000000001
 20
12.0214
 10
-12.99850000000001
 20
11.91720000000001
 10
-13.02420000000001
 20
11.81889999999999
 10
-13.0321
 20
11.74629999999999
 10
-13.0026
 20
11.6773
 10
-12.94289999999999
 20
11.63049999999998
 10
-12.4609
 20
11.47129999999999
 10
-12.38500000000001
 20
11.47329999999999
 10
-12.3202
 20
11.5111
 10
-12.2834
 20
11.57419999999999
 10
-12.2453
 20
11.66839999999999
 10
-12.1902
 20
11.75720000000001
 10
-12.1129
 20
11.8331
 10
-12.0381
 20
11.90030000000002
 10
-11.94580000000001
 20
11.9496
 10
-11.84610000000001
 20
11.982
 10
-11.7424
 20
11.9966
 10
-11.63800000000001
 20
11.9931
 10
-11.4389
 20
11.93270000000001
 10
-11.3501
 20
11.8776
 10
-11.27200000000001
 20
11.80789999999999
 10
-11.2071
 20
11.72550000000001
 10
-11.15770000000001
 20
11.63319999999999
 10
-11.13290000000001
 20
11.53579999999999
 10
-11.1108
 20
11.4298
 10
-11.1142
 20
11.3253
 10
-11.13500000000001
 20
11.22579999999999
 10
-11.13939999999999
 20
11.15289999999999
 10
-11.1065
 20
11.0855
 10
-11.0446
 20
11.04160000000002
 10
-10.5553
 20
10.90620000000001
 10
-10.47969999999999
 20
10.91200000000001
 10
-10.41679999999999
 20
10.953
 10
-10.3831
 20
11.01769999999999
 10
-10.3498
 20
11.11369999999999
 10
-10.29900000000001
 20
11.20519999999999
 10
-10.2255
 20
11.28469999999999
 10
-10.1542
 20
11.35550000000001
 10
-10.06440000000001
 20
11.4093
 10
-9.966399999999993
 20
11.44659999999999
 10
-9.863600000000012
 20
11.46620000000001
 10
-9.759
 20
11.46780000000001
 10
-9.557299999999998
 20
11.41730000000001
 10
-9.465800000000002
 20
11.36660000000001
 10
-9.3844
 20
11.30080000000001
 10
-9.3155
 20
11.2217
 10
-9.261699999999998
 20
11.1319
 10
-9.232200000000013
 20
11.0359
 10
-9.204800000000013
 20
10.93110000000001
 10
-9.203200000000002
 20
10.82650000000001
 10
-9.219099999999997
 20
10.7261
 10
-9.219799999999992
 20
10.65309999999999
 10
-9.183700000000002
 20
10.5874
 10
-9.119699999999987
 20
10.54660000000001
 10
-8.624399999999987
 20
10.43540000000002
 10
-8.549100000000003
 20
10.44489999999999
 10
-8.488300000000002
 20
10.4889
 10
-8.457800000000013
 20
10.55520000000001
 10
-8.429199999999987
 20
10.65270000000001
 10
-8.383000000000003
 20
10.7465
 10
-8.313499999999998
 20
10.8296
 10
-8.2457
 20
10.90379999999999
 10
-8.158700000000003
 20
10.96190000000001
 10
-8.062700000000007
 20
11.00399999999999
 10
-7.960900000000002
 20
11.02859999999998
 10
-7.8566
 20
11.03540000000001
 10
-7.652600000000007
 20
10.9948
 10
-7.558800000000012
 20
10.9486
 10
-7.474200000000003
 20
10.8869
 10
-7.401600000000002
 20
10.81130000000002
 10
-7.343400000000003
 20
10.7243
 10
-7.309199999999997
 20
10.62979999999999
 10
-7.276700000000012
 20
10.5265
 10
-7.269900000000007
 20
10.4222
 10
-7.280900000000003
 20
10.3211
 10
-7.278000000000013
 20
10.24809999999999
 10
-7.238799999999998
 20
10.18430000000001
 10
-7.172800000000002
 20
10.14670000000001
 10
-6.672700000000013
 20
10.0599
 10
-6.597900000000003
 20
10.07310000000001
 10
-6.539400000000001
 20
10.12
 10
-6.512200000000007
 20
10.18770000000001
 10
-6.488399999999999
 20
10.28649999999999
 10
-6.446899999999999
 20
10.38249999999999
 10
-6.381500000000003
 20
10.46879999999999
 10
-6.317400000000013
 20
10.5463
 10
-6.233400000000003
 20
10.6086
 10
-6.139499999999998
 20
10.65530000000001
 10
-6.039099999999998
 20
10.6849
 10
-5.935199999999988
 20
10.6968
 10
-5.729500000000002
 20
10.66630000000001
 10
-5.633499999999998
 20
10.62479999999999
 10
-5.546000000000006
 20
10.56729999999999
 10
-5.469700000000003
 20
10.49529999999999
 10
-5.407400000000003
 20
10.41129999999998
 10
-5.368600000000001
 20
10.3186
 10
-5.331100000000013
 20
10.21699999999998
 10
-5.319200000000002
 20
10.1131
 10
-5.325100000000013
 20
10.01159999999999
 10
-5.318700000000007
 20
9.93889999999999
 10
-5.276400000000002
 20
9.87700000000001
 10
-5.208699999999993
 20
9.842700000000008
 10
-4.704800000000013
 20
9.780599999999993
 10
-4.630799999999986
 20
9.79740000000001
 10
-4.574700000000007
 20
9.847100000000012
 10
-4.550800000000002
 20
9.9161
 10
-4.531900000000007
 20
10.01599999999999
 10
-4.495199999999997
 20
10.1139
 10
-4.434100000000001
 20
10.20330000000001
 10
-4.373900000000013
 20
10.28379999999999
 10
-4.293000000000013
 20
10.3502
 10
-4.201599999999999
 20
10.4015
 10
-4.102699999999999
 20
10.43600000000001
 10
-3.999499999999998
 20
10.4529
 10
-3.792599999999993
 20
10.4325
 10
-3.694699999999997
 20
10.39580000000001
 10
-3.604500000000002
 20
10.34270000000001
 10
-3.524700000000003
 20
10.27449999999999
 10
-3.458399999999997
 20
10.1936
 10
-3.415000000000013
 20
10.10300000000001
 10
-3.372600000000013
 20
10.0033
 10
-3.355600000000003
 20
9.900199999999984
 10
-3.3566
 20
9.79849999999999
 10
-3.346600000000002
 20
9.726200000000006
 10
-3.301299999999998
 20
9.666499999999985
 10
-3.231999999999999
 20
9.635500000000008
 10
-2.725700000000003
 20
9.598199999999991
 10
-2.652600000000007
 20
9.618600000000015
 10
-2.598999999999997
 20
9.670999999999992
 10
-2.578500000000012
 20
9.741100000000017
 10
-2.564599999999999
 20
9.841800000000006
 10
-2.532600000000002
 20
9.941399999999987
 10
-2.475999999999999
 20
10.03370000000001
 10
-2.419899999999998
 20
10.11699999999999
 10
-2.342299999999987
 20
10.18729999999999
 10
-2.253500000000003
 20
10.24299999999999
 10
-2.156499999999987
 20
10.28229999999999
 10
-2.054199999999987
 20
10.30430000000001
 10
-1.846500000000013
 20
10.29410000000001
 10
-1.746899999999997
 20
10.26220000000001
 10
-1.654200000000003
 20
10.21359999999999
 10
-1.571299999999987
 20
10.14940000000001
 10
-1.500999999999998
 20
10.0719
 10
-1.453299999999999
 20
9.983400000000017
 10
-1.406000000000013
 20
9.885999999999996
 10
-1.384
 20
9.783799999999985
 10
-1.380000000000003
 20
9.682199999999995
 10
-1.366500000000002
 20
9.610500000000002
 10
-1.318199999999997
 20
9.5531
 10
-1.247500000000002
 20
9.525599999999997
 10
-0.7399999999999878
 20
9.513100000000009
 10
-0.6680000000000135
 20
9.53710000000001
 10
-0.6169999999999973
 20
9.592100000000016
 10
-0.5999999999999872
 20
9.663099999999986
 10
-0.5909999999999869
 20
9.764299999999992
 10
-0.563999999999993
 20
9.86529999999999
 10
-0.5120000000000005
 20
9.96029999999999
 10
-0.4599999999999866
 20
10.0463
 10
-0.3860000000000028
 20
10.12029999999999
 10
-0.2999999999999972
 20
10.18029999999999
 10
-0.2049999999999983
 20
10.2243
 10
-0.1039999999999992
 20
10.25130000000001
 10
0.1039999999999992
 20
10.25130000000001
 10
0.2049999999999983
 20
10.2243
 10
0.2999999999999972
 20
10.18029999999999
 10
0.3860000000000028
 20
10.12029999999999
 10
0.4599999999999866
 20
10.0463
 10
0.5120000000000005
 20
9.96029999999999
 10
0.563999999999993
 20
9.86529999999999
 10
0.5909999999999869
 20
9.764299999999992
 10
0.5999999999999872
 20
9.663099999999986
 10
0.6169999999999973
 20
9.592100000000016
 10
0.6680000000000135
 20
9.53710000000001
 10
0.7399999999999878
 20
9.513100000000009
 10
1.247500000000002
 20
9.525599999999997
 10
1.318199999999997
 20
9.5531
 10
1.366500000000002
 20
9.610500000000002
 10
1.380000000000003
 20
9.682199999999995
 10
1.384
 20
9.783799999999985
 10
1.406000000000013
 20
9.885999999999996
 10
1.453299999999999
 20
9.983400000000017
 10
1.500999999999998
 20
10.0719
 10
1.571299999999987
 20
10.14940000000001
 10
1.654200000000003
 20
10.21359999999999
 10
1.746899999999997
 20
10.26220000000001
 10
1.846500000000013
 20
10.29410000000001
 10
2.054199999999987
 20
10.30430000000001
 10
2.156499999999987
 20
10.28229999999999
 10
2.253500000000003
 20
10.24299999999999
 10
2.342299999999987
 20
10.18729999999999
 10
2.419899999999998
 20
10.11699999999999
 10
2.475999999999999
 20
10.03370000000001
 10
2.532600000000002
 20
9.941399999999987
 10
2.564599999999999
 20
9.841800000000006
 10
2.578500000000012
 20
9.741100000000017
 10
2.598999999999997
 20
9.670999999999992
 10
2.652600000000007
 20
9.618600000000015
 10
2.725700000000003
 20
9.598199999999991
 10
3.231999999999999
 20
9.635500000000008
 10
3.301299999999998
 20
9.666499999999985
 10
3.346600000000002
 20
9.726200000000006
 10
3.3566
 20
9.79849999999999
 10
3.355600000000003
 20
9.900199999999984
 10
3.372600000000013
 20
10.0033
 10
3.415000000000013
 20
10.10300000000001
 10
3.458399999999997
 20
10.1936
 10
3.524700000000003
 20
10.27449999999999
 10
3.604500000000002
 20
10.34270000000001
 10
3.694699999999997
 20
10.39580000000001
 10
3.792599999999993
 20
10.4325
 10
3.999499999999998
 20
10.4529
 10
4.102699999999999
 20
10.43600000000001
 10
4.201599999999999
 20
10.4015
 10
4.293000000000013
 20
10.3502
 10
4.373900000000013
 20
10.28379999999999
 10
4.434100000000001
 20
10.20330000000001
 10
4.495199999999997
 20
10.1139
 10
4.531900000000007
 20
10.01599999999999
 10
4.550800000000002
 20
9.9161
 10
4.574700000000007
 20
9.847100000000012
 10
4.630799999999986
 20
9.79740000000001
 10
4.704800000000013
 20
9.780599999999993
 10
5.208699999999993
 20
9.842700000000008
 10
5.276400000000002
 20
9.87700000000001
 10
5.318700000000007
 20
9.93889999999999
 10
5.325100000000013
 20
10.01159999999999
 10
5.319200000000002
 20
10.1131
 10
5.331100000000013
 20
10.21699999999998
 10
5.368600000000001
 20
10.3186
 10
5.407400000000003
 20
10.41129999999998
 10
5.469700000000003
 20
10.49529999999999
 10
5.546000000000006
 20
10.56729999999999
 10
5.633499999999998
 20
10.62479999999999
 10
5.729500000000002
 20
10.66630000000001
 10
5.935199999999988
 20
10.6968
 10
6.039099999999998
 20
10.6849
 10
6.139499999999998
 20
10.65530000000001
 10
6.233400000000003
 20
10.6086
 10
6.317400000000013
 20
10.5463
 10
6.381500000000003
 20
10.46879999999999
 10
6.446899999999999
 20
10.38249999999999
 10
6.488399999999999
 20
10.28649999999999
 10
6.512200000000007
 20
10.18770000000001
 10
6.539400000000001
 20
10.12
 10
6.597900000000003
 20
10.07310000000001
 10
6.672700000000013
 20
10.0599
 10
7.172800000000002
 20
10.14670000000001
 10
7.238799999999998
 20
10.18430000000001
 10
7.278000000000013
 20
10.24809999999999
 10
7.280900000000003
 20
10.3211
 10
7.269900000000007
 20
10.4222
 10
7.276700000000012
 20
10.5265
 10
7.309199999999997
 20
10.62979999999999
 10
7.343400000000003
 20
10.7243
 10
7.401600000000002
 20
10.81130000000002
 10
7.474200000000003
 20
10.8869
 10
7.558800000000012
 20
10.9486
 10
7.652600000000007
 20
10.9948
 10
7.8566
 20
11.03540000000001
 10
7.960900000000002
 20
11.02859999999998
 10
8.062700000000007
 20
11.00399999999999
 10
8.158700000000003
 20
10.96190000000001
 10
8.2457
 20
10.90379999999999
 10
8.313499999999998
 20
10.8296
 10
8.383000000000003
 20
10.7465
 10
8.429199999999987
 20
10.65270000000001
 10
8.457800000000013
 20
10.55520000000001
 10
8.488300000000002
 20
10.4889
 10
8.549100000000003
 20
10.44489999999999
 10
8.624399999999987
 20
10.43540000000002
 10
9.119699999999987
 20
10.54660000000001
 10
9.183700000000002
 20
10.5874
 10
9.219799999999992
 20
10.65309999999999
 10
9.219099999999997
 20
10.7261
 10
9.203200000000002
 20
10.82650000000001
 10
9.204800000000013
 20
10.93110000000001
 10
9.232200000000013
 20
11.0359
 10
9.261699999999998
 20
11.1319
 10
9.3155
 20
11.2217
 10
9.3844
 20
11.30080000000001
 10
9.465800000000002
 20
11.36660000000001
 10
9.557299999999998
 20
11.41730000000001
 10
9.759
 20
11.46780000000001
 10
9.863600000000012
 20
11.46620000000001
 10
9.966399999999993
 20
11.44659999999999
 10
10.06440000000001
 20
11.4093
 10
10.1542
 20
11.35550000000001
 10
10.2255
 20
11.28469999999999
 10
10.29900000000001
 20
11.20519999999999
 10
10.3498
 20
11.11369999999999
 10
10.3831
 20
11.01769999999999
 10
10.41679999999999
 20
10.953
 10
10.47969999999999
 20
10.91200000000001
 10
10.5553
 20
10.90620000000001
 10
11.0446
 20
11.04160000000002
 10
11.1065
 20
11.0855
 10
11.13939999999999
 20
11.15289999999999
 10
11.13500000000001
 20
11.22579999999999
 10
11.1142
 20
11.3253
 10
11.1108
 20
11.4298
 10
11.13290000000001
 20
11.53579999999999
 10
11.15770000000001
 20
11.63319999999999
 10
11.2071
 20
11.72550000000001
 10
11.27200000000001
 20
11.80789999999999
 10
11.3501
 20
11.8776
 10
11.4389
 20
11.93270000000001
 10
11.63800000000001
 20
11.9931
 10
11.7424
 20
11.9966
 10
11.84610000000001
 20
11.982
 10
11.94580000000001
 20
11.9496
 10
12.0381
 20
11.90030000000002
 10
12.1129
 20
11.8331
 10
12.1902
 20
11.75720000000001
 10
12.2453
 20
11.66839999999999
 10
12.2834
 20
11.57419999999999
 10
12.3202
 20
11.5111
 10
12.38500000000001
 20
11.47329999999999
 10
12.4609
 20
11.47129999999999
 10
12.94289999999999
 20
11.63049999999998
 10
13.0026
 20
11.6773
 10
13.0321
 20
11.74629999999999
 10
13.02420000000001
 20
11.81889999999999
 10
12.99850000000001
 20
11.91720000000001
 10
12.98990000000001
 20
12.0214
 10
13.0069
 20
12.1284
 10
13.0269
 20
12.2269
 10
13.0716
 20
12.32150000000001
 10
13.1324
 20
12.40699999999998
 10
13.20699999999999
 20
12.4804
 10
13.29300000000001
 20
12.53980000000001
 10
13.4888
 20
12.60990000000001
 10
13.593
 20
12.61849999999998
 10
13.6973
 20
12.60910000000001
 10
13.7985
 20
12.58160000000001
 10
13.8931
 20
12.5368
 10
13.971
 20
12.4734
 10
14.05199999999999
 20
12.4014
 10
14.1114
 20
12.31540000000001
 10
14.154
 20
12.22319999999999
 10
14.1939
 20
12.16200000000001
 10
14.26050000000001
 20
12.12739999999999
 10
14.3364
 20
12.12909999999999
 10
14.81
 20
12.31180000000001
 10
14.8673
 20
12.36150000000001
 10
14.8934
 20
12.43180000000001
 10
14.8819
 20
12.50389999999999
 10
14.8515
 20
12.6009
 10
14.8378
 20
12.7046
 10
14.84950000000001
 20
12.81219999999999
 10
14.8646
 20
12.91159999999999
 10
14.90470000000001
 20
13.00829999999999
 10
14.96120000000001
 20
13.0966
 10
15.0321
 20
13.17359999999999
 10
15.1151
 20
13.2372
 10
15.30719999999999
 20
13.3168
 10
15.4109
 20
13.3305
 10
15.5155
 20
13.3262
 10
15.61790000000001
 20
13.30369999999999
 10
15.7146
 20
13.2637
 10
15.7955
 20
13.20409999999998
 10
15.87989999999999
 20
13.1362
 10
15.9435
 20
13.05330000000001
 10
15.9906
 20
12.9632
 10
16.0335
 20
12.9041
 10
16.1016
 20
12.87279999999998
 10
16.1773
 20
12.87819999999999
 10
16.6414
 20
13.0839
 10
16.69630000000001
 20
13.13640000000001
 10
16.7188
 20
13.2079
 10
16.7039
 20
13.27930000000001
 10
16.6687
 20
13.37469999999999
 10
16.6499
 20
13.4776
 10
16.6563
 20
13.5857
 10
16.6666
 20
13.68559999999999
 10
16.70179999999999
 20
13.7842
 10
16.7539
 20
13.87520000000001
 10
16.821
 20
13.9556
 10
16.9007
 20
14.0232
 10
17.08879999999999
 20
14.1121
 10
17.19159999999999
 20
14.1309
 10
17.2963
 20
14.1317
 10
17.3997
 20
14.11419999999998
 10
17.4982
 20
14.07900000000001
 10
17.58199999999999
 20
14.02350000000001
 10
17.6696
 20
13.9598
 10
17.7372
 20
13.8801
 10
17.7886
 20
13.79239999999999
 10
17.8344
 20
13.7355
 10
17.904
 20
13.70760000000001
 10
17.97929999999999
 20
13.7167
 10
18.4328
 20
13.94489999999999
 10
18.485
 20
14.0
 10
18.504
 20
14.07259999999999
 10
18.4855
 20
14.14320000000001
 10
18.4457
 20
14.23669999999998
 10
18.42189999999999
 20
14.33850000000001
 10
18.423
 20
14.4468
 10
18.42830000000001
 20
14.5472
 10
18.45869999999999
 20
14.6473
 10
18.5063
 20
14.74080000000001
 10
18.5693
 20
14.8244
 10
18.64570000000001
 20
14.89580000000001
 10
18.8291
 20
14.99379999999999
 10
18.93090000000001
 20
15.01760000000002
 10
19.0354
 20
15.02359999999999
 10
19.1396
 20
15.0112
 10
19.2397
 20
14.98089999999999
 10
19.3261
 20
14.92949999999999
 10
19.41679999999999
 20
14.87029999999999
 10
19.48820000000001
 20
14.79390000000001
 10
19.5438
 20
14.7089
 10
19.59229999999999
 20
14.65430000000001
 10
19.6632
 20
14.62979999999999
 10
19.738
 20
14.64260000000002
 10
20.1797
 20
14.89279999999999
 10
20.2291
 20
14.9504
 10
20.24459999999999
 20
15.02379999999999
 10
20.2227
 20
15.0934
 10
20.17830000000001
 20
15.1849
 10
20.14959999999999
 20
15.28540000000001
 10
20.14529999999999
 20
15.39359999999999
 10
20.14570000000001
 20
15.4941
 10
20.1712
 20
15.59559999999999
 10
20.2141
 20
15.69130000000001
 10
20.27289999999999
 20
15.77789999999999
 10
20.34569999999999
 20
15.85300000000001
 10
20.5241
 20
15.9599
 10
20.6246
 20
15.98869999999999
 10
20.7287
 20
15.99979999999999
 10
20.83330000000001
 20
15.99250000000001
 10
20.9348
 20
15.96710000000002
 10
21.02370000000001
 20
15.92009999999999
 10
21.11709999999999
 20
15.86529999999999
 10
21.1922
 20
15.79259999999999
 10
21.252
 20
15.71029999999999
 10
21.303
 20
15.65819999999999
 10
21.3751
 20
15.63720000000001
 10
21.4491
 20
15.65370000000001
 10
21.878
 20
15.92519999999999
 10
21.9246
 20
15.98519999999999
 10
21.93639999999999
 20
16.05930000000001
 10
21.9111
 20
16.1277
 10
21.8623
 20
16.21690000000001
 10
21.8287
 20
16.3159
 10
21.81909999999999
 20
16.4238
 10
21.8146
 20
16.52420000000001
 10
21.83500000000001
 20
16.6268
 10
21.8732
 20
16.72450000000001
 10
21.9277
 20
16.81389999999999
 10
21.9967
 20
16.89240000000001
 10
22.1696
 20
17.00800000000001
 10
22.26859999999999
 20
17.04160000000002
 10
22.3721
 20
17.05779999999999
 10
22.4769
 20
17.0557
 10
22.5795
 20
17.03530000000001
 10
22.67060000000001
 20
16.99270000000001
 10
22.7666
 20
16.9426
 10
22.8451
 20
16.87360000000001
 10
22.9089
 20
16.7944
 10
22.9624
 20
16.7448
 10
23.0354
 20
16.72739999999999
 10
23.1086
 20
16.7475
 10
23.5236
 20
17.03980000000001
 10
23.5672
 20
17.102
 10
23.5754
 20
17.1765
 10
23.5467
 20
17.24369999999999
 10
23.4937
 20
17.3304
 10
23.4552
 20
17.42759999999998
 10
23.4404
 20
17.53479999999999
 10
23.43090000000001
 20
17.63490000000002
 10
23.44630000000001
 20
17.73840000000001
 10
23.4796
 20
17.83780000000002
 10
23.52969999999999
 20
17.9298
 10
23.5947
 20
18.01159999999999
 10
23.76179999999999
 20
18.13550000000001
 10
23.85900000000001
 20
18.17400000000001
 10
23.9615
 20
18.1953
 10
24.0663
 20
18.19829999999999
 10
24.1698
 20
18.18289999999999
 10
24.2628
 20
18.1448
 10
24.3612
 20
18.09950000000001
 10
24.4431
 20
18.03450000000001
 10
24.5106
 20
17.95850000000002
 10
24.5665
 20
17.91159999999999
 10
24.6403
 20
17.89779999999999
 10
24.7124
 20
17.92140000000001
 10
25.1126
 20
18.2337
 10
25.15299999999999
 20
18.298
 10
25.1576
 20
18.37280000000001
 10
25.12569999999999
 20
18.4385
 10
25.0684
 20
18.52250000000001
 10
25.0252
 20
18.61770000000001
 10
25.0051
 20
18.72409999999999
 10
24.99080000000001
 20
18.8236
 10
25.001
 20
18.92770000000002
 10
25.0294
 20
19.02870000000001
 10
25.0749
 20
19.12290000000002
 10
25.13589999999999
 20
19.2079
 10
25.2967
 20
19.3398
 10
25.39189999999999
 20
19.38300000000001
 10
25.4932
 20
19.4093
 10
25.59780000000001
 20
19.41749999999999
 10
25.70189999999999
 20
19.40719999999999
 10
25.7967
 20
19.37369999999999
 10
25.89709999999999
 20
19.33330000000001
 10
25.9821
 20
19.2723
 10
26.05330000000001
 20
19.19980000000001
 10
26.11150000000001
 20
19.1557
 10
26.1858
 20
19.1455
 10
26.25659999999999
 20
19.17269999999999
 10
26.64099999999999
 20
19.5042
 10
26.67830000000001
 20
19.57040000000001
 10
26.67910000000001
 20
19.6454
 10
26.64400000000001
 20
19.70939999999999
 10
26.5827
 20
19.79040000000001
 10
26.53489999999999
 20
19.88339999999999
 10
26.50960000000001
 20
19.98869999999999
 10
26.49039999999999
 20
20.0874
 10
26.49549999999999
 20
20.1919
 10
26.51900000000001
 20
20.29410000000001
 10
26.5598
 20
20.3905
 10
26.6165
 20
20.47829999999999
 10
26.7706
 20
20.61799999999999
 10
26.86360000000001
 20
20.66579999999999
 10
26.9635
 20
20.697
 10
27.0676
 20
20.71029999999999
 10
27.1721
 20
20.70519999999999
 10
27.2684
 20
20.6764
 10
27.3707
 20
20.64089999999999
 10
27.4585
 20
20.58420000000001
 10
27.53319999999999
 20
20.5153
 10
27.59350000000001
 20
20.47409999999999
 10
27.6682
 20
20.4676
 10
27.7376
 20
20.49809999999999
 10
28.1053
 20
20.84819999999999
 10
28.13919999999999
 20
20.9161
 10
28.13640000000001
 20
20.99099999999999
 10
28.09819999999999
 20
21.0532
 10
28.03300000000002
 20
21.13120000000001
 10
27.9807
 20
21.2217
 10
27.9503
 20
21.32560000000001
 10
27.92619999999999
 20
21.42320000000001
 10
27.92619999999999
 20
21.52789999999999
 10
27.94460000000001
 20
21.6311
 10
27.9807
 20
21.7294
 10
28.03300000000002
 20
21.81989999999999
 10
28.18010000000001
 20
21.96699999999998
 10
28.2706
 20
22.01929999999999
 10
28.3689
 20
22.05539999999999
 10
28.47210000000001
 20
22.07380000000001
 10
28.57679999999999
 20
22.07380000000001
 10
28.67439999999999
 20
22.0497
 10
28.7783
 20
22.01929999999999
 10
28.86879999999999
 20
21.96699999999998
 10
28.9468
 20
21.90180000000001
 10
29.00900000000001
 20
21.86359999999999
 10
29.0839
 20
21.86080000000001
 10
29.15180000000001
 20
21.8947
 10
29.50190000000001
 20
22.26240000000001
 10
29.5324
 20
22.33179999999999
 10
29.52590000000001
 20
22.40649999999999
 10
29.4847
 20
22.46680000000001
 10
29.41579999999999
 20
22.54149999999998
 10
29.35910000000001
 20
22.6293
 10
29.3236
 20
22.73160000000001
 10
29.29480000000001
 20
22.8279
 10
29.28970000000001
 20
22.9324
 10
29.303
 20
23.03649999999999
 10
29.33420000000001
 20
23.13640000000001
 10
29.38200000000001
 20
23.2294
 10
29.52170000000001
 20
23.3835
 10
29.6095
 20
23.4402
 10
29.70589999999999
 20
23.48099999999999
 10
29.8081
 20
23.50450000000001
 10
29.9126
 20
23.50960000000001
 10
30.01130000000001
 20
23.49039999999999
 10
30.11660000000001
 20
23.46510000000001
 10
30.20959999999999
 20
23.41730000000001
 10
30.29060000000001
 20
23.35599999999999
 10
30.3546
 20
23.32089999999999
 10
30.42959999999999
 20
23.32169999999999
 10
30.4958
 20
23.35900000000001
 10
30.82730000000001
 20
23.74340000000001
 10
30.8545
 20
23.8142
 10
30.8443
 20
23.88849999999999
 10
30.80019999999999
 20
23.94669999999999
 10
30.7277
 20
24.0179
 10
30.66669999999999
 20
24.10290000000001
 10
30.62630000000001
 20
24.20330000000001
 10
30.59280000000001
 20
24.29810000000001
 10
30.58250000000001
 20
24.40219999999999
 10
30.5907
 20
24.5068
 10
30.61699999999999
 20
24.60810000000001
 10
30.6602
 20
24.70330000000001
 10
30.7921
 20
24.86410000000001
 10
30.87709999999998
 20
24.92509999999999
 10
30.97129999999999
 20
24.97059999999999
 10
31.07229999999998
 20
24.999
 10
31.1764
 20
25.00919999999999
 10
31.27590000000001
 20
24.9949
 10
31.38229999999999
 20
24.97479999999999
 10
31.47749999999999
 20
24.9316
 10
31.5615
 20
24.87430000000001
 10
31.62719999999999
 20
24.8424
 10
31.702
 20
24.84700000000001
 10
31.7663
 20
24.88740000000001
 10
32.07859999999999
 20
25.2876
 10
32.10220000000001
 20
25.3597
 10
32.08840000000001
 20
25.43350000000001
 10
32.04149999999998
 20
25.48939999999999
 10
31.96549999999999
 20
25.55689999999998
 10
31.90049999999999
 20
25.6388
 10
31.8552
 20
25.7372
 10
31.81710000000001
 20
25.83019999999999
 10
31.80170000000001
 20
25.93369999999999
 10
31.8047
 20
26.0385
 10
31.82599999999999
 20
26.14099999999999
 10
31.86449999999999
 20
26.23820000000001
 10
31.98840000000001
 20
26.40530000000001
 10
32.0702
 20
26.47030000000001
 10
32.16219999999998
 20
26.5204
 10
32.26159999999999
 20
26.55369999999999
 10
32.36509999999998
 20
26.56909999999999
 10
32.46520000000001
 20
26.55959999999999
 10
32.57240000000002
 20
26.54480000000001
 10
32.6696
 20
26.50630000000001
 10
32.75630000000001
 20
26.45330000000001
 10
32.8235
 20
26.4246
 10
32.898
 20
26.43279999999999
 10
32.96019999999999
 20
26.47640000000001
 10
33.2525
 20
26.8914
 10
33.27260000000001
 20
26.96459999999999
 10
33.2552
 20
27.0376
 10
33.2056
 20
27.09110000000001
 10
33.12639999999999
 20
27.1549
 10
33.0574
 20
27.23339999999999
 10
33.00729999999999
 20
27.32939999999999
 10
32.96469999999999
 20
27.4205
 10
32.9443
 20
27.5231
 10
32.94220000000001
 20
27.62790000000001
 10
32.95839999999998
 20
27.73140000000001
 10
32.99199999999999
 20
27.8304
 10
33.10759999999999
 20
28.0033
 10
33.18610000000001
 20
28.07229999999998
 10
33.27549999999999
 20
28.1268
 10
33.3732
 20
28.16499999999999
 10
33.47579999999999
 20
28.18540000000002
 10
33.5762
 20
28.18090000000001
 10
33.6841
 20
28.1713
 10
33.78309999999999
 20
28.1377
 10
33.8723
 20
28.0889
 10
33.94069999999999
 20
28.06360000000001
 10
34.01480000000001
 20
28.0754
 10
34.07480000000001
 20
28.12200000000001
 10
34.34629999999999
 20
28.55090000000001
 10
34.36279999999999
 20
28.6249
 10
34.34180000000001
 20
28.697
 10
34.28970000000001
 20
28.74799999999999
 10
34.20740000000001
 20
28.80779999999999
 10
34.13470000000001
 20
28.88290000000001
 10
34.07990000000001
 20
28.97630000000001
 10
34.03289999999998
 20
29.0652
 10
34.00749999999999
 20
29.16669999999999
 10
34.00020000000001
 20
29.2713
 10
34.01130000000001
 20
29.37540000000001
 10
34.0401
 20
29.4759
 10
34.14699999999999
 20
29.65430000000001
 10
34.22210000000001
 20
29.72710000000001
 10
34.30869999999999
 20
29.7859
 10
34.40440000000001
 20
29.8288
 10
34.5059
 20
29.85429999999999
 10
34.60640000000001
 20
29.85470000000001
 10
34.71459999999999
 20
29.85040000000001
 10
34.8151
 20
29.82169999999999
 10
34.9066
 20
29.7773
 10
34.97620000000001
 20
29.75540000000001
 10
35.0496
 20
29.77090000000001
 10
35.10720000000001
 20
29.8203
 10
35.35739999999998
 20
30.262
 10
35.37020000000001
 20
30.33680000000001
 10
35.34569999999999
 20
30.40770000000001
 10
35.2911
 20
30.4562
 10
35.20609999999999
 20
30.51179999999999
 10
35.12970000000001
 20
30.58320000000001
 10
35.07050000000001
 20
30.6739
 10
35.01910000000001
 20
30.7603
 10
34.9888
 20
30.8604
 10
34.97640000000001
 20
30.96459999999999
 10
34.98239999999998
 20
31.06909999999999
 10
35.00620000000001
 20
31.17089999999999
 10
35.10419999999999
 20
31.35429999999999
 10
35.1756
 20
31.4307
 10
35.25919999999999
 20
31.49369999999999
 10
35.3527
 20
31.54130000000001
 10
35.4528
 20
31.57169999999999
 10
35.5532
 20
31.577
 10
35.66149999999999
 20
31.57810000000001
 10
35.76330000000002
 20
31.55430000000001
 10
35.85679999999999
 20
31.5145
 10
35.92740000000001
 20
31.49600000000001
 10
36.0
 20
31.51499999999999
 10
36.05510000000001
 20
31.56720000000001
 10
36.2833
 20
32.02070000000001
 10
36.29239999999999
 20
32.096
 10
36.2645
 20
32.16560000000001
 10
36.20760000000001
 20
32.2114
 10
36.1199
 20
32.2628
 10
36.0402
 20
32.3304
 10
35.97649999999999
 20
32.41800000000001
 10
35.92099999999999
 20
32.5018
 10
35.88580000000002
 20
32.6003
 10
35.8683
 20
32.7037
 10
35.8691
 20
32.80840000000001
 10
35.8879
 20
32.91120000000001
 10
35.9768
 20
33.0993
 10
36.0444
 20
33.179
 10
36.12479999999999
 20
33.24610000000001
 10
36.2158
 20
33.29820000000001
 10
36.31440000000001
 20
33.33340000000001
 10
36.4143
 20
33.34370000000001
 10
36.5224
 20
33.3501
 10
36.62530000000001
 20
33.3313
 10
36.72069999999999
 20
33.2961
 10
36.7921
 20
33.28120000000001
 10
36.86359999999999
 20
33.30369999999999
 10
36.9161
 20
33.3586
 10
37.12180000000001
 20
33.8227
 10
37.12720000000002
 20
33.89840000000001
 10
37.0959
 20
33.9665
 10
37.0368
 20
34.0094
 10
36.94669999999999
 20
34.0565
 10
36.8638
 20
34.12010000000001
 10
36.79590000000002
 20
34.2045
 10
36.7363
 20
34.28540000000001
 10
36.69630000000001
 20
34.38210000000001
 10
36.6738
 20
34.4845
 10
36.6695
 20
34.5891
 10
36.6832
 20
34.69280000000001
 10
36.7628
 20
34.88489999999999
 10
36.82640000000001
 20
34.96789999999999
 10
36.9034
 20
35.03880000000001
 10
36.99170000000001
 20
35.09530000000001
 10
37.08840000000001
 20
35.1354
 10
37.18780000000001
 20
35.15049999999999
 10
37.2954
 20
35.16220000000001
 10
37.3991
 20
35.14850000000001
 10
37.49610000000001
 20
35.1181
 10
37.56819999999999
 20
35.10660000000001
 10
37.63849999999999
 20
35.1327
 10
37.68819999999999
 20
35.19
 10
37.87090000000001
 20
35.6636
 10
37.87260000000001
 20
35.73949999999999
 10
37.83799999999999
 20
35.80610000000001
 10
37.77680000000001
 20
35.846
 10
37.68459999999999
 20
35.8886
 10
37.5986
 20
35.94800000000001
 10
37.5266
 20
36.029
 10
37.4632
 20
36.1069
 10
37.41839999999999
 20
36.20150000000001
 10
37.39089999999999
 20
36.30269999999999
 10
37.38150000000002
 20
36.40700000000001
 10
37.39009999999999
 20
36.5112
 10
37.46019999999999
 20
36.70699999999999
 10
37.5196
 20
36.79300000000001
 10
37.59300000000002
 20
36.86760000000001
 10
37.67849999999999
 20
36.92840000000001
 10
37.7731
 20
36.97309999999999
 10
37.8716
 20
36.9931
 10
37.9786
 20
37.01009999999999
 10
38.08279999999999
 20
37.00149999999999
 10
38.18110000000001
 20
36.97579999999999
 10
38.25370000000001
 20
36.96789999999999
 10
38.3227
 20
36.9974
 10
38.36950000000002
 20
37.05709999999999
 10
38.52870000000001
 20
37.53909999999999
 10
38.52670000000001
 20
37.61500000000001
 10
38.4889
 20
37.6798
 10
38.42580000000001
 20
37.7166
 10
38.33160000000001
 20
37.75470000000001
 10
38.24279999999999
 20
37.8098
 10
38.1669
 20
37.8871
 10
38.09969999999998
 20
37.96190000000001
 10
38.0504
 20
38.05420000000001
 10
38.018
 20
38.15389999999999
 10
38.0034
 20
38.2576
 10
38.0069
 20
38.36199999999999
 10
38.06729999999999
 20
38.56110000000001
 10
38.1224
 20
38.6499
 10
38.19210000000001
 20
38.72800000000001
 10
38.27449999999999
 20
38.7929
 10
38.36680000000001
 20
38.84229999999999
 10
38.46420000000001
 20
38.86709999999999
 10
38.5702
 20
38.88919999999999
 10
38.6747
 20
38.88579999999999
 10
38.77420000000001
 20
38.86500000000001
 10
38.84710000000001
 20
38.86060000000001
 10
38.9145
 20
38.89349999999999
 10
38.95839999999998
 20
38.9554
 10
39.09379999999999
 20
39.44470000000001
 10
39.08799999999999
 20
39.52029999999999
 10
39.047
 20
39.58320000000001
 10
38.98230000000001
 20
39.61689999999999
 10
38.88630000000001
 20
39.65020000000001
 10
38.79480000000001
 20
39.70099999999999
 10
38.71530000000001
 20
39.77449999999999
 10
38.64449999999999
 20
39.8458
 10
38.5907
 20
39.93559999999999
 10
38.55340000000001
 20
40.03360000000001
 10
38.53379999999999
 20
40.13640000000001
 10
38.53219999999999
 20
40.24099999999999
 10
38.58269999999999
 20
40.4427
 10
38.63339999999999
 20
40.5342
 10
38.69919999999999
 20
40.6156
 10
38.7783
 20
40.68450000000001
 10
38.8681
 20
40.73830000000001
 10
38.9641
 20
40.76779999999999
 10
39.06889999999999
 20
40.79519999999999
 10
39.17349999999999
 20
40.79679999999999
 10
39.2739
 20
40.7809
 10
39.34690000000001
 20
40.78020000000001
 10
39.4126
 20
40.81630000000001
 10
39.45339999999999
 20
40.88030000000001
 10
39.56459999999998
 20
41.37559999999999
 10
39.55510000000001
 20
41.45089999999999
 10
39.5111
 20
41.51169999999999
 10
39.44479999999999
 20
41.54220000000001
 10
39.34729999999999
 20
41.57079999999999
 10
39.2535
 20
41.61699999999999
 10
39.1704
 20
41.6865
 10
39.09620000000001
 20
41.7543
 10
39.03809999999999
 20
41.84129999999999
 10
38.99600000000001
 20
41.93729999999999
 10
38.97140000000002
 20
42.03909999999999
 10
38.96459999999999
 20
42.14339999999999
 10
39.0052
 20
42.34739999999999
 10
39.0514
 20
42.44120000000001
 10
39.1131
 20
42.5258
 10
39.18869999999998
 20
42.5984
 10
39.2757
 20
42.6566
 10
39.37020000000001
 20
42.6908
 10
39.4735
 20
42.72329999999999
 10
39.5778
 20
42.73009999999999
 10
39.6789
 20
42.7191
 10
39.75190000000001
 20
42.72200000000001
 10
39.81569999999999
 20
42.7612
 10
39.85329999999999
 20
42.8272
 10
39.9401
 20
43.32730000000001
 10
39.92689999999999
 20
43.40209999999999
 10
39.88
 20
43.4606
 10
39.81229999999999
 20
43.48779999999999
 10
39.71350000000001
 20
43.51159999999999
 10
39.61750000000001
 20
43.5531
 10
39.53120000000001
 20
43.61850000000001
 10
39.4537
 20
43.68260000000001
 10
39.3914
 20
43.76660000000001
 10
39.34469999999999
 20
43.8605
 10
39.3151
 20
43.96090000000001
 10
39.3032
 20
44.06479999999999
 10
39.33369999999999
 20
44.2705
 10
39.37520000000001
 20
44.3665
 10
39.43270000000001
 20
44.45400000000001
 10
39.50470000000001
 20
44.53030000000001
 10
39.58870000000002
 20
44.5926
 10
39.6814
 20
44.63140000000001
 10
39.78300000000002
 20
44.66890000000001
 10
39.8869
 20
44.6808
 10
39.98840000000001
 20
44.67490000000001
 10
40.06110000000001
 20
44.68129999999999
 10
40.12299999999999
 20
44.7236
 10
40.15729999999999
 20
44.79130000000001
 10
40.21940000000001
 20
45.29519999999999
 10
40.20259999999999
 20
45.36920000000001
 10
40.15289999999999
 20
45.42529999999999
 10
40.0839
 20
45.44919999999999
 10
39.98400000000001
 20
45.46809999999999
 10
39.8861
 20
45.50479999999999
 10
39.79669999999999
 20
45.5659
 10
39.71620000000001
 20
45.62610000000001
 10
39.6498
 20
45.70699999999999
 10
39.5985
 20
45.79839999999999
 10
39.56399999999999
 20
45.8973
 10
39.5471
 20
46.00049999999999
 10
39.5675
 20
46.20740000000001
 10
39.60419999999999
 20
46.30529999999999
 10
39.65729999999999
 20
46.3955
 10
39.72550000000001
 20
46.4753
 10
39.8064
 20
46.54159999999999
 10
39.89699999999999
 20
46.58500000000001
 10
39.9967
 20
46.62739999999999
 10
40.09980000000002
 20
46.64439999999999
 10
40.20150000000001
 20
46.64340000000001
 10
40.27379999999999
 20
46.6534
 10
40.33350000000002
 20
46.6987
 10
40.36449999999999
 20
46.768
 10
40.40180000000001
 20
47.27430000000001
 10
40.38139999999999
 20
47.34739999999999
 10
40.32900000000001
 20
47.40100000000001
 10
40.25889999999998
 20
47.42150000000001
 10
40.15819999999999
 20
47.43539999999999
 10
40.05860000000001
 20
47.4674
 10
39.96629999999999
 20
47.524
 10
39.88300000000001
 20
47.58009999999999
 10
39.81270000000001
 20
47.65770000000001
 10
39.75700000000001
 20
47.7465
 10
39.71770000000001
 20
47.84350000000001
 10
39.69569999999999
 20
47.94579999999999
 10
39.70589999999999
 20
48.15350000000001
 10
39.73779999999999
 20
48.25309999999999
 10
39.78640000000001
 20
48.3458
 10
39.85059999999999
 20
48.42869999999999
 10
39.9281
 20
48.499
 10
40.01659999999998
 20
48.54669999999999
 10
40.114
 20
48.59399999999999
 10
40.21620000000001
 20
48.61600000000001
 10
40.31780000000001
 20
48.62
 10
40.3895
 20
48.6335
 10
40.4469
 20
48.68180000000001
 10
40.4744
 20
48.7525
  0
LINE
  5
39
330
A5
100
AcDbEntity
  8
Section
 62
    30
420
 16744192
370
     5
100
AcDbLine
 10
-15.0
 20
-16.99999999999994
 30
0.0
 11
-15.0
 21
0.0
 31
0.0
  0
LINE
  5
3A
330
A5
100
AcDbEntity
  8
Section
 62
    30
420
 16744192
370
     5
100
AcDbLine
 10
15.0
 20
-16.99999999999994
 30
0.0
 11
15.0
 21
0.0
 31
0.0
  0
LINE
  5
3B
330
A5
100
AcDbEntity
  8
Section
 62
    30
420
 16744192
370
     5
100
AcDbLine
 10
-13.5
 20
-16.99999999999989
 30
0.0
 11
-13.5
 21
0.0
 31
0.0
  0
LINE
  5
3C
330
A5
100
AcDbEntity
  8
Section
 62
    30
420
 16744192
370
     5
100
AcDbLine
 10
13.5
 20
-16.99999999999988
 30
0.0
 11
13.5
 21
-0.0000000000000018
 31
0.0
  0
LINE
  5
3D
330
A5
100
AcDbEntity
  8
Section
 62
    30
420
 16744192
370
     5
100
AcDbLine
 10
-16.5
 20
-17.0
 30
0.0
 11
-16.5
 21
0.0
 31
0.0
  0
LINE
  5
3E
330
A5
100
AcDbEntity
  8
Section
 62
    30
420
 16744192
370
     5
100
AcDbLine
 10
16.5
 20
-17.0
 30
0.0
 11
16.5
 21
0.0000000000000018
 31
0.0
  0
ARC
  5
3F
330
A5
100
AcDbEntity
  8
Section
 62
    30
420
 16744192
370
     5
100
AcDbCircle
 10
-30.99999999273905
 20
-4.250000000000203
 30
0.0
 40
3.250000000000011
100
AcDbArc
 50
22.6198649480405
 51
157.3801350519595
  0
ARC
  5
40
330
A5
100
AcDbEntity
  8
Section
 62
    30
420
 16744192
370
     5
100
AcDbCircle
 10
-14.99999955699991
 20
-1.25000000000021
 30
0.0
 40
3.250000000000011
100
AcDbArc
 50
22.6198649480405
 51
157.3801350519595
  0
ARC
  5
41
330
A5
100
AcDbEntity
  8
Section
 62
    30
420
 16744192
370
     5
100
AcDbCircle
 10
14.99999955699991
 20
-1.250000000000215
 30
0.0
 40
3.250000000000011
100
AcDbArc
 50
22.61986494804044
 51
157.3801350519595
1001
QCAD
1000
reversed:1
  0
ARC
  5
42
330
A5
100
AcDbEntity
  8
Section
 62
    30
420
 16744192
370
     5
100
AcDbCircle
 10
30.99999999273905
 20
-4.250000000000206
 30
0.0
 40
3.250000000000011
100
AcDbArc
 50
22.6198649480405
 51
157.3801350519595
1001
QCAD
1000
reversed:1
  0
CIRCLE
  5
65
330
A5
100
AcDbEntity
  8
Design_No_Kerf
 62
     1
420
 16711680
100
AcDbCircle
 10
0.0
 20
50.0
 30
0.0
 40
22.0
  0
LWPOLYLINE
  5
43
330
A5
100
AcDbEntity
  8
Section
 62
    30
420
 16744192
370
     5
100
AcDbPolyline
 90
        4
 70
   129
 43
0.0
 10
-34.00000038419307
 20
-16.99999999999979
 10
-28.00000038419307
 20
-16.99999999999989
 10
-28.00000038419307
 20
-14.9999999999998
 10
-34.00000038419307
 20
-15.00000000000011
  0
LWPOLYLINE
  5
44
330
A5
100
AcDbEntity
  8
Section
 62
    30
420
 16744192
370
     5
100
AcDbPolyline
 90
        4
 70
   129
 43
0.0
 10
34.00000038419307
 20
-16.99999999999986
 10
28.00000038419307
 20
-16.99999999999988
 10
28.00000038419307
 20
-14.9999999999998
 10
34.00000038419307
 20
-15.00000000000015
  0
CIRCLE
  5
66
330
A5
100
AcDbEntity
  8
Design_No_Kerf
 62
     1
420
 16711680
100
AcDbCircle
 10
0.0
 20
50.0
 30
0.0
 40
24.0
  0
LWPOLYLINE
  5
45
330
A5
100
AcDbEntity
  8
Section
 62
    30
420
 16744192
370
     5
100
AcDbPolyline
 90
        4
 70
   129
 43
0.0
 10
-18.0
 20
-16.00000000000011
 10
-12.0
 20
-16.00000000000011
 10
-12.0
 20
-14.00000000000011
 10
-18.0
 20
-14.0
  0
LWPOLYLINE
  5
46
330
A5
100
AcDbEntity
  8
Section
 62
    30
420
 16744192
370
     5
100
AcDbPolyline
 90
        4
 70
   129
 43
0.0
 10
18.0
 20
-16.00000000000013
 10
12.0
 20
-16.00000000000013
 10
12.0
 20
-14.00000000000012
 10
18.0
 20
-14.00000000000004
  0
LINE
  5
47
330
A5
100
AcDbEntity
  8
Section
 62
    30
420
 16744192
370
     5
100
AcDbLine
 10
-16.5
 20
-17.0
 30
0.0
 11
-13.5
 21
-16.99999999999989
 31
0.0
  0
LINE
  5
48
330
A5
100
AcDbEntity
  8
Section
 62
    30
420
 16744192
370
     5
100
AcDbLine
 10
16.5
 20
-17.00000000000001
 30
0.0
 11
13.5
 21
-16.99999999999988
 31
0.0
  0
LINE
  5
49
330
A5
100
AcDbEntity
  8
Section
 62
    30
420
 16744192
370
     5
100
AcDbLine
 10
-32.50000038371991
 20
-18.00000000000031
 30
0.0
 11
-29.50000038371991
 21
-18.00000000000021
 31
0.0
  0
LINE
  5
4A
330
A5
100
AcDbEntity
  8
Section
 62
    30
420
 16744192
370
     5
100
AcDbLine
 10
32.50000038371991
 20
-18.00000000000033
 30
0.0
 11
29.50000038371991
 21
-18.00000000000022
 31
0.0
  0
LWPOLYLINE
  5
4B
330
A5
100
AcDbEntity
  8
Section
 62
     1
420
 16711680
370
     5
100
AcDbPolyline
 90
        4
 70
   129
 43
0.0
 10
-26.00000009972291
 20
-3.499999999999879
 10
-20.00000017020102
 20
-3.499999999999805
 10
-20.00000006280698
 20
-10.49999999999981
 10
-26.00000009972291
 20
-10.4999999999998
  0
LWPOLYLINE
  5
4C
330
A5
100
AcDbEntity
  8
Section
 62
     1
420
 16711680
370
     5
100
AcDbPolyline
 90
        4
 70
   129
 43
0.0
 10
26.00000009972291
 20
-3.499999999999865
 10
20.00000017020102
 20
-3.49999999999986
 10
20.00000006280698
 20
-10.49999999999983
 10
26.00000009972291
 20
-10.49999999999981
  0
CIRCLE
  5
67
330
A5
100
AcDbEntity
  8
Design_No_Kerf
 62
     6
420
 16711935
100
AcDbCircle
 10
-26.8467875173176
 20
34.50000000000001
 30
0.0
 40
1.5
  0
CIRCLE
  5
68
330
A5
100
AcDbEntity
  8
Design_No_Kerf
 62
     6
420
 16711935
100
AcDbCircle
 10
-0.0000000000000071
 20
19.00000000000002
 30
0.0
 40
1.5
  0
LINE
  5
4D
330
A5
100
AcDbEntity
  8
Section
 62
    30
420
 16744192
370
     5
100
AcDbLine
 10
-31.00000042560509
 20
-18.00000000000026
 30
0.0
 11
-31.000000435738
 21
-2.999999999999996
 31
0.0
  0
LINE
  5
4E
330
A5
100
AcDbEntity
  8
Section
 62
    30
420
 16744192
370
     5
100
AcDbLine
 10
31.00000042560535
 20
-18.00000000000027
 30
0.0
 11
31.00000043573891
 21
-2.999999999999929
 31
0.0
  0
LINE
  5
4F
330
A5
100
AcDbEntity
  8
Section
 62
    30
420
 16744192
370
     5
100
AcDbLine
 10
-32.50000038371991
 20
-18.00000000000031
 30
0.0
 11
-32.50000038371991
 21
-3.000000000000002
 31
0.0
  0
LINE
  5
50
330
A5
100
AcDbEntity
  8
Section
 62
    30
420
 16744192
370
     5
100
AcDbLine
 10
32.50000038371991
 20
-18.00000000000033
 30
0.0
 11
32.50000038371991
 21
-2.999999999999984
 31
0.0
  0
LINE
  5
51
330
A5
100
AcDbEntity
  8
Section
 62
    30
420
 16744192
370
     5
100
AcDbLine
 10
-29.50000038371991
 20
-18.00000000000021
 30
0.0
 11
-29.50000038371991
 21
-3.0
 31
0.0
  0
LINE
  5
52
330
A5
100
AcDbEntity
  8
Section
 62
    30
420
 16744192
370
     5
100
AcDbLine
 10
29.50000038371991
 20
-18.00000000000022
 30
0.0
 11
29.50000038371991
 21
-2.99999999999995
 31
0.0
  0
CIRCLE
  5
69
330
A5
100
AcDbEntity
  8
Design_No_Kerf
 62
     6
420
 16711935
100
AcDbCircle
 10
26.84678751731758
 20
34.50000000000002
 30
0.0
 40
1.5
  0
LWPOLYLINE
  5
53
330
A5
100
AcDbEntity
  8
Section
370
     5
100
AcDbPolyline
 90
        6
 70
   129
 43
0.0
 10
-40.0
 20
-8.000000000000002
 10
-26.00000009972291
 20
-7.999998483778983
 10
-25.99999981665496
 20
-10.4999999999998
 10
-24.00000007860808
 20
-10.4999999999998
 10
-24.0
 20
-13.99999849375129
 10
-40.0
 20
-13.99999999999999
  0
LWPOLYLINE
  5
54
330
A5
100
AcDbEntity
  8
Section
370
     5
100
AcDbPolyline
 90
       10
 70
   129
 43
0.0
 10
-6.0
 20
-5.999999999999995
 10
-19.99999990027709
 20
-6.00000151626165
 10
-20.00000018334504
 20
-3.500000000000204
 10
-21.99999992139192
 20
-3.500000000000206
 10
-22.0
 20
-0.0000015062708343
 10
-19.0
 20
0.0000000000000036
 10
-16.5
 20
0.0
 10
-13.5
 20
0.0
 10
-11.0
 20
-0.0000000000000027
 10
-6.0
 20
0.0000000000000373
  0
LWPOLYLINE
  5
55
330
A5
100
AcDbEntity
  8
Section
370
     5
100
AcDbPolyline
 90
       10
 70
   129
 43
0.0
 10
6.0
 20
-5.999999999999994
 10
19.99999990027709
 20
-6.000001516261657
 10
20.00000018334504
 20
-3.50000000000021
 10
21.99999992139192
 20
-3.500000000000218
 10
22.0
 20
-0.0000015062708449
 10
19.0
 20
0.0000000000000053
 10
16.5
 20
0.0000000000000018
 10
13.5
 20
-0.0000000000000018
 10
11.0
 20
-0.0000000000000053
 10
6.0
 20
0.0000000000000355
  0
LWPOLYLINE
  5
56
330
A5
100
AcDbEntity
  8
Section
370
     5
100
AcDbPolyline
 90
        6
 70
   129
 43
0.0
 10
40.0
 20
-8.000000000000135
 10
26.00000009972291
 20
-7.999998483778995
 10
25.99999981665496
 20
-10.49999999999979
 10
24.00000007860808
 20
-10.49999999999981
 10
24.0
 20
-13.99999849375132
 10
40.0
 20
-14.0
  0
CIRCLE
  5
6A
330
A5
100
AcDbEntity
  8
Design_No_Kerf
 62
     6
420
 16711935
100
AcDbCircle
 10
26.84678751731761
 20
65.5
 30
0.0
 40
1.5
  0
LWPOLYLINE
  5
57
330
A5
100
AcDbEntity
  8
Section
370
     5
100
AcDbPolyline
 90
       12
 70
     0
 43
0.0
 10
-24.0
 20
-1.000000000000003
 10
-24.0
 20
-3.499999999999895
 10
-26.0
 20
-3.499999999999897
 10
-26.00000009972291
 20
-6.999998485456977
 10
-30.99999983962789
 20
-6.999999999999892
 10
-40.0
 20
-6.999999999999883
 10
-40.0
 20
-0.9999999999999538
 10
-35.0
 20
-1.000000000000016
 10
-35.0
 20
-2.999999999999998
 10
-27.0
 20
-2.999999999999998
 10
-27.0
 20
-0.9999999999999964
 10
-24.0
 20
-1.000000000000003
  0
LWPOLYLINE
  5
58
330
A5
100
AcDbEntity
  8
Section
370
     5
100
AcDbPolyline
 90
        8
 70
     0
 43
0.0
 10
-22.0
 20
-13.00000000000001
 10
-22.0
 20
-10.50000000000011
 10
-20.0
 20
-10.50000000000011
 10
-19.99999990027709
 20
-7.00000151454303
 10
-15.00000016037211
 20
-7.000000000000112
 10
-6.0
 20
-7.00000000000011
 10
-6.0
 20
-13.00000000000006
 10
-22.0
 20
-13.00000000000001
  0
LWPOLYLINE
  5
59
330
A5
100
AcDbEntity
  8
Section
370
     5
100
AcDbPolyline
 90
        8
 70
     0
 43
0.0
 10
22.0
 20
-13.00000000000003
 10
22.0
 20
-10.50000000000011
 10
20.0
 20
-10.50000000000011
 10
19.99999990027709
 20
-7.000001514543021
 10
15.00000016037211
 20
-7.000000000000123
 10
6.0
 20
-7.000000000000117
 10
6.0
 20
-13.00000000000007
 10
22.0
 20
-13.00000000000003
  0
LWPOLYLINE
  5
5A
330
A5
100
AcDbEntity
  8
Section
370
     5
100
AcDbPolyline
 90
       12
 70
     0
 43
0.0
 10
24.0
 20
-1.000000000000075
 10
24.0
 20
-3.499999999999922
 10
26.0
 20
-3.49999999999995
 10
26.00000009972291
 20
-6.999998485456969
 10
30.99999983962789
 20
-6.999999999999911
 10
40.0
 20
-6.999999999999895
 10
40.0
 20
-0.9999999999998908
 10
35.0
 20
-1.000000000000035
 10
35.0
 20
-2.999999999999847
 10
27.0
 20
-3.000000000000014
 10
27.0
 20
-1.000000000000061
 10
24.0
 20
-1.000000000000075
  0
CIRCLE
  5
6B
330
A5
100
AcDbEntity
  8
Design_No_Kerf
 62
     6
420
 16711935
100
AcDbCircle
 10
0.0000000000000071
 20
80.99999999999999
 30
0.0
 40
1.5
  0
CIRCLE
  5
6C
330
A5
100
AcDbEntity
  8
Design_No_Kerf
 62
     6
420
 16711935
100
AcDbCircle
 10
-26.84678751731758
 20
65.49999999999999
 30
0.0
 40
1.5
  0
CIRCLE
  5
6D
330
A5
100
AcDbEntity
  8
Design_No_Kerf
 62
     6
420
 16711935
100
AcDbCircle
 10
12.99038105676658
 20
57.5
 30
0.0
 40
1.5
  0
CIRCLE
  5
6E
330
A5
100
AcDbEntity
  8
Design_No_Kerf
 62
     6
420
 16711935
100
AcDbCircle
 10
-0.0000000000000284
 20
65.00000000000006
 30
0.0
 40
1.5
  0
CIRCLE
  5
6F
330
A5
100
AcDbEntity
  8
Design_No_Kerf
 62
     6
420
 16711935
100
AcDbCircle
 10
-12.99038105676661
 20
57.50000000000006
 30
0.0
 40
1.5
  0
CIRCLE
  5
70
330
A5
100
AcDbEntity
  8
Design_No_Kerf
 62
     6
420
 16711935
100
AcDbCircle
 10
-12.99038105676658
 20
42.50000000000001
 30
0.0
 40
1.5
  0
CIRCLE
  5
71
330
A5
100
AcDbEntity
  8
Design_No_Kerf
 62
     6
420
 16711935
100
AcDbCircle
 10
0.0
 20
35.0
 30
0.0
 40
1.5
  0
CIRCLE
  5
72
330
A5
100
AcDbEntity
  8
Design_No_Kerf
 62
     6
420
 16711935
100
AcDbCircle
 10
12.99038105676658
 20
42.49999999999999
 30
0.0
 40
1.5
  0
CIRCLE
  5
73
330
A5
100
AcDbEntity
  8
Design_No_Kerf
 62
     6
420
 16711935
100
AcDbCircle
 10
-15.50000000000001
 20
23.15321248268243
 30
0.0
 40
0.5
  0
CIRCLE
  5
74
330
A5
100
AcDbEntity
  8
Design_No_Kerf
 62
     6
420
 16711935
100
AcDbCircle
 10
15.49999999999991
 20
23.15321248268235
 30
0.0
 40
0.5
  0
CIRCLE
  5
75
330
A5
100
AcDbEntity
  8
Design_No_Kerf
 62
     6
420
 16711935
100
AcDbCircle
 10
31.00000000000004
 20
49.99999999999991
 30
0.0
 40
0.5
  0
CIRCLE
  5
76
330
A5
100
AcDbEntity
  8
Design_No_Kerf
 62
     6
420
 16711935
100
AcDbCircle
 10
15.49999999999999
 20
76.84678751731758
 30
0.0
 40
0.5
  0
CIRCLE
  5
77
330
A5
100
AcDbEntity
  8
Design_No_Kerf
 62
     6
420
 16711935
100
AcDbCircle
 10
-15.4999999999999
 20
76.84678751731765
 30
0.0
 40
0.5
  0
CIRCLE
  5
78
330
A5
100
AcDbEntity
  8
Design_No_Kerf
 62
     6
420
 16711935
100
AcDbCircle
 10
-31.00000000000004
 20
50.00000000000011
 30
0.0
 40
0.5
  0
CIRCLE
  5
79
330
A5
100
AcDbEntity
  8
Design_No_Kerf
 62
     6
420
 16711935
100
AcDbCircle
 10
7.5
 20
37.00961894323342
 30
0.0
 40
0.5
  0
CIRCLE
  5
7A
330
A5
100
AcDbEntity
  8
Design_No_Kerf
 62
     6
420
 16711935
100
AcDbCircle
 10
15.00000000000006
 20
50.00000000000004
 30
0.0
 40
0.5
  0
CIRCLE
  5
7B
330
A5
100
AcDbEntity
  8
Design_No_Kerf
 62
     6
420
 16711935
100
AcDbCircle
 10
7.50000000000005
 20
62.99038105676661
 30
0.0
 40
0.5
  0
CIRCLE
  5
7C
330
A5
100
AcDbEntity
  8
Design_No_Kerf
 62
     6
420
 16711935
100
AcDbCircle
 10
-7.5
 20
62.99038105676658
 30
0.0
 40
0.5
  0
CIRCLE
  5
7D
330
A5
100
AcDbEntity
  8
Design_No_Kerf
 62
     6
420
 16711935
100
AcDbCircle
 10
-15.0
 20
50.0
 30
0.0
 40
0.5
  0
CIRCLE
  5
7E
330
A5
100
AcDbEntity
  8
Design_No_Kerf
 62
     6
420
 16711935
100
AcDbCircle
 10
-7.500000000000007
 20
37.00961894323342
 30
0.0
 40
0.5
  0
CIRCLE
  5
7F
330
A5
100
AcDbEntity
  8
Design_No_Kerf
 62
     6
420
 16711935
100
AcDbCircle
 10
0.0
 20
50.0
 30
0.0
 40
5.0
  0
LWPOLYLINE
  5
5B
330
A5
100
AcDbEntity
  8
Section
100
AcDbPolyline
 90
        4
 70
   129
 43
0.0
 10
-35.0
 20
-15.00000000000001
 10
-27.0
 20
-14.99999999999999
 10
-27.0
 20
-14.0
 10
-35.0
 20
-14.0
  0
LWPOLYLINE
  5
5C
330
A5
100
AcDbEntity
  8
Section
100
AcDbPolyline
 90
        4
 70
   129
 43
0.0
 10
35.0
 20
-15.00000000000006
 10
27.0
 20
-15.00000000000002
 10
27.0
 20
-14.0
 10
35.0
 20
-14.00000000000002
  0
LWPOLYLINE
  5
5D
330
A5
100
AcDbEntity
  8
Section
100
AcDbPolyline
 90
        4
 70
   129
 43
0.0
 10
-19.0
 20
-14.0
 10
-11.0
 20
-14.0
 10
-11.0
 20
-13.0
 10
-19.0
 20
-13.0
  0
LWPOLYLINE
  5
5E
330
A5
100
AcDbEntity
  8
Section
100
AcDbPolyline
 90
        4
 70
   129
 43
0.0
 10
19.0
 20
-14.00000000000001
 10
11.0
 20
-14.00000000000001
 10
11.0
 20
-13.00000000000002
 10
19.0
 20
-13.00000000000002
  0
CIRCLE
  5
80
330
A5
100
AcDbEntity
  8
Design_No_Kerf
 62
     5
420
      255
100
AcDbCircle
 10
-26.8467875173176
 20
34.50000000000001
 30
0.0
 40
4.0
  0
CIRCLE
  5
81
330
A5
100
AcDbEntity
  8
Design_No_Kerf
 62
     5
420
      255
100
AcDbCircle
 10
-0.0000000000000071
 20
19.00000000000002
 30
0.0
 40
4.0
  0
CIRCLE
  5
82
330
A5
100
AcDbEntity
  8
Design_No_Kerf
 62
     5
420
      255
100
AcDbCircle
 10
26.84678751731758
 20
34.50000000000002
 30
0.0
 40
4.0
  0
CIRCLE
  5
83
330
A5
100
AcDbEntity
  8
Design_No_Kerf
 62
     5
420
      255
100
AcDbCircle
 10
26.84678751731761
 20
65.5
 30
0.0
 40
4.0
  0
CIRCLE
  5
84
330
A5
100
AcDbEntity
  8
Design_No_Kerf
 62
     5
420
      255
100
AcDbCircle
 10
-26.84678751731758
 20
65.49999999999999
 30
0.0
 40
4.0
  0
CIRCLE
  5
85
330
A5
100
AcDbEntity
  8
Design_No_Kerf
 62
     5
420
      255
100
AcDbCircle
 10
0.0000000000000071
 20
80.99999999999999
 30
0.0
 40
4.0
  0
CIRCLE
  5
86
330
A5
100
AcDbEntity
  8
Design_No_Kerf
 62
     5
420
      255
100
AcDbCircle
 10
0.0
 20
50.0
 30
0.0
 40
26.0
  0
CIRCLE
  5
87
330
A5
100
AcDbEntity
  8
Design_No_Kerf
 62
     5
420
      255
100
AcDbCircle
 10
0.0
 20
50.0
 30
0.0
 40
20.0
  0
HATCH
  5
61
330
A5
100
AcDbEntity
  8
0
 62
     1
420
 16711680
100
AcDbHatch
 10
0.0
 20
0.0
 30
0.0
210
0.0
220
0.0
230
1.0
  2
JIS_WOOD
 70
     0
 71
     0
 91
        2
 92
        0
 93
        4
 72
     1
 10
26.00000009972291
 20
-3.499999999999865
 11
20.00000017020102
 21
-3.49999999999986
 72
     1
 10
20.00000017020102
 20
-3.49999999999986
 11
20.00000006280698
 21
-10.49999999999983
 72
     1
 10
20.00000006280698
 20
-10.49999999999983
 11
26.00000009972291
 21
-10.49999999999981
 72
     1
 10
26.00000009972291
 20
-10.49999999999981
 11
26.00000009972291
 21
-3.499999999999865
 97
        0
 92
        0
 93
        4
 72
     1
 10
-26.00000009972291
 20
-3.499999999999879
 11
-20.00000017020102
 21
-3.499999999999805
 72
     1
 10
-20.00000017020102
 20
-3.499999999999805
 11
-20.00000006280698
 21
-10.49999999999981
 72
     1
 10
-20.00000006280698
 20
-10.49999999999981
 11
-26.00000009972291
 21
-10.4999999999998
 72
     1
 10
-26.00000009972291
 20
-10.4999999999998
 11
-26.00000009972291
 21
-3.499999999999879
 97
        0
 75
     0
 76
     1
 52
0.0
 41
1.0
 77
     0
 78
     1
 53
45.0
 43
0.0
 44
0.0
 45
-0.4999999991609842
 46
0.4999999991609843
 79
     0
 98
        0
1001
ACAD
1010
0.0
1020
0.0
1030
0.0
  0
HATCH
  5
62
330
A5
100
AcDbEntity
  8
0
100
AcDbHatch
 10
0.0
 20
0.0
 30
0.0
210
0.0
220
0.0
230
1.0
  2
JIS_WOOD
 70
     0
 71
     0
 91
        8
 92
        0
 93
        6
 72
     1
 10
-40.0
 20
-8.000000000000002
 11
-26.00000009972291
 21
-7.999998483778983
 72
     1
 10
-26.00000009972291
 20
-7.999998483778983
 11
-25.99999981665496
 21
-10.4999999999998
 72
     1
 10
-25.99999981665496
 20
-10.4999999999998
 11
-24.00000007860808
 21
-10.4999999999998
 72
     1
 10
-24.00000007860808
 20
-10.4999999999998
 11
-24.0
 21
-13.99999849375129
 72
     1
 10
-24.0
 20
-13.99999849375129
 11
-40.0
 21
-13.99999999999999
 72
     1
 10
-40.0
 20
-13.99999999999999
 11
-40.0
 21
-8.000000000000002
 97
        0
 92
        0
 93
        6
 72
     1
 10
40.0
 20
-8.000000000000135
 11
26.00000009972291
 21
-7.999998483778995
 72
     1
 10
26.00000009972291
 20
-7.999998483778995
 11
25.99999981665496
 21
-10.49999999999979
 72
     1
 10
25.99999981665496
 20
-10.49999999999979
 11
24.00000007860808
 21
-10.49999999999981
 72
     1
 10
24.00000007860808
 20
-10.49999999999981
 11
24.0
 21
-13.99999849375132
 72
     1
 10
24.0
 20
-13.99999849375132
 11
40.0
 21
-14.0
 72
     1
 10
40.0
 20
-14.0
 11
40.0
 21
-8.000000000000135
 97
        0
 92
        0
 93
       11
 72
     1
 10
-24.0
 20
-1.000000000000003
 11
-24.0
 21
-3.499999999999895
 72
     1
 10
-24.0
 20
-3.499999999999895
 11
-26.0
 21
-3.499999999999897
 72
     1
 10
-26.0
 20
-3.499999999999897
 11
-26.00000009972291
 21
-6.999998485456977
 72
     1
 10
-26.00000009972291
 20
-6.999998485456977
 11
-30.99999983962789
 21
-6.999999999999892
 72
     1
 10
-30.99999983962789
 20
-6.999999999999892
 11
-40.0
 21
-6.999999999999883
 72
     1
 10
-40.0
 20
-6.999999999999883
 11
-40.0
 21
-0.9999999999999538
 72
     1
 10
-40.0
 20
-0.9999999999999538
 11
-35.0
 21
-1.000000000000016
 72
     1
 10
-35.0
 20
-1.000000000000016
 11
-35.0
 21
-2.999999999999998
 72
     1
 10
-35.0
 20
-2.999999999999998
 11
-27.0
 21
-2.999999999999998
 72
     1
 10
-27.0
 20
-2.999999999999998
 11
-27.0
 21
-0.9999999999999964
 72
     1
 10
-27.0
 20
-0.9999999999999964
 11
-24.0
 21
-1.000000000000003
 97
        0
 92
        0
 93
       10
 72
     1
 10
-6.0
 20
-5.999999999999995
 11
-19.99999990027709
 21
-6.00000151626165
 72
     1
 10
-19.99999990027709
 20
-6.00000151626165
 11
-20.00000018334504
 21
-3.500000000000204
 72
     1
 10
-20.00000018334504
 20
-3.500000000000204
 11
-21.99999992139192
 21
-3.500000000000206
 72
     1
 10
-21.99999992139192
 20
-3.500000000000206
 11
-22.0
 21
-0.0000015062708343
 72
     1
 10
-22.0
 20
-0.0000015062708343
 11
-19.0
 21
0.0000000000000036
 72
     1
 10
-19.0
 20
0.0000000000000036
 11
-16.5
 21
0.0
 72
     1
 10
-16.5
 20
0.0
 11
-13.5
 21
0.0
 72
     1
 10
-13.5
 20
0.0
 11
-11.0
 21
-0.0000000000000027
 72
     1
 10
-11.0
 20
-0.0000000000000027
 11
-6.0
 21
0.0000000000000373
 72
     1
 10
-6.0
 20
0.0000000000000373
 11
-6.0
 21
-5.999999999999995
 97
        0
 92
        0
 93
       10
 72
     1
 10
6.0
 20
-5.999999999999994
 11
19.99999990027709
 21
-6.000001516261657
 72
     1
 10
19.99999990027709
 20
-6.000001516261657
 11
20.00000018334504
 21
-3.50000000000021
 72
     1
 10
20.00000018334504
 20
-3.50000000000021
 11
21.99999992139192
 21
-3.500000000000218
 72
     1
 10
21.99999992139192
 20
-3.500000000000218
 11
22.0
 21
-0.0000015062708449
 72
     1
 10
22.0
 20
-0.0000015062708449
 11
19.0
 21
0.0000000000000053
 72
     1
 10
19.0
 20
0.0000000000000053
 11
16.5
 21
0.0000000000000018
 72
     1
 10
16.5
 20
0.0000000000000018
 11
13.5
 21
-0.0000000000000018
 72
     1
 10
13.5
 20
-0.0000000000000018
 11
11.0
 21
-0.0000000000000053
 72
     1
 10
11.0
 20
-0.0000000000000053
 11
6.0
 21
0.0000000000000355
 72
     1
 10
6.0
 20
0.0000000000000355
 11
6.0
 21
-5.999999999999994
 97
        0
 92
        0
 93
       11
 72
     1
 10
24.0
 20
-1.000000000000075
 11
24.0
 21
-3.499999999999922
 72
     1
 10
24.0
 20
-3.499999999999922
 11
26.0
 21
-3.49999999999995
 72
     1
 10
26.0
 20
-3.49999999999995
 11
26.00000009972291
 21
-6.999998485456969
 72
     1
 10
26.00000009972291
 20
-6.999998485456969
 11
30.99999983962789
 21
-6.999999999999911
 72
     1
 10
30.99999983962789
 20
-6.999999999999911
 11
40.0
 21
-6.999999999999895
 72
     1
 10
40.0
 20
-6.999999999999895
 11
40.0
 21
-0.9999999999998908
 72
     1
 10
40.0
 20
-0.9999999999998908
 11
35.0
 21
-1.000000000000035
 72
     1
 10
35.0
 20
-1.000000000000035
 11
35.0
 21
-2.999999999999847
 72
     1
 10
35.0
 20
-2.999999999999847
 11
27.0
 21
-3.000000000000014
 72
     1
 10
27.0
 20
-3.000000000000014
 11
27.0
 21
-1.000000000000061
 72
     1
 10
27.0
 20
-1.000000000000061
 11
24.0
 21
-1.000000000000075
 97
        0
 92
        0
 93
        7
 72
     1
 10
-22.0
 20
-13.00000000000001
 11
-22.0
 21
-10.50000000000011
 72
     1
 10
-22.0
 20
-10.50000000000011
 11
-20.0
 21
-10.50000000000011
 72
     1
 10
-20.0
 20
-10.50000000000011
 11
-19.99999990027709
 21
-7.00000151454303
 72
     1
 10
-19.99999990027709
 20
-7.00000151454303
 11
-15.00000016037211
 21
-7.000000000000112
 72
     1
 10
-15.00000016037211
 20
-7.000000000000112
 11
-6.0
 21
-7.00000000000011
 72
     1
 10
-6.0
 20
-7.00000000000011
 11
-6.0
 21
-13.00000000000006
 72
     1
 10
-6.0
 20
-13.00000000000006
 11
-22.0
 21
-13.00000000000001
 97
        0
 92
        0
 93
        7
 72
     1
 10
22.0
 20
-13.00000000000003
 11
22.0
 21
-10.50000000000011
 72
     1
 10
22.0
 20
-10.50000000000011
 11
20.0
 21
-10.50000000000011
 72
     1
 10
20.0
 20
-10.50000000000011
 11
19.99999990027709
 21
-7.000001514543021
 72
     1
 10
19.99999990027709
 20
-7.000001514543021
 11
15.00000016037211
 21
-7.000000000000123
 72
     1
 10
15.00000016037211
 20
-7.000000000000123
 11
6.0
 21
-7.000000000000117
 72
     1
 10
6.0
 20
-7.000000000000117
 11
6.0
 21
-13.00000000000007
 72
     1
 10
6.0
 20
-13.00000000000007
 11
22.0
 21
-13.00000000000003
 97
        0
 75
     0
 76
     1
 52
0.0
 41
1.0
 77
     0
 78
     1
 53
45.0
 43
0.0
 44
0.0
 45
-0.4999999991609842
 46
0.4999999991609843
 79
     0
 98
        0
1001
ACAD
1010
0.0
1020
0.0
1030
0.0
  0
VIEWPORT
  5
164
330
A1
100
AcDbEntity
 67
     1
  8
0
100
AcDbViewport
 10
128.5
 20
97.5
 30
0.0
 40
314.226
 41
222.18
 68
     1
 69
     1
 12
128.5
 22
97.5
 13
0.0
 23
0.0
 14
10.0
 24
10.0
 15
10.0
 25
10.0
 16
0.0
 26
0.0
 36
1.0
 17
0.0
 27
0.0
 37
0.0
 42
50.0
 43
0.0
 44
0.0
 45
222.18
 50
0.0
 51
0.0
 72
   100
 90
   557152
  1

281
     0
 71
     1
 74
     0
110
0.0
120
0.0
130
0.0
111
1.0
121
0.0
131
0.0
112
0.0
122
1.0
132
0.0
 79
     0
146
0.0
170
     0
 61
     5
348
B5
292
     1
282
     1
141
0.0
142
0.0
 63
   256
361
165
  0
ENDSEC
  0
SECTION
  2
OBJECTS
  0
DICTIONARY
  5
93
330
0
100
AcDbDictionary
281
     1
  3
ACAD_DETAILVIEWSTYLE
350
16D
  3
ACAD_GROUP
350
94
  3
ACAD_LAYOUT
350
A0
  3
ACAD_MATERIAL
350
C9
  3
ACAD_MLEADERSTYLE
350
F1
  3
ACAD_MLINESTYLE
350
9D
  3
ACAD_PLOTSETTINGS
350
9F
  3
ACAD_PLOTSTYLENAME
350
95
  3
ACAD_SCALELIST
350
CD
  3
ACAD_SECTIONVIEWSTYLE
350
16E
  3
ACAD_TABLESTYLE
350
EF
  3
ACAD_VISUALSTYLE
350
B0
  3
ACDB_RECOMPOSE_DATA
350
16A
  3
AcDbVariableDictionary
350
166
  3
QCAD_OBJECTS
350
F5
  0
SUN
  5
F3
330
AF
100
AcDbSun
 90
        1
290
     0
 63
     7
421
 16777215
 40
1.0
291
     1
 91
  2455826
 92
 54000000
292
     0
 70
     2
 71
   256
280
     1
  0
SUN
  5
165
330
164
100
AcDbSun
 90
        1
290
     0
 63
     7
421
 16777215
 40
1.0
291
     1
 91
  2455826
 92
 54000000
292
     0
 70
     2
 71
   256
280
     1
  0
DICTIONARY
  5
16D
102
{ACAD_REACTORS
330
93
102
}
330
93
100
AcDbDictionary
281
     1
  0
DICTIONARY
  5
94
102
{ACAD_REACTORS
330
93
102
}
330
93
100
AcDbDictionary
281
     1
  0
DICTIONARY
  5
A0
102
{ACAD_REACTORS
330
93
102
}
330
93
100
AcDbDictionary
281
     1
  3
Layout1
350
A4
  3
Model
350
A8
  0
DICTIONARY
  5
C9
102
{ACAD_REACTORS
330
93
102
}
330
93
100
AcDbDictionary
281
     1
  3
ByBlock
350
CB
  3
ByLayer
350
CA
  3
Global
350
CC
  0
DICTIONARY
  5
F1
102
{ACAD_REACTORS
330
93
102
}
330
93
100
AcDbDictionary
281
     1
  3
Standard
350
F2
  0
DICTIONARY
  5
9D
102
{ACAD_REACTORS
330
93
102
}
330
93
100
AcDbDictionary
281
     1
  3
Standard
350
9E
  0
DICTIONARY
  5
9F
102
{ACAD_REACTORS
330
93
102
}
330
93
100
AcDbDictionary
281
     1
  0
ACDBDICTIONARYWDFLT
  5
95
102
{ACAD_REACTORS
330
93
102
}
330
93
100
AcDbDictionary
281
     1
  3
Normal
350
96
100
AcDbDictionaryWithDefault
340
96
  0
DICTIONARY
  5
CD
102
{ACAD_REACTORS
330
93
102
}
330
93
100
AcDbDictionary
281
     1
  3
A0
350
CE
  3
A1
350
CF
  3
A2
350
D0
  3
A3
350
D1
  3
A4
350
D2
  3
A5
350
D3
  3
A6
350
D4
  3
A7
350
D5
  3
A8
350
D6
  3
A9
350
D7
  3
B0
350
D8
  3
B1
350
D9
  3
B2
350
DA
  3
B3
350
DB
  3
B4
350
DC
  3
B5
350
DD
  3
B6
350
DE
  3
B7
350
DF
  3
B8
350
E0
  3
B9
350
E1
  3
C0
350
E2
  3
C1
350
E3
  3
C2
350
E4
  3
C3
350
E5
  3
C4
350
E6
  3
C5
350
E7
  3
C6
350
E8
  3
C7
350
E9
  3
C8
350
EA
  3
C9
350
EB
  3
D0
350
EC
  3
D1
350
ED
  3
D2
350
EE
  0
DICTIONARY
  5
16E
102
{ACAD_REACTORS
330
93
102
}
330
93
100
AcDbDictionary
281
     1
  0
DICTIONARY
  5
EF
102
{ACAD_REACTORS
330
93
102
}
330
93
100
AcDbDictionary
281
     1
  3
Standard
350
F0
  0
DICTIONARY
  5
B0
102
{ACAD_REACTORS
330
93
102
}
330
93
100
AcDbDictionary
281
     1
  3
2dWireframe
350
B5
  3
Basic
350
B8
  3
Brighten
350
BC
  3
ColorChange
350
C0
  3
Conceptual
350
BA
  3
Dim
350
BB
  3
EdgeColorOff
350
C3
  3
Facepattern
350
BF
  3
Flat
350
B1
  3
FlatWithEdges
350
B2
  3
Gouraud
350
B3
  3
GouraudWithEdges
350
B4
  3
Hidden
350
B7
  3
JitterOff
350
C1
  3
Linepattern
350
BE
  3
OverhangOff
350
C2
  3
Realistic
350
B9
  3
Shaded
350
C8
  3
Shaded with edges
350
C7
  3
Shades of Gray
350
C4
  3
Sketchy
350
C5
  3
Thicken
350
BD
  3
Wireframe
350
B6
  3
X-Ray
350
C6
  0
XRECORD
  5
16A
102
{ACAD_REACTORS
330
93
102
}
330
93
100
AcDbXrecord
280
     1
 90
        1
330
F0
  0
DICTIONARY
  5
166
102
{ACAD_REACTORS
330
93
102
}
330
93
100
AcDbDictionary
281
     1
  3
CANNOSCALE
350
167
  3
CMLEADERSTYLE
350
16C
  3
CTABLESTYLE
350
16B
  0
DICTIONARY
  5
F5
102
{ACAD_REACTORS
330
93
102
}
330
93
100
AcDbDictionary
281
     1
  3
ColorSettings/BackgroundColor
350
F7
  3
ColorSettings/ColorMode
350
F8
  3
Grid/DisplayGrid00
350
F9
  3
Grid/DisplayGrid01
350
FA
  3
Grid/DisplayGrid02
350
FB
  3
Grid/DisplayGrid03
350
FC
  3
Grid/GridSpacingX00
350
FD
  3
Grid/GridSpacingX01
350
FE
  3
Grid/GridSpacingX02
350
FF
  3
Grid/GridSpacingX03
350
100
  3
Grid/GridSpacingY00
350
101
  3
Grid/GridSpacingY01
350
102
  3
Grid/GridSpacingY02
350
103
  3
Grid/GridSpacingY03
350
104
  3
Grid/IsometricGrid00
350
105
  3
Grid/IsometricGrid01
350
106
  3
Grid/IsometricGrid02
350
107
  3
Grid/IsometricGrid03
350
108
  3
Grid/IsometricProjection00
350
109
  3
Grid/IsometricProjection01
350
10A
  3
Grid/IsometricProjection02
350
10B
  3
Grid/IsometricProjection03
350
10C
  3
Grid/MetaGridSpacingX00
350
10D
  3
Grid/MetaGridSpacingX01
350
10E
  3
Grid/MetaGridSpacingX02
350
10F
  3
Grid/MetaGridSpacingX03
350
110
  3
Grid/MetaGridSpacingY00
350
111
  3
Grid/MetaGridSpacingY01
350
112
  3
Grid/MetaGridSpacingY02
350
113
  3
Grid/MetaGridSpacingY03
350
114
  3
MultiPageSettings/Columns
350
115
  3
MultiPageSettings/GlueMarginsBottom
350
116
  3
MultiPageSettings/GlueMarginsLeft
350
117
  3
MultiPageSettings/GlueMarginsRight
350
118
  3
MultiPageSettings/GlueMarginsTop
350
119
  3
MultiPageSettings/PrintCropMarks
350
11A
  3
MultiPageSettings/Rows
350
11B
  3
PageSettings/OffsetX
350
11C
  3
PageSettings/OffsetY
350
11D
  3
PageSettings/PageOrientation
350
11E
  3
PageSettings/PaperHeight
350
11F
  3
PageSettings/PaperWidth
350
120
  3
PageSettings/Scale
350
121
  3
PageSettings/ShowPaperBorders
350
122
  3
QCADVersion
350
F6
  3
UnitSettings/PaperUnit
350
123
  3
ViewportCenter
350
124
  3
ViewportHeight
350
125
  3
ViewportWidth
350
126
  0
LAYOUT
  5
A4
102
{ACAD_REACTORS
330
A0
102
}
330
A0
100
AcDbPlotSettings
  1

  2
none_device
  4
ISO_A4_(210.00_x_297.00_MM)
  6

 40
7.5
 41
20.0
 42
7.5
 43
20.0
 44
210.0
 45
297.0
 46
0.0
 47
0.0
 48
0.0
 49
0.0
140
0.0
141
0.0
142
1.0
143
1.0
 70
   688
 72
     1
 73
     1
 74
     5
  7

 75
    16
 76
     0
 77
     2
 78
   300
147
1.0
148
0.0
149
0.0
100
AcDbLayout
  1
Layout1
 70
     1
 71
     0
 10
-20.0
 20
-7.5
 11
277.0
 21
202.5
 12
0.0
 22
0.0
 32
0.0
 14
0.0
 24
0.0
 34
0.0
 15
0.0
 25
0.0
 35
0.0
146
0.0
 13
0.0
 23
0.0
 33
0.0
 16
1.0
 26
0.0
 36
0.0
 17
0.0
 27
1.0
 37
0.0
 76
     0
330
A1
331
164
  0
LAYOUT
  5
A8
102
{ACAD_REACTORS
330
A0
102
}
330
A0
100
AcDbPlotSettings
  1

  2
none_device
  4
Letter_(8.50_x_11.00_Inches)
  6

 40
6.35
 41
6.35
 42
6.35000508
 43
6.35000508
 44
215.9
 45
279.4
 46
0.0
 47
0.0
 48
0.0
 49
0.0
140
0.0
141
0.0
142
1.0
143
1.0
 70
  1712
 72
     0
 73
     0
 74
     0
  7

 75
     0
 76
     0
 77
     2
 78
   300
147
1.0
148
0.0
149
0.0
100
AcDbLayout
  1
Model
 70
     1
 71
     0
 10
0.0
 20
0.0
 11
12.0
 21
9.0
 12
0.0
 22
0.0
 32
0.0
 14
40.48689999999999
 24
90.48689999999999
 34
0.0
 15
-40.4869
 25
-18.00000000000033
 35
0.0
146
0.0
 13
0.0
 23
0.0
 33
0.0
 16
1.0
 26
0.0
 36
0.0
 17
0.0
 27
1.0
 37
0.0
 76
     0
330
A5
331
AF
  0
MATERIAL
  5
CB
102
{ACAD_REACTORS
330
C9
102
}
330
C9
100
AcDbMaterial
  1
ByBlock
 72
     1
 94
      127
  0
MATERIAL
  5
CA
102
{ACAD_REACTORS
330
C9
102
}
330
C9
100
AcDbMaterial
  1
ByLayer
 72
     1
 94
      127
  0
MATERIAL
  5
CC
102
{ACAD_REACTORS
330
C9
102
}
330
C9
100
AcDbMaterial
  1
Global
 72
     1
 94
      127
  0
MLEADERSTYLE
  5
F2
102
{ACAD_REACTORS
330
F1
102
}
330
F1
100
AcDbMLeaderStyle
179
     2
170
     2
171
     1
172
     0
 90
        2
 40
0.0
 41
0.0
173
     1
 91
-1056964608
340
9A
 92
       -2
290
     1
 42
0.09
291
     1
 43
0.36
  3
Standard
341
0
 44
0.18
300

342
98
174
     1
178
     6
175
     1
176
     0
 93
-1056964608
 45
0.18
292
     0
297
     0
 46
0.18
343
0
 94
-1056964608
 47
1.0
 49
1.0
140
1.0
293
     1
141
0.0
294
     1
177
     0
142
1.0
295
     0
296
     0
143
0.125
271
     0
272
     9
273
     9
298
     0
  0
MLINESTYLE
  5
9E
102
{ACAD_REACTORS
330
9D
102
}
330
9D
100
AcDbMlineStyle
  2
Standard
 70
     0
  3

 62
   256
 51
90.0
 52
90.0
 71
     2
 49
0.5
 62
   256
  6
BYLAYER
 49
-0.5
 62
   256
  6
BYLAYER
  0
ACDBPLACEHOLDER
  5
96
102
{ACAD_REACTORS
330
95
102
}
330
95
  0
SCALE
  5
CE
102
{ACAD_REACTORS
330
CD
102
}
330
CD
100
AcDbScale
 70
     0
300
1:1
140
1.0
141
1.0
290
     1
  0
SCALE
  5
CF
102
{ACAD_REACTORS
330
CD
102
}
330
CD
100
AcDbScale
 70
     0
300
1:2
140
1.0
141
2.0
290
     0
  0
SCALE
  5
D0
102
{ACAD_REACTORS
330
CD
102
}
330
CD
100
AcDbScale
 70
     0
300
1:4
140
1.0
141
4.0
290
     0
  0
SCALE
  5
D1
102
{ACAD_REACTORS
330
CD
102
}
330
CD
100
AcDbScale
 70
     0
300
1:5
140
1.0
141
5.0
290
     0
  0
SCALE
  5
D2
102
{ACAD_REACTORS
330
CD
102
}
330
CD
100
AcDbScale
 70
     0
300
1:8
140
1.0
141
8.0
290
     0
  0
SCALE
  5
D3
102
{ACAD_REACTORS
330
CD
102
}
330
CD
100
AcDbScale
 70
     0
300
1:10
140
1.0
141
10.0
290
     0
  0
SCALE
  5
D4
102
{ACAD_REACTORS
330
CD
102
}
330
CD
100
AcDbScale
 70
     0
300
1:16
140
1.0
141
16.0
290
     0
  0
SCALE
  5
D5
102
{ACAD_REACTORS
330
CD
102
}
330
CD
100
AcDbScale
 70
     0
300
1:20
140
1.0
141
20.0
290
     0
  0
SCALE
  5
D6
102
{ACAD_REACTORS
330
CD
102
}
330
CD
100
AcDbScale
 70
     0
300
1:30
140
1.0
141
30.0
290
     0
  0
SCALE
  5
D7
102
{ACAD_REACTORS
330
CD
102
}
330
CD
100
AcDbScale
 70
     0
300
1:40
140
1.0
141
40.0
290
     0
  0
SCALE
  5
D8
102
{ACAD_REACTORS
330
CD
102
}
330
CD
100
AcDbScale
 70
     0
300
1:50
140
1.0
141
50.0
290
     0
  0
SCALE
  5
D9
102
{ACAD_REACTORS
330
CD
102
}
330
CD
100
AcDbScale
 70
     0
300
1:100
140
1.0
141
100.0
290
     0
  0
SCALE
  5
DA
102
{ACAD_REACTORS
330
CD
102
}
330
CD
100
AcDbScale
 70
     0
300
2:1
140
2.0
141
1.0
290
     0
  0
SCALE
  5
DB
102
{ACAD_REACTORS
330
CD
102
}
330
CD
100
AcDbScale
 70
     0
300
4:1
140
4.0
141
1.0
290
     0
  0
SCALE
  5
DC
102
{ACAD_REACTORS
330
CD
102
}
330
CD
100
AcDbScale
 70
     0
300
8:1
140
8.0
141
1.0
290
     0
  0
SCALE
  5
DD
102
{ACAD_REACTORS
330
CD
102
}
330
CD
100
AcDbScale
 70
     0
300
10:1
140
10.0
141
1.0
290
     0
  0
SCALE
  5
DE
102
{ACAD_REACTORS
330
CD
102
}
330
CD
100
AcDbScale
 70
     0
300
100:1
140
100.0
141
1.0
290
     0
  0
SCALE
  5
DF
102
{ACAD_REACTORS
330
CD
102
}
330
CD
100
AcDbScale
 70
     0
300
1/128" = 1'-0"
140
0.0078125
141
12.0
290
     0
  0
SCALE
  5
E0
102
{ACAD_REACTORS
330
CD
102
}
330
CD
100
AcDbScale
 70
     0
300
1/64" = 1'-0"
140
0.015625
141
12.0
290
     0
  0
SCALE
  5
E1
102
{ACAD_REACTORS
330
CD
102
}
330
CD
100
AcDbScale
 70
     0
300
1/32" = 1'-0"
140
0.03125
141
12.0
290
     0
  0
SCALE
  5
E2
102
{ACAD_REACTORS
330
CD
102
}
330
CD
100
AcDbScale
 70
     0
300
1/16" = 1'-0"
140
0.0625
141
12.0
290
     0
  0
SCALE
  5
E3
102
{ACAD_REACTORS
330
CD
102
}
330
CD
100
AcDbScale
 70
     0
300
3/32" = 1'-0"
140
0.09375
141
12.0
290
     0
  0
SCALE
  5
E4
102
{ACAD_REACTORS
330
CD
102
}
330
CD
100
AcDbScale
 70
     0
300
1/8" = 1'-0"
140
0.125
141
12.0
290
     0
  0
SCALE
  5
E5
102
{ACAD_REACTORS
330
CD
102
}
330
CD
100
AcDbScale
 70
     0
300
3/16" = 1'-0"
140
0.1875
141
12.0
290
     0
  0
SCALE
  5
E6
102
{ACAD_REACTORS
330
CD
102
}
330
CD
100
AcDbScale
 70
     0
300
1/4" = 1'-0"
140
0.25
141
12.0
290
     0
  0
SCALE
  5
E7
102
{ACAD_REACTORS
330
CD
102
}
330
CD
100
AcDbScale
 70
     0
300
3/8" = 1'-0"
140
0.375
141
12.0
290
     0
  0
SCALE
  5
E8
102
{ACAD_REACTORS
330
CD
102
}
330
CD
100
AcDbScale
 70
     0
300
1/2" = 1'-0"
140
0.5
141
12.0
290
     0
  0
SCALE
  5
E9
102
{ACAD_REACTORS
330
CD
102
}
330
CD
100
AcDbScale
 70
     0
300
3/4" = 1'-0"
140
0.75
141
12.0
290
     0
  0
SCALE
  5
EA
102
{ACAD_REACTORS
330
CD
102
}
330
CD
100
AcDbScale
 70
     0
300
1" = 1'-0"
140
1.0
141
12.0
290
     0
  0
SCALE
  5
EB
102
{ACAD_REACTORS
330
CD
102
}
330
CD
100
AcDbScale
 70
     0
300
1-1/2" = 1'-0"
140
1.5
141
12.0
290
     0
  0
SCALE
  5
EC
102
{ACAD_REACTORS
330
CD
102
}
330
CD
100
AcDbScale
 70
     0
300
3" = 1'-0"
140
3.0
141
12.0
290
     0
  0
SCALE
  5
ED
102
{ACAD_REACTORS
330
CD
102
}
330
CD
100
AcDbScale
 70
     0
300
6" = 1'-0"
140
6.0
141
12.0
290
     0
  0
SCALE
  5
EE
102
{ACAD_REACTORS
330
CD
102
}
330
CD
100
AcDbScale
 70
     0
300
1'-0" = 1'-0"
140
12.0
141
12.0
290
     0
  0
TABLESTYLE
  5
F0
102
{ACAD_REACTORS
330
EF
102
}
102
{ACAD_XDICTIONARY
360
168
102
}
330
EF
100
AcDbTableStyle
  3
Standard
 70
     0
 71
     0
 40
0.06
 41
0.06
280
     0
281
     0
  7
Standard
140
0.18
170
     2
 62
     0
 63
   257
283
     0
 90
        4
 91
        0
  1

274
    -2
284
     1
 64
     0
275
    -2
285
     1
 65
     0
276
    -2
286
     1
 66
     0
277
    -2
287
     1
 67
     0
278
    -2
288
     1
 68
     0
279
    -2
289
     1
 69
     0
  7
Standard
140
0.25
170
     5
 62
     0
 63
   257
283
     0
 90
        4
 91
        0
  1

274
    -2
284
     1
 64
     0
275
    -2
285
     1
 65
     0
276
    -2
286
     1
 66
     0
277
    -2
287
     1
 67
     0
278
    -2
288
     1
 68
     0
279
    -2
289
     1
 69
     0
  7
Standard
140
0.18
170
     5
 62
     0
 63
   257
283
     0
 90
        4
 91
        0
  1

274
    -2
284
     1
 64
     0
275
    -2
285
     1
 65
     0
276
    -2
286
     1
 66
     0
277
    -2
287
     1
 67
     0
278
    -2
288
     1
 68
     0
279
    -2
289
     1
 69
     0
  0
VISUALSTYLE
  5
B5
102
{ACAD_REACTORS
330
B0
102
}
330
B0
100
AcDbVisualStyle
  2
2dWireframe
 70
     4
177
     3
291
     0
 70
    58
 90
        0
176
     1
 90
        2
176
     1
 90
        0
176
     1
 90
        0
176
     1
 40
0.6
176
     1
 40
30.0
176
     1
 62
     7
420
 16777215
176
     1
 90
        1
176
     1
 90
        4
176
     1
 62
     7
176
     1
 62
   257
176
     1
 90
        1
176
     1
 90
        1
176
     1
 40
1.0
176
     1
 90
        0
176
     1
 62
   257
176
     1
 40
1.0
176
     1
 90
        1
176
     1
 90
        6
176
     1
 90
        2
176
     1
 62
     7
176
     1
 90
        5
176
     1
 90
        0
176
     1
 90
        0
176
     1
290
     0
176
     1
 90
        1
176
     1
 40
0.0
176
     1
 90
        0
176
     1
290
     1
176
     1
290
     1
176
     1
290
     0
176
     1
290
     0
176
     1
290
     0
176
     1
290
     0
176
     1
290
     0
176
     1
290
     0
176
     1
290
     0
176
     1
 90
       50
176
     1
 40
0.0
176
     1
 40
1.0
176
     1
 90
        0
176
     1
 62
   178
420
        0
176
     1
 90
       50
176
     1
 90
        3
176
     1
 62
     5
420
      255
176
     1
290
     0
176
     1
 90
       50
176
     1
 90
       50
176
     1
 90
       50
176
     1
290
     0
176
     1
 90
       50
176
     1
 62
   256
176
     0
 40
1.0
176
     0
 90
        2
176
     1
  1
strokes_ogs.tif
176
     1
290
     0
176
     1
 40
1.0
176
     1
 40
1.0
176
     1
  0
VISUALSTYLE
  5
B8
102
{ACAD_REACTORS
330
B0
102
}
330
B0
100
AcDbVisualStyle
  2
Basic
 70
     7
177
     3
291
     1
 70
    58
 90
        1
176
     1
 90
        0
176
     1
 90
        1
176
     1
 90
        0
176
     1
 40
0.6
176
     1
 40
30.0
176
     1
 62
     7
420
 16777215
176
     1
 90
        0
176
     1
 90
        4
176
     1
 62
     7
176
     1
 62
   257
176
     1
 90
        1
176
     1
 90
        1
176
     1
 40
1.0
176
     1
 90
        8
176
     1
 62
     7
176
     1
 40
1.0
176
     1
 90
        1
176
     1
 90
        6
176
     1
 90
        2
176
     1
 62
     7
176
     1
 90
        5
176
     1
 90
        0
176
     1
 90
        0
176
     1
290
     0
176
     1
 90
        1
176
     1
 40
0.0
176
     1
 90
        0
176
     1
290
     0
176
     1
290
     1
176
     1
290
     1
176
     1
290
     0
176
     1
290
     0
176
     1
290
     0
176
     1
290
     0
176
     1
290
     0
176
     1
290
     0
176
     1
 90
       50
176
     1
 40
0.0
176
     1
 40
1.0
176
     1
 90
        0
176
     1
 62
   178
420
        0
176
     1
 90
       50
176
     1
 90
        3
176
     1
 62
     5
420
      255
176
     1
290
     0
176
     1
 90
       50
176
     1
 90
       50
176
     1
 90
       50
176
     1
290
     0
176
     1
 90
       50
176
     1
 62
   256
176
     0
 40
1.0
176
     0
 90
        2
176
     1
  1
strokes_ogs.tif
176
     1
290
     0
176
     1
 40
1.0
176
     1
 40
1.0
176
     1
  0
VISUALSTYLE
  5
BC
102
{ACAD_REACTORS
330
B0
102
}
330
B0
100
AcDbVisualStyle
  2
Brighten
 70
    12
177
     3
291
     1
 70
    58
 90
        2
176
     1
 90
        2
176
     1
 90
        0
176
     1
 90
        0
176
     1
 40
0.6
176
     1
 40
30.0
176
     1
 62
     7
420
 16777215
176
     1
 90
        1
176
     1
 90
        4
176
     1
 62
     7
176
     1
 62
   257
176
     1
 90
        1
176
     1
 90
        1
176
     1
 40
1.0
176
     1
 90
        8
176
     1
 62
     7
176
     1
 40
1.0
176
     1
 90
        1
176
     1
 90
        6
176
     1
 90
        2
176
     1
 62
     7
176
     1
 90
        5
176
     1
 90
        0
176
     1
 90
        0
176
     1
290
     0
176
     1
 90
        1
176
     1
 40
50.0
176
     1
 90
        0
176
     1
290
     0
176
     1
290
     1
176
     1
290
     1
176
     1
290
     0
176
     1
290
     0
176
     1
290
     0
176
     1
290
     0
176
     1
290
     0
176
     1
290
     0
176
     1
 90
       50
176
     1
 40
0.0
176
     1
 40
1.0
176
     1
 90
        0
176
     1
 62
   178
420
        0
176
     1
 90
       50
176
     1
 90
        3
176
     1
 62
     5
420
      255
176
     1
290
     0
176
     1
 90
       50
176
     1
 90
       50
176
     1
 90
       50
176
     1
290
     0
176
     1
 90
       50
176
     1
 62
   256
176
     0
 40
1.0
176
     0
 90
        2
176
     1
  1
strokes_ogs.tif
176
     1
290
     0
176
     1
 40
1.0
176
     1
 40
1.0
176
     1
  0
VISUALSTYLE
  5
C0
102
{ACAD_REACTORS
330
B0
102
}
330
B0
100
AcDbVisualStyle
  2
ColorChange
 70
    16
177
     3
291
     1
 70
    58
 90
        2
176
     1
 90
        2
176
     1
 90
        3
176
     1
 90
        0
176
     1
 40
0.6
176
     1
 40
30.0
176
     1
 62
     8
420
  8421504
176
     1
 90
        1
176
     1
 90
        4
176
     1
 62
     7
176
     1
 62
   257
176
     1
 90
        1
176
     1
 90
        1
176
     1
 40
1.0
176
     1
 90
        8
176
     1
 62
     8
420
  8421504
176
     1
 40
1.0
176
     1
 90
        1
176
     1
 90
        6
176
     1
 90
        2
176
     1
 62
     7
176
     1
 90
        5
176
     1
 90
        0
176
     1
 90
        0
176
     1
290
     0
176
     1
 90
        1
176
     1
 40
0.0
176
     1
 90
        0
176
     1
290
     0
176
     1
290
     1
176
     1
290
     1
176
     1
290
     0
176
     1
290
     0
176
     1
290
     0
176
     1
290
     0
176
     1
290
     0
176
     1
290
     0
176
     1
 90
       50
176
     1
 40
0.0
176
     1
 40
1.0
176
     1
 90
        0
176
     1
 62
   178
420
        0
176
     1
 90
       50
176
     1
 90
        3
176
     1
 62
     5
420
      255
176
     1
290
     0
176
     1
 90
       50
176
     1
 90
       50
176
     1
 90
       50
176
     1
290
     0
176
     1
 90
       50
176
     1
 62
   256
176
     0
 40
1.0
176
     0
 90
        2
176
     1
  1
strokes_ogs.tif
176
     1
290
     0
176
     1
 40
1.0
176
     1
 40
1.0
176
     1
  0
VISUALSTYLE
  5
BA
102
{ACAD_REACTORS
330
B0
102
}
330
B0
100
AcDbVisualStyle
  2
Conceptual
 70
     9
177
     3
291
     0
 70
    58
 90
        3
176
     1
 90
        2
176
     1
 90
        0
176
     1
 90
        0
176
     1
 40
0.6
176
     1
 40
30.0
176
     1
 62
     7
420
 16777215
176
     1
 90
        2
176
     1
 90
        2
176
     1
 62
     7
176
     1
 62
   257
176
     1
 90
        1
176
     1
 90
        1
176
     1
 40
179.0
176
     1
 90
        8
176
     1
 62
     7
176
     1
 40
1.0
176
     1
 90
        1
176
     1
 90
        6
176
     1
 90
        2
176
     1
 62
     7
176
     1
 90
        3
176
     1
 90
        0
176
     1
 90
        0
176
     1
290
     0
176
     1
 90
        1
176
     1
 40
0.0
176
     1
 90
        0
176
     1
290
     0
176
     1
290
     1
176
     1
290
     1
176
     1
290
     0
176
     1
290
     0
176
     1
290
     0
176
     1
290
     0
176
     1
290
     0
176
     1
290
     0
176
     1
 90
       50
176
     1
 40
0.0
176
     1
 40
1.0
176
     1
 90
        0
176
     1
 62
   178
420
        0
176
     1
 90
       50
176
     1
 90
        3
176
     1
 62
     5
420
      255
176
     1
290
     0
176
     1
 90
       50
176
     1
 90
       50
176
     1
 90
       50
176
     1
290
     0
176
     1
 90
       50
176
     1
 62
   256
176
     0
 40
1.0
176
     0
 90
        2
176
     1
  1
strokes_ogs.tif
176
     1
290
     0
176
     1
 40
1.0
176
     1
 40
1.0
176
     1
  0
VISUALSTYLE
  5
BB
102
{ACAD_REACTORS
330
B0
102
}
330
B0
100
AcDbVisualStyle
  2
Dim
 70
    11
177
     3
291
     1
 70
    58
 90
        2
176
     1
 90
        2
176
     1
 90
        0
176
     1
 90
        0
176
     1
 40
0.6
176
     1
 40
30.0
176
     1
 62
     7
420
 16777215
176
     1
 90
        1
176
     1
 90
        4
176
     1
 62
     7
176
     1
 62
   257
176
     1
 90
        1
176
     1
 90
        1
176
     1
 40
1.0
176
     1
 90
        8
176
     1
 62
     7
176
     1
 40
1.0
176
     1
 90
        1
176
     1
 90
        6
176
     1
 90
        2
176
     1
 62
     7
176
     1
 90
        5
176
     1
 90
        0
176
     1
 90
        0
176
     1
290
     0
176
     1
 90
        1
176
     1
 40
-50.0
176
     1
 90
        0
176
     1
290
     0
176
     1
290
     1
176
     1
290
     1
176
     1
290
     0
176
     1
290
     0
176
     1
290
     0
176
     1
290
     0
176
     1
290
     0
176
     1
290
     0
176
     1
 90
       50
176
     1
 40
0.0
176
     1
 40
1.0
176
     1
 90
        0
176
     1
 62
   178
420
        0
176
     1
 90
       50
176
     1
 90
        3
176
     1
 62
     5
420
      255
176
     1
290
     0
176
     1
 90
       50
176
     1
 90
       50
176
     1
 90
       50
176
     1
290
     0
176
     1
 90
       50
176
     1
 62
   256
176
     0
 40
1.0
176
     0
 90
        2
176
     1
  1
strokes_ogs.tif
176
     1
290
     0
176
     1
 40
1.0
176
     1
 40
1.0
176
     1
  0
VISUALSTYLE
  5
C3
102
{ACAD_REACTORS
330
B0
102
}
330
B0
100
AcDbVisualStyle
  2
EdgeColorOff
 70
    22
177
     3
291
     1
 70
    58
 90
        2
176
     0
 90
        2
176
     0
 90
        0
176
     0
 90
        0
176
     0
 40
0.6
176
     0
 40
30.0
176
     0
 62
     7
420
 16777215
176
     0
 90
        1
176
     0
 90
        4
176
     0
 62
     7
176
     0
 62
   257
176
     0
 90
        1
176
     0
 90
        1
176
     0
 40
1.0
176
     0
 90
        8
176
     2
 62
     7
176
     0
 40
1.0
176
     0
 90
        1
176
     0
 90
        6
176
     0
 90
        2
176
     0
 62
     7
176
     0
 90
        5
176
     0
 90
        0
176
     0
 90
        0
176
     0
290
     0
176
     0
 90
        1
176
     0
 40
0.0
176
     0
 90
        0
176
     0
290
     0
176
     0
290
     1
176
     0
290
     1
176
     0
290
     0
176
     0
290
     0
176
     0
290
     0
176
     0
290
     0
176
     0
290
     0
176
     0
290
     0
176
     0
 90
       50
176
     0
 40
0.0
176
     0
 40
1.0
176
     0
 90
        0
176
     0
 62
   178
420
        0
176
     0
 90
       50
176
     0
 90
        3
176
     0
 62
     5
420
      255
176
     0
290
     0
176
     0
 90
       50
176
     0
 90
       50
176
     0
 90
       50
176
     0
290
     0
176
     0
 90
       50
176
     0
 62
   256
176
     0
 40
1.0
176
     0
 90
        2
176
     0
  1
strokes_ogs.tif
176
     0
290
     0
176
     0
 40
1.0
176
     0
 40
1.0
176
     0
  0
VISUALSTYLE
  5
BF
102
{ACAD_REACTORS
330
B0
102
}
330
B0
100
AcDbVisualStyle
  2
Facepattern
 70
    15
177
     3
291
     1
 70
    58
 90
        2
176
     1
 90
        2
176
     1
 90
        0
176
     1
 90
        0
176
     1
 40
0.6
176
     1
 40
30.0
176
     1
 62
     7
420
 16777215
176
     1
 90
        1
176
     1
 90
        4
176
     1
 62
     7
176
     1
 62
   257
176
     1
 90
        1
176
     1
 90
        1
176
     1
 40
1.0
176
     1
 90
        8
176
     1
 62
     7
176
     1
 40
1.0
176
     1
 90
        1
176
     1
 90
        6
176
     1
 90
        2
176
     1
 62
     7
176
     1
 90
        5
176
     1
 90
        0
176
     1
 90
        0
176
     1
290
     0
176
     1
 90
        1
176
     1
 40
0.0
176
     1
 90
        0
176
     1
290
     0
176
     1
290
     1
176
     1
290
     1
176
     1
290
     0
176
     1
290
     0
176
     1
290
     0
176
     1
290
     0
176
     1
290
     0
176
     1
290
     0
176
     1
 90
       50
176
     1
 40
0.0
176
     1
 40
1.0
176
     1
 90
        0
176
     1
 62
   178
420
        0
176
     1
 90
       50
176
     1
 90
        3
176
     1
 62
     5
420
      255
176
     1
290
     0
176
     1
 90
       50
176
     1
 90
       50
176
     1
 90
       50
176
     1
290
     0
176
     1
 90
       50
176
     1
 62
   256
176
     0
 40
1.0
176
     0
 90
        2
176
     1
  1
strokes_ogs.tif
176
     1
290
     0
176
     1
 40
1.0
176
     1
 40
1.0
176
     1
  0
VISUALSTYLE
  5
B1
102
{ACAD_REACTORS
330
B0
102
}
330
B0
100
AcDbVisualStyle
  2
Flat
 70
     0
177
     3
291
     1
 70
    58
 90
        2
176
     1
 90
        1
176
     1
 90
        1
176
     1
 90
        2
176
     1
 40
0.6
176
     1
 40
30.0
176
     1
 62
     7
420
 16777215
176
     1
 90
        0
176
     1
 90
        0
176
     1
 62
     7
176
     1
 62
   257
176
     1
 90
        1
176
     1
 90
        1
176
     1
 40
1.0
176
     1
 90
        8
176
     1
 62
     7
176
     1
 40
1.0
176
     1
 90
        1
176
     1
 90
        6
176
     1
 90
        2
176
     1
 62
     7
176
     1
 90
        5
176
     1
 90
        0
176
     1
 90
        0
176
     1
290
     0
176
     1
 90
       13
176
     1
 40
0.0
176
     1
 90
        0
176
     1
290
     0
176
     1
290
     1
176
     1
290
     1
176
     1
290
     0
176
     1
290
     0
176
     1
290
     0
176
     1
290
     0
176
     1
290
     0
176
     1
290
     0
176
     1
 90
       50
176
     1
 40
0.0
176
     1
 40
1.0
176
     1
 90
        0
176
     1
 62
   178
420
        0
176
     1
 90
       50
176
     1
 90
        3
176
     1
 62
     5
420
      255
176
     1
290
     0
176
     1
 90
       50
176
     1
 90
       50
176
     1
 90
       50
176
     1
290
     0
176
     1
 90
       50
176
     1
 62
   256
176
     0
 40
1.0
176
     0
 90
        2
176
     1
  1
strokes_ogs.tif
176
     1
290
     0
176
     1
 40
1.0
176
     1
 40
1.0
176
     1
  0
VISUALSTYLE
  5
B2
102
{ACAD_REACTORS
330
B0
102
}
330
B0
100
AcDbVisualStyle
  2
FlatWithEdges
 70
     1
177
     3
291
     1
 70
    58
 90
        2
176
     1
 90
        1
176
     1
 90
        1
176
     1
 90
        2
176
     1
 40
0.6
176
     1
 40
30.0
176
     1
 62
     7
420
 16777215
176
     1
 90
        1
176
     1
 90
        0
176
     1
 62
     7
176
     1
 62
   257
176
     1
 90
        1
176
     1
 90
        1
176
     1
 40
1.0
176
     1
 90
        0
176
     1
 62
   257
176
     1
 40
1.0
176
     1
 90
        1
176
     1
 90
        6
176
     1
 90
        2
176
     1
 62
     7
176
     1
 90
        5
176
     1
 90
        0
176
     1
 90
        0
176
     1
290
     0
176
     1
 90
       13
176
     1
 40
0.0
176
     1
 90
        0
176
     1
290
     0
176
     1
290
     1
176
     1
290
     1
176
     1
290
     0
176
     1
290
     0
176
     1
290
     0
176
     1
290
     0
176
     1
290
     0
176
     1
290
     0
176
     1
 90
       50
176
     1
 40
0.0
176
     1
 40
1.0
176
     1
 90
        0
176
     1
 62
   178
420
        0
176
     1
 90
       50
176
     1
 90
        3
176
     1
 62
     5
420
      255
176
     1
290
     0
176
     1
 90
       50
176
     1
 90
       50
176
     1
 90
       50
176
     1
290
     0
176
     1
 90
       50
176
     1
 62
   256
176
     0
 40
1.0
176
     0
 90
        2
176
     1
  1
strokes_ogs.tif
176
     1
290
     0
176
     1
 40
1.0
176
     1
 40
1.0
176
     1
  0
VISUALSTYLE
  5
B3
102
{ACAD_REACTORS
330
B0
102
}
330
B0
100
AcDbVisualStyle
  2
Gouraud
 70
     2
177
     3
291
     1
 70
    58
 90
        2
176
     1
 90
        2
176
     1
 90
        1
176
     1
 90
        2
176
     1
 40
0.6
176
     1
 40
30.0
176
     1
 62
     7
420
 16777215
176
     1
 90
        0
176
     1
 90
        0
176
     1
 62
     7
176
     1
 62
   257
176
     1
 90
        1
176
     1
 90
        1
176
     1
 40
1.0
176
     1
 90
        0
176
     1
 62
     7
176
     1
 40
1.0
176
     1
 90
        1
176
     1
 90
        6
176
     1
 90
        2
176
     1
 62
     7
176
     1
 90
        5
176
     1
 90
        0
176
     1
 90
        0
176
     1
290
     0
176
     1
 90
       13
176
     1
 40
0.0
176
     1
 90
        0
176
     1
290
     0
176
     1
290
     1
176
     1
290
     1
176
     1
290
     0
176
     1
290
     0
176
     1
290
     0
176
     1
290
     0
176
     1
290
     0
176
     1
290
     0
176
     1
 90
       50
176
     1
 40
0.0
176
     1
 40
1.0
176
     1
 90
        0
176
     1
 62
   178
420
        0
176
     1
 90
       50
176
     1
 90
        3
176
     1
 62
     5
420
      255
176
     1
290
     0
176
     1
 90
       50
176
     1
 90
       50
176
     1
 90
       50
176
     1
290
     0
176
     1
 90
       50
176
     1
 62
   256
176
     0
 40
1.0
176
     0
 90
        2
176
     1
  1
strokes_ogs.tif
176
     1
290
     0
176
     1
 40
1.0
176
     1
 40
1.0
176
     1
  0
VISUALSTYLE
  5
B4
102
{ACAD_REACTORS
330
B0
102
}
330
B0
100
AcDbVisualStyle
  2
GouraudWithEdges
 70
     3
177
     3
291
     1
 70
    58
 90
        2
176
     1
 90
        2
176
     1
 90
        1
176
     1
 90
        2
176
     1
 40
0.6
176
     1
 40
30.0
176
     1
 62
     7
420
 16777215
176
     1
 90
        1
176
     1
 90
        0
176
     1
 62
     7
176
     1
 62
   257
176
     1
 90
        1
176
     1
 90
        1
176
     1
 40
1.0
176
     1
 90
        0
176
     1
 62
   257
176
     1
 40
1.0
176
     1
 90
        1
176
     1
 90
        6
176
     1
 90
        2
176
     1
 62
     7
176
     1
 90
        5
176
     1
 90
        0
176
     1
 90
        0
176
     1
290
     0
176
     1
 90
       13
176
     1
 40
0.0
176
     1
 90
        0
176
     1
290
     0
176
     1
290
     1
176
     1
290
     1
176
     1
290
     0
176
     1
290
     0
176
     1
290
     0
176
     1
290
     0
176
     1
290
     0
176
     1
290
     0
176
     1
 90
       50
176
     1
 40
0.0
176
     1
 40
1.0
176
     1
 90
        0
176
     1
 62
   178
420
        0
176
     1
 90
       50
176
     1
 90
        3
176
     1
 62
     5
420
      255
176
     1
290
     0
176
     1
 90
       50
176
     1
 90
       50
176
     1
 90
       50
176
     1
290
     0
176
     1
 90
       50
176
     1
 62
   256
176
     0
 40
1.0
176
     0
 90
        2
176
     1
  1
strokes_ogs.tif
176
     1
290
     0
176
     1
 40
1.0
176
     1
 40
1.0
176
     1
  0
VISUALSTYLE
  5
B7
102
{ACAD_REACTORS
330
B0
102
}
330
B0
100
AcDbVisualStyle
  2
Hidden
 70
     6
177
     3
291
     0
 70
    58
 90
        1
176
     1
 90
        2
176
     1
 90
        2
176
     1
 90
        0
176
     1
 40
0.6
176
     1
 40
30.0
176
     1
 62
     7
420
 16777215
176
     1
 90
        2
176
     1
 90
        2
176
     1
 62
     7
176
     1
 62
   257
176
     1
 90
        2
176
     1
 90
        1
176
     1
 40
40.0
176
     1
 90
        0
176
     1
 62
   257
176
     1
 40
1.0
176
     1
 90
        1
176
     1
 90
        6
176
     1
 90
        2
176
     1
 62
     7
176
     1
 90
        3
176
     1
 90
        0
176
     1
 90
        0
176
     1
290
     0
176
     1
 90
        1
176
     1
 40
0.0
176
     1
 90
        0
176
     1
290
     0
176
     1
290
     1
176
     1
290
     1
176
     1
290
     0
176
     1
290
     0
176
     1
290
     0
176
     1
290
     0
176
     1
290
     0
176
     1
290
     0
176
     1
 90
       50
176
     1
 40
0.0
176
     1
 40
1.0
176
     1
 90
        0
176
     1
 62
   178
420
        0
176
     1
 90
       50
176
     1
 90
        3
176
     1
 62
     5
420
      255
176
     1
290
     0
176
     1
 90
       50
176
     1
 90
       50
176
     1
 90
       50
176
     1
290
     0
176
     1
 90
       50
176
     1
 62
   256
176
     0
 40
1.0
176
     0
 90
        2
176
     1
  1
strokes_ogs.tif
176
     1
290
     0
176
     1
 40
1.0
176
     1
 40
1.0
176
     1
  0
VISUALSTYLE
  5
C1
102
{ACAD_REACTORS
330
B0
102
}
330
B0
100
AcDbVisualStyle
  2
JitterOff
 70
    20
177
     3
291
     1
 70
    58
 90
        2
176
     0
 90
        2
176
     0
 90
        0
176
     0
 90
        0
176
     0
 40
0.6
176
     0
 40
30.0
176
     0
 62
     7
420
 16777215
176
     0
 90
        1
176
     0
 90
        4
176
     0
 62
     7
176
     0
 62
   257
176
     0
 90
        1
176
     0
 90
        1
176
     0
 40
1.0
176
     0
 90
       10
176
     2
 62
     7
176
     0
 40
1.0
176
     0
 90
        1
176
     0
 90
        6
176
     0
 90
        2
176
     0
 62
     7
176
     0
 90
        5
176
     0
 90
        0
176
     0
 90
        0
176
     0
290
     0
176
     0
 90
        1
176
     0
 40
0.0
176
     0
 90
        0
176
     0
290
     0
176
     0
290
     1
176
     0
290
     1
176
     0
290
     0
176
     0
290
     0
176
     0
290
     0
176
     0
290
     0
176
     0
290
     0
176
     0
290
     0
176
     0
 90
       50
176
     0
 40
0.0
176
     0
 40
1.0
176
     0
 90
        0
176
     0
 62
   178
420
        0
176
     0
 90
       50
176
     0
 90
        3
176
     0
 62
     5
420
      255
176
     0
290
     0
176
     0
 90
       50
176
     0
 90
       50
176
     0
 90
       50
176
     0
290
     0
176
     0
 90
       50
176
     0
 62
   256
176
     0
 40
1.0
176
     0
 90
        2
176
     0
  1
strokes_ogs.tif
176
     0
290
     0
176
     0
 40
1.0
176
     0
 40
1.0
176
     0
  0
VISUALSTYLE
  5
BE
102
{ACAD_REACTORS
330
B0
102
}
330
B0
100
AcDbVisualStyle
  2
Linepattern
 70
    14
177
     3
291
     1
 70
    58
 90
        2
176
     1
 90
        2
176
     1
 90
        0
176
     1
 90
        0
176
     1
 40
0.6
176
     1
 40
30.0
176
     1
 62
     7
420
 16777215
176
     1
 90
        1
176
     1
 90
        4
176
     1
 62
     7
176
     1
 62
   257
176
     1
 90
        7
176
     1
 90
        7
176
     1
 40
1.0
176
     1
 90
        8
176
     1
 62
     7
176
     1
 40
1.0
176
     1
 90
        1
176
     1
 90
        6
176
     1
 90
        2
176
     1
 62
     7
176
     1
 90
        5
176
     1
 90
        0
176
     1
 90
        0
176
     1
290
     0
176
     1
 90
        1
176
     1
 40
0.0
176
     1
 90
        0
176
     1
290
     0
176
     1
290
     1
176
     1
290
     1
176
     1
290
     0
176
     1
290
     0
176
     1
290
     0
176
     1
290
     0
176
     1
290
     0
176
     1
290
     0
176
     1
 90
       50
176
     1
 40
0.0
176
     1
 40
1.0
176
     1
 90
        0
176
     1
 62
   178
420
        0
176
     1
 90
       50
176
     1
 90
        3
176
     1
 62
     5
420
      255
176
     1
290
     0
176
     1
 90
       50
176
     1
 90
       50
176
     1
 90
       50
176
     1
290
     0
176
     1
 90
       50
176
     1
 62
   256
176
     0
 40
1.0
176
     0
 90
        2
176
     1
  1
strokes_ogs.tif
176
     1
290
     0
176
     1
 40
1.0
176
     1
 40
1.0
176
     1
  0
VISUALSTYLE
  5
C2
102
{ACAD_REACTORS
330
B0
102
}
330
B0
100
AcDbVisualStyle
  2
OverhangOff
 70
    21
177
     3
291
     1
 70
    58
 90
        2
176
     0
 90
        2
176
     0
 90
        0
176
     0
 90
        0
176
     0
 40
0.6
176
     0
 40
30.0
176
     0
 62
     7
420
 16777215
176
     0
 90
        1
176
     0
 90
        4
176
     0
 62
     7
176
     0
 62
   257
176
     0
 90
        1
176
     0
 90
        1
176
     0
 40
1.0
176
     0
 90
        9
176
     2
 62
     7
176
     0
 40
1.0
176
     0
 90
        1
176
     0
 90
        6
176
     0
 90
        2
176
     0
 62
     7
176
     0
 90
        5
176
     0
 90
        0
176
     0
 90
        0
176
     0
290
     0
176
     0
 90
        1
176
     0
 40
0.0
176
     0
 90
        0
176
     0
290
     0
176
     0
290
     1
176
     0
290
     1
176
     0
290
     0
176
     0
290
     0
176
     0
290
     0
176
     0
290
     0
176
     0
290
     0
176
     0
290
     0
176
     0
 90
       50
176
     0
 40
0.0
176
     0
 40
1.0
176
     0
 90
        0
176
     0
 62
   178
420
        0
176
     0
 90
       50
176
     0
 90
        3
176
     0
 62
     5
420
      255
176
     0
290
     0
176
     0
 90
       50
176
     0
 90
       50
176
     0
 90
       50
176
     0
290
     0
176
     0
 90
       50
176
     0
 62
   256
176
     0
 40
1.0
176
     0
 90
        2
176
     0
  1
strokes_ogs.tif
176
     0
290
     0
176
     0
 40
1.0
176
     0
 40
1.0
176
     0
  0
VISUALSTYLE
  5
B9
102
{ACAD_REACTORS
330
B0
102
}
330
B0
100
AcDbVisualStyle
  2
Realistic
 70
     8
177
     3
291
     0
 70
    58
 90
        2
176
     1
 90
        3
176
     1
 90
        0
176
     1
 90
        2
176
     1
 40
0.6
176
     1
 40
30.0
176
     1
 62
     7
420
 16777215
176
     1
 90
        0
176
     1
 90
        0
176
     1
 62
     7
176
     1
 62
   257
176
     1
 90
        1
176
     1
 90
        1
176
     1
 40
1.0
176
     1
 90
        8
176
     1
 62
   257
176
     1
 40
1.0
176
     1
 90
        1
176
     1
 90
        6
176
     1
 90
        2
176
     1
 62
     7
176
     1
 90
        3
176
     1
 90
        0
176
     1
 90
        0
176
     1
290
     0
176
     1
 90
       13
176
     1
 40
0.0
176
     1
 90
        0
176
     1
290
     0
176
     1
290
     1
176
     1
290
     1
176
     1
290
     0
176
     1
290
     0
176
     1
290
     0
176
     1
290
     0
176
     1
290
     0
176
     1
290
     0
176
     1
 90
       50
176
     1
 40
0.0
176
     1
 40
1.0
176
     1
 90
        0
176
     1
 62
   178
420
        0
176
     1
 90
       50
176
     1
 90
        3
176
     1
 62
     5
420
      255
176
     1
290
     0
176
     1
 90
       50
176
     1
 90
       50
176
     1
 90
       50
176
     1
290
     0
176
     1
 90
       50
176
     1
 62
   256
176
     0
 40
1.0
176
     0
 90
        2
176
     1
  1
strokes_ogs.tif
176
     1
290
     0
176
     1
 40
1.0
176
     1
 40
1.0
176
     1
  0
VISUALSTYLE
  5
C8
102
{ACAD_REACTORS
330
B0
102
}
330
B0
100
AcDbVisualStyle
  2
Shaded
 70
    27
177
     3
291
     0
 70
    58
 90
        2
176
     1
 90
        2
176
     1
 90
        1
176
     1
 90
        2
176
     1
 40
0.6
176
     1
 40
30.0
176
     1
 62
     7
420
 16777215
176
     1
 90
        0
176
     1
 90
        4
176
     1
 62
     7
176
     1
 62
   257
176
     1
 90
        1
176
     1
 90
        1
176
     1
 40
1.0
176
     1
 90
        8
176
     1
 62
   257
176
     1
 40
1.0
176
     1
 90
        1
176
     1
 90
        6
176
     1
 90
        2
176
     1
 62
     8
420
  7895160
176
     1
 90
        3
176
     1
 90
        0
176
     1
 90
        0
176
     1
290
     0
176
     1
 90
        5
176
     1
 40
0.0
176
     1
 90
        0
176
     1
290
     0
176
     1
290
     1
176
     1
290
     1
176
     1
290
     0
176
     1
290
     0
176
     1
290
     0
176
     1
290
     0
176
     1
290
     0
176
     1
290
     0
176
     1
 90
       50
176
     1
 40
0.0
176
     1
 40
1.0
176
     1
 90
        0
176
     1
 62
   178
420
        0
176
     1
 90
       50
176
     1
 90
        3
176
     1
 62
     5
420
      255
176
     1
290
     0
176
     1
 90
       50
176
     1
 90
       50
176
     1
 90
       50
176
     1
290
     0
176
     1
 90
       50
176
     1
 62
   256
176
     0
 40
1.0
176
     0
 90
        2
176
     1
  1
strokes_ogs.tif
176
     1
290
     0
176
     1
 40
1.0
176
     1
 40
1.0
176
     1
  0
VISUALSTYLE
  5
C7
102
{ACAD_REACTORS
330
B0
102
}
330
B0
100
AcDbVisualStyle
  2
Shaded with edges
 70
    26
177
     3
291
     0
 70
    58
 90
        2
176
     1
 90
        2
176
     1
 90
        1
176
     1
 90
        2
176
     1
 40
0.6
176
     1
 40
30.0
176
     1
 62
     7
420
 16777215
176
     1
 90
        1
176
     1
 90
       10
176
     1
 62
     7
176
     1
 62
   257
176
     1
 90
        2
176
     1
 90
        1
176
     1
 40
1.0
176
     1
 90
        8
176
     1
 62
   257
176
     1
 40
1.0
176
     1
 90
        1
176
     1
 90
        6
176
     1
 90
        2
176
     1
 62
     7
176
     1
 90
        3
176
     1
 90
        0
176
     1
 90
        0
176
     1
290
     0
176
     1
 90
        5
176
     1
 40
0.0
176
     1
 90
        0
176
     1
290
     0
176
     1
290
     1
176
     1
290
     1
176
     1
290
     0
176
     1
290
     0
176
     1
290
     0
176
     1
290
     0
176
     1
290
     0
176
     1
290
     0
176
     1
 90
       50
176
     1
 40
0.0
176
     1
 40
1.0
176
     1
 90
        0
176
     1
 62
   178
420
        0
176
     1
 90
       50
176
     1
 90
        3
176
     1
 62
     5
420
      255
176
     1
290
     0
176
     1
 90
       50
176
     1
 90
       50
176
     1
 90
       50
176
     1
290
     0
176
     1
 90
       50
176
     1
 62
   256
176
     0
 40
1.0
176
     0
 90
        2
176
     1
  1
strokes_ogs.tif
176
     1
290
     0
176
     1
 40
1.0
176
     1
 40
1.0
176
     1
  0
VISUALSTYLE
  5
C4
102
{ACAD_REACTORS
330
B0
102
}
330
B0
100
AcDbVisualStyle
  2
Shades of Gray
 70
    23
177
     3
291
     0
 70
    58
 90
        2
176
     1
 90
        2
176
     1
 90
        3
176
     1
 90
        0
176
     1
 40
0.6
176
     1
 40
30.0
176
     1
 62
     7
420
 16777215
176
     1
 90
        2
176
     1
 90
        2
176
     1
 62
     7
176
     1
 62
     7
176
     1
 90
        1
176
     1
 90
        1
176
     1
 40
40.0
176
     1
 90
        8
176
     1
 62
     7
176
     1
 40
1.0
176
     1
 90
        1
176
     1
 90
        6
176
     1
 90
        2
176
     1
 62
     7
176
     1
 90
        3
176
     1
 90
        0
176
     1
 90
        0
176
     1
290
     0
176
     1
 90
        1
176
     1
 40
0.0
176
     1
 90
        0
176
     1
290
     0
176
     1
290
     1
176
     1
290
     1
176
     1
290
     0
176
     1
290
     0
176
     1
290
     0
176
     1
290
     0
176
     1
290
     0
176
     1
290
     0
176
     1
 90
       50
176
     1
 40
0.0
176
     1
 40
1.0
176
     1
 90
        0
176
     1
 62
   178
420
        0
176
     1
 90
       50
176
     1
 90
        3
176
     1
 62
     5
420
      255
176
     1
290
     0
176
     1
 90
       50
176
     1
 90
       50
176
     1
 90
       50
176
     1
290
     0
176
     1
 90
       50
176
     1
 62
   256
176
     0
 40
1.0
176
     0
 90
        2
176
     1
  1
strokes_ogs.tif
176
     1
290
     0
176
     1
 40
1.0
176
     1
 40
1.0
176
     1
  0
VISUALSTYLE
  5
C5
102
{ACAD_REACTORS
330
B0
102
}
330
B0
100
AcDbVisualStyle
  2
Sketchy
 70
    24
177
     3
291
     0
 70
    58
 90
        1
176
     1
 90
        2
176
     1
 90
        2
176
     1
 90
        0
176
     1
 40
0.6
176
     1
 40
30.0
176
     1
 62
     7
420
 16777215
176
     1
 90
        2
176
     1
 90
        2
176
     1
 62
     7
176
     1
 62
     7
176
     1
 90
        1
176
     1
 90
        1
176
     1
 40
40.0
176
     1
 90
       11
176
     1
 62
     7
176
     1
 40
1.0
176
     1
 90
        1
176
     1
 90
        6
176
     1
 90
        2
176
     1
 62
     7
176
     1
 90
        6
176
     1
 90
        0
176
     1
 90
        0
176
     1
290
     0
176
     1
 90
        1
176
     1
 40
0.0
176
     1
 90
        0
176
     1
290
     0
176
     1
290
     1
176
     1
290
     1
176
     1
290
     0
176
     1
290
     0
176
     1
290
     0
176
     1
290
     0
176
     1
290
     0
176
     1
290
     0
176
     1
 90
       50
176
     1
 40
0.0
176
     1
 40
1.0
176
     1
 90
        0
176
     1
 62
   178
420
        0
176
     1
 90
       50
176
     1
 90
        3
176
     1
 62
     5
420
      255
176
     1
290
     0
176
     1
 90
       50
176
     1
 90
       50
176
     1
 90
       50
176
     1
290
     0
176
     1
 90
       50
176
     1
 62
   256
176
     0
 40
1.0
176
     0
 90
        2
176
     1
  1
strokes_ogs.tif
176
     1
290
     0
176
     1
 40
1.0
176
     1
 40
1.0
176
     1
  0
VISUALSTYLE
  5
BD
102
{ACAD_REACTORS
330
B0
102
}
330
B0
100
AcDbVisualStyle
  2
Thicken
 70
    13
177
     3
291
     1
 70
    58
 90
        2
176
     1
 90
        2
176
     1
 90
        0
176
     1
 90
        0
176
     1
 40
0.6
176
     1
 40
30.0
176
     1
 62
     7
420
 16777215
176
     1
 90
        1
176
     1
 90
        4
176
     1
 62
     7
176
     1
 62
   257
176
     1
 90
        1
176
     1
 90
        1
176
     1
 40
1.0
176
     1
 90
       12
176
     1
 62
     7
176
     1
 40
1.0
176
     1
 90
        1
176
     1
 90
        6
176
     1
 90
        2
176
     1
 62
     7
176
     1
 90
        5
176
     1
 90
        0
176
     1
 90
        0
176
     1
290
     0
176
     1
 90
        1
176
     1
 40
0.0
176
     1
 90
        0
176
     1
290
     0
176
     1
290
     1
176
     1
290
     1
176
     1
290
     0
176
     1
290
     0
176
     1
290
     0
176
     1
290
     0
176
     1
290
     0
176
     1
290
     0
176
     1
 90
       50
176
     1
 40
0.0
176
     1
 40
1.0
176
     1
 90
        0
176
     1
 62
   178
420
        0
176
     1
 90
       50
176
     1
 90
        3
176
     1
 62
     5
420
      255
176
     1
290
     0
176
     1
 90
       50
176
     1
 90
       50
176
     1
 90
       50
176
     1
290
     0
176
     1
 90
       50
176
     1
 62
   256
176
     0
 40
1.0
176
     0
 90
        2
176
     1
  1
strokes_ogs.tif
176
     1
290
     0
176
     1
 40
1.0
176
     1
 40
1.0
176
     1
  0
VISUALSTYLE
  5
B6
102
{ACAD_REACTORS
330
B0
102
}
330
B0
100
AcDbVisualStyle
  2
Wireframe
 70
     5
177
     3
291
     0
 70
    58
 90
        0
176
     1
 90
        2
176
     1
 90
        0
176
     1
 90
        0
176
     1
 40
0.6
176
     1
 40
30.0
176
     1
 62
     7
420
 16777215
176
     1
 90
        1
176
     1
 90
        4
176
     1
 62
     7
176
     1
 62
   257
176
     1
 90
        1
176
     1
 90
        1
176
     1
 40
1.0
176
     1
 90
        0
176
     1
 62
   257
176
     1
 40
1.0
176
     1
 90
        1
176
     1
 90
        6
176
     1
 90
        2
176
     1
 62
     7
176
     1
 90
        3
176
     1
 90
        0
176
     1
 90
        0
176
     1
290
     0
176
     1
 90
        1
176
     1
 40
0.0
176
     1
 90
        0
176
     1
290
     0
176
     1
290
     1
176
     1
290
     1
176
     1
290
     0
176
     1
290
     0
176
     1
290
     0
176
     1
290
     0
176
     1
290
     0
176
     1
290
     0
176
     1
 90
       50
176
     1
 40
0.0
176
     1
 40
1.0
176
     1
 90
        0
176
     1
 62
   178
420
        0
176
     1
 90
       50
176
     1
 90
        3
176
     1
 62
     5
420
      255
176
     1
290
     0
176
     1
 90
       50
176
     1
 90
       50
176
     1
 90
       50
176
     1
290
     0
176
     1
 90
       50
176
     1
 62
   256
176
     0
 40
1.0
176
     0
 90
        2
176
     1
  1
strokes_ogs.tif
176
     1
290
     0
176
     1
 40
1.0
176
     1
 40
1.0
176
     1
  0
VISUALSTYLE
  5
C6
102
{ACAD_REACTORS
330
B0
102
}
330
B0
100
AcDbVisualStyle
  2
X-Ray
 70
    25
177
     3
291
     0
 70
    58
 90
        2
176
     1
 90
        2
176
     1
 90
        1
176
     1
 90
        1
176
     1
 40
0.5
176
     1
 40
30.0
176
     1
 62
     7
420
 16777215
176
     1
 90
        1
176
     1
 90
        0
176
     1
 62
     7
176
     1
 62
   257
176
     1
 90
        1
176
     1
 90
        1
176
     1
 40
1.0
176
     1
 90
        8
176
     1
 62
     7
176
     1
 40
1.0
176
     1
 90
        1
176
     1
 90
        6
176
     1
 90
        2
176
     1
 62
     7
176
     1
 90
        3
176
     1
 90
        0
176
     1
 90
        0
176
     1
290
     0
176
     1
 90
       13
176
     1
 40
0.0
176
     1
 90
        0
176
     1
290
     0
176
     1
290
     1
176
     1
290
     1
176
     1
290
     0
176
     1
290
     0
176
     1
290
     0
176
     1
290
     0
176
     1
290
     0
176
     1
290
     0
176
     1
 90
       50
176
     1
 40
0.0
176
     1
 40
1.0
176
     1
 90
        0
176
     1
 62
   178
420
        0
176
     1
 90
       50
176
     1
 90
        3
176
     1
 62
     5
420
      255
176
     1
290
     0
176
     1
 90
       50
176
     1
 90
       50
176
     1
 90
       50
176
     1
290
     0
176
     1
 90
       50
176
     1
 62
   256
176
     0
 40
1.0
176
     0
 90
        2
176
     1
  1
strokes_ogs.tif
176
     1
290
     0
176
     1
 40
1.0
176
     1
 40
1.0
176
     1
  0
DICTIONARYVAR
  5
167
102
{ACAD_REACTORS
330
166
102
}
330
166
100
DictionaryVariables
280
     0
  1
1:1
  0
DICTIONARYVAR
  5
16C
102
{ACAD_REACTORS
330
166
102
}
330
166
100
DictionaryVariables
280
     0
  1
Standard
  0
DICTIONARYVAR
  5
16B
102
{ACAD_REACTORS
330
166
102
}
330
166
100
DictionaryVariables
280
     0
  1
Standard
  0
XRECORD
  5
F7
102
{ACAD_REACTORS
330
F5
102
}
330
F5
100
AcDbXrecord
280
     1
1000
#ffffff
  0
XRECORD
  5
F8
102
{ACAD_REACTORS
330
F5
102
}
330
F5
100
AcDbXrecord
280
     1
1000
FullColor
  0
XRECORD
  5
F9
102
{ACAD_REACTORS
330
F5
102
}
330
F5
100
AcDbXrecord
280
     1
290
     1
  0
XRECORD
  5
FA
102
{ACAD_REACTORS
330
F5
102
}
330
F5
100
AcDbXrecord
280
     1
290
     1
  0
XRECORD
  5
FB
102
{ACAD_REACTORS
330
F5
102
}
330
F5
100
AcDbXrecord
280
     1
290
     1
  0
XRECORD
  5
FC
102
{ACAD_REACTORS
330
F5
102
}
330
F5
100
AcDbXrecord
280
     1
290
     1
  0
XRECORD
  5
FD
102
{ACAD_REACTORS
330
F5
102
}
330
F5
100
AcDbXrecord
280
     1
1000
auto
  0
XRECORD
  5
FE
102
{ACAD_REACTORS
330
F5
102
}
330
F5
100
AcDbXrecord
280
     1
1000
auto
  0
XRECORD
  5
FF
102
{ACAD_REACTORS
330
F5
102
}
330
F5
100
AcDbXrecord
280
     1
1000
auto
  0
XRECORD
  5
100
102
{ACAD_REACTORS
330
F5
102
}
330
F5
100
AcDbXrecord
280
     1
1000
auto
  0
XRECORD
  5
101
102
{ACAD_REACTORS
330
F5
102
}
330
F5
100
AcDbXrecord
280
     1
1000
auto
  0
XRECORD
  5
102
102
{ACAD_REACTORS
330
F5
102
}
330
F5
100
AcDbXrecord
280
     1
1000
auto
  0
XRECORD
  5
103
102
{ACAD_REACTORS
330
F5
102
}
330
F5
100
AcDbXrecord
280
     1
1000
auto
  0
XRECORD
  5
104
102
{ACAD_REACTORS
330
F5
102
}
330
F5
100
AcDbXrecord
280
     1
1000
auto
  0
XRECORD
  5
105
102
{ACAD_REACTORS
330
F5
102
}
330
F5
100
AcDbXrecord
280
     1
290
     0
  0
XRECORD
  5
106
102
{ACAD_REACTORS
330
F5
102
}
330
F5
100
AcDbXrecord
280
     1
290
     0
  0
XRECORD
  5
107
102
{ACAD_REACTORS
330
F5
102
}
330
F5
100
AcDbXrecord
280
     1
290
     0
  0
XRECORD
  5
108
102
{ACAD_REACTORS
330
F5
102
}
330
F5
100
AcDbXrecord
280
     1
290
     0
  0
XRECORD
  5
109
102
{ACAD_REACTORS
330
F5
102
}
330
F5
100
AcDbXrecord
280
     1
 90
    65537
  0
XRECORD
  5
10A
102
{ACAD_REACTORS
330
F5
102
}
330
F5
100
AcDbXrecord
280
     1
 90
    65537
  0
XRECORD
  5
10B
102
{ACAD_REACTORS
330
F5
102
}
330
F5
100
AcDbXrecord
280
     1
 90
    65537
  0
XRECORD
  5
10C
102
{ACAD_REACTORS
330
F5
102
}
330
F5
100
AcDbXrecord
280
     1
 90
    65537
  0
XRECORD
  5
10D
102
{ACAD_REACTORS
330
F5
102
}
330
F5
100
AcDbXrecord
280
     1
1000
auto
  0
XRECORD
  5
10E
102
{ACAD_REACTORS
330
F5
102
}
330
F5
100
AcDbXrecord
280
     1
1000
auto
  0
XRECORD
  5
10F
102
{ACAD_REACTORS
330
F5
102
}
330
F5
100
AcDbXrecord
280
     1
1000
auto
  0
XRECORD
  5
110
102
{ACAD_REACTORS
330
F5
102
}
330
F5
100
AcDbXrecord
280
     1
1000
auto
  0
XRECORD
  5
111
102
{ACAD_REACTORS
330
F5
102
}
330
F5
100
AcDbXrecord
280
     1
1000
auto
  0
XRECORD
  5
112
102
{ACAD_REACTORS
330
F5
102
}
330
F5
100
AcDbXrecord
280
     1
1000
auto
  0
XRECORD
  5
113
102
{ACAD_REACTORS
330
F5
102
}
330
F5
100
AcDbXrecord
280
     1
1000
auto
  0
XRECORD
  5
114
102
{ACAD_REACTORS
330
F5
102
}
330
F5
100
AcDbXrecord
280
     1
1000
auto
  0
XRECORD
  5
115
102
{ACAD_REACTORS
330
F5
102
}
330
F5
100
AcDbXrecord
280
     1
 90
        1
  0
XRECORD
  5
116
102
{ACAD_REACTORS
330
F5
102
}
330
F5
100
AcDbXrecord
280
     1
 40
10.0
  0
XRECORD
  5
117
102
{ACAD_REACTORS
330
F5
102
}
330
F5
100
AcDbXrecord
280
     1
 40
10.0
  0
XRECORD
  5
118
102
{ACAD_REACTORS
330
F5
102
}
330
F5
100
AcDbXrecord
280
     1
 40
10.0
  0
XRECORD
  5
119
102
{ACAD_REACTORS
330
F5
102
}
330
F5
100
AcDbXrecord
280
     1
 40
10.0
  0
XRECORD
  5
11A
102
{ACAD_REACTORS
330
F5
102
}
330
F5
100
AcDbXrecord
280
     1
290
     0
  0
XRECORD
  5
11B
102
{ACAD_REACTORS
330
F5
102
}
330
F5
100
AcDbXrecord
280
     1
 90
        1
  0
XRECORD
  5
11C
102
{ACAD_REACTORS
330
F5
102
}
330
F5
100
AcDbXrecord
280
     1
 40
0.0
  0
XRECORD
  5
11D
102
{ACAD_REACTORS
330
F5
102
}
330
F5
100
AcDbXrecord
280
     1
 40
0.0
  0
XRECORD
  5
11E
102
{ACAD_REACTORS
330
F5
102
}
330
F5
100
AcDbXrecord
280
     1
1000
Portrait
  0
XRECORD
  5
11F
102
{ACAD_REACTORS
330
F5
102
}
330
F5
100
AcDbXrecord
280
     1
 40
297.0
  0
XRECORD
  5
120
102
{ACAD_REACTORS
330
F5
102
}
330
F5
100
AcDbXrecord
280
     1
 40
210.0
  0
XRECORD
  5
121
102
{ACAD_REACTORS
330
F5
102
}
330
F5
100
AcDbXrecord
280
     1
1000
1:1
  0
XRECORD
  5
122
102
{ACAD_REACTORS
330
F5
102
}
330
F5
100
AcDbXrecord
280
     1
290
     1
  0
XRECORD
  5
F6
102
{ACAD_REACTORS
330
F5
102
}
330
F5
100
AcDbXrecord
280
     1
1000
3.22.0
  0
XRECORD
  5
123
102
{ACAD_REACTORS
330
F5
102
}
330
F5
100
AcDbXrecord
280
     1
 90
        4
  0
XRECORD
  5
124
102
{ACAD_REACTORS
330
F5
102
}
330
F5
100
AcDbXrecord
280
     1
  0
XRECORD
  5
125
102
{ACAD_REACTORS
330
F5
102
}
330
F5
100
AcDbXrecord
280
     1
 40
279.2473126502398
  0
XRECORD
  5
126
102
{ACAD_REACTORS
330
F5
102
}
330
F5
100
AcDbXrecord
280
     1
 40
576.4506609254396
  0
DICTIONARY
  5
168
330
F0
100
AcDbDictionary
280
     1
281
     1
  3
ACAD_ROUNDTRIP_2008_TABLESTYLE_CELLSTYLEMAP
360
169
  0
CELLSTYLEMAP
  5
169
102
{ACAD_REACTORS
330
168
102
}
330
168
100
AcDbCellStyleMap
 90
        3
300
CELLSTYLE
  1
TABLEFORMAT_BEGIN
 90
        5
170
     1
 91
        0
 92
    32768
 62
   257
 93
        1
300
CONTENTFORMAT
  1
CONTENTFORMAT_BEGIN
 90
        0
 91
        0
 92
        4
 93
        0
300

 40
0.0
140
1.0
 94
        5
 62
     0
340
98
144
0.25
309
CONTENTFORMAT_END
171
     1
301
MARGIN
  1
CELLMARGIN_BEGIN
 40
0.06
 40
0.06
 40
0.06
 40
0.06
 40
0.06
 40
0.06
309
CELLMARGIN_END
 94
        6
 95
        1
302
GRIDFORMAT
  1
GRIDFORMAT_BEGIN
 90
        0
 91
        1
 62
     0
 92
       -2
340
9A
 93
        0
 40
0.045
309
GRIDFORMAT_END
 95
        2
302
GRIDFORMAT
  1
GRIDFORMAT_BEGIN
 90
        0
 91
        1
 62
     0
 92
       -2
340
9A
 93
        0
 40
0.045
309
GRIDFORMAT_END
 95
        4
302
GRIDFORMAT
  1
GRIDFORMAT_BEGIN
 90
        0
 91
        1
 62
     0
 92
       -2
340
9A
 93
        0
 40
0.045
309
GRIDFORMAT_END
 95
        8
302
GRIDFORMAT
  1
GRIDFORMAT_BEGIN
 90
        0
 91
        1
 62
     0
 92
       -2
340
9A
 93
        0
 40
0.045
309
GRIDFORMAT_END
 95
       16
302
GRIDFORMAT
  1
GRIDFORMAT_BEGIN
 90
        0
 91
        1
 62
     0
 92
       -2
340
9A
 93
        0
 40
0.045
309
GRIDFORMAT_END
 95
       32
302
GRIDFORMAT
  1
GRIDFORMAT_BEGIN
 90
        0
 91
        1
 62
     0
 92
       -2
340
9A
 93
        0
 40
0.045
309
GRIDFORMAT_END
309
TABLEFORMAT_END
  1
CELLSTYLE_BEGIN
 90
        1
 91
        1
300
_TITLE
309
CELLSTYLE_END
300
CELLSTYLE
  1
TABLEFORMAT_BEGIN
 90
        5
170
     1
 91
        0
 92
        0
 62
   257
 93
        1
300
CONTENTFORMAT
  1
CONTENTFORMAT_BEGIN
 90
        0
 91
        0
 92
        4
 93
        0
300

 40
0.0
140
1.0
 94
        5
 62
     0
340
98
144
0.18
309
CONTENTFORMAT_END
171
     1
301
MARGIN
  1
CELLMARGIN_BEGIN
 40
0.06
 40
0.06
 40
0.06
 40
0.06
 40
0.06
 40
0.06
309
CELLMARGIN_END
 94
        6
 95
        1
302
GRIDFORMAT
  1
GRIDFORMAT_BEGIN
 90
        0
 91
        1
 62
     0
 92
       -2
340
9A
 93
        0
 40
0.045
309
GRIDFORMAT_END
 95
        2
302
GRIDFORMAT
  1
GRIDFORMAT_BEGIN
 90
        0
 91
        1
 62
     0
 92
       -2
340
9A
 93
        0
 40
0.045
309
GRIDFORMAT_END
 95
        4
302
GRIDFORMAT
  1
GRIDFORMAT_BEGIN
 90
        0
 91
        1
 62
     0
 92
       -2
340
9A
 93
        0
 40
0.045
309
GRIDFORMAT_END
 95
        8
302
GRIDFORMAT
  1
GRIDFORMAT_BEGIN
 90
        0
 91
        1
 62
     0
 92
       -2
340
9A
 93
        0
 40
0.045
309
GRIDFORMAT_END
 95
       16
302
GRIDFORMAT
  1
GRIDFORMAT_BEGIN
 90
        0
 91
        1
 62
     0
 92
       -2
340
9A
 93
        0
 40
0.045
309
GRIDFORMAT_END
 95
       32
302
GRIDFORMAT
  1
GRIDFORMAT_BEGIN
 90
        0
 91
        1
 62
     0
 92
       -2
340
9A
 93
        0
 40
0.045
309
GRIDFORMAT_END
309
TABLEFORMAT_END
  1
CELLSTYLE_BEGIN
 90
        2
 91
        1
300
_HEADER
309
CELLSTYLE_END
300
CELLSTYLE
  1
TABLEFORMAT_BEGIN
 90
        5
170
     1
 91
        0
 92
        0
 62
   257
 93
        1
300
CONTENTFORMAT
  1
CONTENTFORMAT_BEGIN
 90
        0
 91
        0
 92
        4
 93
        0
300

 40
0.0
140
1.0
 94
        2
 62
     0
340
98
144
0.18
309
CONTENTFORMAT_END
171
     1
301
MARGIN
  1
CELLMARGIN_BEGIN
 40
0.06
 40
0.06
 40
0.06
 40
0.06
 40
0.06
 40
0.06
309
CELLMARGIN_END
 94
        6
 95
        1
302
GRIDFORMAT
  1
GRIDFORMAT_BEGIN
 90
        0
 91
        1
 62
     0
 92
       -2
340
9A
 93
        0
 40
0.045
309
GRIDFORMAT_END
 95
        2
302
GRIDFORMAT
  1
GRIDFORMAT_BEGIN
 90
        0
 91
        1
 62
     0
 92
       -2
340
9A
 93
        0
 40
0.045
309
GRIDFORMAT_END
 95
        4
302
GRIDFORMAT
  1
GRIDFORMAT_BEGIN
 90
        0
 91
        1
 62
     0
 92
       -2
340
9A
 93
        0
 40
0.045
309
GRIDFORMAT_END
 95
        8
302
GRIDFORMAT
  1
GRIDFORMAT_BEGIN
 90
        0
 91
        1
 62
     0
 92
       -2
340
9A
 93
        0
 40
0.045
309
GRIDFORMAT_END
 95
       16
302
GRIDFORMAT
  1
GRIDFORMAT_BEGIN
 90
        0
 91
        1
 62
     0
 92
       -2
340
9A
 93
        0
 40
0.045
309
GRIDFORMAT_END
 95
       32
302
GRIDFORMAT
  1
GRIDFORMAT_BEGIN
 90
        0
 91
        1
 62
     0
 92
       -2
340
9A
 93
        0
 40
0.045
309
GRIDFORMAT_END
309
TABLEFORMAT_END
  1
CELLSTYLE_BEGIN
 90
        3
 91
        2
300
_DATA
309
CELLSTYLE_END
  0
ENDSEC
  0
EOF
