0
SECTION
2
HEADER
9
$INSUNITS
70
4
9
$ACADVER
1
AC1014
9
$HANDSEED
5
FFFF
0
ENDSEC
0
SECTION
2
TABLES
0
TABLE
2
VPORT
5
8
100
AcDbSymbolTable
0
ENDTAB
0
TABLE
2
LTYPE
5
5
100
AcDbSymbolTable
0
LTYPE
5
14
100
AcDbSymbolTableRecord
100
AcDbLinetypeTableRecord
2
BYBLOCK
70
0
0
LTYPE
5
15
100
AcDbSymbolTableRecord
100
AcDbLinetypeTableRecord
2
BYLAYER
70
0
0
ENDTAB
0
TABLE
2
LAYER
5
2
100
AcDbSymbolTable
70
2
0
LAYER
5
50
100
AcDbSymbolTableRecord
100
AcDbLayerTableRecord
2
0
70
0
6
CONTINUOUS
0
ENDTAB
0
TABLE
2
STYLE
5
3
100
AcDbSymbolTable
70
1
0
STYLE
5
11
100
AcDbSymbolTableRecord
100
AcDbTextStyleTableRecord
2
STANDARD
70
0
0
ENDTAB
0
TABLE
2
VIEW
5
6
100
AcDbSymbolTable
70
0
0
ENDTAB
0
TABLE
2
UCS
5
7
100
AcDbSymbolTable
70
0
0
ENDTAB
0
TABLE
2
APPID
5
9
100
AcDbSymbolTable
70
2
0
APPID
5
12
100
AcDbSymbolTableRecord
100
AcDbRegAppTableRecord
2
ACAD
70
0
0
ENDTAB
0
TABLE
2
DIMSTYLE
5
A
100
AcDbSymbolTable
70
1
0
ENDTAB
0
TABLE
2
BLOCK_RECORD
5
1
100
AcDbSymbolTable
70
1
0
BLOCK_RECORD
5
1F
100
AcDbSymbolTableRecord
100
AcDbBlockTableRecord
2
*MODEL_SPACE
0
BLOCK_RECORD
5
1B
100
AcDbSymbolTableRecord
100
AcDbBlockTableRecord
2
*PAPER_SPACE
0
ENDTAB
0
ENDSEC
0
SECTION
2
BLOCKS
0
BLOCK
5
20
100
AcDbEntity
100
AcDbBlockBegin
2
*MODEL_SPACE
0
ENDBLK
5
21
100
AcDbEntity
100
AcDbBlockEnd
0
BLOCK
5
1C
100
AcDbEntity
100
AcDbBlockBegin
2
*PAPER_SPACE
0
ENDBLK
5
1D
100
AcDbEntity
100
AcDbBlockEnd
0
ENDSEC
0
SECTION
2
ENTITIES
0
LWPOLYLINE
5
100
100
AcDbEntity
8
0
100
AcDbPolyline
90
6
70
1
43
0.0
10
59.197339000000007
20
29.564508000000007
10
59.197339000000007
20
76.016075000000001
10
43.197359000000006
20
91.718731000000005
10
27.197367000000003
20
76.016075000000001
10
27.197367000000003
20
29.564508000000004
10
43.197359000000006
20
13.546125
0
LWPOLYLINE
5
101
100
AcDbEntity
8
0
100
AcDbPolyline
90
6
70
1
43
0.0
10
105.85158200000002
20
76.218739000000028
10
121.86996500000004
20
92.218731000000034
10
105.85158200000002
20
108.21871100000003
10
59.40001500000001
20
108.21871100000003
10
43.697358999999992
20
92.21873100000002
10
59.40001500000001
20
76.218738999999999
0
LWPOLYLINE
5
102
100
AcDbEntity
8
0
100
AcDbPolyline
90
6
70
1
43
0.0
10
138.370339
20
29.564508000000007
10
138.370339
20
76.016075000000001
10
122.37035900000002
20
91.718731000000005
10
106.37036700000002
20
76.016075000000001
10
106.37036700000002
20
29.564508000000004
10
122.37035900000002
20
13.546125
0
LWPOLYLINE
5
103
100
AcDbEntity
8
0
100
AcDbPolyline
90
6
70
1
43
0.0
10
59.40001500000001
20
-2.9542610000000025
10
105.85158200000002
20
-2.9542609999999847
10
121.86996500000004
20
13.045731000000025
10
105.85158200000002
20
29.045711000000018
10
59.40001500000001
20
29.045711000000018
10
43.697358999999992
20
13.045731000000007
0
LWPOLYLINE
5
104
100
AcDbEntity
8
0
100
AcDbPolyline
90
6
70
1
43
0.0
10
59.40001500000001
20
-82.127261000000004
10
105.85158200000002
20
-82.12726099999999
10
121.86996500000004
20
-66.127268999999984
10
105.85158200000002
20
-50.12728899999999
10
59.40001500000001
20
-50.12728899999999
10
43.697358999999992
20
-66.127268999999998
0
LWPOLYLINE
5
105
100
AcDbEntity
8
0
100
AcDbPolyline
90
6
70
1
43
0.0
10
27.197367000000003
20
-3.1569250000000082
10
27.197367000000003
20
-49.608491999999998
10
43.197359000000006
20
-65.626875000000013
10
59.197339000000007
20
-49.608491999999998
10
59.197339000000007
20
-3.1569250000000082
10
43.197359000000006
20
12.545731
0
LWPOLYLINE
5
106
100
AcDbEntity
8
0
100
AcDbPolyline
90
6
70
1
43
0.0
10
106.37036700000002
20
-3.1569250000000082
10
106.37036700000002
20
-49.608491999999998
10
122.37035900000002
20
-65.626875000000013
10
138.370339
20
-49.608491999999998
10
138.370339
20
-3.1569250000000082
10
122.37035900000002
20
12.545731
0
LWPOLYLINE
5
107
100
AcDbEntity
8
0
100
AcDbPolyline
90
6
70
1
43
0.0
10
268.370339
20
-49.608491999999998
10
268.370339
20
-3.1569250000000082
10
252.37035900000001
20
12.545731
10
236.37036700000004
20
-3.1569250000000082
10
236.37036700000004
20
-49.608491999999998
10
252.37035900000001
20
-65.626875000000013
0
LWPOLYLINE
5
108
100
AcDbEntity
8
0
100
AcDbPolyline
90
6
70
1
43
0.0
10
251.86996500000004
20
-66.127268999999984
10
235.85158200000001
20
-50.12728899999999
10
189.400015
20
-50.12728899999999
10
173.69735899999998
20
-66.127268999999998
10
189.400015
20
-82.127261000000004
10
235.85158200000001
20
-82.12726099999999
0
LWPOLYLINE
5
109
100
AcDbEntity
8
0
100
AcDbPolyline
90
6
70
1
43
0.0
10
173.69735899999998
20
13.045731000000007
10
189.400015
20
-2.9542610000000025
10
235.85158200000001
20
-2.9542609999999847
10
251.86996500000004
20
13.045731000000025
10
235.85158200000001
20
29.045711000000018
10
189.400015
20
29.045711000000018
0
LWPOLYLINE
5
110
100
AcDbEntity
8
0
100
AcDbPolyline
90
6
70
1
43
0.0
10
157.19736700000001
20
-49.608491999999998
10
173.19735900000001
20
-65.626875000000013
10
189.197339
20
-49.608491999999998
10
189.197339
20
-3.1569250000000082
10
173.19735900000001
20
12.545731
10
157.19736700000001
20
-3.1569250000000082
0
LWPOLYLINE
5
111
100
AcDbEntity
8
0
100
AcDbPolyline
90
6
70
1
43
0.0
10
157.19736700000001
20
76.016075000000001
10
157.19736700000001
20
29.564508000000004
10
173.19735900000001
20
13.546125
10
189.197339
20
29.564508000000007
10
189.197339
20
76.016075000000001
10
173.19735900000001
20
91.718731000000005
0
LWPOLYLINE
5
112
100
AcDbEntity
8
0
100
AcDbPolyline
90
6
70
1
43
0.0
10
235.85158200000001
20
76.218739000000028
10
251.86996500000004
20
92.218731000000034
10
235.85158200000001
20
108.21871100000003
10
189.400015
20
108.21871100000003
10
173.69735899999998
20
92.21873100000002
10
189.400015
20
76.218738999999999
0
LWPOLYLINE
5
113
100
AcDbEntity
8
0
100
AcDbPolyline
90
6
70
1
43
0.0
10
236.37036700000004
20
29.564508000000004
10
252.37035900000001
20
13.546125
10
268.370339
20
29.564508000000007
10
268.370339
20
76.016075000000001
10
252.37035900000001
20
91.718731000000005
10
236.37036700000004
20
76.016075000000001
0
CIRCLE
5
114
100
AcDbEntity
8
0
100
AcDbCircle
10
309.41054243559643
20
85.999344940579505
30
0
40
22.213203435596412
0
CIRCLE
5
115
100
AcDbEntity
8
0
100
AcDbCircle
10
376.15713556440363
20
-59.914057564403365
30
0
40
22.213203435596412
0
LINE
5
116
100
AcDbEntity
8
0
100
AcDbLine
10
287.197339
20
108.21254837617593
30
0
11
398.370339
21
108.21254837617593
31
0
0
LINE
5
117
100
AcDbEntity
8
0
100
AcDbLine
10
398.370339
20
108.21254837617593
30
0
11
398.370339
21
-82.127260999999947
31
0
0
LINE
5
118
100
AcDbEntity
8
0
100
AcDbLine
10
398.370339
20
-82.127260999999947
30
0
11
287.197339
21
-82.127260999999947
31
0
0
LINE
5
119
100
AcDbEntity
8
0
100
AcDbLine
10
287.197339
20
-82.127260999999947
30
0
11
287.197339
21
108.21254837617593
31
0
0
LINE
5
120
100
AcDbEntity
8
0
100
AcDbLine
10
287.197339
20
-82.127260999999947
30
0
11
398.370339
21
108.21254837617593
31
0
0
LWPOLYLINE
5
121
100
AcDbEntity
8
0
100
AcDbPolyline
90
4
70
1
43
0.0
10
324.25584390323036
20
-50.403241862948043
10
287.197339
20
-50.403241862948043
10
361.3118340967697
20
76.48852923912402
10
398.370339
20
76.488529239124034
0
ENDSEC
0
SECTION
2
OBJECTS
0
DICTIONARY
5
C
100
AcDbDictionary
3
ACAD_GROUP
350
D
3
ACAD_MLINESTYLE
350
17
0
DICTIONARY
5
D
100
AcDbDictionary
0
DICTIONARY
5
1A
330
C
100
AcDbDictionary
0
DICTIONARY
5
17
100
AcDbDictionary
0
ENDSEC
0
EOF
