999
dxfrw 0.6.3
  0
SECTION
  2
HEADER
  9
$ACADVER
  1
AC1021
  9
$DWGCODEPAGE
  3
ANSI_1252
  9
$INSBASE
 10
0
 20
0
 30
0
  9
$EXTMIN
 10
0
 20
0
 30
0
  9
$EXTMAX
 10
85.85878799999999
 20
53.858795
 30
0
  9
$LIMMIN
 10
0
 20
0
  9
$LIMMAX
 10
420
 20
297
  9
$ORTHOMODE
 70
    0
  9
$REGENMODE
 70
    1
  9
$FILLMODE
 70
    1
  9
$QTEXTMODE
 70
    0
  9
$MIRRTEXT
 70
    0
  9
$LTSCALE
 40
1
  9
$ATTMODE
 70
    0
  9
$TEXTSIZE
 40
2.5
  9
$TRACEWID
 40
15.68
  9
$TEXTSTYLE
  7
STANDARD
  9
$CLAYER
  8
bolts
  9
$CELTYPE
  6
BYLAYER
  9
$CECOLOR
 62
  256
  9
$CELTSCALE
 40
1
  9
$DISPSILH
 70
    0
  9
$DIMSCALE
 40
2.5
  9
$DIMASZ
 40
2.5
  9
$DIMEXO
 40
0.625
  9
$DIMDLI
 40
3.75
  9
$DIMRND
 40
0
  9
$DIMDLE
 40
0
  9
$DIMEXE
 40
1.25
  9
$DIMTP
 40
0
  9
$DIMTM
 40
0
  9
$DIMTXT
 40
2.5
  9
$DIMCEN
 40
2.5
  9
$DIMTSZ
 40
0
  9
$DIMTOL
 70
    0
  9
$DIMLIM
 70
    0
  9
$DIMTIH
 70
    0
  9
$DIMTOH
 70
    0
  9
$DIMSE1
 70
    0
  9
$DIMSE2
 70
    0
  9
$DIMTAD
 70
    1
  9
$DIMZIN
 70
    8
  9
$DIMBLK
  1

  9
$DIMASO
 70
    1
  9
$DIMSHO
 70
    1
  9
$DIMPOST
  1

  9
$DIMAPOST
  1

  9
$DIMALT
 70
    0
  9
$DIMALTD
 70
    3
  9
$DIMALTF
 40
0.03937
  9
$DIMLFAC
 40
1
  9
$DIMTOFL
 70
    1
  9
$DIMTVP
 40
0
  9
$DIMTIX
 70
    0
  9
$DIMSOXD
 70
    0
  9
$DIMSAH
 70
    0
  9
$DIMBLK1
  1

  9
$DIMBLK2
  1

  9
$DIMSTYLE
  2
Standard
  9
$DIMCLRD
 70
    0
  9
$DIMCLRE
 70
    0
  9
$DIMCLRT
 70
    0
  9
$DIMTFAC
 40
1
  9
$DIMGAP
 40
0.625
  9
$DIMJUST
 70
    0
  9
$DIMSD1
 70
    0
  9
$DIMSD2
 70
    0
  9
$DIMTOLJ
 70
    0
  9
$DIMTZIN
 70
    8
  9
$DIMALTZ
 70
    0
  9
$DIMALTTZ
 70
    0
  9
$DIMUPT
 70
    0
  9
$DIMDEC
 70
    2
  9
$DIMTDEC
 70
    2
  9
$DIMALTU
 70
    2
  9
$DIMALTTD
 70
    3
  9
$DIMTXSTY
  7
STANDARD
  9
$DIMAUNIT
 70
    0
  9
$DIMADEC
 70
    0
  9
$DIMALTRND
 40
0
  9
$DIMAZIN
 70
    0
  9
$DIMDSEP
 70
   44
  9
$DIMATFIT
 70
    3
  9
$DIMFRAC
 70
    0
  9
$DIMLDRBLK
  1
STANDARD
  9
$DIMLUNIT
 70
    2
  9
$DIMLWD
 70
   -2
  9
$DIMLWE
 70
   -2
  9
$DIMTMOVE
 70
    0
  9
$DIMFXL
 40
1
  9
$DIMFXLON
 70
    0
  9
$DIMJOGANG
 40
0.7854
  9
$DIMTFILL
 70
    0
  9
$DIMTFILLCLR
 70
    0
  9
$DIMARCSYM
 70
    0
  9
$DIMLTYPE
  6

  9
$DIMLTEX1
  6

  9
$DIMLTEX2
  6

  9
$LUNITS
 70
    2
  9
$LUPREC
 70
    4
  9
$SKETCHINC
 40
1
  9
$FILLETRAD
 40
0
  9
$AUNITS
 70
    0
  9
$AUPREC
 70
    2
  9
$MENU
  1
.
  9
$ELEVATION
 40
0
  9
$PELEVATION
 40
0
  9
$THICKNESS
 40
0
  9
$LIMCHECK
 70
    0
  9
$CHAMFERA
 40
0
  9
$CHAMFERB
 40
0
  9
$CHAMFERC
 40
0
  9
$CHAMFERD
 40
0
  9
$SKPOLY
 70
    0
  9
$USRTIMER
 70
    1
  9
$ANGBASE
 50
0
  9
$ANGDIR
 70
    0
  9
$PDMODE
 70
   34
  9
$PDSIZE
 40
0
  9
$PLINEWID
 40
0
  9
$SPLFRAME
 70
    0
  9
$SPLINETYPE
 70
    2
  9
$SPLINESEGS
 70
    8
  9
$HANDSEED
  5
20000
  9
$SURFTAB1
 70
    6
  9
$SURFTAB2
 70
    6
  9
$SURFTYPE
 70
    6
  9
$SURFU
 70
    6
  9
$SURFV
 70
    6
  9
$UCSBASE
  2

  9
$UCSNAME
  2

  9
$UCSORG
 10
0
 20
0
 30
0
  9
$UCSXDIR
 10
1
 20
0
 30
0
  9
$UCSYDIR
 10
0
 20
1
 30
0
  9
$UCSORTHOREF
  2

  9
$UCSORTHOVIEW
 70
    0
  9
$UCSORGTOP
 10
0
 20
0
 30
0
  9
$UCSORGBOTTOM
 10
0
 20
0
 30
0
  9
$UCSORGLEFT
 10
0
 20
0
 30
0
  9
$UCSORGRIGHT
 10
0
 20
0
 30
0
  9
$UCSORGFRONT
 10
0
 20
0
 30
0
  9
$UCSORGBACK
 10
0
 20
0
 30
0
  9
$PUCSBASE
  2

  9
$PUCSNAME
  2

  9
$PUCSORG
 10
0
 20
0
 30
0
  9
$PUCSXDIR
 10
1
 20
0
 30
0
  9
$PUCSYDIR
 10
0
 20
1
 30
0
  9
$PUCSORTHOREF
  2

  9
$PUCSORTHOVIEW
 70
    0
  9
$PUCSORGTOP
 10
0
 20
0
 30
0
  9
$PUCSORGBOTTOM
 10
0
 20
0
 30
0
  9
$PUCSORGLEFT
 10
0
 20
0
 30
0
  9
$PUCSORGRIGHT
 10
0
 20
0
 30
0
  9
$PUCSORGFRONT
 10
0
 20
0
 30
0
  9
$PUCSORGBACK
 10
0
 20
0
 30
0
  9
$USERI1
 70
    0
  9
$USERI2
 70
    0
  9
$USERI3
 70
    0
  9
$USERI4
 70
    0
  9
$USERI5
 70
    0
  9
$USERR1
 40
0
  9
$USERR2
 40
0
  9
$USERR3
 40
0
  9
$USERR4
 40
0
  9
$USERR5
 40
0
  9
$WORLDVIEW
 70
    1
  9
$SHADEDGE
 70
    3
  9
$SHADEDIF
 70
   70
  9
$TILEMODE
 70
    1
  9
$MAXACTVP
 70
   64
  9
$PINSBASE
 10
0
 20
0
 30
0
  9
$PLIMCHECK
 70
    0
  9
$PEXTMIN
 10
0
 20
0
 30
0
  9
$PEXTMAX
 10
0
 20
0
 30
0
  9
$GRIDMODE
 70
    1
  9
$SNAPSTYLE
 70
    0
  9
$PLIMMIN
 10
0
 20
0
  9
$PLIMMAX
 10
210
 20
297
  9
$UNITMODE
 70
    0
  9
$VISRETAIN
 70
    1
  9
$PLINEGEN
 70
    0
  9
$PSLTSCALE
 70
    1
  9
$TREEDEPTH
 70
 3020
  9
$CMLSTYLE
  2
Standard
  9
$CMLJUST
 70
    0
  9
$CMLSCALE
 40
20
  9
$PROXYGRAPHICS
 70
    1
  9
$MEASUREMENT
 70
    1
  9
$CELWEIGHT
370
   -1
  9
$ENDCAPS
280
    0
  9
$JOINSTYLE
280
    0
  9
$LWDISPLAY
290
    0
  9
$INSUNITS
 70
    4
  9
$HYPERLINKBASE
  1

  9
$STYLESHEET
  1

  9
$XEDIT
290
    1
  9
$CEPSNTYPE
380
    0
  9
$PSTYLEMODE
290
    1
  9
$EXTNAMES
290
    1
  9
$PSVPSCALE
 40
1
  9
$OLESTARTUP
290
    0
  9
$SORTENTS
280
  127
  9
$INDEXCTL
280
    0
  9
$HIDETEXT
280
    1
  9
$XCLIPFRAME
290
    0
  9
$HALOGAP
280
    0
  9
$OBSCOLOR
 70
  257
  9
$OBSLTYPE
280
    0
  9
$INTERSECTIONDISPLAY
280
    0
  9
$INTERSECTIONCOLOR
 70
  257
  9
$DIMASSOC
280
    1
  9
$PROJECTNAME
  1

  9
$CAMERADISPLAY
290
    0
  9
$LENSLENGTH
 40
50
  9
$CAMERAHEIGHT
 40
0
  9
$STEPSPERSEC
 40
2
  9
$STEPSIZE
 40
50
  9
$3DDWFPREC
 40
2
  9
$PSOLWIDTH
 40
5
  9
$PSOLHEIGHT
 40
80
  9
$LOFTANG1
 40
1.570796326794897
  9
$LOFTANG2
 40
1.570796326794897
  9
$LOFTMAG1
 40
0
  9
$LOFTMAG2
 40
0
  9
$LOFTPARAM
 70
    7
  9
$LOFTNORMALS
280
    1
  9
$LATITUDE
 40
1
  9
$LONGITUDE
 40
1
  9
$NORTHDIRECTION
 40
0
  9
$TIMEZONE
 70
-8000
  9
$LIGHTGLYPHDISPLAY
280
    1
  9
$TILEMODELIGHTSYNCH
280
    1
  9
$SOLIDHIST
280
    1
  9
$SHOWHIST
280
    1
  9
$DWFFRAME
280
    2
  9
$DGNFRAME
280
    0
  9
$REALWORLDSCALE
290
    1
  9
$INTERFERECOLOR
 62
    1
  9
$CSHADOW
280
    0
  9
$SHADOWPLANELOCATION
 40
0
  0
ENDSEC
  0
SECTION
  2
CLASSES
  0
ENDSEC
  0
SECTION
  2
TABLES
  0
TABLE
  2
VPORT
  5
8
330
0
100
AcDbSymbolTable
 70
    1
  0
VPORT
  5
31
330
2
100
AcDbSymbolTableRecord
100
AcDbViewportTableRecord
  2
*ACTIVE
 70
    0
 10
0
 20
0
 11
1
 21
1
 12
87.350865641984
 22
47.50066474212102
 13
0
 23
0
 14
10
 24
10
 15
10
 25
10
 16
0
 26
0
 36
1
 17
0
 27
0
 37
0
 40
108.6559548229557
 41
1.884135472370766
 42
50
 43
0
 44
0
 50
0
 51
0
 71
    0
 72
  100
 73
    1
 74
    3
 75
    0
 76
    1
 77
    0
 78
    0
281
    0
 65
    1
110
0
120
0
130
0
111
1
121
0
131
0
112
0
122
1
132
0
 79
    0
146
0
348
10020
 60
    7
 61
    5
292
1
282
    1
141
0
142
0
 63
  250
421
3358443
  0
ENDTAB
  0
TABLE
  2
LTYPE
  5
5
330
0
100
AcDbSymbolTable
 70
    4
  0
LTYPE
  5
14
330
5
100
AcDbSymbolTableRecord
100
AcDbLinetypeTableRecord
  2
ByBlock
 70
    0
  3

 72
   65
 73
    0
 40
0
  0
LTYPE
  5
15
330
5
100
AcDbSymbolTableRecord
100
AcDbLinetypeTableRecord
  2
ByLayer
 70
    0
  3

 72
   65
 73
    0
 40
0
  0
LTYPE
  5
16
330
5
100
AcDbSymbolTableRecord
100
AcDbLinetypeTableRecord
  2
Continuous
 70
    0
  3
Solid line
 72
   65
 73
    0
 40
0
  0
LTYPE
  5
32
330
5
100
AcDbSymbolTableRecord
100
AcDbLinetypeTableRecord
  2
DOT
 70
    0
  3
Dot . . . . . . . . . . . . . . . . . . . . . .
 72
   65
 73
    2
 40
6.35
 49
0
 74
    0
 49
-6.35
 74
    0
  0
LTYPE
  5
33
330
5
100
AcDbSymbolTableRecord
100
AcDbLinetypeTableRecord
  2
DOTTINY
 70
    0
  3
Dot (.15x) .....................................
 72
   65
 73
    2
 40
0.9525
 49
0
 74
    0
 49
-0.9525
 74
    0
  0
LTYPE
  5
34
330
5
100
AcDbSymbolTableRecord
100
AcDbLinetypeTableRecord
  2
DOT2
 70
    0
  3
Dot (.5x) .....................................
 72
   65
 73
    2
 40
3.175
 49
0
 74
    0
 49
-3.175
 74
    0
  0
LTYPE
  5
35
330
5
100
AcDbSymbolTableRecord
100
AcDbLinetypeTableRecord
  2
DOTX2
 70
    0
  3
Dot (2x) .  .  .  .  .  .  .  .  .  .  .  .  .
 72
   65
 73
    2
 40
12.7
 49
0
 74
    0
 49
-12.7
 74
    0
  0
LTYPE
  5
36
330
5
100
AcDbSymbolTableRecord
100
AcDbLinetypeTableRecord
  2
DASHED
 70
    0
  3
Dashed _ _ _ _ _ _ _ _ _ _ _ _ _ _ _ _ _
 72
   65
 73
    2
 40
19.05
 49
12.7
 74
    0
 49
-6.35
 74
    0
  0
LTYPE
  5
37
330
5
100
AcDbSymbolTableRecord
100
AcDbLinetypeTableRecord
  2
DASHEDTINY
 70
    0
  3
Dashed (.15x) _ _ _ _ _ _ _ _ _ _ _ _ _ _ _ _ _
 72
   65
 73
    2
 40
2.8575
 49
1.905
 74
    0
 49
-0.9525
 74
    0
  0
LTYPE
  5
38
330
5
100
AcDbSymbolTableRecord
100
AcDbLinetypeTableRecord
  2
DASHED2
 70
    0
  3
Dashed (.5x) _ _ _ _ _ _ _ _ _ _ _ _ _ _ _ _ _
 72
   65
 73
    2
 40
9.524999999999999
 49
6.35
 74
    0
 49
-3.175
 74
    0
  0
LTYPE
  5
39
330
5
100
AcDbSymbolTableRecord
100
AcDbLinetypeTableRecord
  2
DASHEDX2
 70
    0
  3
Dashed (2x) ____  ____  ____  ____  ____  ___
 72
   65
 73
    2
 40
38.09999999999999
 49
25.4
 74
    0
 49
-12.7
 74
    0
  0
LTYPE
  5
3A
330
5
100
AcDbSymbolTableRecord
100
AcDbLinetypeTableRecord
  2
DASHDOT
 70
    0
  3
Dash dot __ . __ . __ . __ . __ . __ . __ . __
 72
   65
 73
    4
 40
25.4
 49
12.7
 74
    0
 49
-6.35
 74
    0
 49
0
 74
    0
 49
-6.35
 74
    0
  0
LTYPE
  5
3B
330
5
100
AcDbSymbolTableRecord
100
AcDbLinetypeTableRecord
  2
DASHDOTTINY
 70
    0
  3
Dash dot (.15x) _._._._._._._._._._._._._._._.
 72
   65
 73
    4
 40
3.81
 49
1.905
 74
    0
 49
-0.9525
 74
    0
 49
0
 74
    0
 49
-0.9525
 74
    0
  0
LTYPE
  5
3C
330
5
100
AcDbSymbolTableRecord
100
AcDbLinetypeTableRecord
  2
DASHDOT2
 70
    0
  3
Dash dot (.5x) _._._._._._._._._._._._._._._.
 72
   65
 73
    4
 40
12.7
 49
6.35
 74
    0
 49
-3.175
 74
    0
 49
0
 74
    0
 49
-3.175
 74
    0
  0
LTYPE
  5
3D
330
5
100
AcDbSymbolTableRecord
100
AcDbLinetypeTableRecord
  2
DASHDOTX2
 70
    0
  3
Dash dot (2x) ____  .  ____  .  ____  .  ___
 72
   65
 73
    4
 40
50.8
 49
25.4
 74
    0
 49
-12.7
 74
    0
 49
0
 74
    0
 49
-12.7
 74
    0
  0
LTYPE
  5
3E
330
5
100
AcDbSymbolTableRecord
100
AcDbLinetypeTableRecord
  2
DIVIDE
 70
    0
  3
Divide ____ . . ____ . . ____ . . ____ . . ____
 72
   65
 73
    6
 40
31.75
 49
12.7
 74
    0
 49
-6.35
 74
    0
 49
0
 74
    0
 49
-6.35
 74
    0
 49
0
 74
    0
 49
-6.35
 74
    0
  0
LTYPE
  5
3F
330
5
100
AcDbSymbolTableRecord
100
AcDbLinetypeTableRecord
  2
DIVIDETINY
 70
    0
  3
Divide (.15x) __..__..__..__..__..__..__..__.._
 72
   65
 73
    6
 40
4.7625
 49
1.905
 74
    0
 49
-0.9525
 74
    0
 49
0
 74
    0
 49
-0.9525
 74
    0
 49
0
 74
    0
 49
-0.9525
 74
    0
  0
LTYPE
  5
40
330
5
100
AcDbSymbolTableRecord
100
AcDbLinetypeTableRecord
  2
DIVIDE2
 70
    0
  3
Divide (.5x) __..__..__..__..__..__..__..__.._
 72
   65
 73
    6
 40
15.875
 49
6.35
 74
    0
 49
-3.175
 74
    0
 49
0
 74
    0
 49
-3.175
 74
    0
 49
0
 74
    0
 49
-3.175
 74
    0
  0
LTYPE
  5
41
330
5
100
AcDbSymbolTableRecord
100
AcDbLinetypeTableRecord
  2
DIVIDEX2
 70
    0
  3
Divide (2x) ________  .  .  ________  .  .  _
 72
   65
 73
    6
 40
63.5
 49
25.4
 74
    0
 49
-12.7
 74
    0
 49
0
 74
    0
 49
-12.7
 74
    0
 49
0
 74
    0
 49
-12.7
 74
    0
  0
LTYPE
  5
42
330
5
100
AcDbSymbolTableRecord
100
AcDbLinetypeTableRecord
  2
BORDER
 70
    0
  3
Border __ __ . __ __ . __ __ . __ __ . __ __ .
 72
   65
 73
    6
 40
44.45
 49
12.7
 74
    0
 49
-6.35
 74
    0
 49
12.7
 74
    0
 49
-6.35
 74
    0
 49
0
 74
    0
 49
-6.35
 74
    0
  0
LTYPE
  5
43
330
5
100
AcDbSymbolTableRecord
100
AcDbLinetypeTableRecord
  2
BORDERTINY
 70
    0
  3
Border (.15x) __.__.__.__.__.__.__.__.__.__.__.
 72
   65
 73
    6
 40
6.6675
 49
1.905
 74
    0
 49
-0.9525
 74
    0
 49
1.905
 74
    0
 49
-0.9525
 74
    0
 49
0
 74
    0
 49
-0.9525
 74
    0
  0
LTYPE
  5
44
330
5
100
AcDbSymbolTableRecord
100
AcDbLinetypeTableRecord
  2
BORDER2
 70
    0
  3
Border (.5x) __.__.__.__.__.__.__.__.__.__.__.
 72
   65
 73
    6
 40
22.225
 49
6.35
 74
    0
 49
-3.175
 74
    0
 49
6.35
 74
    0
 49
-3.175
 74
    0
 49
0
 74
    0
 49
-3.175
 74
    0
  0
LTYPE
  5
45
330
5
100
AcDbSymbolTableRecord
100
AcDbLinetypeTableRecord
  2
BORDERX2
 70
    0
  3
Border (2x) ____  ____  .  ____  ____  .  ___
 72
   65
 73
    6
 40
88.89999999999999
 49
25.4
 74
    0
 49
-12.7
 74
    0
 49
25.4
 74
    0
 49
-12.7
 74
    0
 49
0
 74
    0
 49
-12.7
 74
    0
  0
LTYPE
  5
46
330
5
100
AcDbSymbolTableRecord
100
AcDbLinetypeTableRecord
  2
CENTER
 70
    0
  3
Center ____ _ ____ _ ____ _ ____ _ ____ _ ____
 72
   65
 73
    4
 40
50.8
 49
31.75
 74
    0
 49
-6.35
 74
    0
 49
6.35
 74
    0
 49
-6.35
 74
    0
  0
LTYPE
  5
47
330
5
100
AcDbSymbolTableRecord
100
AcDbLinetypeTableRecord
  2
CENTERTINY
 70
    0
  3
Center (.15x) ___ _ ___ _ ___ _ ___ _ ___ _ ___
 72
   65
 73
    4
 40
7.619999999999999
 49
4.7625
 74
    0
 49
-0.9525
 74
    0
 49
0.9525
 74
    0
 49
-0.9525
 74
    0
  0
LTYPE
  5
48
330
5
100
AcDbSymbolTableRecord
100
AcDbLinetypeTableRecord
  2
CENTER2
 70
    0
  3
Center (.5x) ___ _ ___ _ ___ _ ___ _ ___ _ ___
 72
   65
 73
    4
 40
28.575
 49
19.05
 74
    0
 49
-3.175
 74
    0
 49
3.175
 74
    0
 49
-3.175
 74
    0
  0
LTYPE
  5
49
330
5
100
AcDbSymbolTableRecord
100
AcDbLinetypeTableRecord
  2
CENTERX2
 70
    0
  3
Center (2x) ________  __  ________  __  _____
 72
   65
 73
    4
 40
101.6
 49
63.5
 74
    0
 49
-12.7
 74
    0
 49
12.7
 74
    0
 49
-12.7
 74
    0
  0
ENDTAB
  0
TABLE
  2
LAYER
  5
2
330
0
100
AcDbSymbolTable
 70
    1
  0
LAYER
  5
10
330
2
100
AcDbSymbolTableRecord
100
AcDbLayerTableRecord
  2
0
 70
    1
 62
    7
  6
CONTINUOUS
370
   -3
390
F
  0
LAYER
  5
4A
330
2
100
AcDbSymbolTableRecord
100
AcDbLayerTableRecord
  2
battbox
 70
    1
 62
    5
  6
CONTINUOUS
370
    0
390
F
  0
LAYER
  5
4B
330
2
100
AcDbSymbolTableRecord
100
AcDbLayerTableRecord
  2
board
 70
    1
 62
    3
  6
CONTINUOUS
370
    0
390
F
  0
LAYER
  5
4C
330
2
100
AcDbSymbolTableRecord
100
AcDbLayerTableRecord
  2
bolts
 70
    0
 62
   16
420
8388608
  6
CONTINUOUS
370
    0
390
F
  0
LAYER
  5
4D
330
2
100
AcDbSymbolTableRecord
100
AcDbLayerTableRecord
  2
lightpipes
 70
    0
 62
    2
  6
CONTINUOUS
370
    0
390
F
  0
LAYER
  5
4E
330
2
100
AcDbSymbolTableRecord
100
AcDbLayerTableRecord
  2
lights
 70
    0
 62
    6
  6
CONTINUOUS
370
    0
390
F
  0
LAYER
  5
4F
330
2
100
AcDbSymbolTableRecord
100
AcDbLayerTableRecord
  2
lights2
 70
    0
 62
  216
420
8388736
  6
CONTINUOUS
370
    0
390
F
  0
LAYER
  5
50
330
2
100
AcDbSymbolTableRecord
100
AcDbLayerTableRecord
  2
outline
 70
    0
 62
    4
  6
CONTINUOUS
370
    0
390
F
  0
LAYER
  5
51
330
2
100
AcDbSymbolTableRecord
100
AcDbLayerTableRecord
  2
outline2
 70
    0
 62
  136
420
32896
  6
CONTINUOUS
370
    0
390
F
  0
LAYER
  5
52
330
2
100
AcDbSymbolTableRecord
100
AcDbLayerTableRecord
  2
outline3
 70
    0
 62
   96
420
32768
  6
CONTINUOUS
370
    0
390
F
  0
LAYER
  5
53
330
2
100
AcDbSymbolTableRecord
100
AcDbLayerTableRecord
  2
posts
 70
    0
 62
    1
  6
CONTINUOUS
370
    0
390
F
  0
LAYER
  5
54
330
2
100
AcDbSymbolTableRecord
100
AcDbLayerTableRecord
  2
words
 70
    0
 62
    7
  6
CONTINUOUS
370
   -3
390
F
  0
ENDTAB
  0
TABLE
  2
STYLE
  5
3
330
0
100
AcDbSymbolTable
 70
    3
  0
STYLE
  5
55
330
2
100
AcDbSymbolTableRecord
100
AcDbTextStyleTableRecord
  2
Standard
 70
    0
 40
0
 41
1
 50
0
 71
    0
 42
1
  3
txt
  4

  0
ENDTAB
  0
TABLE
  2
VIEW
  5
6
330
0
100
AcDbSymbolTable
 70
    0
  0
ENDTAB
  0
TABLE
  2
UCS
  5
7
330
0
100
AcDbSymbolTable
 70
    0
  0
ENDTAB
  0
TABLE
  2
APPID
  5
9
330
0
100
AcDbSymbolTable
 70
    1
  0
APPID
  5
12
330
9
100
AcDbSymbolTableRecord
100
AcDbRegAppTableRecord
  2
ACAD
 70
    0
  0
APPID
  5
56
330
9
100
AcDbSymbolTableRecord
100
AcDbRegAppTableRecord
  2
LibreCad
 70
    0
  0
ENDTAB
  0
TABLE
  2
DIMSTYLE
  5
A
330
0
100
AcDbSymbolTable
 70
    1
100
AcDbDimStyleTable
 71
    1
  0
DIMSTYLE
105
57
330
A
100
AcDbSymbolTableRecord
100
AcDbDimStyleTableRecord
  2
Standard
 70
    0
 40
2.5
 41
2.5
 42
0.625
 43
0.38
 44
1.25
 45
0
 46
0
 47
0
 48
0
 49
1
140
2.5
141
0.09
142
0
143
25.4
144
1
145
0
146
1
147
0.625
148
0
 71
    0
 72
    0
 73
    0
 74
    1
 75
    0
 76
    0
 77
    0
 78
    8
 79
    0
170
    0
171
    2
172
    0
173
    0
174
    0
175
    0
176
    0
177
    0
178
    0
179
    0
271
    2
272
    4
273
    2
274
    2
275
    0
276
    0
277
    2
278
   44
279
    0
280
    0
281
    0
282
    0
283
    1
284
    0
285
    0
286
    0
288
    0
289
    3
340
STANDARD
341

371
   -2
372
   -2
  0
ENDTAB
  0
TABLE
  2
BLOCK_RECORD
  5
1
330
0
100
AcDbSymbolTable
 70
    2
  0
BLOCK_RECORD
  5
1F
330
1
100
AcDbSymbolTableRecord
100
AcDbBlockTableRecord
  2
*Model_Space
 70
    0
280
    1
281
    0
  0
BLOCK_RECORD
  5
1E
330
1
100
AcDbSymbolTableRecord
100
AcDbBlockTableRecord
  2
*Paper_Space
 70
    0
280
    1
281
    0
  0
ENDTAB
  0
ENDSEC
  0
SECTION
  2
BLOCKS
  0
BLOCK
  5
20
330
1F
100
AcDbEntity
  8
0
100
AcDbBlockBegin
  2
*Model_Space
 70
    0
 10
0
 20
0
 30
0
  3
*Model_Space
  1

  0
ENDBLK
  5
21
330
1F
100
AcDbEntity
  8
0
100
AcDbBlockEnd
  0
BLOCK
  5
1C
330
1B
100
AcDbEntity
  8
0
100
AcDbBlockBegin
  2
*Paper_Space
 70
    0
 10
0
 20
0
 30
0
  3
*Paper_Space
  1

  0
ENDBLK
  5
1D
330
1F
100
AcDbEntity
  8
0
100
AcDbBlockEnd
  0
ENDSEC
  0
SECTION
  2
ENTITIES
  0
LINE
  5
58
100
AcDbEntity
  8
board
  6
ByLayer
 62
  256
370
   -1
100
AcDbLine
 10
85.92939099999998
 20
45.91011270000003
 11
83.92939099999998
 21
45.91011270000003
  0
LINE
  5
59
100
AcDbEntity
  8
board
  6
ByLayer
 62
  256
370
   -1
100
AcDbLine
 10
85.92939099999998
 20
35.91011270000001
 11
83.92939099999998
 21
35.91011270000001
  0
LINE
  5
5A
100
AcDbEntity
  8
board
  6
ByLayer
 62
  256
370
   -1
100
AcDbLine
 10
85.92939099999998
 20
35.91011270000001
 11
85.92939099999998
 21
45.91011270000003
  0
LINE
  5
5B
100
AcDbEntity
  8
board
  6
ByLayer
 62
  256
370
   -1
100
AcDbLine
 10
40.68102944
 20
2.089892300000002
 11
83.92939100000001
 21
2.089892300000013
  0
LINE
  5
5C
100
AcDbEntity
  8
board
  6
ByLayer
 62
  256
370
   -1
100
AcDbLine
 10
83.92939100000001
 20
2.089892300000013
 11
83.92939099999998
 21
51.91011270000004
  0
LINE
  5
5D
100
AcDbEntity
  8
board
  6
ByLayer
 62
  256
370
   -1
100
AcDbLine
 10
83.92939099999998
 20
51.91011270000004
 11
40.68102943999998
 21
51.91011270000001
  0
LINE
  5
5E
100
AcDbEntity
  8
board
  6
ByLayer
 62
  256
370
   -1
100
AcDbLine
 10
40.68102943999998
 20
51.91011270000001
 11
40.68102944
 21
2.089892300000002
  0
CIRCLE
  5
5F
100
AcDbEntity
  8
board
  6
ByLayer
 62
  256
370
   -1
100
AcDbCircle
 10
80.84288992122879
 20
48.44536124649166
 40
1.5
  0
CIRCLE
  5
60
100
AcDbEntity
  8
board
  6
ByLayer
 62
  256
370
   -1
100
AcDbCircle
 10
80.84387455412502
 20
5.264137908110028
 40
1.5
  0
CIRCLE
  5
61
100
AcDbEntity
  8
board
  6
ByLayer
 62
  256
370
   -1
100
AcDbCircle
 10
43.85515041974065
 20
5.425428284641059
 40
1.5
  0
CIRCLE
  5
62
100
AcDbEntity
  8
board
  6
ByLayer
 62
  256
370
   -1
100
AcDbCircle
 10
43.85575739239392
 20
48.44495118589373
 40
1.5
  0
LINE
  5
63
100
AcDbEntity
  8
board
  6
ByLayer
 62
  256
370
   -1
100
AcDbLine
 10
73.92939100000001
 20
2.08989230000001
 11
73.92939099999998
 21
51.91011270000001
  0
LWPOLYLINE
  5
64
100
AcDbEntity
  8
board
  6
ByLayer
 62
  256
370
   -1
100
AcDbPolyline
 90
    2
 70
    1
 43
0
 10
5.429413000000011
 20
10.93103150000001
 10
5.429413000000011
 20
10.93103150000001
  0
LINE
  5
65
100
AcDbEntity
  8
board
  6
ByLayer
 62
  256
370
   -1
100
AcDbLine
 10
2.070603000000006
 20
6.000002500000004
 11
2.070603000000006
 21
48.0000025
  0
LINE
  5
66
100
AcDbEntity
  8
board
  6
ByLayer
 62
  256
370
   -1
100
AcDbLine
 10
2.070603000000006
 20
48.0000025
 11
28.47060300000002
 21
48.0000025
  0
LINE
  5
67
100
AcDbEntity
  8
board
  6
ByLayer
 62
  256
370
   -1
100
AcDbLine
 10
28.47060300000002
 20
48.0000025
 11
28.47060300000002
 21
6.000002500000004
  0
LINE
  5
68
100
AcDbEntity
  8
board
  6
ByLayer
 62
  256
370
   -1
100
AcDbLine
 10
28.47060300000002
 20
6.000002500000004
 11
2.070603000000006
 21
6.000002500000004
  0
CIRCLE
  5
69
100
AcDbEntity
  8
board
  6
ByLayer
 62
  256
370
   -1
100
AcDbCircle
 10
25.20855300000003
 20
44.64111668372042
 40
1.704652183720418
  0
CIRCLE
  5
6A
100
AcDbEntity
  8
board
  6
ByLayer
 62
  256
370
   -1
100
AcDbCircle
 10
5.097519000000005
 20
44.64078949999999
 40
1.704815736317857
  0
CIRCLE
  5
6B
100
AcDbEntity
  8
board
  6
ByLayer
 62
  256
370
   -1
100
AcDbCircle
 10
25.06446244620279
 20
9.289498500000004
 40
1.704325094167247
  0
CIRCLE
  5
6C
100
AcDbEntity
  8
board
  6
ByLayer
 62
  256
370
   -1
100
AcDbCircle
 10
5.429412999999983
 20
9.226379316279601
 40
1.704652183720418
  0
LINE
  5
6D
100
AcDbEntity
  8
battbox
  6
ByLayer
 62
  256
370
   -1
100
AcDbLine
 10
2.221463560697828
 20
30.95860819625947
 11
2.221463560697828
 21
38.30860819625946
  0
ARC
  5
6E
100
AcDbEntity
  8
battbox
  6
ByLayer
 62
  256
370
   -1
100
AcDbCircle
 10
15.42146356069782
 20
34.63360819625947
 40
11.03
100
AcDbArc
 50
199.480411965
 51
160.5195880353
  0
LINE
  5
6F
100
AcDbEntity
  8
battbox
  6
ByLayer
 62
  256
370
   -1
100
AcDbLine
 10
2.221463560697828
 20
30.95860819625947
 11
5.021690726597853
 21
30.95860819625947
  0
LINE
  5
70
100
AcDbEntity
  8
battbox
  6
ByLayer
 62
  256
370
   -1
100
AcDbLine
 10
2.221463560697828
 20
38.30860819625946
 11
5.021690726597853
 21
38.30860819625946
  0
CIRCLE
  5
71
100
AcDbEntity
  8
posts
  6
ByLayer
 62
  256
370
   -1
100
AcDbCircle
 10
80.77228692122878
 20
48.37475624649166
 40
3.5
  0
CIRCLE
  5
72
100
AcDbEntity
  8
posts
  6
ByLayer
 62
  256
370
   -1
100
AcDbCircle
 10
80.77327155412502
 20
5.193532908110027
 40
3.5
  0
CIRCLE
  5
73
100
AcDbEntity
  8
posts
  6
ByLayer
 62
  256
370
   -1
100
AcDbCircle
 10
5.026916000000005
 20
44.57018449999999
 40
3.704652183720418
  0
CIRCLE
  5
74
100
AcDbEntity
  8
posts
  6
ByLayer
 62
  256
370
   -1
100
AcDbCircle
 10
25.13795000000003
 20
44.57051168372042
 40
3.704815736317857
  0
CIRCLE
  5
75
100
AcDbEntity
  8
posts
  6
ByLayer
 62
  256
370
   -1
100
AcDbCircle
 10
5.358809999999984
 20
9.155774316279601
 40
3.704325094167247
  0
CIRCLE
  5
76
100
AcDbEntity
  8
posts
  6
ByLayer
 62
  256
370
   -1
100
AcDbCircle
 10
24.99385944620279
 20
9.218893500000004
 40
3.704652183720418
  0
LWPOLYLINE
  5
77
100
AcDbEntity
  8
words
  6
ByLayer
 62
    7
370
   -1
100
AcDbPolyline
 90
   51
 70
    1
 43
0
 10
4.416366999999999
 20
23.58445399999999
 10
4.486859000000002
 20
21.88086099999999
 10
4.545605000000001
 20
20.17726699999999
 10
4.510357000000005
 20
18.802643
 10
4.463360000000001
 20
17.428023
 10
4.475116000000006
 20
16.96981499999999
 10
4.557361000000006
 20
16.46460999999999
 10
4.639602999999999
 20
16.23550599999999
 10
4.768841000000001
 20
16.04164999999999
 10
4.942138000000006
 20
15.90947199999999
 10
5.180051999999995
 20
15.865414
 10
5.503147000000005
 20
15.93003099999999
 10
5.767499000000007
 20
16.12389099999999
 10
5.949605999999995
 20
16.408802
 10
6.049471000000002
 20
16.72308699999999
 10
6.322633000000002
 20
16.33243599999999
 10
6.695664
 20
16.00640199999999
 10
7.136248000000001
 20
15.78611099999999
 10
7.612079999999998
 20
15.71267999999999
 10
8.105532999999999
 20
15.80373499999999
 10
8.528493000000003
 20
16.07689399999999
 10
8.875086000000001
 20
16.47929499999999
 10
9.162936000000007
 20
16.95806599999999
 10
9.380291000000005
 20
17.48676599999999
 10
9.538902999999996
 20
18.03896499999999
 10
9.656388999999995
 20
19.01412299999999
 10
9.621144000000006
 20
19.68381499999999
 10
9.503655
 20
20.44749399999999
 10
9.268676000000005
 20
21.199423
 10
8.916208000000003
 20
21.86911099999999
 10
8.675355000000001
 20
22.13346299999999
 10
8.399257999999994
 20
22.339069
 10
8.073224000000002
 20
22.47124599999999
 10
7.706071000000001
 20
22.51530399999999
 10
7.291921000000008
 20
22.45362199999999
 10
6.895395
 20
22.268577
 10
6.554676000000007
 20
21.99247499999999
 10
6.307948000000002
 20
21.65763099999999
 10
6.202208000000005
 20
23.525711
 10
6.166959999999995
 20
24.04266199999999
 10
6.072970000000005
 20
24.61835899999999
 10
5.970169000000005
 20
24.868026
 10
5.826242
 20
25.07656699999999
 10
5.623575000000009
 20
25.217555
 10
5.344539000000004
 20
25.26454899999999
 10
5.042003000000001
 20
25.22342999999999
 10
4.815834999999999
 20
25.10006599999999
 10
4.654288000000001
 20
24.912081
 10
4.545611999999998
 20
24.677102
 10
4.439872
 20
24.136653
 10
4.416360000000004
 20
23.58445399999999
  0
LWPOLYLINE
  5
78
100
AcDbEntity
  8
words
  6
ByLayer
 62
    7
370
   -1
100
AcDbPolyline
 90
   22
 70
    1
 43
0
 10
6.331440000000007
 20
18.36793399999999
 10
6.343195999999998
 20
18.89663799999999
 10
6.343195999999998
 20
19.425338
 10
6.507679000000003
 20
19.75430699999999
 10
6.742657999999998
 20
20.09502599999999
 10
7.036383000000007
 20
20.36525199999999
 10
7.206740000000003
 20
20.44455799999999
 10
7.388851000000009
 20
20.470992
 10
7.579771
 20
20.43867999999999
 10
7.729569000000004
 20
20.34174999999999
 10
7.917550999999995
 20
20.02453
 10
7.999792000000006
 20
19.636814
 10
8.011549000000008
 20
19.27259699999999
 10
7.988036
 20
18.84963699999999
 10
7.905795000000004
 20
18.29743799999999
 10
7.717812999999999
 20
17.80398199999999
 10
7.579764000000003
 20
17.64537399999999
 10
7.400590000000001
 20
17.59250199999999
 10
7.095119000000003
 20
17.65124899999999
 10
6.813147000000007
 20
17.81573199999999
 10
6.554668999999996
 20
18.03896099999999
 10
6.331440000000007
 20
18.27394
  0
LWPOLYLINE
  5
79
100
AcDbEntity
  8
words
  6
ByLayer
 62
    7
370
   -1
100
AcDbPolyline
 90
   56
 70
    1
 43
0
 10
9.961855999999999
 20
17.94496999999999
 10
10.026474
 20
17.54844399999999
 10
10.22033
 20
17.15779299999999
 10
10.502306
 20
16.79944999999999
 10
10.854774
 20
16.47635599999999
 10
11.245425
 20
16.20906799999999
 10
11.66545
 20
15.99464899999999
 10
12.082535
 20
15.86247499999999
 10
12.464373
 20
15.81841699999999
 10
13.054758
 20
15.894784
 10
13.580523
 20
16.12388799999999
 10
14.024043
 20
16.48222999999999
 10
14.391196
 20
16.92281399999999
 10
14.681985
 20
17.428019
 10
14.896401
 20
17.980218
 10
15.019765
 20
18.55885099999999
 10
15.060887
 20
19.11986299999999
 10
15.019765
 20
19.72786999999999
 10
14.896401
 20
20.37699499999999
 10
14.690795
 20
21.02024899999999
 10
14.40294499999999
 20
21.61063399999999
 10
14.02110700000001
 20
22.12758499999999
 10
13.557024
 20
22.550545
 10
13.286798
 20
22.715032
 10
12.99307600000001
 20
22.832521
 10
12.33513800000001
 20
22.92651199999999
 10
11.944486
 20
22.891264
 10
11.57145500000001
 20
22.78552399999999
 10
11.23074
 20
22.62691199999999
 10
10.93701500000001
 20
22.40955799999999
 10
10.693226
 20
22.139334
 10
10.502306
 20
21.822114
 10
10.378942
 20
21.460836
 10
10.337819
 20
21.05843199999999
 10
10.39656199999999
 20
20.52385699999999
 10
10.572798
 20
20.02453
 10
10.84596
 20
19.57513199999999
 10
11.19549200000001
 20
19.19035599999999
 10
11.612578
 20
18.87019699999999
 10
12.08841
 20
18.61465799999999
 10
12.599486
 20
18.450172
 10
13.12231500000001
 20
18.37967999999999
 10
13.03125999999999
 20
18.08595499999999
 10
12.852089
 20
17.88622399999999
 10
12.59655
 20
17.77167399999999
 10
12.29989
 20
17.73348999999999
 10
12.06785
 20
17.76284599999999
 10
11.841682
 20
17.85096199999999
 10
11.406972
 20
18.10943599999999
 10
10.995758
 20
18.379663
 10
10.78427800000001
 20
18.467779
 10
10.572798
 20
18.49716899999999
 10
10.34956900000001
 20
18.45898599999999
 10
10.14983799999999
 20
18.34443199999999
 10
10.00885
 20
18.16819999999999
 10
9.961855999999999
 20
17.94496999999999
  0
LWPOLYLINE
  5
7A
100
AcDbEntity
  8
words
  6
ByLayer
 62
    7
370
   -1
100
AcDbPolyline
 90
   14
 70
    1
 43
0
 10
11.86518
 20
20.82345299999999
 10
11.94742199999999
 20
21.14067699999999
 10
12.05316200000001
 20
21.26404099999999
 10
12.20589900000001
 20
21.30515999999999
 10
12.443813
 20
21.269912
 10
12.64060800000001
 20
21.16417199999999
 10
12.93432999999999
 20
20.82345299999999
 10
13.12231500000001
 20
20.38874399999999
 10
13.19280700000001
 20
19.95403499999999
 10
12.805091
 20
20.048025
 10
12.370382
 20
20.20076199999999
 10
12.017914
 20
20.45923999999999
 10
11.903364
 20
20.626662
 10
11.86518
 20
20.82345299999999
  0
LWPOLYLINE
  5
7B
100
AcDbEntity
  8
words
  6
ByLayer
 62
    7
370
   -1
100
AcDbPolyline
 90
   58
 70
    1
 43
0
 10
15.60133700000001
 20
19.73080499999999
 10
15.66008300000001
 20
18.95537699999999
 10
15.824566
 20
18.08595799999999
 10
16.118291
 20
17.21653599999999
 10
16.318022
 20
16.81413499999999
 10
16.56474999999999
 20
16.45285699999999
 10
16.846725
 20
16.15619599999999
 10
17.17569100000001
 20
15.92415699999999
 10
17.54578300000001
 20
15.77435899999999
 10
17.974618
 20
15.72442599999999
 10
18.43576499999999
 20
15.78023299999999
 10
18.85579
 20
15.94765499999999
 10
19.217068
 20
16.212007
 10
19.525478
 20
16.558597
 10
19.60771899999999
 20
16.25900099999999
 10
19.78395100000001
 20
15.994649
 10
20.036554
 20
15.818417
 10
20.347899
 20
15.75967
 10
20.532945
 20
15.809603
 10
20.688618
 20
15.95940099999999
 10
20.900102
 20
16.464606
 10
21.029337
 20
17.157793
 10
21.07633399999999
 20
17.886224
 10
21.08809
 20
18.52066799999999
 10
21.08809
 20
18.920129
 10
21.08809
 20
19.71905599999999
 10
21.064578
 20
20.52973199999999
 10
21.07633399999999
 20
21.12892799999999
 10
21.064578
 20
22.01009599999999
 10
21.017584
 20
23.008753
 10
20.864847
 20
23.94866799999998
 10
20.738547
 20
24.33344499999999
 10
20.57112199999999
 20
24.64185499999999
 10
20.35670599999999
 20
24.84746
 10
20.089419
 20
24.92382699999999
 10
19.872064
 20
24.88270799999999
 10
19.68995400000001
 20
24.759344
 10
19.540156
 20
24.56842299999999
 10
19.419731
 20
24.324634
 10
19.243495
 20
23.71368899999998
 10
19.149504
 20
23.044001
 10
19.114257
 20
22.40955799999999
 10
19.1025
 20
21.927854
 10
19.114257
 20
21.76336799999999
 10
19.114257
 20
21.504891
 10
19.114257
 20
21.24641699999999
 10
19.114257
 20
21.12892799999999
 10
18.808786
 20
21.56363699999999
 10
18.362327
 20
21.93960399999999
 10
17.84537600000001
 20
22.20982699999999
 10
17.32842199999999
 20
22.31556699999998
 10
16.876088
 20
22.25094899999999
 10
16.505996
 20
22.05709299999999
 10
16.200526
 20
21.77511699999999
 10
15.96554700000001
 20
21.42264899999999
 10
15.795189
 20
21.01731299999999
 10
15.683575
 20
20.576729
 10
15.60133
 20
19.73080499999999
  0
LWPOLYLINE
  5
7C
100
AcDbEntity
  8
words
  6
ByLayer
 62
    7
370
   -1
100
AcDbPolyline
 90
   21
 70
    1
 43
0
 10
17.32842800000001
 20
19.37833699999999
 10
17.351941
 20
19.68381199999999
 10
17.434182
 20
19.98928199999999
 10
17.610418
 20
20.224261
 10
17.733782
 20
20.29475299999999
 10
17.89239
 20
20.31826599999999
 10
18.268357
 20
20.23602399999999
 10
18.609075
 20
20.02454399999999
 10
18.91454600000001
 20
19.742568
 10
19.161274
 20
19.46059599999999
 10
19.278764
 20
18.41494099999999
 10
19.07022200000001
 20
18.171152
 10
18.820556
 20
17.98023199999999
 10
18.532705
 20
17.86567799999999
 10
18.20961
 20
17.82749499999999
 10
17.97463200000001
 20
17.86861699999999
 10
17.78665
 20
17.99198099999999
 10
17.63097700000001
 20
18.17408799999999
 10
17.51642400000001
 20
18.39144299999999
 10
17.37543900000001
 20
18.90839399999999
 10
17.328442
 20
19.37835099999998
  0
LWPOLYLINE
  5
7D
100
AcDbEntity
  8
words
  6
ByLayer
 62
    7
370
   -1
100
AcDbPolyline
 90
   56
 70
    1
 43
0
 10
25.000472
 20
20.24777299999998
 10
25.282447
 20
20.27128599999999
 10
25.517426
 20
20.36527999999999
 10
25.728906
 20
20.44752099999999
 10
25.963885
 20
20.48276599999999
 10
26.187114
 20
20.44457899999999
 10
26.386845
 20
20.353531
 10
26.715814
 20
20.05980599999999
 10
26.962542
 20
19.66034400000001
 10
27.127029
 20
19.23738400000001
 10
27.185772
 20
18.802671
 10
27.197528
 20
18.19172899999999
 10
27.209284
 20
17.54553599999999
 10
27.232796
 20
17.063833
 10
27.291539
 20
16.617374
 10
27.444276
 20
16.147417
 10
27.702753
 20
15.771451
 10
27.890735
 20
15.6569
 10
28.125714
 20
15.618717
 10
28.313695
 20
15.648107
 10
28.478182
 20
15.73622
 10
28.724906
 20
16.041694
 10
28.889393
 20
16.49990199999999
 10
28.983383
 20
17.028602
 10
29.04213
 20
17.59254999999999
 10
29.065642
 20
18.12125099999999
 10
29.065642
 20
18.591208
 10
29.053886
 20
18.931927
 10
29.100879
 20
19.754352
 10
29.124392
 20
20.588526
 10
29.100879
 20
21.16422000000001
 10
28.971641
 20
21.75166700000001
 10
28.842402
 20
22.010144
 10
28.66617
 20
22.221624
 10
28.416507
 20
22.362609
 10
28.090473
 20
22.40960600000001
 10
27.905427
 20
22.377293
 10
27.749754
 20
22.28036700000001
 10
27.526525
 20
21.96314300000001
 10
27.385537
 20
21.563682
 10
27.326794
 20
21.175966
 10
27.027194
 20
21.590116
 10
26.69235
 20
21.91614999999999
 10
26.287014
 20
22.142315
 10
25.775938
 20
22.23336999999999
 10
25.223735
 20
22.17462699999999
 10
24.956448
 20
22.092382
 10
24.718534
 20
21.963143
 10
24.507054
 20
21.79866
 10
24.342567
 20
21.58717999999999
 10
24.225078
 20
21.33164199999998
 10
24.178084
 20
21.03498199999999
 10
24.222135
 20
20.70307299999999
 10
24.401314
 20
20.45928399999999
 10
24.674476
 20
20.30654699999999
 10
25.000506
 20
20.24780399999999
  0
LWPOLYLINE
  5
7E
100
AcDbEntity
  8
words
  6
ByLayer
 62
    7
370
   -1
100
AcDbPolyline
 90
   56
 70
    1
 43
0
 10
29.559053
 20
17.944998
 10
29.623671
 20
17.548472
 10
29.81753
 20
17.15782
 10
30.099503
 20
16.799478
 10
30.451971
 20
16.476383
 10
30.842622
 20
16.209096
 10
31.262646
 20
15.99467699999999
 10
31.679732
 20
15.862502
 10
32.061573
 20
15.818444
 10
32.651955
 20
15.894811
 10
33.17772
 20
16.123915
 10
33.621243
 20
16.48225799999999
 10
33.988396
 20
16.922842
 10
34.279182
 20
17.428047
 10
34.493598
 20
17.980246
 10
34.616962
 20
18.558879
 10
34.658084
 20
19.119891
 10
34.616962
 20
19.727897
 10
34.493598
 20
20.377022
 10
34.287992
 20
21.02027600000001
 10
34.000145
 20
21.610662
 10
33.618304
 20
22.127613
 10
33.154221
 20
22.550573
 10
32.883998
 20
22.71505900000001
 10
32.590273
 20
22.832549
 10
31.932335
 20
22.92653900000001
 10
31.541683
 20
22.891292
 10
31.168656
 20
22.785552
 10
30.827937
 20
22.62694000000001
 10
30.534212
 20
22.409585
 10
30.290423
 20
22.139362
 10
30.099503
 20
21.822142
 10
29.976139
 20
21.460864
 10
29.93502
 20
21.05846
 10
29.993766
 20
20.52388500000001
 10
30.169998
 20
20.02455800000001
 10
30.443157
 20
19.57516
 10
30.792689
 20
19.190383
 10
31.209778
 20
18.870224
 10
31.685607
 20
18.61468599999999
 10
32.196686
 20
18.450199
 10
32.719512
 20
18.379707
 10
32.628457
 20
18.085982
 10
32.449285
 20
17.886251
 10
32.193747
 20
17.771701
 10
31.897087
 20
17.733518
 10
31.665047
 20
17.762874
 10
31.438879
 20
17.85099
 10
31.004169
 20
18.10946399999999
 10
30.592958
 20
18.37969
 10
30.381478
 20
18.467806
 10
30.169998
 20
18.497197
 10
29.946769
 20
18.45901299999999
 10
29.747035
 20
18.344459
 10
29.606047
 20
18.16822699999999
 10
29.559053
 20
17.944998
  0
LWPOLYLINE
  5
7F
100
AcDbEntity
  8
words
  6
ByLayer
 62
    7
370
   -1
100
AcDbPolyline
 90
   14
 70
    1
 43
0
 10
31.462377
 20
20.823481
 10
31.544619
 20
21.14070500000001
 10
31.650359
 20
21.26406800000001
 10
31.803096
 20
21.305187
 10
32.041014
 20
21.26994000000001
 10
32.237805
 20
21.1642
 10
32.53153
 20
20.823481
 10
32.719512
 20
20.38877100000001
 10
32.790004
 20
19.954062
 10
32.402292
 20
20.048053
 10
31.967582
 20
20.20079000000001
 10
31.615114
 20
20.45926700000001
 10
31.500561
 20
20.626689
 10
31.462377
 20
20.823481
  0
LWPOLYLINE
  5
80
100
AcDbEntity
  8
words
  6
ByLayer
 62
    7
370
   -1
100
AcDbPolyline
 90
   70
 70
    1
 43
0
 10
36.761142
 20
15.524719
 10
36.940314
 20
15.571716
 10
37.078363
 20
15.712704
 10
37.254595
 20
16.123915
 10
37.33684
 20
16.593872
 10
37.348596
 20
16.969839
 10
37.313352
 20
17.67477100000001
 10
37.219361
 20
18.379707
 10
37.125367
 20
19.084643
 10
37.078373
 20
19.78957900000001
 10
37.090129
 20
20.09505
 10
37.148872
 20
20.400521
 10
37.278111
 20
20.64724900000001
 10
37.38679
 20
20.717741
 10
37.524838
 20
20.74125300000001
 10
37.636453
 20
20.697195
 10
37.759817
 20
20.565021
 10
38.006545
 20
20.177305
 10
38.194527
 20
19.742596
 10
38.265019
 20
19.425376
 10
38.265019
 20
18.896675
 10
38.253263
 20
18.367972
 10
38.253263
 20
17.68653400000001
 10
38.28851
 20
17.251825
 10
38.359006
 20
16.817115
 10
38.464746
 20
16.405905
 10
38.652728
 20
16.065186
 10
38.911205
 20
15.830207
 10
39.078627
 20
15.759712
 10
39.275419
 20
15.736199
 10
39.489838
 20
15.774383
 10
39.663134
 20
15.88893600000001
 10
39.909862
 20
16.276652
 10
40.05085
 20
16.817102
 10
40.109593
 20
17.404548
 10
40.121349
 20
17.933249
 10
40.109593
 20
18.320964
 10
40.109593
 20
18.873163
 10
40.133105
 20
19.754331
 10
40.144862
 20
20.62375000000001
 10
40.144862
 20
21.222946
 10
40.050871
 20
21.927882
 10
39.942192
 20
22.253916
 10
39.780644
 20
22.52707400000001
 10
39.548605
 20
22.71212
 10
39.228446
 20
22.77380200000001
 10
39.07277300000001
 20
22.74736799999999
 10
38.934721
 20
22.668062
 10
38.711491
 20
22.409585
 10
38.547008
 20
22.08061600000001
 10
38.441268
 20
21.77514500000001
 10
38.171042
 20
22.092365
 10
37.806825
 20
22.362591
 10
37.360366
 20
22.550573
 10
36.796418
 20
22.621069
 10
36.264782
 20
22.547637
 10
35.868256
 20
22.32734400000001
 10
35.574534
 20
22.007188
 10
35.3748
 20
21.610662
 10
35.242626
 20
21.170078
 10
35.175069
 20
20.694246
 10
35.139821
 20
19.80132800000001
 10
35.175069
 20
19.202132
 10
35.292559
 20
18.332714
 10
35.492289
 20
17.357551
 10
35.79776
 20
16.452885
 10
35.99162
 20
16.079857
 10
36.22072
 20
15.783196
 10
36.473323
 20
15.58934
 10
36.761173
 20
15.524719
  0
LWPOLYLINE
  5
81
100
AcDbEntity
  8
words
  6
ByLayer
 62
    7
370
   -1
100
AcDbPolyline
 90
   70
 70
    1
 43
0
 10
42.377124
 20
15.524719
 10
42.556296
 20
15.571716
 10
42.694344
 20
15.712704
 10
42.870577
 20
16.123915
 10
42.952822
 20
16.593872
 10
42.964578
 20
16.969839
 10
42.929333
 20
17.67477100000001
 10
42.835343
 20
18.379707
 10
42.741348
 20
19.084643
 10
42.694355
 20
19.78957900000001
 10
42.706111
 20
20.09505
 10
42.764854
 20
20.400521
 10
42.894092
 20
20.64724900000001
 10
43.002771
 20
20.717741
 10
43.14082000000001
 20
20.74125300000001
 10
43.252435
 20
20.697195
 10
43.375799
 20
20.565021
 10
43.622527
 20
20.177305
 10
43.810508
 20
19.742596
 10
43.881001
 20
19.425376
 10
43.881001
 20
18.896675
 10
43.869244
 20
18.367972
 10
43.869244
 20
17.68653400000001
 10
43.904492
 20
17.251825
 10
43.974984
 20
16.817115
 10
44.080728
 20
16.405905
 10
44.268709
 20
16.065186
 10
44.527187
 20
15.830207
 10
44.694609
 20
15.759712
 10
44.8914
 20
15.736199
 10
45.10582
 20
15.774383
 10
45.279116
 20
15.88893600000001
 10
45.525844
 20
16.276652
 10
45.666832
 20
16.817102
 10
45.725575
 20
17.404548
 10
45.737331
 20
17.933249
 10
45.725575
 20
18.320964
 10
45.725575
 20
18.873163
 10
45.749087
 20
19.754331
 10
45.760843
 20
20.62375000000001
 10
45.760843
 20
21.222946
 10
45.666853
 20
21.927882
 10
45.558174
 20
22.253916
 10
45.396626
 20
22.52707400000001
 10
45.164587
 20
22.71212
 10
44.844427
 20
22.77380200000001
 10
44.688755
 20
22.74736799999999
 10
44.550702
 20
22.668062
 10
44.327473
 20
22.409585
 10
44.16299
 20
22.08061600000001
 10
44.05725
 20
21.77514500000001
 10
43.787024
 20
22.092365
 10
43.422806
 20
22.362591
 10
42.976348
 20
22.550573
 10
42.4124
 20
22.621069
 10
41.880764
 20
22.547637
 10
41.484238
 20
22.32734400000001
 10
41.190516
 20
22.007188
 10
40.990782
 20
21.610662
 10
40.858608
 20
21.170078
 10
40.791051
 20
20.694246
 10
40.755803
 20
19.80132800000001
 10
40.791051
 20
19.202132
 10
40.90854
 20
18.332714
 10
41.108271
 20
17.357551
 10
41.413742
 20
16.452885
 10
41.607602
 20
16.079857
 10
41.836702
 20
15.783196
 10
42.089305
 20
15.58934
 10
42.377155
 20
15.524719
  0
LWPOLYLINE
  5
82
100
AcDbEntity
  8
words
  6
ByLayer
 62
    7
370
   -1
100
AcDbPolyline
 90
   17
 70
    1
 43
0
 10
46.641981
 20
24.054435
 10
46.735971
 20
23.760714
 10
46.959201
 20
23.525735
 10
47.264675
 20
23.37299800000001
 10
47.570146
 20
23.32600100000001
 10
47.79044
 20
23.35535700000001
 10
47.981357
 20
23.443473
 10
48.113534
 20
23.59327099999999
 10
48.157593
 20
23.80769000000001
 10
48.075348
 20
24.113161
 10
47.852118
 20
24.336391
 10
47.558397
 20
24.47737800000001
 10
47.241177
 20
24.524376
 10
47.026757
 20
24.49794099999999
 10
46.829962
 20
24.41863600000001
 10
46.688978
 20
24.27471200000001
 10
46.641981
 20
24.054418
  0
LWPOLYLINE
  5
83
100
AcDbEntity
  8
words
  6
ByLayer
 62
    7
370
   -1
100
AcDbPolyline
 90
   32
 70
    1
 43
0
 10
46.54799
 20
20.05978500000001
 10
46.54799
 20
19.70731700000001
 10
46.559746
 20
19.36659800000001
 10
46.571502
 20
18.826149
 10
46.595014
 20
18.109464
 10
46.677256
 20
17.322286
 10
46.841739
 20
16.593855
 10
46.979791
 20
16.294259
 10
47.158963
 20
16.053406
 10
47.373378
 20
15.900669
 10
47.640666
 20
15.841926
 10
47.846271
 20
15.880106
 10
48.016632
 20
16.018158
 10
48.275109
 20
16.499864
 10
48.416094
 20
17.169552
 10
48.486589
 20
17.88623400000001
 10
48.510102
 20
18.53242700000001
 10
48.510102
 20
18.967137
 10
48.510102
 20
19.495837
 10
48.486589
 20
20.24777
 10
48.404348
 20
21.05844200000001
 10
48.216363
 20
21.810375
 10
48.06950000000001
 20
22.118785
 10
47.887394
 20
22.362574
 10
47.661229
 20
22.52118600000001
 10
47.382192
 20
22.574054
 10
47.103155
 20
22.494748
 10
46.900485
 20
22.25683399999999
 10
46.756562
 20
21.913176
 10
46.653757
 20
21.51665
 10
46.559767
 20
20.67073
 10
46.548011
 20
20.05978500000001
  0
LWPOLYLINE
  5
84
100
AcDbEntity
  8
words
  6
ByLayer
 62
    7
370
   -1
100
AcDbPolyline
 90
   51
 70
    1
 43
0
 10
49.36773
 20
23.58446100000001
 10
49.438226
 20
21.880868
 10
49.496969
 20
20.177274
 10
49.461721
 20
18.80265
 10
49.414727
 20
17.42803
 10
49.426483
 20
16.969822
 10
49.508725
 20
16.46461700000001
 10
49.59097
 20
16.235513
 10
49.720205
 20
16.041656
 10
49.89350200000001
 20
15.909479
 10
50.131419
 20
15.865421
 10
50.454514
 20
15.930038
 10
50.718862
 20
16.123898
 10
50.900973
 20
16.408809
 10
51.000838
 20
16.72309400000001
 10
51.274
 20
16.33244200000001
 10
51.647028
 20
16.00640900000001
 10
52.087612
 20
15.78611800000001
 10
52.563444
 20
15.71268700000001
 10
53.056899
 20
15.80374200000001
 10
53.47986
 20
16.07690100000001
 10
53.826453
 20
16.47930100000001
 10
54.11430000000001
 20
16.958072
 10
54.331655
 20
17.48677300000001
 10
54.490266
 20
18.03897100000001
 10
54.607756
 20
19.01413000000001
 10
54.572508
 20
19.683822
 10
54.455019
 20
20.447501
 10
54.22004
 20
21.19943
 10
53.867575
 20
21.86911800000001
 10
53.626722
 20
22.13347
 10
53.350621
 20
22.339076
 10
53.024591
 20
22.47125300000001
 10
52.657434
 20
22.515311
 10
52.243284
 20
22.453629
 10
51.846758
 20
22.268583
 10
51.506043
 20
21.992482
 10
51.259315
 20
21.65763800000001
 10
51.153575
 20
23.52571800000001
 10
51.118327
 20
24.042669
 10
51.024337
 20
24.61836599999999
 10
50.921532
 20
24.868033
 10
50.777609
 20
25.07657400000001
 10
50.574939
 20
25.217562
 10
50.295902
 20
25.26455600000001
 10
49.993367
 20
25.223437
 10
49.767202
 20
25.100073
 10
49.605655
 20
24.912088
 10
49.496976
 20
24.677109
 10
49.391236
 20
24.13666
 10
49.36772300000001
 20
23.58446100000001
  0
LWPOLYLINE
  5
85
100
AcDbEntity
  8
words
  6
ByLayer
 62
    7
370
   -1
100
AcDbPolyline
 90
   22
 70
    1
 43
0
 10
51.282804
 20
18.36794100000001
 10
51.29456
 20
18.89664400000001
 10
51.29456
 20
19.425345
 10
51.459046
 20
19.754314
 10
51.694025
 20
20.09503300000001
 10
51.987746
 20
20.365259
 10
52.158107
 20
20.444565
 10
52.340214
 20
20.470999
 10
52.531135
 20
20.438687
 10
52.680933
 20
20.341757
 10
52.868915
 20
20.024537
 10
52.951159
 20
19.63682100000001
 10
52.962916
 20
19.272604
 10
52.939403
 20
18.84964400000001
 10
52.857158
 20
18.29744500000001
 10
52.669177
 20
17.803989
 10
52.531128
 20
17.64538100000001
 10
52.351957
 20
17.59250900000001
 10
52.046486
 20
17.65125600000001
 10
51.76451
 20
17.81573900000001
 10
51.506033
 20
18.03896800000001
 10
51.282804
 20
18.27394700000001
  0
LWPOLYLINE
  5
86
100
AcDbEntity
  8
words
  6
ByLayer
 62
    7
370
   -1
100
AcDbPolyline
 90
   56
 70
    1
 43
0
 10
57.756458
 20
17.94497700000001
 10
57.821079
 20
17.54845100000001
 10
58.014936
 20
17.15780000000001
 10
58.296911
 20
16.79945700000001
 10
58.649376
 20
16.47636200000001
 10
59.040027
 20
16.20907500000001
 10
59.460052
 20
15.994656
 10
59.877137
 20
15.862482
 10
60.258979
 20
15.818424
 10
60.849361
 20
15.89479
 10
61.375125
 20
16.12389400000001
 10
61.818648
 20
16.48223700000001
 10
62.185801
 20
16.92282100000001
 10
62.476587
 20
17.42802600000001
 10
62.691003
 20
17.98022500000001
 10
62.814367
 20
18.558858
 10
62.855489
 20
19.11987000000001
 10
62.814367
 20
19.72787600000001
 10
62.691003
 20
20.37700200000001
 10
62.485397
 20
21.02025600000001
 10
62.197551
 20
21.61064100000001
 10
61.815709
 20
22.12759200000001
 10
61.351627
 20
22.55055200000001
 10
61.081404
 20
22.71503900000001
 10
60.787679
 20
22.83252800000001
 10
60.12974
 20
22.92651900000001
 10
59.739089
 20
22.89127100000001
 10
59.366061
 20
22.78553100000001
 10
59.025342
 20
22.62691900000002
 10
58.73161700000001
 20
22.40956400000001
 10
58.487828
 20
22.139341
 10
58.296908
 20
21.822121
 10
58.173547
 20
21.46084300000001
 10
58.132425
 20
21.05843900000001
 10
58.191168
 20
20.523864
 10
58.367404
 20
20.024537
 10
58.640566
 20
19.575139
 10
58.990095
 20
19.19036300000001
 10
59.40718
 20
18.87020300000001
 10
59.883012
 20
18.61466500000001
 10
60.39409200000001
 20
18.45017900000001
 10
60.91691700000001
 20
18.37968700000001
 10
60.825862
 20
18.08596200000001
 10
60.646691
 20
17.88623100000001
 10
60.391153
 20
17.77168100000001
 10
60.094492
 20
17.733497
 10
59.862452
 20
17.76285300000001
 10
59.636284
 20
17.85096900000001
 10
59.201575
 20
18.10944300000001
 10
58.790364
 20
18.37966900000001
 10
58.578884
 20
18.46778600000001
 10
58.367404
 20
18.49717600000001
 10
58.144174
 20
18.45899300000001
 10
57.94444000000001
 20
18.34443900000001
 10
57.803456
 20
18.16820700000001
 10
57.756458
 20
17.94497700000001
  0
LWPOLYLINE
  5
87
100
AcDbEntity
  8
words
  6
ByLayer
 62
    7
370
   -1
100
AcDbPolyline
 90
   14
 70
    1
 43
0
 10
59.659783
 20
20.82346000000002
 10
59.74202400000001
 20
21.14068400000001
 10
59.847768
 20
21.26404800000001
 10
60.00050100000001
 20
21.30516700000002
 10
60.238419
 20
21.26991900000001
 10
60.435211
 20
21.16417900000002
 10
60.728936
 20
20.82346000000002
 10
60.91691700000001
 20
20.38875100000001
 10
60.98741
 20
19.95404100000001
 10
60.599697
 20
20.04803200000001
 10
60.164988
 20
20.20076900000002
 10
59.81252
 20
20.45924700000001
 10
59.697966
 20
20.62666900000001
 10
59.659783
 20
20.82346000000002
  0
LWPOLYLINE
  5
88
100
AcDbEntity
  8
words
  6
ByLayer
 62
    7
370
   -1
100
AcDbPolyline
 90
  104
 70
    1
 43
0
 10
63.46643100000001
 20
19.73081200000001
 10
63.46643100000001
 20
19.11987000000001
 10
63.489943
 20
18.29744500000001
 10
63.560436
 20
17.39277800000001
 10
63.748421
 20
16.58210200000001
 10
63.883534
 20
16.25019400000001
 10
64.05389099999999
 20
15.98290700000001
 10
64.268311
 20
15.806671
 10
64.53559799999999
 20
15.747928
 10
64.764702
 20
15.800796
 10
64.93505999999999
 20
15.95940800000001
 10
65.12304499999999
 20
16.47636200000001
 10
65.19353699999999
 20
17.07555800000001
 10
65.19353699999999
 20
17.55726100000001
 10
65.158289
 20
18.59116700000001
 10
65.12304499999999
 20
19.62507200000001
 10
65.12304499999999
 20
19.83655200000001
 10
65.14652199999999
 20
20.14202600000001
 10
65.22876699999999
 20
20.41224900000001
 10
65.290449
 20
20.50036600000001
 10
65.381501
 20
20.52975600000001
 10
65.57242199999999
 20
20.47394900000001
 10
65.72221999999999
 20
20.30652700000001
 10
65.93369999999999
 20
19.80132500000001
 10
66.05118899999999
 20
19.21387800000001
 10
66.098186
 20
18.79091500000001
 10
66.145183
 20
18.33271000000001
 10
66.19217699999999
 20
17.66301900000001
 10
66.286168
 20
16.911089
 10
66.450654
 20
16.21790200000001
 10
66.69738199999999
 20
15.712701
 10
66.86774
 20
15.562899
 10
67.07334499999999
 20
15.51296700000001
 10
67.32301199999999
 20
15.57464800000001
 10
67.50805799999999
 20
15.75969400000001
 10
67.640232
 20
16.02698200000001
 10
67.73128699999999
 20
16.33539200000001
 10
67.825278
 20
17.00508000000001
 10
67.83703399999999
 20
17.53378300000001
 10
67.83703399999999
 20
17.92149600000001
 10
67.825278
 20
18.30921200000001
 10
67.825278
 20
18.57943500000001
 10
67.83703399999999
 20
18.99064900000001
 10
67.860512
 20
19.47235200000002
 10
67.90750899999999
 20
19.91881100000001
 10
68.013249
 20
20.25952900000001
 10
68.08961599999999
 20
20.35645900000002
 10
68.177736
 20
20.38877100000001
 10
68.32459499999999
 20
20.33883900000001
 10
68.45970799999999
 20
20.18904100000001
 10
68.68293799999999
 20
19.73083300000001
 10
68.83567499999999
 20
19.21388200000001
 10
68.882668
 20
18.83791500000001
 10
68.882668
 20
18.76742300000001
 10
68.81217599999999
 20
17.66302200000001
 10
68.74168399999999
 20
16.55862500000001
 10
68.794556
 20
16.24140400000001
 10
68.95316399999999
 20
15.94768300000001
 10
69.20576699999999
 20
15.74501300000001
 10
69.540611
 20
15.67745600000001
 10
69.78733799999999
 20
15.72738900000001
 10
69.98706899999999
 20
15.87718700000001
 10
70.148617
 20
16.11804000000002
 10
70.28079099999999
 20
16.41763700000001
 10
70.468772
 20
17.13432200000001
 10
70.551017
 20
17.90975000000001
 10
70.58626199999999
 20
18.60293700000002
 10
70.58626199999999
 20
19.07289400000001
 10
70.598018
 20
19.58984500000001
 10
70.58626199999999
 20
20.33002900000001
 10
70.51576899999999
 20
21.14070500000002
 10
70.36303199999999
 20
21.90438300000001
 10
70.24260699999999
 20
22.21279300000001
 10
70.09280899999999
 20
22.45658200000001
 10
69.893079
 20
22.62400400000002
 10
69.646351
 20
22.67981100000002
 10
69.370249
 20
22.63868900000001
 10
69.152895
 20
22.51532800000001
 10
69.003097
 20
22.30972300000001
 10
68.95316399999999
 20
22.02187300000001
 10
68.96491999999999
 20
21.88088500000001
 10
68.976676
 20
21.75164600000001
 10
68.659453
 20
22.12761300000001
 10
68.259991
 20
22.48008100000001
 10
67.79003399999999
 20
22.73855800000002
 10
67.543306
 20
22.81786400000001
 10
67.296578
 20
22.84429800000001
 10
67.07334899999999
 20
22.81198600000001
 10
66.87361799999999
 20
22.71505600000001
 10
66.544648
 20
22.38608600000001
 10
66.30967
 20
21.97487200000002
 10
66.180431
 20
21.55191200000001
 10
65.898459
 20
21.97487200000002
 10
65.522492
 20
22.36258800000001
 10
65.087783
 20
22.63281100000001
 10
64.83811899999999
 20
22.71212000000001
 10
64.582578
 20
22.73855400000002
 10
64.353477
 20
22.69449600000002
 10
64.15961799999999
 20
22.56231900000001
 10
63.854147
 20
22.10411100000001
 10
63.654416
 20
21.48142000000001
 10
63.536927
 20
20.79998200000001
 10
63.47818
 20
20.17728800000001
 10
63.466424
 20
19.73082900000001
  0
LWPOLYLINE
  5
89
100
AcDbEntity
  8
words
  6
ByLayer
 62
    7
370
   -1
100
AcDbPolyline
 90
   35
 70
    0
 43
0
 10
73.74673399999999
 20
15.51296700000001
 10
74.30774699999999
 20
15.59227200000001
 10
74.792389
 20
15.83019000000001
 10
75.203603
 20
16.19146800000001
 10
75.54432199999999
 20
16.64086300000001
 10
75.81160899999999
 20
17.16075300000001
 10
76.00252599999999
 20
17.73351400000001
 10
76.11708
 20
18.33858100000001
 10
76.15526399999999
 20
18.93190300000001
 10
76.11708
 20
19.56340700000001
 10
76.00252599999999
 20
20.21253600000001
 10
75.80866999999999
 20
20.84991500000001
 10
75.532573
 20
21.42267300000001
 10
75.171291
 20
21.92200400000001
 10
74.721897
 20
22.31559100000002
 10
74.18144699999999
 20
22.57994300000001
 10
73.547004
 20
22.66805900000001
 10
72.938997
 20
22.57700400000001
 10
72.67244599999999
 20
22.46318500000001
 10
72.430857
 20
22.30384200000001
 10
72.007897
 20
21.90438000000001
 10
71.678927
 20
21.41092400000001
 10
71.438074
 20
20.85579000000001
 10
71.279462
 20
20.24778400000001
 10
71.20015599999999
 20
19.63096400000001
 10
71.19706199999999
 20
19.04939200000002
 10
71.264619
 20
18.42376200000001
 10
71.396793
 20
17.79225700000001
 10
71.58771399999999
 20
17.19012600000001
 10
71.855001
 20
16.65261200000002
 10
72.201595
 20
16.19440700000001
 10
72.63042899999999
 20
15.83019000000001
 10
73.14444499999999
 20
15.59227200000001
 10
73.74657599999999
 20
15.51296700000001
 10
73.74657599999999
 20
15.51296700000001
  0
LWPOLYLINE
  5
8A
100
AcDbEntity
  8
words
  6
ByLayer
 62
    7
370
   -1
100
AcDbPolyline
 90
   21
 70
    1
 43
0
 10
73.629087
 20
20.82347800000001
 10
73.79651199999999
 20
20.77648400000001
 10
73.94631
 20
20.63549600000001
 10
74.16954
 20
20.17728800000001
 10
74.298778
 20
19.60159100000001
 10
74.345772
 20
19.08464000000001
 10
74.298778
 20
18.47369500000001
 10
74.146041
 20
17.86275300000001
 10
73.92281199999999
 20
17.40454500000001
 10
73.77301399999999
 20
17.27236700000001
 10
73.605592
 20
17.22830900000001
 10
73.432295
 20
17.27236700000001
 10
73.28836799999999
 20
17.40454500000001
 10
73.06513899999999
 20
17.85100400000001
 10
72.947653
 20
18.43845000000001
 10
72.91240499999999
 20
19.04939200000002
 10
72.95939899999999
 20
19.61334000000002
 10
73.100387
 20
20.20078700000001
 10
73.323616
 20
20.64724500000001
 10
73.46460399999999
 20
20.77941900000002
 10
73.629087
 20
20.82347800000001
  0
LWPOLYLINE
  5
8B
100
AcDbEntity
  8
words
  6
ByLayer
 62
    7
370
   -1
100
AcDbPolyline
 90
   67
 70
    1
 43
0
 10
76.824794
 20
18.89665800000001
 10
76.83654999999999
 20
18.29746200000001
 10
76.871798
 20
17.47503700000002
 10
76.94229
 20
16.66436100000001
 10
77.05977899999999
 20
16.11216200000001
 10
77.306507
 20
15.72445000000001
 10
77.48567799999999
 20
15.60108600000001
 10
77.71771799999999
 20
15.55996400000001
 10
78.061376
 20
15.63927000000001
 10
78.293415
 20
15.87718400000001
 10
78.44027799999999
 20
16.23258700000001
 10
78.52839399999999
 20
16.66436100000001
 10
78.575391
 20
17.68651700000001
 10
78.587147
 20
18.70867300000002
 10
78.63121199999999
 20
19.14044700000001
 10
78.716386
 20
19.49585100000001
 10
78.86618399999999
 20
19.73376500000001
 10
79.10409799999999
 20
19.81307100000001
 10
79.447756
 20
19.78075900000001
 10
79.703294
 20
19.68383200000001
 10
79.87659099999999
 20
19.54578300000001
 10
79.99701499999999
 20
19.36660900000002
 10
80.102756
 20
18.90840100000001
 10
80.138003
 20
18.36795100000001
 10
80.17325099999999
 20
17.63952000000001
 10
80.27899099999999
 20
16.73485300000001
 10
80.40529099999999
 20
16.31776800000002
 10
80.596211
 20
15.95942200000001
 10
80.860563
 20
15.72150800000001
 10
81.23065199999999
 20
15.64220200000001
 10
81.46562999999999
 20
15.69213400000001
 10
81.653615
 20
15.84193600000001
 10
81.791664
 20
16.07104000000001
 10
81.90034
 20
16.35888700000001
 10
82.04132799999999
 20
17.06382300000001
 10
82.088325
 20
17.81575200000001
 10
82.088325
 20
18.49719000000001
 10
82.07656799999999
 20
18.95539800000001
 10
82.06481199999999
 20
19.73082600000001
 10
81.98257099999999
 20
20.92921800000001
 10
81.82983399999999
 20
22.30383800000001
 10
81.583106
 20
23.58447100000001
 10
81.415684
 20
24.11611100000001
 10
81.21888899999999
 20
24.53613500000001
 10
80.97803499999999
 20
24.80635800000001
 10
80.701938
 20
24.88860300000001
 10
80.52864099999999
 20
24.84160300000001
 10
80.38471799999999
 20
24.72411700000001
 10
80.16148799999999
 20
24.32465500000001
 10
80.00875099999999
 20
23.80770100000001
 10
79.92650999999999
 20
23.24375300000001
 10
79.891262
 20
22.73855100000002
 10
79.87950599999999
 20
22.37433400000001
 10
79.891262
 20
21.76338900000001
 10
79.92650999999999
 20
21.15244700000001
 10
79.612225
 20
21.48435200000001
 10
79.209824
 20
21.75163900000001
 10
78.751616
 20
21.92787500000001
 10
78.293408
 20
21.98661800000001
 10
77.779393
 20
21.90437600000001
 10
77.57745899999999
 20
21.80157200000001
 10
77.41224
 20
21.65764900000001
 10
77.15082699999999
 20
21.29930600000001
 10
76.977531
 20
20.85872200000001
 10
76.87766499999999
 20
20.37114100000001
 10
76.83654299999999
 20
19.84831500000001
 10
76.824787
 20
18.89665500000001
  0
LWPOLYLINE
  5
8C
100
AcDbEntity
  8
words
  6
ByLayer
 62
    7
370
   -1
100
AcDbPolyline
 90
   67
 70
    1
 43
0
 10
4.710486999999993
 20
42.93058499999999
 10
5.453605999999986
 20
42.98639199999999
 10
6.014618999999987
 20
43.15381399999997
 10
6.417018999999988
 20
43.41229199999997
 10
6.707804999999985
 20
43.76476
 10
6.886976999999994
 20
44.20534399999998
 10
6.978027999999987
 20
44.72816899999999
 10
7.025024999999991
 20
45.985304
 10
6.989777999999992
 20
47.089701
 10
6.884037999999982
 20
48.28809299999998
 10
7.142514999999981
 20
48.27633699999997
 10
7.295247999999993
 20
48.27633699999997
 10
7.644780999999987
 20
48.317459
 10
7.94144099999999
 20
48.44081999999999
 10
8.152920999999983
 20
48.649364
 10
8.223413999999982
 20
48.946025
 10
8.182294999999987
 20
49.14575599999997
 10
8.058930999999992
 20
49.32199199999997
 10
7.659465999999987
 20
49.603964
 10
7.130764999999989
 20
49.791945
 10
6.578566999999985
 20
49.88593999999998
 10
6.531569999999994
 20
50.614371
 10
6.36708699999999
 20
51.35455399999999
 10
6.217287999999988
 20
51.67764899999999
 10
6.026367999999983
 20
51.941998
 10
5.785514999999982
 20
52.11823299999998
 10
5.485914999999983
 20
52.17697599999998
 10
5.309682999999985
 20
52.14761999999997
 10
5.156945999999983
 20
52.059504
 10
4.910217999999992
 20
51.77753199999999
 10
4.769232999999992
 20
51.40156499999998
 10
4.722235999999988
 20
50.990354
 10
4.757483999999983
 20
50.50864799999999
 10
4.886722999999981
 20
49.89770599999999
 10
4.61649599999999
 20
49.921218
 10
4.487257999999989
 20
49.93297499999999
 10
4.07604699999998
 20
49.89772999999999
 10
3.676581999999988
 20
49.780241
 10
3.37111099999999
 20
49.55701099999999
 10
3.282994999999991
 20
49.41308799999997
 10
3.253638999999984
 20
49.23978799999998
 10
3.297696999999991
 20
49.04005699999998
 10
3.429870999999983
 20
48.86382499999998
 10
3.852833999999993
 20
48.58184899999998
 10
4.405032999999981
 20
48.39386799999998
 10
4.957231999999983
 20
48.31162599999998
 10
5.062971999999994
 20
47.41870499999999
 10
5.121717999999993
 20
46.60803299999997
 10
5.168711999999991
 20
46.19681799999999
 10
5.180467999999983
 20
45.785607
 10
5.168711999999991
 20
45.42138999999999
 10
5.086470999999981
 20
45.03367799999999
 10
4.863240999999993
 20
44.704705
 10
4.681133999999992
 20
44.607779
 10
4.440280999999991
 20
44.57546599999998
 10
4.099561999999984
 20
44.59897899999999
 10
3.747093999999981
 20
44.63422699999999
 10
3.485681999999988
 20
44.58135799999999
 10
3.312384999999983
 20
44.42274599999998
 10
3.206644999999986
 20
44.18189299999999
 10
3.17139699999999
 20
43.882297
 10
3.209580999999991
 20
43.65025399999998
 10
3.324130999999985
 20
43.447588
 10
3.485677999999984
 20
43.28897599999997
 10
3.688347999999982
 20
43.16561199999999
 10
4.193552999999986
 20
42.98937999999998
 10
4.710503999999992
 20
42.93063299999999
  0
LWPOLYLINE
  5
8D
100
AcDbEntity
  8
words
  6
ByLayer
 62
    7
370
   -1
100
AcDbPolyline
 90
   56
 70
    1
 43
0
 10
7.92970899999998
 20
49.81546499999998
 10
7.988451999999987
 20
49.51880399999999
 10
8.164684999999983
 20
49.31026299999999
 10
8.669889999999986
 20
48.993043
 10
9.186840999999992
 20
48.65232399999999
 10
9.35426299999998
 20
48.40265699999998
 10
9.410069999999982
 20
48.05312799999997
 10
9.386557999999985
 20
47.85633299999997
 10
9.316064999999986
 20
47.688911
 10
9.069336999999981
 20
47.40693899999999
 10
8.740367999999981
 20
47.160211
 10
8.423147999999989
 20
46.86648599999999
 10
8.176419999999984
 20
46.46702399999999
 10
8.097113999999982
 20
46.205611
 10
8.070679999999987
 20
45.89132699999997
 10
8.135300999999989
 20
45.40080999999999
 10
8.329156999999986
 20
44.916168
 10
8.614068999999992
 20
44.46970899999999
 10
8.97534699999999
 20
44.07024399999999
 10
9.389496999999983
 20
43.741275
 10
9.856517999999985
 20
43.48279799999999
 10
10.34703499999998
 20
43.31537599999999
 10
10.83167699999999
 20
43.25956799999999
 10
11.23113899999999
 20
43.29481600000001
 10
11.59535599999999
 20
43.40055600000002
 10
11.85383299999999
 20
43.623785
 10
11.93313899999999
 20
43.797082
 10
11.95957299999998
 20
44.011501
 10
11.92726099999999
 20
44.30228700000001
 10
11.83033099999999
 20
44.516703
 10
11.68346899999999
 20
44.684125
 10
11.50136199999999
 20
44.810428
 10
11.07840199999999
 20
44.97491100000001
 10
10.64369199999999
 20
45.11589899999999
 10
10.31471899999999
 20
45.35087699999998
 10
10.21779299999999
 20
45.52123799999998
 10
10.18548099999999
 20
45.75033899999998
 10
10.23541399999998
 20
46.000002
 10
10.38521199999999
 20
46.255544
 10
10.80817199999999
 20
46.819492
 10
11.24288099999999
 20
47.465682
 10
11.38386899999998
 20
47.824024
 10
11.43086599999999
 20
48.21761099999998
 10
11.38093399999999
 20
48.70225700000002
 10
11.23113199999999
 20
49.14577600000001
 10
10.98734299999999
 20
49.55111599999999
 10
10.67893299999999
 20
49.89771
 10
10.30296699999999
 20
50.17968199999999
 10
9.880006999999983
 20
50.391162
 10
9.421798999999984
 20
50.53214999999999
 10
8.940094999999991
 20
50.57914699999999
 10
8.57587799999998
 20
50.543899
 10
8.246908999999993
 20
50.41466
 10
8.023678999999992
 20
50.17968199999999
 10
7.953186999999992
 20
50.01813399999998
 10
7.929674999999981
 20
49.81546499999998
  0
LWPOLYLINE
  5
8E
100
AcDbEntity
  8
words
  6
ByLayer
 62
    7
370
   -1
100
AcDbPolyline
 90
   62
 70
    1
 43
0
 10
12.08879099999999
 20
45.010159
 10
12.11230399999999
 20
44.45796000000001
 10
12.20629399999999
 20
43.78827200000001
 10
12.31203399999999
 20
43.491608
 10
12.46477199999999
 20
43.23607000000001
 10
12.67625199999998
 20
43.059837
 10
12.95822399999999
 20
43.00109400000002
 10
13.34300099999999
 20
43.071587
 10
13.62791199999999
 20
43.283067
 10
13.80120899999999
 20
43.60029
 10
13.85114099999999
 20
43.988003
 10
14.25354199999999
 20
43.694281
 10
14.70881399999998
 20
43.471048
 10
15.18464599999999
 20
43.330064
 10
15.67222399999999
 20
43.283067
 10
16.00413299999999
 20
43.324189
 10
16.31841699999999
 20
43.447553
 10
16.60626399999999
 20
43.635535
 10
16.85886699999998
 20
43.87051300000002
 10
17.07034699999999
 20
44.143675
 10
17.23482999999999
 20
44.44621100000001
 10
17.34056999999999
 20
44.772244
 10
17.37581699999999
 20
45.0924
 10
17.29063699999998
 20
45.6211
 10
17.03509899999999
 20
46.07930800000001
 10
16.64444699999999
 20
46.469963
 10
16.17742899999998
 20
46.79599400000001
 10
15.65753899999999
 20
47.069156
 10
15.10827599999998
 20
47.2777
 10
14.08611999999999
 20
47.512679
 10
14.08611999999999
 20
47.61841900000002
 10
14.07436399999998
 20
47.72415900000001
 10
14.12429699999999
 20
48.053128
 10
14.27409799999999
 20
48.311605
 10
14.51495099999999
 20
48.479027
 10
14.83804599999998
 20
48.534835
 10
15.11120799999998
 20
48.50840099999999
 10
15.34324799999998
 20
48.429095
 10
15.74271299999999
 20
48.205865
 10
16.11867599999998
 20
47.982633
 10
16.54163999999999
 20
47.888642
 10
16.78248899999999
 20
47.92976400000001
 10
16.98809799999999
 20
48.053128
 10
17.12027199999999
 20
48.24111000000001
 10
17.16433099999998
 20
48.476088
 10
17.10852299999998
 20
48.84618
 10
16.94110099999998
 20
49.181024
 10
16.67968799999999
 20
49.47181
 10
16.36540399999999
 20
49.70972500000001
 10
16.00118699999999
 20
49.90651999999999
 10
15.61347399999999
 20
50.050443
 10
15.21988399999998
 20
50.147373
 10
14.86154099999998
 20
50.179685
 10
14.22710099999998
 20
50.097444
 10
13.62790499999999
 20
49.86246499999999
 10
13.12270299999999
 20
49.474749
 10
12.91122299999998
 20
49.23096000000001
 10
12.74673699999999
 20
48.946049
 10
12.40601799999998
 20
48.01788399999999
 10
12.20628699999998
 20
47.019226
 10
12.11229699999999
 20
45.99707
 10
12.08878399999998
 20
45.010162
  0
LWPOLYLINE
  5
8F
100
AcDbEntity
  8
words
  6
ByLayer
 62
    7
370
   -1
100
AcDbPolyline
 90
   15
 70
    1
 43
0
 10
13.96861699999999
 20
45.386125
 10
14.00386499999998
 20
46.18505200000001
 10
14.05086199999999
 20
46.18505200000001
 10
14.09785599999998
 20
46.196808
 10
14.48557099999998
 20
46.114567
 10
14.92028099999998
 20
45.90308599999999
 10
15.28449799999999
 20
45.609361
 10
15.39023499999998
 20
45.441939
 10
15.42548199999999
 20
45.26864300000001
 10
15.39609199999999
 20
45.130594
 10
15.30797899999998
 20
45.04541300000001
 10
15.03775299999999
 20
44.98667000000001
 10
14.77046499999999
 20
45.018983
 10
14.48555399999998
 20
45.11591200000002
 10
13.96859999999999
 20
45.386136
  0
LWPOLYLINE
  5
90
100
AcDbEntity
  8
words
  6
ByLayer
 62
    7
370
   -1
100
AcDbPolyline
 90
   54
 70
    1
 43
0
 10
17.81049599999999
 20
46.854743
 10
17.83988599999998
 20
46.311358
 10
17.92800199999998
 20
45.715101
 10
18.07486499999998
 20
45.124716
 10
18.30396899999999
 20
44.575456
 10
18.60650399999999
 20
44.090811
 10
18.99715599999998
 20
43.69428500000002
 10
19.22258799999999
 20
43.540083
 10
19.47592299999999
 20
43.42993600000001
 10
20.06630499999999
 20
43.34182
 10
20.40702399999998
 20
43.365332
 10
20.74774299999999
 20
43.447577
 10
21.02971799999998
 20
43.600311
 10
21.22944899999999
 20
43.870537
 10
21.33518899999999
 20
42.178693
 10
21.35870199999999
 20
41.53250400000002
 10
21.45269199999999
 20
40.81581900000001
 10
21.56724299999998
 20
40.501534
 10
21.74641399999999
 20
40.24012100000002
 10
21.99314199999999
 20
40.05507500000002
 10
22.33385999999999
 20
39.993393
 10
22.53946599999999
 20
40.05214000000002
 10
22.70982699999999
 20
40.228372
 10
22.84787599999998
 20
40.48391
 10
22.95655499999999
 20
40.804069
 10
23.08578999999999
 20
41.59124700000002
 10
23.14453599999999
 20
42.425421
 10
23.15629299999999
 20
43.153852
 10
23.15629299999999
 20
43.63555900000002
 10
23.16804899999999
 20
45.198164
 10
23.17980499999999
 20
46.77251899999999
 10
23.17980499999999
 20
47.207229
 10
23.15629299999999
 20
47.865171
 10
23.08579699999998
 20
48.59360200000001
 10
22.92131399999999
 20
49.275039
 10
22.80088899999999
 20
49.55995
 10
22.65108699999999
 20
49.780244
 10
22.46898099999998
 20
49.93004200000001
 10
22.25162599999999
 20
49.979975
 10
21.98139899999999
 20
49.88598400000002
 10
21.76991899999999
 20
49.66275499999998
 10
21.61718199999999
 20
49.38077900000003
 10
21.52319099999999
 20
49.098807
 10
21.13253999999998
 20
49.46008500000001
 10
20.68901999999999
 20
49.72149800000001
 10
20.19262899999999
 20
49.88011000000002
 10
19.66686399999998
 20
49.93297800000001
 10
19.15578799999999
 20
49.853672
 10
18.75044799999998
 20
49.61575800000001
 10
18.42735399999999
 20
49.26035399999999
 10
18.18649999999999
 20
48.82858
 10
18.00732899999999
 20
48.340999
 10
17.89277499999999
 20
47.81817399999999
 10
17.81053399999998
 20
46.85476100000001
  0
LWPOLYLINE
  5
91
100
AcDbEntity
  8
words
  6
ByLayer
 62
    7
370
   -1
100
AcDbPolyline
 90
   25
 70
    1
 43
0
 10
19.49060799999999
 20
46.94873800000001
 10
19.52585599999998
 20
47.30120600000002
 10
19.63159599999999
 20
47.64192400000002
 10
19.84307599999999
 20
47.900398
 10
20.00168799999999
 20
47.979704
 10
20.19554399999999
 20
48.006138
 10
20.48632999999999
 20
47.959144
 10
20.79473999999998
 20
47.81815600000002
 10
21.06202699999999
 20
47.627236
 10
21.25294799999998
 20
47.40694600000001
 10
21.32343999999998
 20
47.10147100000001
 10
21.33519599999999
 20
46.78425100000001
 10
21.33519599999999
 20
46.561022
 10
21.31168399999999
 20
46.290795
 10
21.28817199999998
 20
46.020572
 10
21.22942899999999
 20
45.82084200000003
 10
21.07669099999999
 20
45.621107
 10
20.81821399999999
 20
45.468374
 10
20.53624199999999
 20
45.362634
 10
20.27776499999999
 20
45.327386
 10
20.05453499999999
 20
45.374383
 10
19.87830299999999
 20
45.515367
 10
19.64332499999998
 20
45.961826
 10
19.52583499999999
 20
46.49053
 10
19.49058699999998
 20
46.94873800000001
  0
LWPOLYLINE
  5
92
100
AcDbEntity
  8
words
  6
ByLayer
 62
    7
370
   -1
100
AcDbPolyline
 90
   85
 70
    1
 43
0
 10
33.51260899999999
 20
39.934633
 10
34.15879799999999
 20
40.028624
 10
34.82848599999999
 20
40.275352
 10
35.12220799999998
 20
40.45745900000001
 10
35.36893599999999
 20
40.674814
 10
35.52754799999999
 20
40.92741600000002
 10
35.58041599999998
 20
41.215263
 10
35.52167299999998
 20
41.450242
 10
35.36893599999999
 20
41.661722
 10
35.14570599999999
 20
41.80271
 10
34.89897899999999
 20
41.84970700000002
 10
34.62875499999999
 20
41.814459
 10
34.34677999999999
 20
41.708719
 10
34.05305799999998
 20
41.602979
 10
33.73583799999999
 20
41.555982
 10
33.46267599999999
 20
41.60591400000001
 10
33.23063299999999
 20
41.755716
 10
33.02502699999999
 20
41.987756
 10
32.85466999999999
 20
42.284416
 10
32.60794199999999
 20
43.001101
 10
32.46695399999999
 20
43.77652900000001
 10
32.38471299999999
 20
44.50496
 10
32.349465
 20
45.057159
 10
32.76067599999999
 20
44.50496
 10
33.17188999999999
 20
44.09375
 10
33.61834899999999
 20
43.847022
 10
34.15879799999999
 20
43.76478
 10
34.57882299999998
 20
43.81177700000001
 10
34.94597599999999
 20
43.952762
 10
35.25144599999999
 20
44.170116
 10
35.50992399999999
 20
44.446218
 10
35.72434299999999
 20
44.772251
 10
35.89763899999999
 20
45.139404
 10
36.13261799999998
 20
45.961826
 10
36.22660899999999
 20
46.78425100000001
 10
36.22660899999999
 20
47.536181
 10
36.16786199999998
 20
48.205872
 10
35.99162999999998
 20
49.028294
 10
35.85064199999998
 20
49.39544999999998
 10
35.66266099999998
 20
49.697982
 10
35.41887199999998
 20
49.903591
 10
35.11046199999999
 20
49.95645900000002
 10
34.90779199999998
 20
49.900649
 10
34.74624499999999
 20
49.756729
 10
34.52301499999999
 20
49.31027000000002
 10
34.39377699999998
 20
48.711074
 10
34.33502999999999
 20
48.076634
 10
34.33502999999999
 20
47.489187
 10
34.33502999999999
 20
47.089722
 10
34.32327399999999
 20
46.69026
 10
34.24102899999999
 20
46.32604300000001
 10
34.02954899999999
 20
46.07931500000002
 10
33.84744199999999
 20
46.008823
 10
33.60658899999998
 20
45.985311
 10
33.33342699999998
 20
46.023494
 10
33.12488299999999
 20
46.138048
 10
32.96333499999998
 20
46.308406
 10
32.85465999999999
 20
46.514011
 10
32.73716999999998
 20
47.007467
 10
32.71365799999999
 20
47.512672
 10
32.71365799999999
 20
47.912133
 10
32.71365799999999
 20
48.405589
 10
32.66666099999999
 20
48.910791
 10
32.53742199999998
 20
49.36899900000002
 10
32.30244399999999
 20
49.70971800000002
 10
32.12914999999999
 20
49.806647
 10
31.91473099999999
 20
49.83896000000001
 10
31.64156899999999
 20
49.780217
 10
31.40952599999998
 20
49.603981
 10
31.21566999999999
 20
49.342568
 10
31.05705799999999
 20
49.004785
 10
30.82208299999998
 20
48.19411300000002
 10
30.68109499999998
 20
47.30119500000001
 10
30.62234899999998
 20
46.490519
 10
30.59883599999999
 20
45.914822
 10
30.63408099999999
 20
44.786926
 10
30.77506899999999
 20
43.494543
 10
30.89549399999998
 20
42.842479
 10
31.06878999999998
 20
42.202164
 10
31.30083299999999
 20
41.591219
 10
31.59749399999999
 20
41.05077000000001
 10
31.95289799999999
 20
40.595497
 10
32.38467099999999
 20
40.24009400000001
 10
32.90162599999998
 20
40.01099
 10
33.51256699999999
 20
39.934623
  0
LWPOLYLINE
  5
93
100
AcDbEntity
  8
words
  6
ByLayer
 62
    7
370
   -1
100
AcDbPolyline
 90
   33
 70
    1
 43
0
 10
36.96678899999999
 20
50.4734
 10
37.02553499999999
 20
49.19277
 10
37.07252899999999
 20
47.912137
 10
37.02553499999999
 20
46.243791
 10
36.96678899999999
 20
44.563697
 10
36.99030099999999
 20
44.08199000000001
 10
37.10779099999999
 20
43.600283
 10
37.21353099999999
 20
43.394678
 10
37.36626799999999
 20
43.22432
 10
37.57187299999999
 20
43.109767
 10
37.83622499999999
 20
43.071583
 10
38.10057399999999
 20
43.14207500000001
 10
38.32967799999999
 20
43.35355600000001
 10
38.51472399999999
 20
43.661965
 10
38.67039599999999
 20
44.04674200000002
 10
38.89362599999999
 20
45.01015500000001
 10
39.02286399999999
 20
46.032311
 10
39.08161099999999
 20
46.94872700000001
 10
39.09336699999998
 20
47.57141800000002
 10
39.08161099999999
 20
48.21760800000001
 10
38.99936599999999
 20
49.134024
 10
38.84663199999998
 20
50.132681
 10
38.57640499999999
 20
51.060847
 10
38.39723399999999
 20
51.44268800000001
 10
38.18868999999999
 20
51.742284
 10
37.93315199999998
 20
51.944954
 10
37.63649099999998
 20
52.01251
 10
37.41032599999999
 20
51.968452
 10
37.24877899999998
 20
51.83627500000002
 10
37.12835399999999
 20
51.651232
 10
37.04904799999998
 20
51.425064
 10
36.97855199999998
 20
50.919862
 10
36.966796
 20
50.4734
  0
LWPOLYLINE
  5
94
100
AcDbEntity
  8
words
  6
ByLayer
 62
    7
370
   -1
100
AcDbPolyline
 90
   56
 70
    1
 43
0
 10
40.16249599999999
 20
47.74765400000001
 10
40.44447199999999
 20
47.77116600000002
 10
40.67944999999999
 20
47.86516000000002
 10
40.89092999999999
 20
47.94740200000001
 10
41.12590899999998
 20
47.982646
 10
41.34913799999999
 20
47.944459
 10
41.54886899999999
 20
47.853411
 10
41.87783799999999
 20
47.55968600000001
 10
42.12456599999999
 20
47.16022500000001
 10
42.28904899999999
 20
46.73726400000001
 10
42.34779599999999
 20
46.30255100000002
 10
42.35955199999998
 20
45.69161
 10
42.37130799999998
 20
45.045417
 10
42.39478599999999
 20
44.563714
 10
42.45353199999999
 20
44.117255
 10
42.60626999999999
 20
43.647298
 10
42.86474299999999
 20
43.271331
 10
43.05272799999999
 20
43.156781
 10
43.28770699999999
 20
43.11859800000001
 10
43.47568799999999
 20
43.147988
 10
43.64017099999999
 20
43.236101
 10
43.88689899999998
 20
43.54157500000002
 10
44.05138599999999
 20
43.999783
 10
44.14537599999999
 20
44.528483
 10
44.20411899999999
 20
45.092431
 10
44.22763199999998
 20
45.621131
 10
44.22763199999998
 20
46.091089
 10
44.21587599999999
 20
46.431807
 10
44.26287299999998
 20
47.25423300000001
 10
44.28638499999999
 20
48.088407
 10
44.26287299999998
 20
48.66410100000002
 10
44.13363399999998
 20
49.251547
 10
44.00439499999999
 20
49.51002500000001
 10
43.82816299999999
 20
49.721505
 10
43.57849999999999
 20
49.86248900000001
 10
43.25246599999999
 20
49.90948600000002
 10
43.06741999999999
 20
49.877174
 10
42.91174699999999
 20
49.780248
 10
42.68851799999999
 20
49.46302400000001
 10
42.54752999999999
 20
49.06356200000001
 10
42.48878699999999
 20
48.675847
 10
42.18918699999999
 20
49.089997
 10
41.85434299999998
 20
49.41603000000001
 10
41.44900699999999
 20
49.64219500000002
 10
40.93792699999999
 20
49.73325100000002
 10
40.38572899999999
 20
49.674508
 10
40.11844099999999
 20
49.59226300000002
 10
39.88052699999998
 20
49.46302400000001
 10
39.66904699999998
 20
49.29854100000001
 10
39.50455999999999
 20
49.08706100000001
 10
39.38707099999999
 20
48.83152300000001
 10
39.34007399999999
 20
48.534862
 10
39.38412499999999
 20
48.202954
 10
39.56330299999999
 20
47.959165
 10
39.83646499999999
 20
47.806428
 10
40.16249899999999
 20
47.74768500000001
  0
LWPOLYLINE
  5
95
100
AcDbEntity
  8
words
  6
ByLayer
 62
    7
370
   -1
100
AcDbPolyline
 90
   62
 70
    1
 43
0
 10
44.95605599999999
 20
45.01016900000001
 10
44.97956799999998
 20
44.45797
 10
45.07355899999999
 20
43.788282
 10
45.17929899999998
 20
43.491618
 10
45.332036
 20
43.23608
 10
45.54351599999999
 20
43.059848
 10
45.82548899999999
 20
43.00110500000002
 10
46.21026499999998
 20
43.071597
 10
46.49517699999999
 20
43.283077
 10
46.66847299999999
 20
43.600301
 10
46.71840599999999
 20
43.988013
 10
47.12080699999999
 20
43.694291
 10
47.57607899999998
 20
43.471059
 10
48.05191099999999
 20
43.330074
 10
48.53948899999999
 20
43.283077
 10
48.87139699999999
 20
43.3242
 10
49.18568199999998
 20
43.447563
 10
49.47352899999998
 20
43.63554500000002
 10
49.72613099999999
 20
43.87052400000001
 10
49.93761099999999
 20
44.143686
 10
50.10209399999999
 20
44.446221
 10
50.20783399999999
 20
44.772255
 10
50.24308199999999
 20
45.09241000000002
 10
50.15790199999998
 20
45.621111
 10
49.90236299999999
 20
46.07931899999998
 10
49.51171199999999
 20
46.469974
 10
49.04469399999998
 20
46.796004
 10
48.52480399999999
 20
47.069166
 10
47.97554099999998
 20
47.27771000000001
 10
46.95338499999999
 20
47.512689
 10
46.95338499999999
 20
47.61842900000001
 10
46.94162799999999
 20
47.72416900000001
 10
46.99156099999999
 20
48.053139
 10
47.14136299999999
 20
48.311616
 10
47.38221599999998
 20
48.479038
 10
47.70531099999999
 20
48.53484500000003
 10
47.97847299999999
 20
48.50841100000002
 10
48.21051199999999
 20
48.42910500000001
 10
48.60997699999998
 20
48.205876
 10
48.98593999999998
 20
47.982643
 10
49.40890399999998
 20
47.888652
 10
49.64975699999999
 20
47.92977500000001
 10
49.85536299999999
 20
48.053139
 10
49.98753699999999
 20
48.24112000000002
 10
50.03159499999999
 20
48.476099
 10
49.97578799999999
 20
48.846191
 10
49.80836599999998
 20
49.181035
 10
49.54695299999999
 20
49.471821
 10
49.23266799999999
 20
49.70973500000002
 10
48.86845099999998
 20
49.90653000000001
 10
48.48073899999998
 20
50.050454
 10
48.08714799999998
 20
50.14738300000001
 10
47.72880599999999
 20
50.179696
 10
47.09436599999999
 20
50.097454
 10
46.49516999999999
 20
49.86247500000001
 10
45.98996799999999
 20
49.47476
 10
45.77848799999999
 20
49.23097100000001
 10
45.61400199999999
 20
48.946059
 10
45.27328299999999
 20
48.01789400000001
 10
45.07355199999998
 20
47.019237
 10
44.97956099999999
 20
45.997081
 10
44.95604899999998
 20
45.01017200000001
  0
LWPOLYLINE
  5
96
100
AcDbEntity
  8
words
  6
ByLayer
 62
    7
370
   -1
100
AcDbPolyline
 90
   15
 70
    1
 43
0
 10
46.83588199999999
 20
45.386136
 10
46.87112899999999
 20
46.185062
 10
46.91812599999999
 20
46.185062
 10
46.96511999999999
 20
46.196818
 10
47.35283599999999
 20
46.114577
 10
47.78754499999999
 20
45.90309699999999
 10
48.15176299999999
 20
45.609372
 10
48.25750299999998
 20
45.44195
 10
48.29274699999999
 20
45.268653
 10
48.26339099999999
 20
45.13060399999998
 10
48.17527499999998
 20
45.04542400000001
 10
47.90505199999999
 20
44.98668100000001
 10
47.63776399999999
 20
45.018993
 10
47.35285299999999
 20
45.11592300000002
 10
46.83589899999999
 20
45.38614600000001
  0
LWPOLYLINE
  5
97
100
AcDbEntity
  8
words
  6
ByLayer
 62
    7
370
   -1
100
AcDbPolyline
 90
   56
 70
    1
 43
0
 10
50.43106699999999
 20
45.44488500000001
 10
50.49568799999999
 20
45.048359
 10
50.68954399999999
 20
44.65770800000001
 10
50.97151999999999
 20
44.299365
 10
51.32398799999998
 20
43.976271
 10
51.71463899999999
 20
43.708983
 10
52.13465999999999
 20
43.49456400000001
 10
52.55174599999999
 20
43.36239
 10
52.93358699999999
 20
43.318332
 10
53.52397299999999
 20
43.394699
 10
54.04973399999999
 20
43.62380300000002
 10
54.49325699999999
 20
43.982145
 10
54.86040999999999
 20
44.42272900000001
 10
55.15119599999999
 20
44.927934
 10
55.36561499999998
 20
45.48013300000002
 10
55.48897899999999
 20
46.05876600000001
 10
55.53009799999999
 20
46.619778
 10
55.48897899999999
 20
47.227785
 10
55.36561499999998
 20
47.87691
 10
55.16000899999999
 20
48.520164
 10
54.87215899999999
 20
49.110549
 10
54.49032099999999
 20
49.6275
 10
54.02623899999999
 20
50.05046
 10
53.75601199999999
 20
50.21494700000002
 10
53.46229099999998
 20
50.33243600000002
 10
52.80434799999999
 20
50.426427
 10
52.41369699999998
 20
50.391179
 10
52.04066999999999
 20
50.28543899999998
 10
51.69995099999999
 20
50.126827
 10
51.40622899999999
 20
49.90947300000001
 10
51.16244099999999
 20
49.63925000000001
 10
50.97151999999999
 20
49.32202900000002
 10
50.84815599999999
 20
48.960751
 10
50.80703399999999
 20
48.558347
 10
50.86577999999999
 20
48.023772
 10
51.04201199999998
 20
47.52444500000001
 10
51.31517399999999
 20
47.07504700000001
 10
51.66470299999999
 20
46.690271
 10
52.08179199999998
 20
46.37011199999999
 10
52.55762399999999
 20
46.114573
 10
53.06869999999998
 20
45.950087
 10
53.59152599999999
 20
45.87959499999999
 10
53.50047399999999
 20
45.58587000000001
 10
53.32130299999998
 20
45.386139
 10
53.06576499999999
 20
45.27158900000001
 10
52.76910399999999
 20
45.23340500000001
 10
52.53706399999999
 20
45.262761
 10
52.31089599999998
 20
45.350877
 10
51.87618699999999
 20
45.60935100000001
 10
51.46497199999999
 20
45.87957800000002
 10
51.25349199999999
 20
45.967694
 10
51.04201199999998
 20
45.997084
 10
50.81878299999999
 20
45.958901
 10
50.61905199999999
 20
45.844347
 10
50.47806399999999
 20
45.668115
 10
50.43106699999999
 20
45.44488500000001
  0
LWPOLYLINE
  5
98
100
AcDbEntity
  8
words
  6
ByLayer
 62
    7
370
   -1
100
AcDbPolyline
 90
   14
 70
    1
 43
0
 10
52.33439499999998
 20
48.32336800000002
 10
52.41663599999999
 20
48.64059200000001
 10
52.52237599999999
 20
48.76395600000001
 10
52.67511299999999
 20
48.805075
 10
52.91302799999999
 20
48.76982700000001
 10
53.10982299999999
 20
48.66408700000002
 10
53.40354399999999
 20
48.32336800000002
 10
53.59152599999999
 20
47.888659
 10
53.66202199999998
 20
47.45395
 10
53.27430599999999
 20
47.54793999999998
 10
52.83959599999998
 20
47.700677
 10
52.48712799999999
 20
47.959155
 10
52.37257799999999
 20
48.12657700000001
 10
52.33439499999998
 20
48.32336800000002
  0
LWPOLYLINE
  5
99
100
AcDbEntity
  8
words
  6
ByLayer
 62
    7
370
   -1
100
AcDbPolyline
 90
   70
 70
    1
 43
0
 10
57.63315599999999
 20
43.024607
 10
57.81232799999999
 20
43.071604
 10
57.95037599999998
 20
43.212592
 10
58.12660899999999
 20
43.62380300000002
 10
58.20885399999999
 20
44.09376000000001
 10
58.22060999999998
 20
44.46972600000002
 10
58.18536199999999
 20
45.174659
 10
58.09137099999999
 20
45.87959499999999
 10
57.99737699999999
 20
46.584531
 10
57.950383
 20
47.289467
 10
57.96213999999998
 20
47.59493700000002
 10
58.02088199999999
 20
47.90040800000001
 10
58.15012099999999
 20
48.14713600000001
 10
58.25879699999999
 20
48.21762800000001
 10
58.39684899999999
 20
48.24114100000001
 10
58.50846399999999
 20
48.19708300000001
 10
58.63182799999999
 20
48.06490800000002
 10
58.87855599999999
 20
47.677193
 10
59.06653699999999
 20
47.242483
 10
59.13702899999999
 20
46.92526300000002
 10
59.13702899999999
 20
46.39656300000002
 10
59.12527299999998
 20
45.867859
 10
59.12527299999998
 20
45.18642200000001
 10
59.16051699999999
 20
44.751712
 10
59.23101299999998
 20
44.317003
 10
59.33675299999999
 20
43.905792
 10
59.52473499999998
 20
43.565073
 10
59.78321199999998
 20
43.33009500000001
 10
59.95062999999999
 20
43.25959900000002
 10
60.14742599999999
 20
43.236087
 10
60.36184499999999
 20
43.27427000000002
 10
60.53514099999999
 20
43.38882400000001
 10
60.78186899999999
 20
43.77654000000001
 10
60.92285699999998
 20
44.316989
 10
60.98159999999999
 20
44.904436
 10
60.99335599999998
 20
45.43313599999998
 10
60.98159999999999
 20
45.820852
 10
60.98159999999999
 20
46.373051
 10
61.00511199999999
 20
47.254219
 10
61.01686899999999
 20
48.123638
 10
61.01686899999999
 20
48.722834
 10
60.92287799999999
 20
49.427769
 10
60.814199
 20
49.75380300000001
 10
60.65265099999998
 20
50.02696200000003
 10
60.42061199999998
 20
50.212008
 10
60.10045299999999
 20
50.27369
 10
59.94477999999999
 20
50.247256
 10
59.80672799999998
 20
50.16795
 10
59.58349799999998
 20
49.90947300000001
 10
59.41901499999999
 20
49.580503
 10
59.31327499999998
 20
49.275032
 10
59.04304899999999
 20
49.59225200000002
 10
58.67883199999999
 20
49.86247899999999
 10
58.23237299999999
 20
50.05046
 10
57.66842499999999
 20
50.120956
 10
57.13678899999998
 20
50.047525
 10
56.74026299999999
 20
49.827231
 10
56.44654099999999
 20
49.50707499999999
 10
56.24680699999999
 20
49.110549
 10
56.11463299999999
 20
48.669965
 10
56.04707599999999
 20
48.19413300000002
 10
56.01182899999998
 20
47.30121599999998
 10
56.04707599999999
 20
46.70202000000001
 10
56.16456599999998
 20
45.83260100000001
 10
56.36429599999999
 20
44.857439
 10
56.66976699999998
 20
43.952772
 10
56.86362699999999
 20
43.57974500000002
 10
57.09272699999999
 20
43.283084
 10
57.34532999999999
 20
43.08922800000001
 10
57.63317999999999
 20
43.024607
  0
LWPOLYLINE
  5
9A
100
AcDbEntity
  8
words
  6
ByLayer
 62
    7
370
   -1
100
AcDbPolyline
 90
   56
 70
    1
 43
0
 10
68.09523299999998
 20
49.815482
 10
68.15397899999998
 20
49.518821
 10
68.33021199999999
 20
49.31028000000001
 10
68.83541699999998
 20
48.99306
 10
69.35236799999998
 20
48.652341
 10
69.51978999999999
 20
48.402674
 10
69.57559699999999
 20
48.05314500000002
 10
69.55208499999998
 20
47.85635000000001
 10
69.48159299999998
 20
47.688928
 10
69.23486499999999
 20
47.406956
 10
68.90589499999999
 20
47.160228
 10
68.58867499999998
 20
46.866503
 10
68.34194699999998
 20
46.467041
 10
68.26264099999997
 20
46.205629
 10
68.23620699999998
 20
45.89134400000001
 10
68.30082799999998
 20
45.400827
 10
68.49468399999998
 20
44.916185
 10
68.77959599999998
 20
44.46972600000002
 10
69.14087399999998
 20
44.070261
 10
69.55502399999997
 20
43.741292
 10
70.02204199999998
 20
43.482815
 10
70.51255899999998
 20
43.315393
 10
70.99720399999998
 20
43.25958500000002
 10
71.39666599999998
 20
43.294833
 10
71.76088299999998
 20
43.400573
 10
72.01936099999998
 20
43.62380300000002
 10
72.09866599999998
 20
43.79709900000002
 10
72.12510099999999
 20
44.011518
 10
72.09278799999998
 20
44.30230400000001
 10
71.99585899999998
 20
44.51672
 10
71.84899599999999
 20
44.684142
 10
71.66688899999998
 20
44.81044500000002
 10
71.24392899999998
 20
44.974928
 10
70.80921599999998
 20
45.115916
 10
70.48024699999998
 20
45.35089500000002
 10
70.38331699999998
 20
45.52125600000002
 10
70.35100499999999
 20
45.750356
 10
70.40093699999998
 20
46.00002
 10
70.55073899999998
 20
46.255561
 10
70.97369899999998
 20
46.819509
 10
71.40840799999998
 20
47.465699
 10
71.54939599999999
 20
47.824041
 10
71.59638999999999
 20
48.21762800000001
 10
71.54645699999998
 20
48.70227400000002
 10
71.39665899999999
 20
49.145794
 10
71.15286999999998
 20
49.55113299999999
 10
70.84445999999998
 20
49.897727
 10
70.46849399999998
 20
50.179699
 10
70.04553399999998
 20
50.391179
 10
69.58732599999998
 20
50.53216700000002
 10
69.10561899999998
 20
50.579164
 10
68.74140499999999
 20
50.543916
 10
68.41243599999999
 20
50.414678
 10
68.18920699999998
 20
50.179699
 10
68.11871099999998
 20
50.01815200000002
 10
68.09519899999998
 20
49.815482
  0
LWPOLYLINE
  5
9B
100
AcDbEntity
  8
words
  6
ByLayer
 62
    7
370
   -1
100
AcDbPolyline
 90
   23
 70
    1
 43
0
 10
72.25431899999998
 20
50.95512700000001
 10
72.27783099999998
 20
50.40292800000002
 10
72.36007599999998
 20
49.66274800000002
 10
72.53630799999998
 20
49.01655500000001
 10
72.66848599999999
 20
48.81388899999998
 10
72.83003299999999
 20
48.746332
 10
72.92989799999998
 20
48.78158000000003
 10
73.01801499999998
 20
48.887316
 10
73.17075199999998
 20
49.23978399999999
 10
73.27649199999998
 20
49.70974200000001
 10
73.35873299999999
 20
50.21494700000002
 10
73.39398099999998
 20
50.649656
 10
73.40573699999999
 20
50.943378
 10
73.39398099999998
 20
51.260601
 10
73.33523499999998
 20
51.648314
 10
73.18249799999998
 20
51.97728299999999
 10
73.05619799999998
 20
52.08302300000001
 10
72.88877599999998
 20
52.118271
 10
72.70079399999997
 20
52.085959
 10
72.55980699999998
 20
51.989029
 10
72.36007599999998
 20
51.683558
 10
72.27783099999998
 20
51.30759200000001
 10
72.25431899999998
 20
50.95512400000001
  0
LWPOLYLINE
  5
9C
100
AcDbEntity
  8
words
  6
ByLayer
 62
    7
370
   -1
100
AcDbPolyline
 90
   67
 70
    1
 43
0
 10
75.19154799999998
 20
42.93061300000003
 10
75.93466699999998
 20
42.98642000000003
 10
76.49567599999997
 20
43.15384200000003
 10
76.89807699999999
 20
43.41231900000001
 10
77.18886299999998
 20
43.76478700000003
 10
77.36803399999998
 20
44.20537100000001
 10
77.45908899999998
 20
44.72819700000002
 10
77.50608299999998
 20
45.98533100000002
 10
77.47083899999998
 20
47.08972900000003
 10
77.36509499999998
 20
48.28812100000003
 10
77.62357199999998
 20
48.27636400000002
 10
77.77630999999998
 20
48.27636400000002
 10
78.12584199999998
 20
48.31748700000001
 10
78.42249899999999
 20
48.44084700000001
 10
78.63398299999999
 20
48.64939200000001
 10
78.70447499999997
 20
48.94605300000001
 10
78.66335199999997
 20
49.14578300000002
 10
78.53998799999998
 20
49.32201900000001
 10
78.14052699999998
 20
49.60399100000003
 10
77.61182299999999
 20
49.79197300000003
 10
77.05962399999999
 20
49.88596700000002
 10
77.01263099999998
 20
50.61439800000002
 10
76.84814399999998
 20
51.35458200000002
 10
76.69834599999999
 20
51.67767700000003
 10
76.50742599999998
 20
51.94202500000003
 10
76.26657199999998
 20
52.11826100000003
 10
75.96697599999999
 20
52.17700400000001
 10
75.79074399999998
 20
52.14764800000004
 10
75.63800699999999
 20
52.05953200000001
 10
75.39127899999998
 20
51.77755900000003
 10
75.25029099999998
 20
51.40159300000001
 10
75.20329699999998
 20
50.99038200000004
 10
75.23854199999998
 20
50.50867500000001
 10
75.36777999999998
 20
49.89773400000001
 10
75.09755699999998
 20
49.92124600000001
 10
74.96831899999998
 20
49.93300200000002
 10
74.55710399999998
 20
49.897758
 10
74.15764299999998
 20
49.780268
 10
73.85217199999998
 20
49.557039
 10
73.76405599999998
 20
49.413115
 10
73.73469999999998
 20
49.23981500000001
 10
73.77875799999998
 20
49.04008500000001
 10
73.91093199999997
 20
48.86385200000002
 10
74.33389199999998
 20
48.581877
 10
74.88609099999998
 20
48.39389500000002
 10
75.43829299999999
 20
48.31165400000003
 10
75.54403299999998
 20
47.41873300000002
 10
75.60277599999998
 20
46.60806000000002
 10
75.64977299999998
 20
46.19684600000003
 10
75.66152899999999
 20
45.78563500000001
 10
75.64977299999998
 20
45.42141800000003
 10
75.56752799999998
 20
45.03370500000001
 10
75.34429899999998
 20
44.70473300000003
 10
75.16219199999998
 20
44.60780600000003
 10
74.92133899999999
 20
44.575494
 10
74.58061999999998
 20
44.599006
 10
74.22815199999998
 20
44.634254
 10
73.96673899999998
 20
44.581386
 10
73.79344299999998
 20
44.422774
 10
73.68770299999998
 20
44.181921
 10
73.65245499999997
 20
43.88232400000001
 10
73.69063799999998
 20
43.650281
 10
73.80519199999998
 20
43.447615
 10
73.96673899999998
 20
43.289003
 10
74.16940899999997
 20
43.165639
 10
74.67461099999998
 20
42.98940700000001
 10
75.19156499999998
 20
42.93066100000003
  0
LWPOLYLINE
  5
9D
100
AcDbEntity
  8
words
  6
ByLayer
 62
    7
370
   -1
100
AcDbPolyline
 90
   54
 70
    1
 43
0
 10
78.09354699999999
 20
51.33110400000003
 10
78.11998099999998
 20
51.11962400000003
 10
78.19928699999998
 20
50.93163900000003
 10
78.45776399999998
 20
50.62616800000003
 10
78.82198099999998
 20
50.426437
 10
79.20969399999998
 20
50.30894800000002
 10
79.31543399999998
 20
47.74768500000003
 10
79.55041199999998
 20
45.19816800000003
 10
79.47991999999998
 20
45.19816800000003
 10
79.11570299999998
 20
45.15117400000001
 10
78.78673399999998
 20
45.01018600000001
 10
78.55175499999999
 20
44.76345800000003
 10
78.48126299999998
 20
44.60484600000002
 10
78.45774999999998
 20
44.41099000000001
 10
78.50180799999998
 20
44.15838800000003
 10
78.63398299999999
 20
43.94103300000001
 10
78.82784199999998
 20
43.75598700000003
 10
79.08044099999998
 20
43.60031400000001
 10
79.69138599999998
 20
43.36533600000003
 10
80.37282399999998
 20
43.22435100000001
 10
81.01901299999999
 20
43.14210600000001
 10
81.51246899999998
 20
43.11859400000003
 10
81.86493699999998
 20
43.13035000000003
 10
82.25264999999999
 20
43.20084600000003
 10
82.55812399999998
 20
43.37707800000001
 10
82.65504999999997
 20
43.51512700000001
 10
82.68736199999998
 20
43.69429800000001
 10
82.66092799999998
 20
43.92634100000003
 10
82.58162199999998
 20
44.12901100000003
 10
82.32314899999999
 20
44.48147600000002
 10
81.95893099999998
 20
44.72820400000003
 10
81.53597099999998
 20
44.86919100000002
 10
81.38323399999999
 20
46.14982500000003
 10
81.28924299999998
 20
47.45395300000001
 10
81.24224599999998
 20
48.76983400000002
 10
81.19525299999998
 20
50.08571200000002
 10
81.34798599999998
 20
50.06219900000003
 10
81.47722499999998
 20
50.06219900000003
 10
81.82969299999998
 20
50.09744700000003
 10
82.18216099999998
 20
50.21493700000001
 10
82.46413299999998
 20
50.43816600000002
 10
82.54343899999998
 20
50.58502800000003
 10
82.56987299999999
 20
50.76713500000001
 10
82.48763199999998
 20
51.13135200000003
 10
82.24090399999999
 20
51.42507400000003
 10
81.87081199999999
 20
51.65417800000003
 10
81.44197699999998
 20
51.82453900000003
 10
80.49031699999998
 20
52.01252100000001
 10
79.71488799999999
 20
52.071264
 10
79.28017899999998
 20
52.04775100000003
 10
78.75147499999999
 20
51.94200800000003
 10
78.29326699999999
 20
51.71877800000003
 10
78.14346899999998
 20
51.55135600000003
 10
78.09353699999998
 20
51.33106600000003
  0
LINE
  5
9E
100
AcDbEntity
  8
lightpipes
  6
ByLayer
 62
  256
370
   -1
100
AcDbLine
 10
75.92939099999998
 20
42.42939500000003
 11
67.82939099999999
 21
43.12939500000002
  0
LINE
  5
9F
100
AcDbEntity
  8
lightpipes
  6
ByLayer
 62
  256
370
   -1
100
AcDbLine
 10
67.82939099999999
 20
43.12939500000002
 11
67.22939099999998
 21
50.62939500000002
  0
LINE
  5
A0
100
AcDbEntity
  8
lightpipes
  6
ByLayer
 62
  256
370
   -1
100
AcDbLine
 10
67.22939099999998
 20
50.62939500000002
 11
72.82939099999999
 21
52.72939500000001
  0
LINE
  5
A1
100
AcDbEntity
  8
lightpipes
  6
ByLayer
 62
  256
370
   -1
100
AcDbLine
 10
72.82939099999999
 20
52.72939500000001
 11
82.92939099999998
 21
52.52939500000003
  0
LINE
  5
A2
100
AcDbEntity
  8
lightpipes
  6
ByLayer
 62
  256
370
   -1
100
AcDbLine
 10
82.92939099999998
 20
52.52939500000003
 11
83.22939099999998
 21
42.92939500000003
  0
LINE
  5
A3
100
AcDbEntity
  8
lightpipes
  6
ByLayer
 62
  256
370
   -1
100
AcDbLine
 10
83.22939099999998
 20
42.92939500000003
 11
75.92939099999998
 21
42.42939500000003
  0
LINE
  5
A4
100
AcDbEntity
  8
lightpipes
  6
ByLayer
 62
  256
370
   -1
100
AcDbLine
 10
61.52939099999999
 20
50.62939500000002
 11
61.42939099999999
 21
42.929395
  0
LINE
  5
A5
100
AcDbEntity
  8
lightpipes
  6
ByLayer
 62
  256
370
   -1
100
AcDbLine
 10
61.42939099999999
 20
42.929395
 11
53.92939099999999
 21
42.32939500000003
  0
LINE
  5
A6
100
AcDbEntity
  8
lightpipes
  6
ByLayer
 62
  256
370
   -1
100
AcDbLine
 10
53.92939099999999
 20
42.32939500000003
 11
41.92939099999999
 21
42.32939500000001
  0
LINE
  5
A7
100
AcDbEntity
  8
lightpipes
  6
ByLayer
 62
  256
370
   -1
100
AcDbLine
 10
41.92939099999999
 20
42.32939500000001
 11
36.52939099999999
 21
42.129395
  0
LINE
  5
A8
100
AcDbEntity
  8
lightpipes
  6
ByLayer
 62
  256
370
   -1
100
AcDbLine
 10
36.52939099999999
 20
42.129395
 11
35.62939099999999
 21
39.72939500000001
  0
LINE
  5
A9
100
AcDbEntity
  8
lightpipes
  6
ByLayer
 62
  256
370
   -1
100
AcDbLine
 10
35.62939099999999
 20
39.72939500000001
 11
33.52939099999997
 21
39.12939500000002
  0
LINE
  5
AA
100
AcDbEntity
  8
lightpipes
  6
ByLayer
 62
  256
370
   -1
100
AcDbLine
 10
33.52939099999997
 20
39.12939500000002
 11
30.72939099999998
 21
39.929395
  0
LINE
  5
AB
100
AcDbEntity
  8
lightpipes
  6
ByLayer
 62
  256
370
   -1
100
AcDbLine
 10
30.72939099999998
 20
39.929395
 11
29.32939099999999
 21
44.829395
  0
LINE
  5
AC
100
AcDbEntity
  8
lightpipes
  6
ByLayer
 62
  256
370
   -1
100
AcDbLine
 10
29.32939099999999
 20
44.829395
 11
29.92939099999999
 21
49.929395
  0
LINE
  5
AD
100
AcDbEntity
  8
lightpipes
  6
ByLayer
 62
  256
370
   -1
100
AcDbLine
 10
29.92939099999999
 20
49.929395
 11
31.32939099999999
 21
50.729395
  0
LINE
  5
AE
100
AcDbEntity
  8
lightpipes
  6
ByLayer
 62
  256
370
   -1
100
AcDbLine
 10
31.32939099999999
 20
50.729395
 11
35.62939099999999
 21
50.92939500000002
  0
LINE
  5
AF
100
AcDbEntity
  8
lightpipes
  6
ByLayer
 62
  256
370
   -1
100
AcDbLine
 10
35.62939099999999
 20
50.92939500000002
 11
36.52939099999999
 21
52.62939500000002
  0
LINE
  5
B0
100
AcDbEntity
  8
lightpipes
  6
ByLayer
 62
  256
370
   -1
100
AcDbLine
 10
36.52939099999999
 20
52.62939500000002
 11
39.12939099999999
 21
52.62939500000002
  0
LINE
  5
B1
100
AcDbEntity
  8
lightpipes
  6
ByLayer
 62
  256
370
   -1
100
AcDbLine
 10
39.12939099999999
 20
52.62939500000002
 11
40.22939099999998
 21
50.729395
  0
LINE
  5
B2
100
AcDbEntity
  8
lightpipes
  6
ByLayer
 62
  256
370
   -1
100
AcDbLine
 10
40.22939099999998
 20
50.729395
 11
59.92939099999999
 21
50.929395
  0
LINE
  5
B3
100
AcDbEntity
  8
lightpipes
  6
ByLayer
 62
  256
370
   -1
100
AcDbLine
 10
59.92939099999999
 20
50.929395
 11
61.52939099999999
 21
50.62939500000002
  0
LINE
  5
B4
100
AcDbEntity
  8
lightpipes
  6
ByLayer
 62
  256
370
   -1
100
AcDbLine
 10
23.32939099999999
 20
39.629395
 11
23.72939099999998
 21
50.02939499999999
  0
LINE
  5
B5
100
AcDbEntity
  8
lightpipes
  6
ByLayer
 62
  256
370
   -1
100
AcDbLine
 10
23.72939099999998
 20
50.02939499999999
 11
22.42939099999999
 21
50.929395
  0
LINE
  5
B6
100
AcDbEntity
  8
lightpipes
  6
ByLayer
 62
  256
370
   -1
100
AcDbLine
 10
22.42939099999999
 20
50.929395
 11
7.329390999999979
 21
51.22939499999998
  0
LINE
  5
B7
100
AcDbEntity
  8
lightpipes
  6
ByLayer
 62
  256
370
   -1
100
AcDbLine
 10
7.329390999999979
 20
51.22939499999998
 11
6.329390999999979
 21
52.929395
  0
LINE
  5
B8
100
AcDbEntity
  8
lightpipes
  6
ByLayer
 62
  256
370
   -1
100
AcDbLine
 10
6.329390999999979
 20
52.929395
 11
4.429390999999987
 21
52.929395
  0
LINE
  5
B9
100
AcDbEntity
  8
lightpipes
  6
ByLayer
 62
  256
370
   -1
100
AcDbLine
 10
4.429390999999987
 20
52.929395
 11
3.629390999999975
 21
50.829395
  0
LINE
  5
BA
100
AcDbEntity
  8
lightpipes
  6
ByLayer
 62
  256
370
   -1
100
AcDbLine
 10
3.629390999999975
 20
50.829395
 11
2.429390999999987
 21
49.92939499999997
  0
LINE
  5
BB
100
AcDbEntity
  8
lightpipes
  6
ByLayer
 62
  256
370
   -1
100
AcDbLine
 10
2.429390999999987
 20
49.92939499999997
 11
2.429390999999987
 21
48.229395
  0
LINE
  5
BC
100
AcDbEntity
  8
lightpipes
  6
ByLayer
 62
  256
370
   -1
100
AcDbLine
 10
2.429390999999987
 20
48.229395
 11
4.029390999999982
 21
47.22939499999998
  0
LINE
  5
BD
100
AcDbEntity
  8
lightpipes
  6
ByLayer
 62
  256
370
   -1
100
AcDbLine
 10
4.029390999999982
 20
47.22939499999998
 11
4.129390999999976
 21
45.529395
  0
LINE
  5
BE
100
AcDbEntity
  8
lightpipes
  6
ByLayer
 62
  256
370
   -1
100
AcDbLine
 10
4.129390999999976
 20
45.529395
 11
2.729390999999984
 21
45.12939499999999
  0
LINE
  5
BF
100
AcDbEntity
  8
lightpipes
  6
ByLayer
 62
  256
370
   -1
100
AcDbLine
 10
2.729390999999984
 20
45.12939499999999
 11
2.229390999999984
 21
44.12939499999999
  0
LINE
  5
C0
100
AcDbEntity
  8
lightpipes
  6
ByLayer
 62
  256
370
   -1
100
AcDbLine
 10
2.229390999999984
 20
44.12939499999999
 11
2.429390999999987
 21
42.62939499999999
  0
LINE
  5
C1
100
AcDbEntity
  8
lightpipes
  6
ByLayer
 62
  256
370
   -1
100
AcDbLine
 10
2.429390999999987
 20
42.62939499999999
 11
3.629390999999975
 21
41.92939499999999
  0
LINE
  5
C2
100
AcDbEntity
  8
lightpipes
  6
ByLayer
 62
  256
370
   -1
100
AcDbLine
 10
3.629390999999975
 20
41.92939499999999
 11
6.129390999999976
 21
41.92939499999999
  0
LINE
  5
C3
100
AcDbEntity
  8
lightpipes
  6
ByLayer
 62
  256
370
   -1
100
AcDbLine
 10
6.129390999999976
 20
41.92939499999999
 11
7.929390999999974
 21
43.229395
  0
LINE
  5
C4
100
AcDbEntity
  8
lightpipes
  6
ByLayer
 62
  256
370
   -1
100
AcDbLine
 10
7.929390999999974
 20
43.229395
 11
11.12939099999998
 21
42.129395
  0
LINE
  5
C5
100
AcDbEntity
  8
lightpipes
  6
ByLayer
 62
  256
370
   -1
100
AcDbLine
 10
11.12939099999998
 20
42.129395
 11
20.02939099999998
 21
42.229395
  0
LINE
  5
C6
100
AcDbEntity
  8
lightpipes
  6
ByLayer
 62
  256
370
   -1
100
AcDbLine
 10
20.02939099999998
 20
42.229395
 11
21.02939099999998
 21
39.529395
  0
LINE
  5
C7
100
AcDbEntity
  8
lightpipes
  6
ByLayer
 62
  256
370
   -1
100
AcDbLine
 10
21.02939099999998
 20
39.529395
 11
22.02939099999997
 21
39.02939499999999
  0
LINE
  5
C8
100
AcDbEntity
  8
lightpipes
  6
ByLayer
 62
  256
370
   -1
100
AcDbLine
 10
22.02939099999997
 20
39.02939499999999
 11
22.82939099999999
 21
39.02939499999999
  0
LINE
  5
C9
100
AcDbEntity
  8
lightpipes
  6
ByLayer
 62
  256
370
   -1
100
AcDbLine
 10
22.82939099999999
 20
39.02939499999999
 11
23.32939099999999
 21
39.629395
  0
LINE
  5
CA
100
AcDbEntity
  8
lightpipes
  6
ByLayer
 62
  256
370
   -1
100
AcDbLine
 10
81.929391
 20
25.42939500000001
 11
83.02939099999999
 21
20.82939500000001
  0
LINE
  5
CB
100
AcDbEntity
  8
lightpipes
  6
ByLayer
 62
  256
370
   -1
100
AcDbLine
 10
83.02939099999999
 20
20.82939500000001
 11
83.02939099999999
 21
15.92939500000001
  0
LINE
  5
CC
100
AcDbEntity
  8
lightpipes
  6
ByLayer
 62
  256
370
   -1
100
AcDbLine
 10
83.02939099999999
 20
15.92939500000001
 11
81.82939099999999
 21
14.52939500000001
  0
LINE
  5
CD
100
AcDbEntity
  8
lightpipes
  6
ByLayer
 62
  256
370
   -1
100
AcDbLine
 10
81.82939099999999
 20
14.52939500000001
 11
58.729391
 21
14.72939500000001
  0
LINE
  5
CE
100
AcDbEntity
  8
lightpipes
  6
ByLayer
 62
  256
370
   -1
100
AcDbLine
 10
58.729391
 20
14.72939500000001
 11
56.829391
 21
16.52939500000001
  0
LINE
  5
CF
100
AcDbEntity
  8
lightpipes
  6
ByLayer
 62
  256
370
   -1
100
AcDbLine
 10
56.829391
 20
16.52939500000001
 11
57.229391
 21
22.629395
  0
LINE
  5
D0
100
AcDbEntity
  8
lightpipes
  6
ByLayer
 62
  256
370
   -1
100
AcDbLine
 10
57.229391
 20
22.629395
 11
59.629391
 21
24.02939500000002
  0
LINE
  5
D1
100
AcDbEntity
  8
lightpipes
  6
ByLayer
 62
  256
370
   -1
100
AcDbLine
 10
59.629391
 20
24.02939500000002
 11
78.52939099999999
 21
23.72939500000001
  0
LINE
  5
D2
100
AcDbEntity
  8
lightpipes
  6
ByLayer
 62
  256
370
   -1
100
AcDbLine
 10
78.52939099999999
 20
23.72939500000001
 11
79.72939099999999
 21
25.52939500000001
  0
LINE
  5
D3
100
AcDbEntity
  8
lightpipes
  6
ByLayer
 62
  256
370
   -1
100
AcDbLine
 10
79.72939099999999
 20
25.52939500000001
 11
80.52939099999999
 21
25.82939500000001
  0
LINE
  5
D4
100
AcDbEntity
  8
lightpipes
  6
ByLayer
 62
  256
370
   -1
100
AcDbLine
 10
80.52939099999999
 20
25.82939500000001
 11
81.929391
 21
25.42939500000001
  0
LINE
  5
D5
100
AcDbEntity
  8
lightpipes
  6
ByLayer
 62
  256
370
   -1
100
AcDbLine
 10
51.429391
 20
26.029395
 11
52.229391
 21
24.02939500000001
  0
LINE
  5
D6
100
AcDbEntity
  8
lightpipes
  6
ByLayer
 62
  256
370
   -1
100
AcDbLine
 10
52.229391
 20
24.02939500000001
 11
52.229391
 21
23.02939499999999
  0
LINE
  5
D7
100
AcDbEntity
  8
lightpipes
  6
ByLayer
 62
  256
370
   -1
100
AcDbLine
 10
52.229391
 20
23.02939499999999
 11
54.029391
 21
23.129395
  0
LINE
  5
D8
100
AcDbEntity
  8
lightpipes
  6
ByLayer
 62
  256
370
   -1
100
AcDbLine
 10
54.029391
 20
23.129395
 11
55.529391
 21
21.129395
  0
LINE
  5
D9
100
AcDbEntity
  8
lightpipes
  6
ByLayer
 62
  256
370
   -1
100
AcDbLine
 10
55.529391
 20
21.129395
 11
55.529391
 21
17.529395
  0
LINE
  5
DA
100
AcDbEntity
  8
lightpipes
  6
ByLayer
 62
  256
370
   -1
100
AcDbLine
 10
55.529391
 20
17.529395
 11
54.329391
 21
15.22939500000001
  0
LINE
  5
DB
100
AcDbEntity
  8
lightpipes
  6
ByLayer
 62
  256
370
   -1
100
AcDbLine
 10
54.329391
 20
15.22939500000001
 11
52.729391
 21
14.529395
  0
LINE
  5
DC
100
AcDbEntity
  8
lightpipes
  6
ByLayer
 62
  256
370
   -1
100
AcDbLine
 10
52.729391
 20
14.529395
 11
32.629391
 21
14.529395
  0
LINE
  5
DD
100
AcDbEntity
  8
lightpipes
  6
ByLayer
 62
  256
370
   -1
100
AcDbLine
 10
32.629391
 20
14.529395
 11
27.129391
 21
14.429395
  0
LINE
  5
DE
100
AcDbEntity
  8
lightpipes
  6
ByLayer
 62
  256
370
   -1
100
AcDbLine
 10
27.129391
 20
14.429395
 11
26.129391
 21
15.129395
  0
LINE
  5
DF
100
AcDbEntity
  8
lightpipes
  6
ByLayer
 62
  256
370
   -1
100
AcDbLine
 10
26.129391
 20
15.129395
 11
26.02939099999999
 21
18.329395
  0
LINE
  5
E0
100
AcDbEntity
  8
lightpipes
  6
ByLayer
 62
  256
370
   -1
100
AcDbLine
 10
26.02939099999999
 20
18.329395
 11
25.829391
 21
18.929395
  0
LINE
  5
E1
100
AcDbEntity
  8
lightpipes
  6
ByLayer
 62
  256
370
   -1
100
AcDbLine
 10
25.829391
 20
18.929395
 11
24.129391
 21
19.32939499999999
  0
LINE
  5
E2
100
AcDbEntity
  8
lightpipes
  6
ByLayer
 62
  256
370
   -1
100
AcDbLine
 10
24.129391
 20
19.32939499999999
 11
23.129391
 21
20.029395
  0
LINE
  5
E3
100
AcDbEntity
  8
lightpipes
  6
ByLayer
 62
  256
370
   -1
100
AcDbLine
 10
23.129391
 20
20.029395
 11
23.229391
 21
22.429395
  0
LINE
  5
E4
100
AcDbEntity
  8
lightpipes
  6
ByLayer
 62
  256
370
   -1
100
AcDbLine
 10
23.229391
 20
22.429395
 11
25.229391
 21
23.62939499999999
  0
LINE
  5
E5
100
AcDbEntity
  8
lightpipes
  6
ByLayer
 62
  256
370
   -1
100
AcDbLine
 10
25.229391
 20
23.62939499999999
 11
28.629391
 21
23.72939500000001
  0
LINE
  5
E6
100
AcDbEntity
  8
lightpipes
  6
ByLayer
 62
  256
370
   -1
100
AcDbLine
 10
28.629391
 20
23.72939500000001
 11
38.92939099999999
 21
23.929395
  0
LINE
  5
E7
100
AcDbEntity
  8
lightpipes
  6
ByLayer
 62
  256
370
   -1
100
AcDbLine
 10
38.92939099999999
 20
23.929395
 11
45.52939099999999
 21
23.82939500000001
  0
LINE
  5
E8
100
AcDbEntity
  8
lightpipes
  6
ByLayer
 62
  256
370
   -1
100
AcDbLine
 10
45.52939099999999
 20
23.82939500000001
 11
46.029391
 21
25.329395
  0
LINE
  5
E9
100
AcDbEntity
  8
lightpipes
  6
ByLayer
 62
  256
370
   -1
100
AcDbLine
 10
46.029391
 20
25.329395
 11
48.629391
 21
25.729395
  0
LINE
  5
EA
100
AcDbEntity
  8
lightpipes
  6
ByLayer
 62
  256
370
   -1
100
AcDbLine
 10
48.629391
 20
25.729395
 11
49.529391
 21
26.129395
  0
LINE
  5
EB
100
AcDbEntity
  8
lightpipes
  6
ByLayer
 62
  256
370
   -1
100
AcDbLine
 10
49.529391
 20
26.129395
 11
51.429391
 21
26.029395
  0
LINE
  5
EC
100
AcDbEntity
  8
lightpipes
  6
ByLayer
 62
  256
370
   -1
100
AcDbLine
 10
21.32939099999999
 20
25.32939499999999
 11
21.629391
 21
22.429395
  0
LINE
  5
ED
100
AcDbEntity
  8
lightpipes
  6
ByLayer
 62
  256
370
   -1
100
AcDbLine
 10
21.629391
 20
22.429395
 11
21.929391
 21
16.929395
  0
LINE
  5
EE
100
AcDbEntity
  8
lightpipes
  6
ByLayer
 62
  256
370
   -1
100
AcDbLine
 10
21.929391
 20
16.929395
 11
21.429391
 21
14.929395
  0
LINE
  5
EF
100
AcDbEntity
  8
lightpipes
  6
ByLayer
 62
  256
370
   -1
100
AcDbLine
 10
21.429391
 20
14.929395
 11
14.62939099999999
 21
14.82939499999999
  0
LINE
  5
F0
100
AcDbEntity
  8
lightpipes
  6
ByLayer
 62
  256
370
   -1
100
AcDbLine
 10
14.62939099999999
 20
14.82939499999999
 11
4.529390999999982
 21
14.72939499999999
  0
LINE
  5
F1
100
AcDbEntity
  8
lightpipes
  6
ByLayer
 62
  256
370
   -1
100
AcDbLine
 10
4.529390999999982
 20
14.72939499999999
 11
3.529390999999981
 21
15.02939499999999
  0
LINE
  5
F2
100
AcDbEntity
  8
lightpipes
  6
ByLayer
 62
  256
370
   -1
100
AcDbLine
 10
3.529390999999981
 20
15.02939499999999
 11
3.429390999999987
 21
25.529395
  0
LINE
  5
F3
100
AcDbEntity
  8
lightpipes
  6
ByLayer
 62
  256
370
   -1
100
AcDbLine
 10
3.429390999999987
 20
25.529395
 11
4.429390999999987
 21
26.229395
  0
LINE
  5
F4
100
AcDbEntity
  8
lightpipes
  6
ByLayer
 62
  256
370
   -1
100
AcDbLine
 10
4.429390999999987
 20
26.229395
 11
6.12939099999999
 21
26.42939499999999
  0
LINE
  5
F5
100
AcDbEntity
  8
lightpipes
  6
ByLayer
 62
  256
370
   -1
100
AcDbLine
 10
6.12939099999999
 20
26.42939499999999
 11
7.229390999999985
 21
25.529395
  0
LINE
  5
F6
100
AcDbEntity
  8
lightpipes
  6
ByLayer
 62
  256
370
   -1
100
AcDbLine
 10
7.229390999999985
 20
25.529395
 11
8.129390999999989
 21
23.829395
  0
LINE
  5
F7
100
AcDbEntity
  8
lightpipes
  6
ByLayer
 62
  256
370
   -1
100
AcDbLine
 10
8.129390999999989
 20
23.829395
 11
17.32939100000001
 21
23.52939499999999
  0
LINE
  5
F8
100
AcDbEntity
  8
lightpipes
  6
ByLayer
 62
  256
370
   -1
100
AcDbLine
 10
17.32939100000001
 20
23.52939499999999
 11
18.529391
 21
24.12939499999999
  0
LINE
  5
F9
100
AcDbEntity
  8
lightpipes
  6
ByLayer
 62
  256
370
   -1
100
AcDbLine
 10
18.529391
 20
24.12939499999999
 11
19.029391
 21
25.529395
  0
LINE
  5
FA
100
AcDbEntity
  8
lightpipes
  6
ByLayer
 62
  256
370
   -1
100
AcDbLine
 10
19.029391
 20
25.529395
 11
20.32939100000001
 21
26.02939499999999
  0
LINE
  5
FB
100
AcDbEntity
  8
lightpipes
  6
ByLayer
 62
  256
370
   -1
100
AcDbLine
 10
20.32939100000001
 20
26.02939499999999
 11
21.32939099999999
 21
25.32939499999999
  0
CIRCLE
  5
FC
100
AcDbEntity
  8
lights
  6
ByLayer
 62
  256
370
   -1
100
AcDbCircle
 10
75.54403299999998
 20
47.41873300000002
 40
2.75
  0
CIRCLE
  5
FD
100
AcDbEntity
  8
lights
  6
ByLayer
 62
  256
370
   -1
100
AcDbCircle
 10
45.92939099999999
 20
46.92939500000001
 40
2.75
  0
CIRCLE
  5
FE
100
AcDbEntity
  8
lights
  6
ByLayer
 62
  256
370
   -1
100
AcDbCircle
 10
12.92939099999999
 20
46.92939500000001
 40
2.75
  0
CIRCLE
  5
FF
100
AcDbEntity
  8
lights
  6
ByLayer
 62
  256
370
   -1
100
AcDbCircle
 10
69.929391
 20
18.92939500000001
 40
2.75
  0
CIRCLE
  5
100
100
AcDbEntity
  8
lights
  6
ByLayer
 62
  256
370
   -1
100
AcDbCircle
 10
40.109593
 20
18.873163
 40
2.75
  0
CIRCLE
  5
101
100
AcDbEntity
  8
lights
  6
ByLayer
 62
  256
370
   -1
100
AcDbCircle
 10
11.929391
 20
18.92939499999999
 40
2.75
  0
CIRCLE
  5
102
100
AcDbEntity
  8
lights2
  6
ByLayer
 62
  256
370
   -1
100
AcDbCircle
 10
75.54403299999998
 20
47.41873300000002
 40
3.2
  0
CIRCLE
  5
103
100
AcDbEntity
  8
lights2
  6
ByLayer
 62
  256
370
   -1
100
AcDbCircle
 10
69.929391
 20
18.92939500000001
 40
3.2
  0
CIRCLE
  5
104
100
AcDbEntity
  8
lights2
  6
ByLayer
 62
  256
370
   -1
100
AcDbCircle
 10
45.92939099999999
 20
46.92939500000001
 40
3.2
  0
CIRCLE
  5
105
100
AcDbEntity
  8
lights2
  6
ByLayer
 62
  256
370
   -1
100
AcDbCircle
 10
40.109593
 20
18.873163
 40
3.2
  0
CIRCLE
  5
106
100
AcDbEntity
  8
lights2
  6
ByLayer
 62
  256
370
   -1
100
AcDbCircle
 10
12.92939099999999
 20
46.92939500000001
 40
3.2
  0
CIRCLE
  5
107
100
AcDbEntity
  8
lights2
  6
ByLayer
 62
  256
370
   -1
100
AcDbCircle
 10
11.929391
 20
18.92939499999999
 40
3.2
  0
CIRCLE
  5
108
100
AcDbEntity
  8
bolts
  6
ByLayer
 62
  256
370
   -1
100
AcDbCircle
 10
5.026916000000005
 20
44.57018449999999
 40
1.5
  0
CIRCLE
  5
109
100
AcDbEntity
  8
bolts
  6
ByLayer
 62
  256
370
   -1
100
AcDbCircle
 10
25.13795000000003
 20
44.57051168372042
 40
1.5
  0
CIRCLE
  5
10A
100
AcDbEntity
  8
bolts
  6
ByLayer
 62
  256
370
   -1
100
AcDbCircle
 10
80.77228692122878
 20
48.37475624649166
 40
1.5
  0
CIRCLE
  5
10B
100
AcDbEntity
  8
bolts
  6
ByLayer
 62
  256
370
   -1
100
AcDbCircle
 10
80.77327155412502
 20
5.193532908110027
 40
1.5
  0
CIRCLE
  5
10C
100
AcDbEntity
  8
bolts
  6
ByLayer
 62
  256
370
   -1
100
AcDbCircle
 10
24.99385944620279
 20
9.218893500000004
 40
1.5
  0
CIRCLE
  5
10D
100
AcDbEntity
  8
bolts
  6
ByLayer
 62
  256
370
   -1
100
AcDbCircle
 10
5.358809999999984
 20
9.155774316279601
 40
1.5
  0
ARC
  5
10E
100
AcDbEntity
  8
outline
  6
ByLayer
 62
  256
370
   -1
100
AcDbCircle
 10
82.85878799999999
 20
50.858795
 40
3
100
AcDbArc
 50
1.272221872585407e-13
 51
90
  0
LINE
  5
10F
100
AcDbEntity
  8
outline
  6
ByLayer
 62
  256
370
   -1
100
AcDbLine
 10
85.85878799999999
 20
3.000000000000001
 11
85.85878799999999
 21
50.85879500000001
  0
ARC
  5
110
100
AcDbEntity
  8
outline
  6
ByLayer
 62
  256
370
   -1
100
AcDbCircle
 10
82.85878799999999
 20
3
 40
3
100
AcDbArc
 50
270
 51
0
  0
LINE
  5
111
100
AcDbEntity
  8
outline
  6
ByLayer
 62
  256
370
   -1
100
AcDbLine
 10
82.85878799999999
 20
6.428583703986221e-16
 11
3
 21
2.32754443764718e-17
  0
ARC
  5
112
100
AcDbEntity
  8
outline
  6
ByLayer
 62
  256
370
   -1
100
AcDbCircle
 10
3
 20
3
 40
3
100
AcDbArc
 50
180.0000000000001
 51
270
  0
LINE
  5
113
100
AcDbEntity
  8
outline
  6
ByLayer
 62
  256
370
   -1
100
AcDbLine
 10
0
 20
50.85879499999999
 11
0
 21
2.999999999999993
  0
LINE
  5
114
100
AcDbEntity
  8
outline
  6
ByLayer
 62
  256
370
   -1
100
AcDbLine
 10
82.85878799999999
 20
53.858795
 11
3
 21
53.858795
  0
ARC
  5
115
100
AcDbEntity
  8
outline
  6
ByLayer
 62
  256
370
   -1
100
AcDbCircle
 10
3
 20
50.85879499999999
 40
3
100
AcDbArc
 50
90
 51
180
  0
LWPOLYLINE
  5
116
100
AcDbEntity
  8
words
  6
ByLayer
 62
    7
370
   -1
100
AcDbPolyline
 90
   56
 70
    1
 43
0
 10
3.418359000000001
 20
4.49504199999999
 10
3.482975999999999
 20
4.098515999999989
 10
3.676836
 20
3.707864999999989
 10
3.958812
 20
3.34952199999999
 10
4.311275999999999
 20
3.026426999999989
 10
4.701928000000001
 20
2.75913999999999
 10
5.121951999999999
 20
2.544720999999989
 10
5.539037999999997
 20
2.412546999999989
 10
5.920879000000006
 20
2.368487999999989
 10
6.511264000000003
 20
2.444854999999991
 10
7.037026000000004
 20
2.67395899999999
 10
7.480549000000003
 20
3.032301999999991
 10
7.847702000000004
 20
3.47288599999999
 10
8.138488000000001
 20
3.978090999999989
 10
8.352907000000007
 20
4.530289999999991
 10
8.476271000000002
 20
5.108922999999991
 10
8.517389999999997
 20
5.669934999999991
 10
8.476271000000002
 20
6.27794099999999
 10
8.352907000000007
 20
6.927065999999988
 10
8.147301000000004
 20
7.570319999999993
 10
7.859450999999999
 20
8.160705999999992
 10
7.477610000000005
 20
8.677656999999993
 10
7.013527000000003
 20
9.100616999999993
 10
6.743304000000001
 20
9.26510399999999
 10
6.449579000000005
 20
9.382592999999989
 10
5.791640000000008
 20
9.47658399999999
 10
5.400989000000002
 20
9.441335999999989
 10
5.027960999999997
 20
9.335595999999994
 10
4.687243000000001
 20
9.176983999999994
 10
4.393520999999999
 20
8.959628999999989
 10
4.149729
 20
8.689405999999989
 10
3.958807999999996
 20
8.37218599999999
 10
3.835448000000005
 20
8.010903999999991
 10
3.794325000000006
 20
7.60850399999999
 10
3.853067999999999
 20
7.07392899999999
 10
4.029304000000002
 20
6.574601999999989
 10
4.302466000000002
 20
6.12520399999999
 10
4.651995000000006
 20
5.740426999999989
 10
5.069083999999996
 20
5.42026799999999
 10
5.544912000000003
 20
5.164729999999989
 10
6.055991999999995
 20
5.00024699999999
 10
6.578818000000004
 20
4.929750999999992
 10
6.487766
 20
4.636025999999991
 10
6.308595000000003
 20
4.436295999999989
 10
6.053056000000005
 20
4.32174499999999
 10
5.756396000000001
 20
4.28356199999999
 10
5.524356000000004
 20
4.312951999999991
 10
5.298188000000002
 20
4.401067999999991
 10
4.863475000000001
 20
4.659541999999989
 10
4.452264000000006
 20
4.929768999999991
 10
4.240783999999997
 20
5.01788499999999
 10
4.029304000000002
 20
5.047274999999989
 10
3.806074999999998
 20
5.009091999999989
 10
3.606343999999998
 20
4.894537999999989
 10
3.465356000000005
 20
4.718305999999989
 10
3.418359000000001
 20
4.495075999999991
  0
LWPOLYLINE
  5
117
100
AcDbEntity
  8
words
  6
ByLayer
 62
    7
370
   -1
100
AcDbPolyline
 90
   14
 70
    1
 43
0
 10
5.321682999999999
 20
7.37355999999999
 10
5.403928
 20
7.69078299999999
 10
5.509667999999997
 20
7.814143999999989
 10
5.662402000000006
 20
7.855265999999989
 10
5.900319000000002
 20
7.820017999999989
 10
6.097115000000009
 20
7.71427799999999
 10
6.390835999999999
 20
7.37355999999999
 10
6.578818000000004
 20
6.938849999999991
 10
6.649312999999998
 20
6.504140999999989
 10
6.261597000000001
 20
6.598130999999991
 10
5.826888000000003
 20
6.75086899999999
 10
5.47442
 20
7.009345999999991
 10
5.359866000000003
 20
7.176767999999989
 10
5.321682999999999
 20
7.37355999999999
  0
LWPOLYLINE
  5
118
100
AcDbEntity
  8
words
  6
ByLayer
 62
    7
370
   -1
100
AcDbPolyline
 90
  104
 70
    1
 43
0
 10
9.128334999999998
 20
6.280910999999993
 10
9.128334999999998
 20
5.669969999999993
 10
9.151846999999995
 20
4.847543999999993
 10
9.222343
 20
3.942877999999991
 10
9.410323999999994
 20
3.132201999999991
 10
9.545437999999995
 20
2.800292999999992
 10
9.715795000000005
 20
2.533005999999991
 10
9.930213999999999
 20
2.356769999999991
 10
10.19750200000001
 20
2.29802699999999
 10
10.426606
 20
2.350898999999991
 10
10.596967
 20
2.509506999999991
 10
10.78494800000001
 20
3.026461999999992
 10
10.85544000000001
 20
3.625657999999992
 10
10.85544000000001
 20
4.10736099999999
 10
10.820196
 20
5.14126599999999
 10
10.78494800000001
 20
6.175170999999993
 10
10.78494800000001
 20
6.386650999999991
 10
10.808461
 20
6.692125999999992
 10
10.890702
 20
6.962348999999993
 10
10.952384
 20
7.050464999999993
 10
11.043439
 20
7.07985499999999
 10
11.23436
 20
7.024047999999993
 10
11.384158
 20
6.856625999999992
 10
11.595638
 20
6.351423999999992
 10
11.71312700000001
 20
5.76397799999999
 10
11.760121
 20
5.341013999999991
 10
11.80711799999999
 20
4.882808999999992
 10
11.854115
 20
4.213117999999991
 10
11.948106
 20
3.461187999999993
 10
12.11258900000001
 20
2.76800199999999
 10
12.359317
 20
2.262799999999991
 10
12.529678
 20
2.112997999999991
 10
12.735283
 20
2.063065999999993
 10
12.984947
 20
2.124747999999991
 10
13.169993
 20
2.309793999999991
 10
13.302167
 20
2.577080999999993
 10
13.393222
 20
2.885490999999993
 10
13.487213
 20
3.555178999999993
 10
13.49896900000001
 20
4.083882999999992
 10
13.49896900000001
 20
4.471594999999993
 10
13.487213
 20
4.859310999999992
 10
13.487213
 20
5.129533999999993
 10
13.49896900000001
 20
5.540747999999993
 10
13.522481
 20
6.02245099999999
 10
13.569475
 20
6.468909999999991
 10
13.675215
 20
6.809628999999991
 10
13.751585
 20
6.906557999999992
 10
13.839701
 20
6.938870999999991
 10
13.98656400000001
 20
6.888937999999992
 10
14.121674
 20
6.739139999999993
 10
14.344907
 20
6.28093199999999
 10
14.49764
 20
5.763980999999991
 10
14.544637
 20
5.388013999999992
 10
14.544637
 20
5.317521999999991
 10
14.47414200000001
 20
4.213120999999993
 10
14.40365
 20
3.108723999999992
 10
14.456521
 20
2.791503999999992
 10
14.61513
 20
2.497781999999993
 10
14.867732
 20
2.295111999999992
 10
15.202576
 20
2.227555999999992
 10
15.449304
 20
2.277487999999992
 10
15.649035
 20
2.427285999999993
 10
15.810582
 20
2.668139999999992
 10
15.94275599999999
 20
2.967735999999992
 10
16.13074100000001
 20
3.684420999999992
 10
16.212983
 20
4.459848999999992
 10
16.248231
 20
5.153035999999992
 10
16.248231
 20
5.622992999999993
 10
16.259987
 20
6.139943999999995
 10
16.248231
 20
6.880127999999993
 10
16.177735
 20
7.690803999999994
 10
16.02500099999999
 20
8.454482999999996
 10
15.904576
 20
8.762891999999997
 10
15.754775
 20
9.006680999999997
 10
15.555044
 20
9.174102999999997
 10
15.308316
 20
9.229910999999992
 10
15.032219
 20
9.188791999999992
 10
14.81486
 20
9.065427999999994
 10
14.665062
 20
8.859818999999993
 10
14.61513
 20
8.571971999999993
 10
14.626886
 20
8.430983999999993
 10
14.638642
 20
8.301744999999993
 10
14.321422
 20
8.677711999999993
 10
13.921957
 20
9.030179999999993
 10
13.45199900000001
 20
9.288656999999994
 10
13.20527500000001
 20
9.367962999999992
 10
12.958547
 20
9.394396999999993
 10
12.735318
 20
9.362084999999993
 10
12.535587
 20
9.265154999999993
 10
12.20661400000001
 20
8.936185999999994
 10
11.971639
 20
8.524970999999994
 10
11.8424
 20
8.102010999999994
 10
11.560425
 20
8.524970999999994
 10
11.184458
 20
8.912686999999993
 10
10.749749
 20
9.182909999999993
 10
10.500085
 20
9.262218999999993
 10
10.244547
 20
9.288653999999994
 10
10.015443
 20
9.244595999999989
 10
9.821586999999999
 20
9.112417999999993
 10
9.516111999999998
 20
8.654209999999994
 10
9.316381999999996
 20
8.031518999999992
 10
9.198892000000006
 20
7.350081999999994
 10
9.140148999999999
 20
6.727386999999992
 10
9.128392999999994
 20
6.280927999999993
  0
LWPOLYLINE
  5
119
100
AcDbEntity
  8
words
  6
ByLayer
 62
    7
370
   -1
100
AcDbPolyline
 90
   17
 70
    1
 43
0
 10
17.18808999999999
 20
10.60453099999999
 10
17.282085
 20
10.31080999999999
 10
17.505314
 20
10.07583099999999
 10
17.810785
 20
9.923093999999994
 10
18.116256
 20
9.876096999999989
 10
18.336549
 20
9.905486999999997
 10
18.52747
 20
9.993602999999993
 10
18.65964400000001
 20
10.14340099999999
 10
18.703702
 20
10.35782099999999
 10
18.621461
 20
10.66329099999999
 10
18.398231
 20
10.88652099999999
 10
18.10450600000001
 20
11.02750899999999
 10
17.787286
 20
11.07450599999999
 10
17.57287
 20
11.048072
 10
17.37607500000001
 20
10.96876599999999
 10
17.235087
 20
10.82484199999999
 10
17.18808999999999
 20
10.60454799999999
  0
LWPOLYLINE
  5
11A
100
AcDbEntity
  8
words
  6
ByLayer
 62
    7
370
   -1
100
AcDbPolyline
 90
   32
 70
    1
 43
0
 10
17.0941
 20
6.609914999999995
 10
17.0941
 20
6.257446999999993
 10
17.10585599999999
 20
5.916727999999995
 10
17.117612
 20
5.376278999999994
 10
17.141124
 20
4.659593999999994
 10
17.223366
 20
3.872415999999995
 10
17.387852
 20
3.143984999999994
 10
17.525901
 20
2.844388999999993
 10
17.70507200000001
 20
2.603535999999994
 10
17.91948800000001
 20
2.450798999999994
 10
18.18677900000001
 20
2.392055999999994
 10
18.392384
 20
2.430235999999995
 10
18.56274200000001
 20
2.568287999999994
 10
18.821219
 20
3.049994999999994
 10
18.962207
 20
3.719682999999995
 10
19.032699
 20
4.436363999999995
 10
19.056211
 20
5.082556999999993
 10
19.056211
 20
5.517266999999994
 10
19.056211
 20
6.045966999999997
 10
19.032699
 20
6.797899999999992
 10
18.950458
 20
7.608572999999994
 10
18.76247300000001
 20
8.360505999999997
 10
18.615614
 20
8.668914999999993
 10
18.43350300000001
 20
8.912703999999993
 10
18.207338
 20
9.071312999999993
 10
17.92830200000001
 20
9.124183999999993
 10
17.64926500000001
 20
9.044878999999996
 10
17.44659500000001
 20
8.806963999999997
 10
17.30267200000001
 20
8.463309999999993
 10
17.199867
 20
8.066780999999994
 10
17.105876
 20
7.220859999999994
 10
17.09412
 20
6.609914999999995
  0
LWPOLYLINE
  5
11B
100
AcDbEntity
  8
words
  6
ByLayer
 62
    7
370
   -1
100
AcDbPolyline
 90
   67
 70
    1
 43
0
 10
20.90075100000001
 20
1.980840999999994
 10
21.643871
 20
2.036648999999993
 10
22.20488
 20
2.204070999999995
 10
22.60728
 20
2.462547999999996
 10
22.898066
 20
2.815015999999995
 10
23.077238
 20
3.255599999999995
 10
23.168293
 20
3.778425999999993
 10
23.215286
 20
5.035559999999994
 10
23.180039
 20
6.139957999999996
 10
23.074299
 20
7.338349999999994
 10
23.332776
 20
7.326592999999998
 10
23.485513
 20
7.326592999999998
 10
23.835042
 20
7.367715999999997
 10
24.131702
 20
7.491075999999997
 10
24.343186
 20
7.699620999999994
 10
24.413678
 20
7.996280999999997
 10
24.372556
 20
8.196011999999998
 10
24.249192
 20
8.372247999999997
 10
23.849727
 20
8.654219999999997
 10
23.321027
 20
8.842201999999997
 10
22.768828
 20
8.936195999999994
 10
22.721831
 20
9.664626999999992
 10
22.557348
 20
10.404811
 10
22.40755
 20
10.727906
 10
22.216629
 20
10.992254
 10
21.975776
 20
11.16849
 10
21.67618000000001
 20
11.227233
 10
21.499944
 20
11.197842
 10
21.34721
 20
11.109726
 10
21.10048200000001
 20
10.827754
 10
20.959494
 20
10.451787
 10
20.91249700000001
 20
10.040576
 10
20.947745
 20
9.558869999999994
 10
21.076984
 20
8.947927999999994
 10
20.806757
 20
8.971439999999992
 10
20.677522
 20
8.983196999999993
 10
20.266308
 20
8.947951999999997
 10
19.866846
 20
8.830462999999993
 10
19.561372
 20
8.607232999999997
 10
19.473256
 20
8.463309999999993
 10
19.4439
 20
8.290009999999993
 10
19.487958
 20
8.090278999999995
 10
19.620135
 20
7.914046999999994
 10
20.043096
 20
7.632070999999994
 10
20.595294
 20
7.444089999999995
 10
21.147493
 20
7.361847999999992
 10
21.253233
 20
6.468926999999993
 10
21.311979
 20
5.658254999999992
 10
21.358977
 20
5.247039999999994
 10
21.37073300000001
 20
4.835828999999994
 10
21.358977
 20
4.471611999999996
 10
21.276732
 20
4.083899999999995
 10
21.053502
 20
3.754926999999994
 10
20.871395
 20
3.658000999999993
 10
20.630542
 20
3.625687999999993
 10
20.289823
 20
3.649200999999993
 10
19.937355
 20
3.684448999999994
 10
19.675943
 20
3.631579999999993
 10
19.502646
 20
3.472967999999994
 10
19.39690600000001
 20
3.232114999999993
 10
19.361658
 20
2.932518999999995
 10
19.399842
 20
2.700478999999993
 10
19.514395
 20
2.497809999999993
 10
19.675943
 20
2.339197999999993
 10
19.87861300000001
 20
2.215833999999994
 10
20.38381400000001
 20
2.039601999999993
 10
20.900769
 20
1.980854999999994
  0
LINE
  5
11C
100
AcDbEntity
  8
lightpipes
  6
ByLayer
 62
  256
370
   -1
100
AcDbLine
 10
3.429390999999987
 20
1.52939499999999
 11
2.529390999999995
 21
4.32939499999999
  0
LINE
  5
11D
100
AcDbEntity
  8
lightpipes
  6
ByLayer
 62
  256
370
   -1
100
AcDbLine
 10
2.529390999999995
 20
4.32939499999999
 11
3.229390999999984
 21
9.529394999999994
  0
LINE
  5
11E
100
AcDbEntity
  8
lightpipes
  6
ByLayer
 62
  256
370
   -1
100
AcDbLine
 10
3.229390999999984
 20
9.529394999999994
 11
5.929390999999987
 21
10.629395
  0
LINE
  5
11F
100
AcDbEntity
  8
lightpipes
  6
ByLayer
 62
  256
370
   -1
100
AcDbLine
 10
5.929390999999987
 20
10.629395
 11
15.729391
 21
10.32939499999999
  0
LINE
  5
120
100
AcDbEntity
  8
lightpipes
  6
ByLayer
 62
  256
370
   -1
100
AcDbLine
 10
15.729391
 20
10.32939499999999
 11
16.529391
 21
11.62939499999999
  0
LINE
  5
121
100
AcDbEntity
  8
lightpipes
  6
ByLayer
 62
  256
370
   -1
100
AcDbLine
 10
16.529391
 20
11.62939499999999
 11
18.229391
 21
11.929395
  0
LINE
  5
122
100
AcDbEntity
  8
lightpipes
  6
ByLayer
 62
  256
370
   -1
100
AcDbLine
 10
18.229391
 20
11.929395
 11
19.62939099999999
 21
11.629395
  0
LINE
  5
123
100
AcDbEntity
  8
lightpipes
  6
ByLayer
 62
  256
370
   -1
100
AcDbLine
 10
19.62939099999999
 20
11.629395
 11
20.12939099999999
 21
11.329395
  0
LINE
  5
124
100
AcDbEntity
  8
lightpipes
  6
ByLayer
 62
  256
370
   -1
100
AcDbLine
 10
20.12939099999999
 20
11.329395
 11
21.32939099999999
 21
12.129395
  0
LINE
  5
125
100
AcDbEntity
  8
lightpipes
  6
ByLayer
 62
  256
370
   -1
100
AcDbLine
 10
21.32939099999999
 20
12.129395
 11
23.329391
 21
11.829395
  0
LINE
  5
126
100
AcDbEntity
  8
lightpipes
  6
ByLayer
 62
  256
370
   -1
100
AcDbLine
 10
23.329391
 20
11.829395
 11
24.02939099999999
 21
9.829394999999993
  0
LINE
  5
127
100
AcDbEntity
  8
lightpipes
  6
ByLayer
 62
  256
370
   -1
100
AcDbLine
 10
24.02939099999999
 20
9.829394999999993
 11
25.52939099999999
 21
8.629394999999997
  0
LINE
  5
128
100
AcDbEntity
  8
lightpipes
  6
ByLayer
 62
  256
370
   -1
100
AcDbLine
 10
25.52939099999999
 20
8.629394999999997
 11
25.429391
 21
6.829394999999994
  0
LINE
  5
129
100
AcDbEntity
  8
lightpipes
  6
ByLayer
 62
  256
370
   -1
100
AcDbLine
 10
25.429391
 20
6.829394999999994
 11
24.129391
 21
6.229394999999996
  0
LINE
  5
12A
100
AcDbEntity
  8
lightpipes
  6
ByLayer
 62
  256
370
   -1
100
AcDbLine
 10
24.129391
 20
6.229394999999996
 11
24.129391
 21
2.429394999999997
  0
LINE
  5
12B
100
AcDbEntity
  8
lightpipes
  6
ByLayer
 62
  256
370
   -1
100
AcDbLine
 10
24.129391
 20
2.429394999999997
 11
22.829391
 21
1.229394999999994
  0
LINE
  5
12C
100
AcDbEntity
  8
lightpipes
  6
ByLayer
 62
  256
370
   -1
100
AcDbLine
 10
22.829391
 20
1.229394999999994
 11
21.32939100000001
 21
1.129394999999994
  0
LINE
  5
12D
100
AcDbEntity
  8
lightpipes
  6
ByLayer
 62
  256
370
   -1
100
AcDbLine
 10
21.32939100000001
 20
1.129394999999994
 11
16.529391
 21
1.129394999999993
  0
LINE
  5
12E
100
AcDbEntity
  8
lightpipes
  6
ByLayer
 62
  256
370
   -1
100
AcDbLine
 10
16.529391
 20
1.129394999999993
 11
3.429390999999987
 21
1.52939499999999
  0
CIRCLE
  5
12F
100
AcDbEntity
  8
lights
  6
ByLayer
 62
  256
370
   -1
100
AcDbCircle
 10
13.49896900000001
 20
5.540747999999993
 40
2.75
  0
CIRCLE
  5
130
100
AcDbEntity
  8
lights2
  6
ByLayer
 62
  256
370
   -1
100
AcDbCircle
 10
13.49896900000001
 20
5.540747999999993
 40
3.2
  0
LWPOLYLINE
  5
131
100
AcDbEntity
  8
words
  6
ByLayer
 62
    7
370
   -1
100
AcDbPolyline
 90
   67
 70
    1
 43
0
 10
3.782434999999984
 20
32.746538
 10
3.794190999999989
 20
32.147342
 10
3.829438999999985
 20
31.324917
 10
3.899930999999986
 20
30.51424099999999
 10
4.017420999999991
 20
29.962043
 10
4.264147999999984
 20
29.57432999999999
 10
4.443319999999992
 20
29.450966
 10
4.675358999999992
 20
29.40984399999999
 10
5.019016999999983
 20
29.48914999999999
 10
5.251056999999981
 20
29.727064
 10
5.397918999999994
 20
30.082467
 10
5.486034999999993
 20
30.51424099999999
 10
5.533031999999984
 20
31.536397
 10
5.544788999999986
 20
32.558553
 10
5.58885399999999
 20
32.990327
 10
5.674026999999987
 20
33.345731
 10
5.823824999999991
 20
33.583645
 10
6.061742999999985
 20
33.66295099999998
 10
6.405396999999986
 20
33.63063899999999
 10
6.660938999999991
 20
33.533712
 10
6.834234999999985
 20
33.395663
 10
6.954659999999982
 20
33.216489
 10
7.060399999999993
 20
32.758281
 10
7.095647999999989
 20
32.217831
 10
7.130892999999992
 20
31.48939999999999
 10
7.23663299999999
 20
30.584734
 10
7.362935999999983
 20
30.16764799999999
 10
7.553855999999988
 20
29.80930199999999
 10
7.81820799999999
 20
29.57138799999999
 10
8.188295999999985
 20
29.49208199999999
 10
8.423274999999981
 20
29.54201499999999
 10
8.611256999999986
 20
29.691816
 10
8.749308999999988
 20
29.92091999999999
 10
8.85798499999999
 20
30.208767
 10
8.998971999999986
 20
30.91370299999999
 10
9.045965999999984
 20
31.66563299999999
 10
9.045965999999984
 20
32.34707
 10
9.034209999999993
 20
32.805278
 10
9.022453999999987
 20
33.580706
 10
8.940208999999987
 20
34.779098
 10
8.787474999999992
 20
36.153718
 10
8.540746999999987
 20
37.434351
 10
8.373324999999985
 20
37.965991
 10
8.176529999999991
 20
38.386015
 10
7.93567699999999
 20
38.656238
 10
7.659578999999986
 20
38.73848299999999
 10
7.486281999999981
 20
38.69148299999998
 10
7.342358999999994
 20
38.57399699999998
 10
7.11912999999999
 20
38.174535
 10
6.966391999999991
 20
37.65758099999999
 10
6.884150999999981
 20
37.09363299999999
 10
6.848902999999985
 20
36.58843099999998
 10
6.837146999999994
 20
36.22421399999999
 10
6.848902999999985
 20
35.613269
 10
6.884150999999981
 20
35.002327
 10
6.569865999999982
 20
35.334232
 10
6.167465999999982
 20
35.60151899999999
 10
5.709257999999983
 20
35.77775499999998
 10
5.251049999999985
 20
35.836498
 10
4.737033999999987
 20
35.754257
 10
4.535099999999992
 20
35.651452
 10
4.369881999999982
 20
35.50752899999998
 10
4.108468999999991
 20
35.149186
 10
3.935171999999986
 20
34.70860199999998
 10
3.835306999999992
 20
34.221021
 10
3.794183999999993
 20
33.69819499999998
 10
3.782427999999987
 20
32.746535
  0
LWPOLYLINE
  5
132
100
AcDbEntity
  8
words
  6
ByLayer
 62
    7
370
   -1
100
AcDbPolyline
 90
   73
 70
    1
 43
0
 10
9.786128999999994
 20
34.21515
 10
9.797884999999985
 20
34.085911
 10
9.833132999999981
 20
33.96842199999999
 10
9.968245999999979
 20
33.71875799999999
 10
10.16210299999999
 20
33.510214
 10
10.40589099999999
 20
33.378036
 10
10.69080299999999
 20
33.333978
 10
10.90154699999998
 20
33.362612
 10
11.07557999999999
 20
33.448528
 10
11.21289599999999
 20
33.591716
 10
11.31349399999998
 20
33.792183
 10
11.33700599999999
 20
33.921421
 10
11.34876199999998
 20
34.085908
 10
11.34876199999998
 20
34.426626
 10
11.43100399999999
 20
34.6851
 10
11.51030999999998
 20
34.75559599999999
 10
11.63073799999999
 20
34.77910799999999
 10
11.82753299999999
 20
34.71449
 10
12.01844999999999
 20
34.520631
 10
12.33566999999998
 20
33.921435
 10
12.54715399999998
 20
33.21649899999998
 10
12.62939499999999
 20
32.62905599999998
 10
12.60588299999998
 20
32.194343
 10
12.51189199999998
 20
31.71263999999999
 10
12.32391099999999
 20
31.30142599999999
 10
12.17704799999999
 20
31.17806499999999
 10
11.99493799999998
 20
31.13694299999999
 10
11.80402099999998
 20
31.166333
 10
11.63072399999999
 20
31.254449
 10
11.29000599999998
 20
31.548171
 10
10.96103599999998
 20
31.84189599999999
 10
10.76130199999999
 20
31.95644599999999
 10
10.53807299999999
 20
31.99462899999999
 10
10.27665999999998
 20
31.94176099999998
 10
10.07986499999999
 20
31.78314899999999
 10
9.947689999999989
 20
31.55698399999999
 10
9.903631999999993
 20
31.30144299999999
 10
9.95650399999999
 20
30.91372999999999
 10
10.11511199999999
 20
30.549513
 10
10.35302699999999
 20
30.229354
 10
10.64381299999999
 20
29.950317
 10
10.97865999999998
 20
29.73002699999999
 10
11.34874799999999
 20
29.562605
 10
11.72765099999999
 20
29.448051
 10
12.08893199999999
 20
29.40986799999999
 10
12.67637499999998
 20
29.48917399999999
 10
13.16983099999999
 20
29.72708799999999
 10
13.56342199999998
 20
30.085431
 10
13.87476699999998
 20
30.52601499999999
 10
14.10680699999998
 20
31.04003
 10
14.26247899999999
 20
31.59516799999999
 10
14.35059599999999
 20
32.15618
 10
14.37998599999999
 20
32.687816
 10
14.33886299999998
 20
33.31051
 10
14.21550299999999
 20
33.980199
 10
14.00695799999999
 20
34.65869699999999
 10
13.71029799999999
 20
35.28432699999998
 10
13.32258199999999
 20
35.83359
 10
12.84087899999999
 20
36.282984
 10
12.55817099999999
 20
36.45774899999998
 10
12.25049699999999
 20
36.582584
 10
11.91785299999999
 20
36.657483
 10
11.56024599999998
 20
36.682439
 10
11.13434699999998
 20
36.632506
 10
10.77306799999999
 20
36.48270499999999
 10
10.46465799999999
 20
36.250665
 10
10.22086999999998
 20
35.954005
 10
10.02701299999999
 20
35.616225
 10
9.891899999999984
 20
35.237319
 10
9.803783999999984
 20
34.84079299999998
 10
9.774393999999992
 20
34.450142
 10
9.774393999999992
 20
34.33265299999999
 10
9.786149999999983
 20
34.215167
  0
LWPOLYLINE
  5
133
100
AcDbEntity
  8
words
  6
ByLayer
 62
    7
370
   -1
100
AcDbPolyline
 90
   70
 70
    1
 43
0
 10
16.42427099999998
 20
29.37460999999999
 10
16.60344499999998
 20
29.42160699999999
 10
16.74149399999998
 20
29.562595
 10
16.91772599999999
 20
29.973806
 10
16.99996799999999
 20
30.44376299999999
 10
17.01172399999999
 20
30.819729
 10
16.97647999999999
 20
31.52466199999999
 10
16.88248499999998
 20
32.229598
 10
16.78849499999999
 20
32.934534
 10
16.74150099999999
 20
33.63947
 10
16.75325699999998
 20
33.94493999999999
 10
16.81199999999999
 20
34.250411
 10
16.94123899999999
 20
34.497139
 10
17.04991799999998
 20
34.567631
 10
17.18796699999999
 20
34.591144
 10
17.29958099999998
 20
34.547086
 10
17.42294499999999
 20
34.41491099999999
 10
17.66966999999999
 20
34.027196
 10
17.85765499999999
 20
33.592486
 10
17.92814699999999
 20
33.27526599999999
 10
17.92814699999999
 20
32.746566
 10
17.91639099999998
 20
32.217862
 10
17.91639099999998
 20
31.53642499999999
 10
17.95163899999999
 20
31.10171499999999
 10
18.02213099999999
 20
30.66700599999999
 10
18.12787099999999
 20
30.25579499999999
 10
18.31585599999999
 20
29.91507599999999
 10
18.57432999999998
 20
29.680098
 10
18.74175199999998
 20
29.609602
 10
18.93854699999999
 20
29.58609
 10
19.15296599999998
 20
29.62427299999999
 10
19.32626299999999
 20
29.738827
 10
19.57298999999998
 20
30.12654299999999
 10
19.71397499999998
 20
30.66699199999999
 10
19.77272099999998
 20
31.254439
 10
19.78447699999999
 20
31.783139
 10
19.77272099999998
 20
32.170855
 10
19.77272099999998
 20
32.723054
 10
19.79623399999999
 20
33.604222
 10
19.80798999999998
 20
34.473641
 10
19.80798999999998
 20
35.072836
 10
19.71399499999999
 20
35.777772
 10
19.60531999999998
 20
36.103806
 10
19.44377199999999
 20
36.37696499999998
 10
19.21172899999998
 20
36.562011
 10
18.89157399999998
 20
36.623693
 10
18.73590099999999
 20
36.597259
 10
18.59784899999999
 20
36.517953
 10
18.37461899999999
 20
36.259475
 10
18.21013599999998
 20
35.930506
 10
18.10439599999999
 20
35.62503499999999
 10
17.83416999999999
 20
35.942255
 10
17.46995299999998
 20
36.21248199999999
 10
17.02349399999999
 20
36.400463
 10
16.45954599999998
 20
36.470959
 10
15.92790699999998
 20
36.397528
 10
15.53138099999999
 20
36.17723399999998
 10
15.23765899999998
 20
35.857078
 10
15.03792799999999
 20
35.460552
 10
14.90575099999999
 20
35.019968
 10
14.83819399999999
 20
34.54413599999999
 10
14.80294999999999
 20
33.65121899999998
 10
14.83819399999999
 20
33.05202299999998
 10
14.95568299999998
 20
32.18260399999998
 10
15.15541799999999
 20
31.20744199999999
 10
15.46088799999999
 20
30.30277499999999
 10
15.65474499999998
 20
29.929748
 10
15.88384899999999
 20
29.63308699999999
 10
16.13645099999999
 20
29.439231
 10
16.42429799999998
 20
29.37460999999999
  0
LWPOLYLINE
  5
134
100
AcDbEntity
  8
words
  6
ByLayer
 62
    7
370
   -1
100
AcDbPolyline
 90
   59
 70
    1
 43
0
 10
20.48939599999999
 20
33.063772
 10
20.52170799999998
 20
32.420518
 10
20.61863799999998
 20
31.783139
 10
20.79193499999999
 20
31.18100799999999
 10
21.05334799999999
 20
30.64349399999999
 10
21.41168999999998
 20
30.19703499999999
 10
21.87577299999999
 20
29.84456699999999
 10
22.44559499999999
 20
29.61546299999999
 10
23.14465699999999
 20
29.53909599999999
 10
23.83490399999999
 20
29.61252699999999
 10
24.40179099999999
 20
29.83281799999999
 10
24.85705999999999
 20
30.185286
 10
25.21246399999999
 20
30.631744
 10
25.46506599999998
 20
31.15750899999999
 10
25.63542799999999
 20
31.74789099999999
 10
25.72354399999999
 20
32.37646
 10
25.75289999999999
 20
33.016775
 10
25.71177699999999
 20
33.718775
 10
25.58841299999999
 20
34.414898
 10
25.45917499999999
 20
34.931849
 10
25.20070099999999
 20
35.58978699999999
 10
24.83648399999999
 20
36.15373499999998
 10
24.61619299999999
 20
36.329971
 10
24.37827599999998
 20
36.38871399999999
 10
24.16679599999999
 20
36.356402
 10
24.00230899999999
 20
36.259472
 10
23.77907999999998
 20
35.930503
 10
23.67333999999999
 20
35.519292
 10
23.64982699999999
 20
35.131576
 10
23.69682499999999
 20
34.60287599999999
 10
23.77906599999998
 20
34.085925
 10
23.87305699999999
 20
33.380989
 10
23.90830499999999
 20
32.676053
 10
23.89654899999998
 20
32.27659099999999
 10
23.80255799999999
 20
31.86537699999999
 10
23.60282699999999
 20
31.52465799999999
 10
23.44715399999999
 20
31.42772899999999
 10
23.23860999999999
 20
31.395416
 10
22.96544799999999
 20
31.436539
 10
22.75690299999999
 20
31.55990299999999
 10
22.59535599999999
 20
31.744949
 10
22.48667999999998
 20
31.97111399999999
 10
22.36919099999998
 20
32.499817
 10
22.34567899999999
 20
33.01676799999998
 10
22.41617099999999
 20
34.027175
 10
22.54540899999998
 20
35.04933099999999
 10
22.55716499999999
 20
35.213817
 10
22.49841899999999
 20
35.566285
 10
22.33393599999999
 20
35.88350599999999
 10
22.07545899999999
 20
36.106735
 10
21.73473999999999
 20
36.200726
 10
21.49095099999999
 20
36.153732
 10
21.27653199999998
 20
36.012744
 10
21.09442499999999
 20
35.807139
 10
20.94756299999999
 20
35.542787
 10
20.72433299999999
 20
34.89659699999998
 10
20.58334599999998
 20
34.19166099999999
 10
20.51285299999998
 20
33.545468
 10
20.48934099999999
 20
33.063765
  0
LWPOLYLINE
  5
135
100
AcDbEntity
  8
words
  6
ByLayer
 62
    7
370
   -1
100
AcDbPolyline
 90
   33
 70
    1
 43
0
 10
26.54007399999999
 20
36.82341699999998
 10
26.59881699999999
 20
35.542787
 10
26.64581399999999
 20
34.262154
 10
26.59881699999999
 20
32.593808
 10
26.54007399999999
 20
30.91371299999999
 10
26.56358599999999
 20
30.432007
 10
26.68107499999998
 20
29.95029999999999
 10
26.78681499999999
 20
29.74469499999999
 10
26.93954899999998
 20
29.57433700000001
 10
27.14515399999999
 20
29.459783
 10
27.40950599999998
 20
29.42160000000001
 10
27.67385799999999
 20
29.49209200000001
 10
27.90296199999999
 20
29.703572
 10
28.08800799999999
 20
30.011982
 10
28.24368099999999
 20
30.39675899999999
 10
28.46690999999999
 20
31.360172
 10
28.59614899999999
 20
32.382328
 10
28.65489199999999
 20
33.29874400000001
 10
28.66664799999999
 20
33.921435
 10
28.65489199999999
 20
34.567624
 10
28.57264999999999
 20
35.48404
 10
28.41991299999999
 20
36.482698
 10
28.14968999999998
 20
37.41086300000001
 10
27.97051899999999
 20
37.79270400000001
 10
27.76197399999999
 20
38.09230100000001
 10
27.50643599999998
 20
38.29497
 10
27.20977499999998
 20
38.36252700000001
 10
26.98361099999999
 20
38.318469
 10
26.82206299999998
 20
38.186291
 10
26.70163499999999
 20
38.001249
 10
26.62232899999998
 20
37.77508
 10
26.55183699999998
 20
37.26987899999999
 10
26.54008099999998
 20
36.82341699999998
  0
LWPOLYLINE
  5
136
100
AcDbEntity
  8
words
  6
ByLayer
 62
    7
370
   -1
100
AcDbPolyline
 90
   67
 70
    1
 43
0
 10
37.19567999999999
 20
29.28061200000001
 10
37.93879899999999
 20
29.33641900000001
 10
38.49980799999999
 20
29.503841
 10
38.90220899999998
 20
29.76231900000001
 10
39.19299499999999
 20
30.11478700000001
 10
39.37216599999998
 20
30.55537100000001
 10
39.46322099999999
 20
31.07819600000001
 10
39.51021499999999
 20
32.335331
 10
39.47496699999998
 20
33.439728
 10
39.369227
 20
34.63812
 10
39.62770399999999
 20
34.626364
 10
39.78044199999998
 20
34.626364
 10
40.12996999999998
 20
34.667486
 10
40.42663099999998
 20
34.79084700000001
 10
40.63811099999999
 20
34.999391
 10
40.70860299999999
 20
35.296052
 10
40.66748399999999
 20
35.495783
 10
40.54411999999998
 20
35.672019
 10
40.14465499999998
 20
35.953991
 10
39.61595499999998
 20
36.141972
 10
39.06375599999999
 20
36.235967
 10
39.01675899999998
 20
36.964398
 10
38.85227599999999
 20
37.70458100000001
 10
38.70247799999999
 20
38.02767600000001
 10
38.51155799999999
 20
38.292025
 10
38.27070399999999
 20
38.46826
 10
37.97110799999999
 20
38.527003
 10
37.79487199999999
 20
38.497647
 10
37.64213899999998
 20
38.409531
 10
37.39541099999999
 20
38.12755900000001
 10
37.25442299999999
 20
37.75159200000002
 10
37.20742599999999
 20
37.34038100000001
 10
37.24267399999999
 20
36.85867500000001
 10
37.37191199999999
 20
36.247733
 10
37.10168599999999
 20
36.27124500000001
 10
36.97245099999998
 20
36.283002
 10
36.56123599999999
 20
36.24775700000001
 10
36.16177499999999
 20
36.130268
 10
35.85629999999999
 20
35.907038
 10
35.76818399999999
 20
35.763115
 10
35.73879399999999
 20
35.58981500000001
 10
35.78285199999999
 20
35.390084
 10
35.91502999999999
 20
35.213852
 10
36.33798999999999
 20
34.931876
 10
36.89018899999998
 20
34.743895
 10
37.44238699999999
 20
34.661653
 10
37.54812699999999
 20
33.768732
 10
37.60687399999999
 20
32.95806
 10
37.65387099999999
 20
32.546845
 10
37.66562699999998
 20
32.135634
 10
37.65387099999999
 20
31.771417
 10
37.57162599999999
 20
31.383705
 10
37.34839699999999
 20
31.054732
 10
37.16628999999999
 20
30.95780599999999
 10
36.92543599999999
 20
30.925493
 10
36.58471799999999
 20
30.94900600000001
 10
36.23224999999998
 20
30.98425400000001
 10
35.97083699999999
 20
30.931385
 10
35.79753999999999
 20
30.772773
 10
35.69179999999998
 20
30.53192000000001
 10
35.65655199999999
 20
30.232324
 10
35.69473599999999
 20
30.00028099999999
 10
35.80928999999999
 20
29.79761500000001
 10
35.97083699999999
 20
29.639003
 10
36.17350699999998
 20
29.515639
 10
36.67870799999998
 20
29.339407
 10
37.19566299999999
 20
29.28066
  0
LWPOLYLINE
  5
137
100
AcDbEntity
  8
words
  6
ByLayer
 62
    7
370
   -1
100
AcDbPolyline
 90
   56
 70
    1
 43
0
 10
40.41486499999999
 20
36.165492
 10
40.47361099999999
 20
35.86883100000001
 10
40.64984299999999
 20
35.66029
 10
41.15504499999999
 20
35.34307
 10
41.67199899999998
 20
35.002351
 10
41.83942099999999
 20
34.752684
 10
41.89522899999998
 20
34.403155
 10
41.87171599999999
 20
34.20636
 10
41.80122399999999
 20
34.038938
 10
41.55449599999998
 20
33.756966
 10
41.22552699999998
 20
33.510238
 10
40.90830699999998
 20
33.21651300000001
 10
40.66157899999999
 20
32.817051
 10
40.58227299999998
 20
32.555638
 10
40.55583899999999
 20
32.24135400000001
 10
40.62045599999999
 20
31.750837
 10
40.81431199999999
 20
31.26619500000001
 10
41.09922399999998
 20
30.81973600000001
 10
41.46050499999999
 20
30.42027100000001
 10
41.87465499999999
 20
30.091302
 10
42.34167399999999
 20
29.832825
 10
42.83218999999999
 20
29.66540300000001
 10
43.31683299999999
 20
29.60959499999999
 10
43.71629799999999
 20
29.64484300000001
 10
44.08051499999999
 20
29.750583
 10
44.33898899999999
 20
29.973812
 10
44.41829399999999
 20
30.14710900000001
 10
44.44472899999999
 20
30.36152800000001
 10
44.41241599999998
 20
30.65231400000001
 10
44.31548699999999
 20
30.86673000000001
 10
44.16862799999999
 20
31.03415200000001
 10
43.98651699999998
 20
31.160455
 10
43.56355699999999
 20
31.324938
 10
43.12884799999999
 20
31.46592600000001
 10
42.79987799999998
 20
31.70090399999999
 10
42.70294799999999
 20
31.871265
 10
42.67063599999999
 20
32.100366
 10
42.72056899999999
 20
32.35003
 10
42.87036699999999
 20
32.605571
 10
43.29332699999999
 20
33.169519
 10
43.72803999999998
 20
33.815709
 10
43.86902799999998
 20
34.174051
 10
43.91602199999999
 20
34.56763800000002
 10
43.86608899999999
 20
35.052284
 10
43.71629099999999
 20
35.495804
 10
43.47250199999999
 20
35.901143
 10
43.16409199999999
 20
36.247737
 10
42.78812499999999
 20
36.52970900000002
 10
42.36516499999999
 20
36.741189
 10
41.90695699999999
 20
36.88217700000001
 10
41.42525099999999
 20
36.92917400000002
 10
41.06103399999998
 20
36.89392600000001
 10
40.73206399999999
 20
36.764687
 10
40.50883499999999
 20
36.52970900000002
 10
40.43834299999999
 20
36.368161
 10
40.41482999999999
 20
36.165492
  0
LWPOLYLINE
  5
138
100
AcDbEntity
  8
words
  6
ByLayer
 62
    7
370
   -1
100
AcDbPolyline
 90
   62
 70
    1
 43
0
 10
44.57394699999999
 20
31.360186
 10
44.59745899999998
 20
30.80798700000001
 10
44.69144999999999
 20
30.138299
 10
44.79719299999998
 20
29.84163500000001
 10
44.94992699999999
 20
29.58609700000001
 10
45.16140699999999
 20
29.40986400000001
 10
45.44338299999999
 20
29.351121
 10
45.82815899999998
 20
29.42161400000001
 10
46.11307099999999
 20
29.633094
 10
46.28636699999999
 20
29.95031700000001
 10
46.33629999999999
 20
30.33803
 10
46.73870099999999
 20
30.04430800000001
 10
47.19396999999998
 20
29.82107499999999
 10
47.66980199999999
 20
29.680091
 10
48.15738299999999
 20
29.633094
 10
48.48929099999999
 20
29.67421600000001
 10
48.80357199999999
 20
29.79758000000001
 10
49.09141899999999
 20
29.98556200000001
 10
49.34402199999999
 20
30.22054000000001
 10
49.55550199999999
 20
30.49370200000002
 10
49.71998799999998
 20
30.796238
 10
49.82572799999999
 20
31.12227100000001
 10
49.86097599999999
 20
31.44242700000001
 10
49.77579599999998
 20
31.97112700000001
 10
49.52025799999999
 20
32.429335
 10
49.12960599999999
 20
32.81999
 10
48.66258399999999
 20
33.146021
 10
48.14269799999999
 20
33.419183
 10
47.59343499999998
 20
33.627727
 10
46.57127899999999
 20
33.862706
 10
46.57127899999999
 20
33.96844600000001
 10
46.55952299999999
 20
34.074186
 10
46.60945499999999
 20
34.403155
 10
46.75925299999999
 20
34.66163200000002
 10
47.00010699999998
 20
34.829054
 10
47.32320099999999
 20
34.88486200000001
 10
47.59636399999999
 20
34.85842800000002
 10
47.82840699999999
 20
34.77912200000001
 10
48.22786799999999
 20
34.555892
 10
48.60383499999999
 20
34.33266
 10
49.02679499999998
 20
34.238669
 10
49.26764799999999
 20
34.279791
 10
49.47325399999999
 20
34.403155
 10
49.60542799999999
 20
34.59113700000002
 10
49.64948599999999
 20
34.826115
 10
49.59367799999999
 20
35.196207
 10
49.426256
 20
35.531051
 10
49.164844
 20
35.821837
 10
48.85056299999999
 20
36.059752
 10
48.48634499999998
 20
36.25654700000001
 10
48.09862999999998
 20
36.40047
 10
47.70504299999999
 20
36.4974
 10
47.34669999999999
 20
36.529712
 10
46.71225599999999
 20
36.44747100000001
 10
46.11306399999999
 20
36.21249200000001
 10
45.60785899999999
 20
35.82477600000001
 10
45.39637899999999
 20
35.580987
 10
45.23189599999998
 20
35.296076
 10
44.89117699999998
 20
34.367911
 10
44.69144299999998
 20
33.369253
 10
44.59745199999999
 20
32.347097
 10
44.57393999999998
 20
31.360189
  0
LWPOLYLINE
  5
139
100
AcDbEntity
  8
words
  6
ByLayer
 62
    7
370
   -1
100
AcDbPolyline
 90
   15
 70
    1
 43
0
 10
46.45377599999999
 20
31.73615200000001
 10
46.48901999999999
 20
32.535079
 10
46.53601699999999
 20
32.535079
 10
46.58301399999999
 20
32.546835
 10
46.97072699999999
 20
32.464594
 10
47.40543599999999
 20
32.25311300000001
 10
47.76965299999999
 20
31.959388
 10
47.87539299999999
 20
31.79196600000001
 10
47.91064099999999
 20
31.61867000000001
 10
47.88125099999999
 20
31.480621
 10
47.79313499999998
 20
31.39544
 10
47.52290799999999
 20
31.336697
 10
47.25562099999999
 20
31.36901
 10
46.97070899999998
 20
31.46594000000001
 10
46.45375799999998
 20
31.73616300000001
  0
LWPOLYLINE
  5
13A
100
AcDbEntity
  8
words
  6
ByLayer
 62
    7
370
   -1
100
AcDbPolyline
 90
   70
 70
    1
 43
0
 10
49.13251099999999
 20
36.729447
 10
49.17950799999999
 20
36.294737
 10
49.32049599999999
 20
35.942269
 10
49.60246799999999
 20
35.695541
 10
50.03717799999999
 20
35.61330000000002
 10
50.29271899999999
 20
35.64269
 10
50.47188999999999
 20
35.730806
 10
50.67162099999999
 20
36.01278200000001
 10
50.71861499999998
 20
36.388745
 10
50.74212699999999
 20
36.752962
 10
50.82436899999999
 20
37.04668400000001
 10
50.92423799999999
 20
37.1348
 10
51.08284599999999
 20
37.16419
 10
51.24439699999999
 20
37.09663400000001
 10
51.37657099999999
 20
36.89396700000002
 10
51.55280299999999
 20
36.271273
 10
51.64679399999998
 20
35.57808600000001
 10
51.67030599999999
 20
35.131628
 10
51.37658499999999
 20
35.16687500000001
 10
51.07110999999999
 20
35.19038800000001
 10
50.73039199999999
 20
35.15514
 10
50.40142199999999
 20
35.037651
 10
50.15469399999999
 20
34.82617
 10
50.08420199999999
 20
34.67930800000001
 10
50.06068999999999
 20
34.497201
 10
50.10768699999999
 20
34.29747
 10
50.24867099999999
 20
34.12123500000001
 10
50.68338399999999
 20
33.839262
 10
51.18858599999999
 20
33.663027
 10
51.59979999999999
 20
33.569036
 10
51.56455199999998
 20
31.93593800000001
 10
51.59979999999999
 20
30.40857700000001
 10
51.67615699999999
 20
30.07666800000001
 10
51.85827399999999
 20
29.80938100000001
 10
52.11675099999998
 20
29.63314900000001
 10
52.44572099999999
 20
29.57440600000001
 10
52.78643899999999
 20
29.656647
 10
53.02141799999999
 20
29.856378
 10
53.17415499999999
 20
30.1501
 10
53.23289799999999
 20
30.49081800000001
 10
53.32688899999999
 20
31.90069000000001
 10
53.35040099999999
 20
33.334057
 10
53.51488699999999
 20
33.322301
 10
53.66762099999999
 20
33.322301
 10
54.00833999999999
 20
33.357549
 10
54.39605599999999
 20
33.475038
 10
54.70152599999999
 20
33.698267
 10
54.79845599999999
 20
33.84513
 10
54.83076899999999
 20
34.027237
 10
54.78670999999999
 20
34.265151
 10
54.65453599999998
 20
34.461946
 10
54.25507099999999
 20
34.74392200000001
 10
53.74986999999999
 20
34.908405
 10
53.27991199999999
 20
34.978901
 10
53.27991199999999
 20
35.166882
 10
53.17417199999999
 20
36.400518
 10
53.02730999999998
 20
37.034959
 10
52.79820599999998
 20
37.622405
 10
52.47804699999999
 20
38.136421
 10
52.05802199999999
 20
38.55057
 10
51.80689099999998
 20
38.71505700000001
 10
51.52344699999999
 20
38.83254600000001
 10
50.85963399999998
 20
38.92653700000002
 10
50.43373399999999
 20
38.87660400000001
 10
50.07245599999999
 20
38.726806
 10
49.77285999999999
 20
38.50651200000001
 10
49.53200699999998
 20
38.221601
 10
49.34989999999999
 20
37.892632
 10
49.22653599999999
 20
37.516665
 10
49.13254199999999
 20
36.729488
  0
LWPOLYLINE
  5
13B
100
AcDbEntity
  8
words
  6
ByLayer
 62
    7
370
   -1
100
AcDbPolyline
 90
   69
 70
    1
 43
0
 10
54.47825899999999
 20
36.024548
 10
54.52231699999999
 20
35.69264
 10
54.65449199999998
 20
35.354857
 10
55.06570599999998
 20
34.67342
 10
55.57090799999999
 20
34.038979
 10
56.02911599999999
 20
33.49853
 10
55.61790499999998
 20
32.805343
 10
55.14794699999999
 20
31.90067600000001
 10
54.77198099999999
 20
30.960762
 10
54.64861999999999
 20
30.540737
 10
54.60749799999998
 20
30.19708300000001
 10
54.64568099999999
 20
29.959165
 10
54.76023199999999
 20
29.73887500000001
 10
54.94234199999999
 20
29.589077
 10
55.18319499999999
 20
29.53914400000001
 10
55.38586499999999
 20
29.580267
 10
55.59440599999999
 20
29.703627
 10
56.00561699999999
 20
30.150086
 10
56.39333299999999
 20
30.77278
 10
56.74580099999999
 20
31.44246800000001
 10
57.02777299999999
 20
32.053414
 10
57.21575799999999
 20
32.523367
 10
57.54472699999999
 20
32.26489400000001
 10
57.87369699999998
 20
32.041664
 10
57.89720899999999
 20
31.348478
 10
58.00294899999999
 20
30.46731000000001
 10
58.11456399999999
 20
30.059034
 10
58.28492099999999
 20
29.703627
 10
58.53164899999999
 20
29.46571300000001
 10
58.87236799999999
 20
29.38640700000001
 10
59.14259499999999
 20
29.45690300000001
 10
59.34232499999999
 20
29.66838300000002
 10
59.48624899999999
 20
29.96210400000001
 10
59.58905299999998
 20
30.30282300000001
 10
59.67129499999999
 20
31.05475300000002
 10
59.68305099999998
 20
31.64219900000001
 10
59.63605399999999
 20
33.38104000000001
 10
59.57731099999999
 20
35.119882
 10
59.57731099999999
 20
35.63683300000002
 10
59.53031399999999
 20
36.341769
 10
59.42457399999998
 20
37.10544700000001
 10
59.22484299999998
 20
37.79863400000001
 10
59.07797999999999
 20
38.08354500000001
 10
58.89587299999999
 20
38.303836
 10
58.66383399999999
 20
38.45363700000001
 10
58.39066799999998
 20
38.50357
 10
58.19681199999999
 20
38.462447
 10
58.03819999999999
 20
38.33908400000001
 10
57.90309099999999
 20
38.162851
 10
57.80322199999998
 20
37.939622
 10
57.67398699999999
 20
37.38742
 10
57.61523999999999
 20
36.77647800000002
 10
57.59172799999999
 20
36.224279
 10
57.59172799999999
 20
35.81306500000001
 10
57.60348399999999
 20
35.49584500000002
 10
57.61523999999999
 20
35.072885
 10
57.61523999999999
 20
34.661674
 10
57.59172799999999
 20
34.39144700000001
 10
57.34500299999998
 20
34.544184
 10
56.96903699999999
 20
34.955395
 10
56.49907999999999
 20
35.472346
 10
55.98212899999999
 20
36.00105
 10
55.45342499999999
 20
36.400511
 10
55.20376199999999
 20
36.523875
 10
54.97171899999998
 20
36.564998
 10
54.76317799999999
 20
36.523875
 10
54.60750499999999
 20
36.400511
 10
54.51057499999999
 20
36.224279
 10
54.47826299999999
 20
36.024548
  0
LWPOLYLINE
  5
13C
100
AcDbEntity
  8
words
  6
ByLayer
 62
    7
370
   -1
100
AcDbPolyline
 90
   62
 70
    1
 43
0
 10
60.41145799999999
 20
31.36022700000002
 10
60.43496999999998
 20
30.80802800000001
 10
60.52896099999999
 20
30.13834000000001
 10
60.63470099999998
 20
29.84167600000001
 10
60.78743799999999
 20
29.58613800000001
 10
60.99891799999999
 20
29.40990600000001
 10
61.28089399999999
 20
29.35116300000001
 10
61.66567099999999
 20
29.42165500000001
 10
61.95058199999999
 20
29.63313500000001
 10
62.12387899999999
 20
29.95035900000002
 10
62.17381099999999
 20
30.33807100000001
 10
62.57621199999999
 20
30.04434900000001
 10
63.03148099999999
 20
29.82111700000001
 10
63.50731299999999
 20
29.68013200000001
 10
63.994894
 20
29.63313500000001
 10
64.32680299999998
 20
29.67425700000002
 10
64.64108399999998
 20
29.79762100000001
 10
64.92893099999998
 20
29.98560300000002
 10
65.18153299999997
 20
30.22058200000001
 10
65.39301299999998
 20
30.49374400000001
 10
65.55749999999998
 20
30.79627900000001
 10
65.66323999999997
 20
31.12231300000001
 10
65.69848399999998
 20
31.44246800000002
 10
65.61330299999997
 20
31.97116900000001
 10
65.35776499999999
 20
32.42937700000002
 10
64.96711399999998
 20
32.82003100000001
 10
64.50009599999998
 20
33.14606200000001
 10
63.98020899999998
 20
33.41922400000001
 10
63.43094599999998
 20
33.62776800000002
 10
62.40878999999999
 20
33.86274700000001
 10
62.40878999999999
 20
33.96848700000002
 10
62.39703399999998
 20
34.07422700000001
 10
62.44696699999998
 20
34.403197
 10
62.59676499999998
 20
34.66167400000001
 10
62.83761799999998
 20
34.82909600000001
 10
63.16071299999999
 20
34.884903
 10
63.43387499999999
 20
34.85846900000001
 10
63.66591399999998
 20
34.77916300000002
 10
64.06537899999998
 20
34.55593400000001
 10
64.44134599999998
 20
34.33270100000001
 10
64.86430599999998
 20
34.23871000000001
 10
65.10515899999999
 20
34.27983300000002
 10
65.31076499999998
 20
34.403197
 10
65.44293899999998
 20
34.59117800000001
 10
65.48699699999997
 20
34.82615700000002
 10
65.43118999999999
 20
35.196249
 10
65.26376799999998
 20
35.53109300000001
 10
65.00235499999998
 20
35.82187900000002
 10
64.68806999999998
 20
36.05979300000001
 10
64.32385699999998
 20
36.25658800000001
 10
63.93614099999999
 20
36.40051100000001
 10
63.54255399999999
 20
36.497441
 10
63.18421099999998
 20
36.52975400000002
 10
62.54976799999999
 20
36.44751200000002
 10
61.95057499999999
 20
36.21253300000001
 10
61.44536999999999
 20
35.82481800000001
 10
61.23388999999999
 20
35.58102900000001
 10
61.06940399999998
 20
35.29611700000002
 10
60.72868499999999
 20
34.36795200000002
 10
60.52895399999999
 20
33.36929500000001
 10
60.43496299999999
 20
32.34713900000001
 10
60.41145099999999
 20
31.36023000000001
  0
LWPOLYLINE
  5
13D
100
AcDbEntity
  8
words
  6
ByLayer
 62
    7
370
   -1
100
AcDbPolyline
 90
   15
 70
    1
 43
0
 10
62.29128699999999
 20
31.73619300000001
 10
62.32653099999999
 20
32.53512
 10
62.37352799999998
 20
32.53512
 10
62.42052199999998
 20
32.54687600000001
 10
62.80823799999999
 20
32.46463500000001
 10
63.24294699999999
 20
32.25315500000001
 10
63.60716499999999
 20
31.95943000000001
 10
63.71290499999999
 20
31.79200800000002
 10
63.74815199999998
 20
31.61871100000001
 10
63.71876199999999
 20
31.48066200000001
 10
63.63064599999999
 20
31.39548200000001
 10
63.36041899999998
 20
31.33673900000001
 10
63.09313199999999
 20
31.36905100000001
 10
62.80822099999999
 20
31.46598100000001
 10
62.29126999999999
 20
31.73620400000001
  0
LWPOLYLINE
  5
13E
100
AcDbEntity
  8
words
  6
ByLayer
 62
    7
370
   -1
100
AcDbPolyline
 90
   56
 70
    1
 43
0
 10
65.88643799999998
 20
31.79494300000001
 10
65.95105899999999
 20
31.39841700000002
 10
66.14491499999998
 20
31.00776600000001
 10
66.42689099999998
 20
30.64942300000002
 10
66.77935499999998
 20
30.32632900000001
 10
67.17000699999998
 20
30.05904100000001
 10
67.59003099999998
 20
29.84462200000001
 10
68.00711699999998
 20
29.71244800000002
 10
68.38895799999997
 20
29.66839000000002
 10
68.97933999999998
 20
29.74475700000001
 10
69.50510499999999
 20
29.97386100000001
 10
69.94862799999999
 20
30.33220300000001
 10
70.31578099999999
 20
30.77278700000001
 10
70.60656699999998
 20
31.27799200000001
 10
70.82098299999998
 20
31.83019100000002
 10
70.94434599999998
 20
32.40882400000002
 10
70.98546899999998
 20
32.96983600000001
 10
70.94434599999998
 20
33.57784300000001
 10
70.82098299999998
 20
34.226968
 10
70.61537699999998
 20
34.870222
 10
70.32752999999998
 20
35.46060700000002
 10
69.94568899999999
 20
35.97755800000002
 10
69.48160599999999
 20
36.40051800000001
 10
69.21138299999998
 20
36.56500500000001
 10
68.91765799999999
 20
36.68249400000001
 10
68.25971999999999
 20
36.77648500000001
 10
67.86906799999998
 20
36.74123700000001
 10
67.49604099999998
 20
36.63549700000001
 10
67.15532199999998
 20
36.47688500000002
 10
66.86159699999999
 20
36.25953000000001
 10
66.61780799999998
 20
35.98930700000002
 10
66.42688799999998
 20
35.67208700000001
 10
66.30352699999997
 20
35.31080900000001
 10
66.26240499999997
 20
34.90840500000002
 10
66.32115099999999
 20
34.37383000000001
 10
66.49738299999999
 20
33.87450300000002
 10
66.77054499999998
 20
33.42510500000002
 10
67.12007399999999
 20
33.04032900000001
 10
67.53716299999998
 20
32.72017000000002
 10
68.01299199999998
 20
32.46463100000002
 10
68.52407099999998
 20
32.30014500000001
 10
69.04689699999997
 20
32.22965300000001
 10
68.95584199999999
 20
31.93592800000001
 10
68.77666999999998
 20
31.73619700000001
 10
68.52113199999998
 20
31.62164700000001
 10
68.22447199999998
 20
31.58346300000002
 10
67.99242899999999
 20
31.61281900000002
 10
67.76626399999998
 20
31.70093500000001
 10
67.33155399999998
 20
31.95940900000001
 10
66.92034299999997
 20
32.22963600000001
 10
66.70886299999998
 20
32.31775200000001
 10
66.49738299999999
 20
32.34714200000001
 10
66.27415399999998
 20
32.30895900000001
 10
66.07441999999998
 20
32.19440500000002
 10
65.93343499999997
 20
32.01817300000001
 10
65.88643799999998
 20
31.79494300000001
  0
LWPOLYLINE
  5
13F
100
AcDbEntity
  8
words
  6
ByLayer
 62
    7
370
   -1
100
AcDbPolyline
 90
   14
 70
    1
 43
0
 10
67.78976199999998
 20
34.67342600000001
 10
67.87200399999998
 20
34.99065000000002
 10
67.97774699999998
 20
35.11401400000002
 10
68.13048099999997
 20
35.15513300000001
 10
68.36839899999998
 20
35.11988500000002
 10
68.56518999999997
 20
35.01414500000001
 10
68.85891499999998
 20
34.67342600000001
 10
69.04689699999997
 20
34.238717
 10
69.11738899999997
 20
33.80400800000002
 10
68.72967699999998
 20
33.89799800000001
 10
68.29496699999999
 20
34.05073500000002
 10
67.94249899999998
 20
34.30921300000001
 10
67.82794599999998
 20
34.47663500000001
 10
67.78976199999998
 20
34.67342600000001
  0
LWPOLYLINE
  5
140
100
AcDbEntity
  8
words
  6
ByLayer
 62
    7
370
   -1
100
AcDbPolyline
 90
   56
 70
    1
 43
0
 10
71.80789399999998
 20
34.09773300000001
 10
72.08986599999999
 20
34.12124500000002
 10
72.32484499999998
 20
34.21523900000002
 10
72.53632499999998
 20
34.29748100000001
 10
72.77130399999999
 20
34.33272500000002
 10
72.99453299999998
 20
34.29453800000002
 10
73.19426399999998
 20
34.20349000000002
 10
73.52323299999998
 20
33.90976500000001
 10
73.76996099999998
 20
33.51030300000001
 10
73.93444799999997
 20
33.08734300000002
 10
73.99319099999998
 20
32.65263000000002
 10
74.00494699999999
 20
32.041688
 10
74.01670299999998
 20
31.39549500000001
 10
74.04021499999998
 20
30.91379200000001
 10
74.09895799999998
 20
30.46733400000001
 10
74.25169499999998
 20
29.99737600000001
 10
74.51017299999998
 20
29.62141000000001
 10
74.69815399999999
 20
29.50686000000001
 10
74.93313299999998
 20
29.46867600000002
 10
75.12111399999998
 20
29.49806600000001
 10
75.28560099999999
 20
29.58617900000001
 10
75.53232899999998
 20
29.89165300000001
 10
75.69681199999998
 20
30.34986100000001
 10
75.79080199999999
 20
30.87856200000002
 10
75.84954899999998
 20
31.44251000000002
 10
75.87306099999998
 20
31.97121000000001
 10
75.87306099999998
 20
32.44116700000001
 10
75.86130499999999
 20
32.78188600000001
 10
75.90829899999999
 20
33.60431100000002
 10
75.93181099999998
 20
34.43848600000001
 10
75.90829899999999
 20
35.01417900000001
 10
75.77905999999999
 20
35.60162600000002
 10
75.64982099999997
 20
35.86010300000002
 10
75.47358899999998
 20
36.07158300000002
 10
75.22392599999998
 20
36.21256800000001
 10
74.89789199999998
 20
36.25956500000002
 10
74.71284599999998
 20
36.227253
 10
74.55717299999998
 20
36.13032600000002
 10
74.33394399999997
 20
35.81310300000001
 10
74.19295599999998
 20
35.41364100000001
 10
74.13421299999999
 20
35.02592500000001
 10
73.83461699999998
 20
35.44007500000001
 10
73.49977299999998
 20
35.76610900000001
 10
73.09443599999997
 20
35.99227400000002
 10
72.58335699999998
 20
36.08332900000001
 10
72.03115799999998
 20
36.02458600000001
 10
71.76386999999998
 20
35.94234100000001
 10
71.52595299999999
 20
35.81310300000001
 10
71.31447299999998
 20
35.64862000000001
 10
71.14998599999998
 20
35.43714000000001
 10
71.03249999999998
 20
35.18160100000001
 10
70.98550299999998
 20
34.88494100000001
 10
71.02955499999999
 20
34.553032
 10
71.20873299999998
 20
34.30924400000001
 10
71.48189499999998
 20
34.15650600000001
 10
71.80792899999999
 20
34.09776300000001
  0
LWPOLYLINE
  5
141
100
AcDbEntity
  8
words
  6
ByLayer
 62
    7
370
   -1
100
AcDbPolyline
 90
   58
 70
    1
 43
0
 10
76.60145099999998
 20
33.58079200000002
 10
76.66019699999998
 20
32.80536400000002
 10
76.82467999999999
 20
31.93594500000001
 10
77.11840499999998
 20
31.06652300000001
 10
77.31813599999998
 20
30.66412200000001
 10
77.56486399999999
 20
30.30284400000001
 10
77.84683599999998
 20
30.00618300000001
 10
78.17580599999998
 20
29.77414400000001
 10
78.54589699999998
 20
29.62434500000001
 10
78.97473199999997
 20
29.57441300000001
 10
79.43587899999999
 20
29.63022000000002
 10
79.85589999999998
 20
29.79764200000001
 10
80.21718199999998
 20
30.06199400000002
 10
80.52559199999997
 20
30.40858400000002
 10
80.60783299999999
 20
30.10898800000001
 10
80.78406599999998
 20
29.84463600000001
 10
81.03666799999998
 20
29.66840300000001
 10
81.34801399999998
 20
29.60965700000002
 10
81.53305999999998
 20
29.65959000000001
 10
81.68873199999999
 20
29.80938800000001
 10
81.90021199999998
 20
30.31459300000001
 10
82.02945099999998
 20
31.00778000000002
 10
82.07644799999998
 20
31.73621100000001
 10
82.08820399999998
 20
32.370654
 10
82.08820399999998
 20
32.77011600000001
 10
82.08820399999998
 20
33.56904300000001
 10
82.06469199999998
 20
34.37971900000001
 10
82.07644799999998
 20
34.97891400000002
 10
82.06469199999998
 20
35.86008300000002
 10
82.01769499999997
 20
36.85874000000002
 10
81.86496099999998
 20
37.79865500000002
 10
81.73865799999999
 20
38.18343100000003
 10
81.57123599999998
 20
38.49184100000003
 10
81.35682099999998
 20
38.69744700000003
 10
81.08953299999997
 20
38.77381400000003
 10
80.87217799999998
 20
38.73269500000001
 10
80.69006799999998
 20
38.60933100000002
 10
80.54026999999998
 20
38.41841000000001
 10
80.41984199999999
 20
38.17462100000002
 10
80.24360899999998
 20
37.56367600000001
 10
80.14961899999999
 20
36.89398800000001
 10
80.11437099999998
 20
36.25954400000001
 10
80.10261499999999
 20
35.77784100000002
 10
80.11437099999998
 20
35.61335500000001
 10
80.11437099999998
 20
35.35487800000001
 10
80.11437099999998
 20
35.09640400000001
 10
80.11437099999998
 20
34.97891400000002
 10
79.80889999999998
 20
35.41362400000001
 10
79.36244099999998
 20
35.78959000000002
 10
78.84548699999998
 20
36.05981300000001
 10
78.32853599999999
 20
36.16555300000002
 10
77.87620199999998
 20
36.10093600000002
 10
77.50611099999998
 20
35.90708
 10
77.20063999999998
 20
35.62510400000001
 10
76.96566099999998
 20
35.27263600000001
 10
76.79530399999999
 20
34.86730000000001
 10
76.68368899999999
 20
34.42671600000001
 10
76.60144399999999
 20
33.58079200000002
  0
LWPOLYLINE
  5
142
100
AcDbEntity
  8
words
  6
ByLayer
 62
    7
370
   -1
100
AcDbPolyline
 90
   21
 70
    1
 43
0
 10
78.32854299999998
 20
33.22832400000001
 10
78.35205499999998
 20
33.53379800000002
 10
78.43429699999999
 20
33.83926900000001
 10
78.61052899999999
 20
34.07424800000002
 10
78.73389599999999
 20
34.14474000000001
 10
78.89250499999999
 20
34.16825200000002
 10
79.26847099999998
 20
34.08601100000001
 10
79.60918999999998
 20
33.87453100000001
 10
79.91466099999998
 20
33.59255500000002
 10
80.16138799999999
 20
33.31058300000001
 10
80.27887799999998
 20
32.26492800000001
 10
80.07033299999998
 20
32.02113900000001
 10
79.82066999999998
 20
31.83021900000001
 10
79.53281899999998
 20
31.71566500000001
 10
79.20972499999998
 20
31.67748100000002
 10
78.97474599999998
 20
31.71860400000002
 10
78.78676399999998
 20
31.84196800000001
 10
78.63109199999998
 20
32.02407500000001
 10
78.51653799999998
 20
32.24143000000001
 10
78.37555399999998
 20
32.75838000000002
 10
78.32855599999998
 20
33.22833800000001
  0
LINE
  5
143
100
AcDbEntity
  8
lightpipes
  6
ByLayer
 62
  256
370
   -1
100
AcDbLine
 10
82.22939099999998
 20
39.42939500000003
 11
82.72939099999998
 21
37.52939500000001
  0
LINE
  5
144
100
AcDbEntity
  8
lightpipes
  6
ByLayer
 62
  256
370
   -1
100
AcDbLine
 10
82.72939099999998
 20
37.52939500000001
 11
82.72939099999998
 21
29.52939500000001
  0
LINE
  5
145
100
AcDbEntity
  8
lightpipes
  6
ByLayer
 62
  256
370
   -1
100
AcDbLine
 10
82.72939099999998
 20
29.52939500000001
 11
81.52939099999998
 21
28.82939500000001
  0
LINE
  5
146
100
AcDbEntity
  8
lightpipes
  6
ByLayer
 62
  256
370
   -1
100
AcDbLine
 10
81.52939099999998
 20
28.82939500000001
 11
40.42939099999999
 21
28.82939500000001
  0
LINE
  5
147
100
AcDbEntity
  8
lightpipes
  6
ByLayer
 62
  256
370
   -1
100
AcDbLine
 10
40.42939099999999
 20
28.82939500000001
 11
38.72939099999998
 21
28.529395
  0
LINE
  5
148
100
AcDbEntity
  8
lightpipes
  6
ByLayer
 62
  256
370
   -1
100
AcDbLine
 10
38.72939099999998
 20
28.529395
 11
36.22939099999998
 21
28.42939500000001
  0
LINE
  5
149
100
AcDbEntity
  8
lightpipes
  6
ByLayer
 62
  256
370
   -1
100
AcDbLine
 10
36.22939099999998
 20
28.42939500000001
 11
34.82939099999999
 21
29.42939500000001
  0
LINE
  5
14A
100
AcDbEntity
  8
lightpipes
  6
ByLayer
 62
  256
370
   -1
100
AcDbLine
 10
34.82939099999999
 20
29.42939500000001
 11
35.22939099999998
 21
33.029395
  0
LINE
  5
14B
100
AcDbEntity
  8
lightpipes
  6
ByLayer
 62
  256
370
   -1
100
AcDbLine
 10
35.22939099999998
 20
33.029395
 11
34.72939099999998
 21
37.52939500000001
  0
LINE
  5
14C
100
AcDbEntity
  8
lightpipes
  6
ByLayer
 62
  256
370
   -1
100
AcDbLine
 10
34.72939099999998
 20
37.52939500000001
 11
36.52939099999999
 21
38.829395
  0
LINE
  5
14D
100
AcDbEntity
  8
lightpipes
  6
ByLayer
 62
  256
370
   -1
100
AcDbLine
 10
36.52939099999999
 20
38.829395
 11
37.72939099999998
 21
39.32939500000001
  0
LINE
  5
14E
100
AcDbEntity
  8
lightpipes
  6
ByLayer
 62
  256
370
   -1
100
AcDbLine
 10
37.72939099999998
 20
39.32939500000001
 11
38.92939099999999
 21
39.32939500000001
  0
LINE
  5
14F
100
AcDbEntity
  8
lightpipes
  6
ByLayer
 62
  256
370
   -1
100
AcDbLine
 10
38.92939099999999
 20
39.32939500000001
 11
40.52939099999999
 21
37.92939500000001
  0
LINE
  5
150
100
AcDbEntity
  8
lightpipes
  6
ByLayer
 62
  256
370
   -1
100
AcDbLine
 10
40.52939099999999
 20
37.92939500000001
 11
47.92939099999999
 21
37.92939500000001
  0
LINE
  5
151
100
AcDbEntity
  8
lightpipes
  6
ByLayer
 62
  256
370
   -1
100
AcDbLine
 10
47.92939099999999
 20
37.92939500000001
 11
49.92939099999999
 21
39.929395
  0
LINE
  5
152
100
AcDbEntity
  8
lightpipes
  6
ByLayer
 62
  256
370
   -1
100
AcDbLine
 10
49.92939099999999
 20
39.929395
 11
52.52939099999999
 21
39.929395
  0
LINE
  5
153
100
AcDbEntity
  8
lightpipes
  6
ByLayer
 62
  256
370
   -1
100
AcDbLine
 10
52.52939099999999
 20
39.929395
 11
54.22939099999998
 21
38.32939500000001
  0
LINE
  5
154
100
AcDbEntity
  8
lightpipes
  6
ByLayer
 62
  256
370
   -1
100
AcDbLine
 10
54.22939099999998
 20
38.32939500000001
 11
55.32939099999999
 21
37.429395
  0
LINE
  5
155
100
AcDbEntity
  8
lightpipes
  6
ByLayer
 62
  256
370
   -1
100
AcDbLine
 10
55.32939099999999
 20
37.429395
 11
56.22939099999998
 21
37.229395
  0
LINE
  5
156
100
AcDbEntity
  8
lightpipes
  6
ByLayer
 62
  256
370
   -1
100
AcDbLine
 10
56.22939099999998
 20
37.229395
 11
57.12939099999999
 21
39.32939500000001
  0
LINE
  5
157
100
AcDbEntity
  8
lightpipes
  6
ByLayer
 62
  256
370
   -1
100
AcDbLine
 10
57.12939099999999
 20
39.32939500000001
 11
59.72939099999998
 21
39.42939500000001
  0
LINE
  5
158
100
AcDbEntity
  8
lightpipes
  6
ByLayer
 62
  256
370
   -1
100
AcDbLine
 10
59.72939099999998
 20
39.42939500000001
 11
61.22939099999998
 21
37.52939500000001
  0
LINE
  5
159
100
AcDbEntity
  8
lightpipes
  6
ByLayer
 62
  256
370
   -1
100
AcDbLine
 10
61.22939099999998
 20
37.52939500000001
 11
78.52939099999998
 21
37.72939500000002
  0
LINE
  5
15A
100
AcDbEntity
  8
lightpipes
  6
ByLayer
 62
  256
370
   -1
100
AcDbLine
 10
78.52939099999998
 20
37.72939500000002
 11
80.12939099999998
 21
39.32939500000003
  0
LINE
  5
15B
100
AcDbEntity
  8
lightpipes
  6
ByLayer
 62
  256
370
   -1
100
AcDbLine
 10
80.12939099999998
 20
39.32939500000003
 11
81.32939099999999
 21
39.72939500000002
  0
LINE
  5
15C
100
AcDbEntity
  8
lightpipes
  6
ByLayer
 62
  256
370
   -1
100
AcDbLine
 10
81.32939099999999
 20
39.72939500000002
 11
82.22939099999998
 21
39.42939500000003
  0
LINE
  5
15D
100
AcDbEntity
  8
lightpipes
  6
ByLayer
 62
  256
370
   -1
100
AcDbLine
 10
29.52939099999999
 20
34.229395
 11
28.92939099999999
 21
38.22939500000002
  0
LINE
  5
15E
100
AcDbEntity
  8
lightpipes
  6
ByLayer
 62
  256
370
   -1
100
AcDbLine
 10
28.92939099999999
 20
38.22939500000002
 11
28.12939099999999
 21
38.92939500000001
  0
LINE
  5
15F
100
AcDbEntity
  8
lightpipes
  6
ByLayer
 62
  256
370
   -1
100
AcDbLine
 10
28.12939099999999
 20
38.92939500000001
 11
26.92939099999999
 21
39.22939500000002
  0
LINE
  5
160
100
AcDbEntity
  8
lightpipes
  6
ByLayer
 62
  256
370
   -1
100
AcDbLine
 10
26.92939099999999
 20
39.22939500000002
 11
25.62939099999999
 21
38.62939500000002
  0
LINE
  5
161
100
AcDbEntity
  8
lightpipes
  6
ByLayer
 62
  256
370
   -1
100
AcDbLine
 10
25.62939099999999
 20
38.62939500000002
 11
25.52939099999999
 21
37.129395
  0
LINE
  5
162
100
AcDbEntity
  8
lightpipes
  6
ByLayer
 62
  256
370
   -1
100
AcDbLine
 10
25.52939099999999
 20
37.129395
 11
17.02939099999998
 21
37.529395
  0
LINE
  5
163
100
AcDbEntity
  8
lightpipes
  6
ByLayer
 62
  256
370
   -1
100
AcDbLine
 10
17.02939099999998
 20
37.529395
 11
9.729390999999984
 21
37.629395
  0
LINE
  5
164
100
AcDbEntity
  8
lightpipes
  6
ByLayer
 62
  256
370
   -1
100
AcDbLine
 10
9.729390999999984
 20
37.629395
 11
8.829390999999978
 21
39.529395
  0
LINE
  5
165
100
AcDbEntity
  8
lightpipes
  6
ByLayer
 62
  256
370
   -1
100
AcDbLine
 10
8.829390999999978
 20
39.529395
 11
6.829390999999979
 21
39.82939499999998
  0
LINE
  5
166
100
AcDbEntity
  8
lightpipes
  6
ByLayer
 62
  256
370
   -1
100
AcDbLine
 10
6.829390999999979
 20
39.82939499999998
 11
5.62939099999999
 21
38.029395
  0
LINE
  5
167
100
AcDbEntity
  8
lightpipes
  6
ByLayer
 62
  256
370
   -1
100
AcDbLine
 10
5.62939099999999
 20
38.029395
 11
5.629390999999976
 21
36.729395
  0
LINE
  5
168
100
AcDbEntity
  8
lightpipes
  6
ByLayer
 62
  256
370
   -1
100
AcDbLine
 10
5.629390999999976
 20
36.729395
 11
3.72939099999997
 21
36.729395
  0
LINE
  5
169
100
AcDbEntity
  8
lightpipes
  6
ByLayer
 62
  256
370
   -1
100
AcDbLine
 10
3.72939099999997
 20
36.729395
 11
3.029390999999967
 21
35.629395
  0
LINE
  5
16A
100
AcDbEntity
  8
lightpipes
  6
ByLayer
 62
  256
370
   -1
100
AcDbLine
 10
3.029390999999967
 20
35.629395
 11
2.729390999999984
 21
32.629395
  0
LINE
  5
16B
100
AcDbEntity
  8
lightpipes
  6
ByLayer
 62
  256
370
   -1
100
AcDbLine
 10
2.729390999999984
 20
32.629395
 11
3.029390999999981
 21
29.62939499999999
  0
LINE
  5
16C
100
AcDbEntity
  8
lightpipes
  6
ByLayer
 62
  256
370
   -1
100
AcDbLine
 10
3.029390999999981
 20
29.62939499999999
 11
3.829390999999978
 21
28.529395
  0
LINE
  5
16D
100
AcDbEntity
  8
lightpipes
  6
ByLayer
 62
  256
370
   -1
100
AcDbLine
 10
3.829390999999978
 20
28.529395
 11
6.429390999999987
 21
28.62939499999999
  0
LINE
  5
16E
100
AcDbEntity
  8
lightpipes
  6
ByLayer
 62
  256
370
   -1
100
AcDbLine
 10
6.429390999999987
 20
28.62939499999999
 11
19.22939099999998
 21
28.529395
  0
LINE
  5
16F
100
AcDbEntity
  8
lightpipes
  6
ByLayer
 62
  256
370
   -1
100
AcDbLine
 10
19.22939099999998
 20
28.529395
 11
28.32939099999999
 21
28.529395
  0
LINE
  5
170
100
AcDbEntity
  8
lightpipes
  6
ByLayer
 62
  256
370
   -1
100
AcDbLine
 10
28.32939099999999
 20
28.529395
 11
29.32939099999999
 21
30.52939500000001
  0
LINE
  5
171
100
AcDbEntity
  8
lightpipes
  6
ByLayer
 62
  256
370
   -1
100
AcDbLine
 10
29.32939099999999
 20
30.52939500000001
 11
29.52939099999999
 21
34.229395
  0
CIRCLE
  5
172
100
AcDbEntity
  8
lights
  6
ByLayer
 62
  256
370
   -1
100
AcDbCircle
 10
69.92939099999998
 20
33.02939500000001
 40
2.75
  0
CIRCLE
  5
173
100
AcDbEntity
  8
lights
  6
ByLayer
 62
  256
370
   -1
100
AcDbCircle
 10
48.92939099999999
 20
33.029395
 40
2.75
  0
CIRCLE
  5
174
100
AcDbEntity
  8
lights
  6
ByLayer
 62
  256
370
   -1
100
AcDbCircle
 10
15.92939099999999
 20
33.029395
 40
2.75
  0
CIRCLE
  5
175
100
AcDbEntity
  8
lights2
  6
ByLayer
 62
  256
370
   -1
100
AcDbCircle
 10
69.92939099999998
 20
33.02939500000001
 40
3.2
  0
CIRCLE
  5
176
100
AcDbEntity
  8
lights2
  6
ByLayer
 62
  256
370
   -1
100
AcDbCircle
 10
48.92939099999999
 20
33.029395
 40
3.2
  0
CIRCLE
  5
177
100
AcDbEntity
  8
lights2
  6
ByLayer
 62
  256
370
   -1
100
AcDbCircle
 10
15.92939099999999
 20
33.029395
 40
3.2
  0
LINE
  5
178
100
AcDbEntity
  8
outline2
  6
ByLayer
 62
  256
370
   -1
100
AcDbLine
 10
0.8
 20
50.85879499999999
 11
0.8
 21
2.999999999999993
  0
ARC
  5
179
100
AcDbEntity
  8
outline2
  6
ByLayer
 62
  256
370
   -1
100
AcDbCircle
 10
3
 20
50.85879499999999
 40
2.2
100
AcDbArc
 50
90
 51
180
  0
LINE
  5
17A
100
AcDbEntity
  8
outline2
  6
ByLayer
 62
  256
370
   -1
100
AcDbLine
 10
82.85878799999999
 20
53.058795
 11
3
 21
53.058795
  0
ARC
  5
17B
100
AcDbEntity
  8
outline2
  6
ByLayer
 62
  256
370
   -1
100
AcDbCircle
 10
82.85878799999999
 20
50.858795
 40
2.2
100
AcDbArc
 50
1.272221872585407e-13
 51
90
  0
LINE
  5
17C
100
AcDbEntity
  8
outline2
  6
ByLayer
 62
  256
370
   -1
100
AcDbLine
 10
85.05878799999999
 20
3.000000000000001
 11
85.05878799999999
 21
50.85879500000001
  0
ARC
  5
17D
100
AcDbEntity
  8
outline2
  6
ByLayer
 62
  256
370
   -1
100
AcDbCircle
 10
82.85878799999999
 20
3
 40
2.2
100
AcDbArc
 50
270
 51
0
  0
LINE
  5
17E
100
AcDbEntity
  8
outline2
  6
ByLayer
 62
  256
370
   -1
100
AcDbLine
 10
82.85878799999999
 20
0.8000000000000007
 11
3
 21
0.8
  0
ARC
  5
17F
100
AcDbEntity
  8
outline2
  6
ByLayer
 62
  256
370
   -1
100
AcDbCircle
 10
3
 20
3
 40
2.2
100
AcDbArc
 50
180.0000000000001
 51
270
  0
LINE
  5
180
100
AcDbEntity
  8
outline3
  6
ByLayer
 62
  256
370
   -1
100
AcDbLine
 10
84.91878799999999
 20
3.000000000000001
 11
84.91878799999999
 21
50.85879500000001
  0
ARC
  5
181
100
AcDbEntity
  8
outline3
  6
ByLayer
 62
  256
370
   -1
100
AcDbCircle
 10
82.85878799999999
 20
3
 40
2.06
100
AcDbArc
 50
270
 51
0
  0
LINE
  5
182
100
AcDbEntity
  8
outline3
  6
ByLayer
 62
  256
370
   -1
100
AcDbLine
 10
82.85878799999999
 20
0.9400000000000011
 11
3
 21
0.9399999999999999
  0
ARC
  5
183
100
AcDbEntity
  8
outline3
  6
ByLayer
 62
  256
370
   -1
100
AcDbCircle
 10
82.85878799999999
 20
50.858795
 40
2.06
100
AcDbArc
 50
1.272221872585407e-13
 51
90
  0
LINE
  5
184
100
AcDbEntity
  8
outline3
  6
ByLayer
 62
  256
370
   -1
100
AcDbLine
 10
82.85878799999999
 20
52.918795
 11
3
 21
52.918795
  0
ARC
  5
185
100
AcDbEntity
  8
outline3
  6
ByLayer
 62
  256
370
   -1
100
AcDbCircle
 10
3
 20
50.85879499999999
 40
2.06
100
AcDbArc
 50
90
 51
180
  0
LINE
  5
186
100
AcDbEntity
  8
outline3
  6
ByLayer
 62
  256
370
   -1
100
AcDbLine
 10
0.9399999999999999
 20
50.85879499999999
 11
0.9399999999999999
 21
2.999999999999993
  0
ARC
  5
187
100
AcDbEntity
  8
outline3
  6
ByLayer
 62
  256
370
   -1
100
AcDbCircle
 10
3
 20
3
 40
2.06
100
AcDbArc
 50
180.0000000000001
 51
270
  0
CIRCLE
  5
188
100
AcDbEntity
  8
bolts
  6
ByLayer
 62
  256
370
   -1
100
AcDbCircle
 10
43.77327155412502
 20
5.193532908110027
 40
1.5
  0
CIRCLE
  5
189
100
AcDbEntity
  8
posts
  6
ByLayer
 62
  256
370
   -1
100
AcDbCircle
 10
43.77327155412502
 20
5.193532908110027
 40
3.5
  0
ENDSEC
  0
SECTION
  2
OBJECTS
  0
DICTIONARY
  5
C
330
0
100
AcDbDictionary
281
    1
  3
ACAD_GROUP
350
D
  0
DICTIONARY
  5
D
330
C
100
AcDbDictionary
281
    1
  0
ENDSEC
  0
EOF
