  0
SECTION
  2
HEADER
  9
$ACADVER
  1
AC1014
  9
$HANDSEED
  5
FFFF
  9
$MEASUREMENT
 70
     1
  0
ENDSEC
  0
SECTION
  2
TABLES
  0
TABLE
  2
VPORT
  5
8
330
0
100
AcDbSymbolTable
 70
     4
  0
VPORT
  5
2E
330
8
100
AcDbSymbolTableRecord
100
AcDbViewportTableRecord
  2
*ACTIVE
 70
     0
 10
0.0
 20
0.0
 11
1.0
 21
1.0
 12
210.0
 22
148.5
 13
0.0
 23
0.0
 14
10.0
 24
10.0
 15
10.0
 25
10.0
 16
0.0
 26
0.0
 36
1.0
 17
0.0
 27
0.0
 37
0.0
 40
341.0
 41
1.24
 42
50.0
 43
0.0
 44
0.0
 50
0.0
 51
0.0
 71
     0
 72
   100
 73
     1
 74
     3
 75
     0
 76
     0
 77
     0
 78
     0
  0
ENDTAB
  0
TABLE
  2
LTYPE
  5
5
330
0
100
AcDbSymbolTable
 70
     1
  0
LTYPE
  5
14
330
5
100
AcDbSymbolTableRecord
100
AcDbLinetypeTableRecord
  2
BYBLOCK
 70
     0
  3

 72
    65
 73
     0
 40
0.0
  0
LTYPE
  5
15
330
5
100
AcDbSymbolTableRecord
100
AcDbLinetypeTableRecord
  2
BYLAYER
 70
     0
  3

 72
    65
 73
     0
 40
0.0
  0
LTYPE
  5
16
330
5
100
AcDbSymbolTableRecord
100
AcDbLinetypeTableRecord
  2
CONTINUOUS
 70
     0
  3
Solid line
 72
    65
 73
     0
 40
0.0
  0
ENDTAB
  0
TABLE
  2
LAYER
  5
2
100
AcDbSymbolTable
 70
1
  0
LAYER
  5
50
100
AcDbSymbolTableRecord
100
AcDbLayerTableRecord
  2
0
 70
0
  6
CONTINUOUS
  0
ENDTAB
  0
TABLE
  2
STYLE
  5
3
330
0
100
AcDbSymbolTable
 70
     1
  0
STYLE
  5
11
330
3
100
AcDbSymbolTableRecord
100
AcDbTextStyleTableRecord
  2
STANDARD
 70
     0
 40
0.0
 41
1.0
 50
0.0
 71
     0
 42
2.5
  3
txt
  4

  0
ENDTAB
  0
TABLE
  2
VIEW
  5
6
330
0
100
AcDbSymbolTable
 70
     0
  0
ENDTAB
  0
TABLE
  2
UCS
  5
7
330
0
100
AcDbSymbolTable
 70
     0
  0
ENDTAB
  0
TABLE
  2
APPID
  5
9
330
0
100
AcDbSymbolTable
 70
     2
  0
APPID
  5
12
330
9
100
AcDbSymbolTableRecord
100
AcDbRegAppTableRecord
  2
ACAD
 70
     0
  0
ENDTAB
  0
TABLE
  2
DIMSTYLE
  5
A
330
0
100
AcDbSymbolTable
 70
     1
  0
DIMSTYLE
105
27
330
A
100
AcDbSymbolTableRecord
100
AcDbDimStyleTableRecord
  2
ISO-25
 70
     0
  3

  4

  5

  6

  7

 40
1.0
 41
2.5
 42
0.625
 43
3.75
 44
1.25
 45
0.0
 46
0.0
 47
0.0
 48
0.0
140
2.5
141
2.5
142
0.0
143
0.03937007874016
144
1.0
145
0.0
146
1.0
147
0.625
 71
     0
 72
     0
 73
     0
 74
     0
 75
     0
 76
     0
 77
     1
 78
     8
170
     0
171
     3
172
     1
173
     0
174
     0
175
     0
176
     0
177
     0
178
     0
270
     2
271
     2
272
     2
273
     2
274
     3
340
11
275
     0
280
     0
281
     0
282
     0
283
     0
284
     8
285
     0
286
     0
287
     3
288
     0
  0
ENDTAB
  0
TABLE
  2
BLOCK_RECORD
  5
1
330
0
100
AcDbSymbolTable
 70
     1
  0
BLOCK_RECORD
  5
1F
330
1
100
AcDbSymbolTableRecord
100
AcDbBlockTableRecord
  2
*MODEL_SPACE
  0
BLOCK_RECORD
  5
1B
330
1
100
AcDbSymbolTableRecord
100
AcDbBlockTableRecord
  2
*PAPER_SPACE
  0
ENDTAB
  0
ENDSEC
  0
SECTION
  2
BLOCKS
  0
BLOCK
  5
20
330
1F
100
AcDbEntity
  8
0
100
AcDbBlockBegin
  2
*MODEL_SPACE
 70
     0
 10
0.0
 20
0.0
 30
0.0
  3
*MODEL_SPACE
  1

  0
ENDBLK
  5
21
330
1F
100
AcDbEntity
  8
0
100
AcDbBlockEnd
  0
BLOCK
  5
1C
330
1B
100
AcDbEntity
 67
     1
  8
0
100
AcDbBlockBegin
  2
*PAPER_SPACE
  1

  0
ENDBLK
  5
1D
330
1B
100
AcDbEntity
 67
     1
  8
0
100
AcDbBlockEnd
  0
ENDSEC
  0
SECTION
  2
ENTITIES
  0
LINE
  5
100
100
AcDbEntity
  8
0
 62
7
100
AcDbLine
 10
13.101600
 20
21.000000
 30
0.0
 11
22.101600
 21
21.000000
 31
0.0
  0
SPLINE
  5
101
100
AcDbEntity
  8
0
 62
7
100
AcDbSpline
 70
8
 71
3
 72
8
 73
4
 74
0
 40
0
 40
0
 40
0
 40
0
 40
1
 40
1
 40
1
 40
1
 10
22.101600
 20
21.000000
 30
0.0
 10
22.156290
 20
21.000000
 30
0.0
 10
22.203162
 20
21.043000
 30
0.0
 10
22.203162
 20
21.101560
 30
0.0
  0
LINE
  5
102
100
AcDbEntity
  8
0
 62
7
100
AcDbLine
 10
22.203162
 20
21.101560
 30
0.0
 11
22.203162
 21
24.101560
 31
0.0
  0
SPLINE
  5
103
100
AcDbEntity
  8
0
 62
7
100
AcDbSpline
 70
8
 71
3
 72
8
 73
4
 74
0
 40
0
 40
0
 40
0
 40
0
 40
1
 40
1
 40
1
 40
1
 10
22.203162
 20
24.101560
 30
0.0
 10
22.203162
 20
24.046860
 30
0.0
 10
22.160192
 20
24.000000
 30
0.0
 10
22.101600
 20
24.000000
 30
0.0
  0
LINE
  5
104
100
AcDbEntity
  8
0
 62
7
100
AcDbLine
 10
22.101600
 20
24.000000
 30
0.0
 11
37.101600
 21
24.000000
 31
0.0
  0
SPLINE
  5
105
100
AcDbEntity
  8
0
 62
7
100
AcDbSpline
 70
8
 71
3
 72
8
 73
4
 74
0
 40
0
 40
0
 40
0
 40
0
 40
1
 40
1
 40
1
 40
1
 10
37.101600
 20
24.000000
 30
0.0
 10
37.046910
 20
24.000000
 30
0.0
 10
37.000038
 20
24.043000
 30
0.0
 10
37.000038
 20
24.101560
 30
0.0
  0
LINE
  5
106
100
AcDbEntity
  8
0
 62
7
100
AcDbLine
 10
37.000038
 20
24.101560
 30
0.0
 11
37.000038
 21
21.101560
 31
0.0
  0
SPLINE
  5
107
100
AcDbEntity
  8
0
 62
7
100
AcDbSpline
 70
8
 71
3
 72
8
 73
4
 74
0
 40
0
 40
0
 40
0
 40
0
 40
1
 40
1
 40
1
 40
1
 10
37.000038
 20
21.101560
 30
0.0
 10
37.000038
 20
21.046860
 30
0.0
 10
37.043008
 20
21.000000
 30
0.0
 10
37.101600
 20
21.000000
 30
0.0
  0
LINE
  5
108
100
AcDbEntity
  8
0
 62
7
100
AcDbLine
 10
37.101600
 20
21.000000
 30
0.0
 11
46.101600
 21
21.000000
 31
0.0
  0
SPLINE
  5
109
100
AcDbEntity
  8
0
 62
7
100
AcDbSpline
 70
8
 71
3
 72
8
 73
4
 74
0
 40
0
 40
0
 40
0
 40
0
 40
1
 40
1
 40
1
 40
1
 10
46.101600
 20
21.000000
 30
0.0
 10
46.156290
 20
21.000000
 30
0.0
 10
46.203162
 20
21.043000
 30
0.0
 10
46.203162
 20
21.101560
 30
0.0
  0
LINE
  5
10a
100
AcDbEntity
  8
0
 62
7
100
AcDbLine
 10
46.203162
 20
21.101560
 30
0.0
 11
46.203162
 21
24.101560
 31
0.0
  0
SPLINE
  5
10b
100
AcDbEntity
  8
0
 62
7
100
AcDbSpline
 70
8
 71
3
 72
8
 73
4
 74
0
 40
0
 40
0
 40
0
 40
0
 40
1
 40
1
 40
1
 40
1
 10
46.203162
 20
24.101560
 30
0.0
 10
46.203162
 20
24.046860
 30
0.0
 10
46.160192
 20
24.000000
 30
0.0
 10
46.101600
 20
24.000000
 30
0.0
  0
LINE
  5
10c
100
AcDbEntity
  8
0
 62
7
100
AcDbLine
 10
46.101600
 20
24.000000
 30
0.0
 11
61.101600
 21
24.000000
 31
0.0
  0
SPLINE
  5
10d
100
AcDbEntity
  8
0
 62
7
100
AcDbSpline
 70
8
 71
3
 72
8
 73
4
 74
0
 40
0
 40
0
 40
0
 40
0
 40
1
 40
1
 40
1
 40
1
 10
61.101600
 20
24.000000
 30
0.0
 10
61.046910
 20
24.000000
 30
0.0
 10
61.000038
 20
24.043000
 30
0.0
 10
61.000038
 20
24.101560
 30
0.0
  0
LINE
  5
10e
100
AcDbEntity
  8
0
 62
7
100
AcDbLine
 10
61.000038
 20
24.101560
 30
0.0
 11
61.000038
 21
21.101560
 31
0.0
  0
SPLINE
  5
10f
100
AcDbEntity
  8
0
 62
7
100
AcDbSpline
 70
8
 71
3
 72
8
 73
4
 74
0
 40
0
 40
0
 40
0
 40
0
 40
1
 40
1
 40
1
 40
1
 10
61.000038
 20
21.101560
 30
0.0
 10
61.000038
 20
21.046860
 30
0.0
 10
61.043008
 20
21.000000
 30
0.0
 10
61.101600
 20
21.000000
 30
0.0
  0
LINE
  5
110
100
AcDbEntity
  8
0
 62
7
100
AcDbLine
 10
61.101600
 20
21.000000
 30
0.0
 11
70.101600
 21
21.000000
 31
0.0
  0
LINE
  5
111
100
AcDbEntity
  8
0
 62
7
100
AcDbLine
 10
70.101600
 20
21.000000
 30
0.0
 11
73.101600
 21
21.000000
 31
0.0
  0
SPLINE
  5
112
100
AcDbEntity
  8
0
 62
7
100
AcDbSpline
 70
8
 71
3
 72
8
 73
4
 74
0
 40
0
 40
0
 40
0
 40
0
 40
1
 40
1
 40
1
 40
1
 10
73.101600
 20
21.000000
 30
0.0
 10
73.156290
 20
21.000000
 30
0.0
 10
73.203162
 20
21.043000
 30
0.0
 10
73.203162
 20
21.101560
 30
0.0
  0
LINE
  5
113
100
AcDbEntity
  8
0
 62
7
100
AcDbLine
 10
73.203162
 20
21.101560
 30
0.0
 11
73.203162
 21
21.101560
 31
0.0
  0
LINE
  5
114
100
AcDbEntity
  8
0
 62
7
100
AcDbLine
 10
73.203162
 20
21.101560
 30
0.0
 11
73.203162
 21
32.101560
 31
0.0
  0
SPLINE
  5
115
100
AcDbEntity
  8
0
 62
7
100
AcDbSpline
 70
8
 71
3
 72
8
 73
4
 74
0
 40
0
 40
0
 40
0
 40
0
 40
1
 40
1
 40
1
 40
1
 10
73.203162
 20
32.101560
 30
0.0
 10
73.203162
 20
32.156260
 30
0.0
 10
73.160192
 20
32.203130
 30
0.0
 10
73.101600
 20
32.203130
 30
0.0
  0
LINE
  5
116
100
AcDbEntity
  8
0
 62
7
100
AcDbLine
 10
73.101600
 20
32.203130
 30
0.0
 11
70.101600
 21
32.203130
 31
0.0
  0
SPLINE
  5
117
100
AcDbEntity
  8
0
 62
7
100
AcDbSpline
 70
8
 71
3
 72
8
 73
4
 74
0
 40
0
 40
0
 40
0
 40
0
 40
1
 40
1
 40
1
 40
1
 10
70.101600
 20
32.203130
 30
0.0
 10
70.156290
 20
32.203130
 30
0.0
 10
70.203162
 20
32.160130
 30
0.0
 10
70.203162
 20
32.101560
 30
0.0
  0
LINE
  5
118
100
AcDbEntity
  8
0
 62
7
100
AcDbLine
 10
70.203162
 20
32.101560
 30
0.0
 11
70.203162
 21
47.101560
 31
0.0
  0
SPLINE
  5
119
100
AcDbEntity
  8
0
 62
7
100
AcDbSpline
 70
8
 71
3
 72
8
 73
4
 74
0
 40
0
 40
0
 40
0
 40
0
 40
1
 40
1
 40
1
 40
1
 10
70.203162
 20
47.101560
 30
0.0
 10
70.203162
 20
47.046860
 30
0.0
 10
70.160192
 20
47.000000
 30
0.0
 10
70.101600
 20
47.000000
 30
0.0
  0
LINE
  5
11a
100
AcDbEntity
  8
0
 62
7
100
AcDbLine
 10
70.101600
 20
47.000000
 30
0.0
 11
73.101600
 21
47.000000
 31
0.0
  0
SPLINE
  5
11b
100
AcDbEntity
  8
0
 62
7
100
AcDbSpline
 70
8
 71
3
 72
8
 73
4
 74
0
 40
0
 40
0
 40
0
 40
0
 40
1
 40
1
 40
1
 40
1
 10
73.101600
 20
47.000000
 30
0.0
 10
73.156290
 20
47.000000
 30
0.0
 10
73.203162
 20
47.043000
 30
0.0
 10
73.203162
 20
47.101560
 30
0.0
  0
LINE
  5
11c
100
AcDbEntity
  8
0
 62
7
100
AcDbLine
 10
73.203162
 20
47.101560
 30
0.0
 11
73.203162
 21
58.101560
 31
0.0
  0
LINE
  5
11d
100
AcDbEntity
  8
0
 62
7
100
AcDbLine
 10
73.203162
 20
58.101560
 30
0.0
 11
73.203162
 21
61.101560
 31
0.0
  0
SPLINE
  5
11e
100
AcDbEntity
  8
0
 62
7
100
AcDbSpline
 70
8
 71
3
 72
8
 73
4
 74
0
 40
0
 40
0
 40
0
 40
0
 40
1
 40
1
 40
1
 40
1
 10
73.203162
 20
61.101560
 30
0.0
 10
73.203162
 20
61.156260
 30
0.0
 10
73.160192
 20
61.203130
 30
0.0
 10
73.101600
 20
61.203130
 30
0.0
  0
LINE
  5
11f
100
AcDbEntity
  8
0
 62
7
100
AcDbLine
 10
73.101600
 20
61.203130
 30
0.0
 11
70.101600
 21
61.203130
 31
0.0
  0
LINE
  5
120
100
AcDbEntity
  8
0
 62
7
100
AcDbLine
 10
70.101600
 20
61.203130
 30
0.0
 11
61.101600
 21
61.203130
 31
0.0
  0
SPLINE
  5
121
100
AcDbEntity
  8
0
 62
7
100
AcDbSpline
 70
8
 71
3
 72
8
 73
4
 74
0
 40
0
 40
0
 40
0
 40
0
 40
1
 40
1
 40
1
 40
1
 10
61.101600
 20
61.203130
 30
0.0
 10
61.046910
 20
61.203130
 30
0.0
 10
61.000037
 20
61.160130
 30
0.0
 10
61.000037
 20
61.101560
 30
0.0
  0
LINE
  5
122
100
AcDbEntity
  8
0
 62
7
100
AcDbLine
 10
61.000037
 20
61.101560
 30
0.0
 11
61.000037
 21
58.101560
 31
0.0
  0
SPLINE
  5
123
100
AcDbEntity
  8
0
 62
7
100
AcDbSpline
 70
8
 71
3
 72
8
 73
4
 74
0
 40
0
 40
0
 40
0
 40
0
 40
1
 40
1
 40
1
 40
1
 10
61.000037
 20
58.101560
 30
0.0
 10
61.000037
 20
58.156260
 30
0.0
 10
61.043007
 20
58.203130
 30
0.0
 10
61.101600
 20
58.203130
 30
0.0
  0
LINE
  5
124
100
AcDbEntity
  8
0
 62
7
100
AcDbLine
 10
61.101600
 20
58.203130
 30
0.0
 11
46.101600
 21
58.203130
 31
0.0
  0
SPLINE
  5
125
100
AcDbEntity
  8
0
 62
7
100
AcDbSpline
 70
8
 71
3
 72
8
 73
4
 74
0
 40
0
 40
0
 40
0
 40
0
 40
1
 40
1
 40
1
 40
1
 10
46.101600
 20
58.203130
 30
0.0
 10
46.156290
 20
58.203130
 30
0.0
 10
46.203162
 20
58.160130
 30
0.0
 10
46.203162
 20
58.101560
 30
0.0
  0
LINE
  5
126
100
AcDbEntity
  8
0
 62
7
100
AcDbLine
 10
46.203162
 20
58.101560
 30
0.0
 11
46.203162
 21
61.101560
 31
0.0
  0
SPLINE
  5
127
100
AcDbEntity
  8
0
 62
7
100
AcDbSpline
 70
8
 71
3
 72
8
 73
4
 74
0
 40
0
 40
0
 40
0
 40
0
 40
1
 40
1
 40
1
 40
1
 10
46.203162
 20
61.101560
 30
0.0
 10
46.203162
 20
61.156260
 30
0.0
 10
46.160192
 20
61.203130
 30
0.0
 10
46.101600
 20
61.203130
 30
0.0
  0
LINE
  5
128
100
AcDbEntity
  8
0
 62
7
100
AcDbLine
 10
46.101600
 20
61.203130
 30
0.0
 11
37.101600
 21
61.203130
 31
0.0
  0
SPLINE
  5
129
100
AcDbEntity
  8
0
 62
7
100
AcDbSpline
 70
8
 71
3
 72
8
 73
4
 74
0
 40
0
 40
0
 40
0
 40
0
 40
1
 40
1
 40
1
 40
1
 10
37.101600
 20
61.203130
 30
0.0
 10
37.046910
 20
61.203130
 30
0.0
 10
37.000037
 20
61.160130
 30
0.0
 10
37.000037
 20
61.101560
 30
0.0
  0
LINE
  5
12a
100
AcDbEntity
  8
0
 62
7
100
AcDbLine
 10
37.000037
 20
61.101560
 30
0.0
 11
37.000037
 21
58.101560
 31
0.0
  0
SPLINE
  5
12b
100
AcDbEntity
  8
0
 62
7
100
AcDbSpline
 70
8
 71
3
 72
8
 73
4
 74
0
 40
0
 40
0
 40
0
 40
0
 40
1
 40
1
 40
1
 40
1
 10
37.000037
 20
58.101560
 30
0.0
 10
37.000037
 20
58.156260
 30
0.0
 10
37.043007
 20
58.203130
 30
0.0
 10
37.101600
 20
58.203130
 30
0.0
  0
LINE
  5
12c
100
AcDbEntity
  8
0
 62
7
100
AcDbLine
 10
37.101600
 20
58.203130
 30
0.0
 11
22.101600
 21
58.203130
 31
0.0
  0
SPLINE
  5
12d
100
AcDbEntity
  8
0
 62
7
100
AcDbSpline
 70
8
 71
3
 72
8
 73
4
 74
0
 40
0
 40
0
 40
0
 40
0
 40
1
 40
1
 40
1
 40
1
 10
22.101600
 20
58.203130
 30
0.0
 10
22.156290
 20
58.203130
 30
0.0
 10
22.203162
 20
58.160130
 30
0.0
 10
22.203162
 20
58.101560
 30
0.0
  0
LINE
  5
12e
100
AcDbEntity
  8
0
 62
7
100
AcDbLine
 10
22.203162
 20
58.101560
 30
0.0
 11
22.203162
 21
61.101560
 31
0.0
  0
SPLINE
  5
12f
100
AcDbEntity
  8
0
 62
7
100
AcDbSpline
 70
8
 71
3
 72
8
 73
4
 74
0
 40
0
 40
0
 40
0
 40
0
 40
1
 40
1
 40
1
 40
1
 10
22.203162
 20
61.101560
 30
0.0
 10
22.203162
 20
61.156260
 30
0.0
 10
22.160192
 20
61.203130
 30
0.0
 10
22.101600
 20
61.203130
 30
0.0
  0
LINE
  5
130
100
AcDbEntity
  8
0
 62
7
100
AcDbLine
 10
22.101600
 20
61.203130
 30
0.0
 11
13.101600
 21
61.203130
 31
0.0
  0
LINE
  5
131
100
AcDbEntity
  8
0
 62
7
100
AcDbLine
 10
13.101600
 20
61.203130
 30
0.0
 11
10.101600
 21
61.203130
 31
0.0
  0
SPLINE
  5
132
100
AcDbEntity
  8
0
 62
7
100
AcDbSpline
 70
8
 71
3
 72
8
 73
4
 74
0
 40
0
 40
0
 40
0
 40
0
 40
1
 40
1
 40
1
 40
1
 10
10.101600
 20
61.203130
 30
0.0
 10
10.046910
 20
61.203130
 30
0.0
 10
10.000037
 20
61.160130
 30
0.0
 10
10.000037
 20
61.101560
 30
0.0
  0
LINE
  5
133
100
AcDbEntity
  8
0
 62
7
100
AcDbLine
 10
10.000037
 20
61.101560
 30
0.0
 11
10.000037
 21
58.101560
 31
0.0
  0
LINE
  5
134
100
AcDbEntity
  8
0
 62
7
100
AcDbLine
 10
10.000037
 20
58.101560
 30
0.0
 11
10.000037
 21
47.101560
 31
0.0
  0
SPLINE
  5
135
100
AcDbEntity
  8
0
 62
7
100
AcDbSpline
 70
8
 71
3
 72
8
 73
4
 74
0
 40
0
 40
0
 40
0
 40
0
 40
1
 40
1
 40
1
 40
1
 10
10.000037
 20
47.101560
 30
0.0
 10
10.000037
 20
47.046860
 30
0.0
 10
10.043007
 20
47.000000
 30
0.0
 10
10.101600
 20
47.000000
 30
0.0
  0
LINE
  5
136
100
AcDbEntity
  8
0
 62
7
100
AcDbLine
 10
10.101600
 20
47.000000
 30
0.0
 11
13.101600
 21
47.000000
 31
0.0
  0
SPLINE
  5
137
100
AcDbEntity
  8
0
 62
7
100
AcDbSpline
 70
8
 71
3
 72
8
 73
4
 74
0
 40
0
 40
0
 40
0
 40
0
 40
1
 40
1
 40
1
 40
1
 10
13.101600
 20
47.000000
 30
0.0
 10
13.046910
 20
47.000000
 30
0.0
 10
13.000037
 20
47.043000
 30
0.0
 10
13.000037
 20
47.101560
 30
0.0
  0
LINE
  5
138
100
AcDbEntity
  8
0
 62
7
100
AcDbLine
 10
13.000037
 20
47.101560
 30
0.0
 11
13.000037
 21
32.101560
 31
0.0
  0
SPLINE
  5
139
100
AcDbEntity
  8
0
 62
7
100
AcDbSpline
 70
8
 71
3
 72
8
 73
4
 74
0
 40
0
 40
0
 40
0
 40
0
 40
1
 40
1
 40
1
 40
1
 10
13.000037
 20
32.101560
 30
0.0
 10
13.000037
 20
32.156260
 30
0.0
 10
13.043007
 20
32.203130
 30
0.0
 10
13.101600
 20
32.203130
 30
0.0
  0
LINE
  5
13a
100
AcDbEntity
  8
0
 62
7
100
AcDbLine
 10
13.101600
 20
32.203130
 30
0.0
 11
10.101600
 21
32.203130
 31
0.0
  0
SPLINE
  5
13b
100
AcDbEntity
  8
0
 62
7
100
AcDbSpline
 70
8
 71
3
 72
8
 73
4
 74
0
 40
0
 40
0
 40
0
 40
0
 40
1
 40
1
 40
1
 40
1
 10
10.101600
 20
32.203130
 30
0.0
 10
10.046910
 20
32.203130
 30
0.0
 10
10.000037
 20
32.160130
 30
0.0
 10
10.000037
 20
32.101560
 30
0.0
  0
LINE
  5
13c
100
AcDbEntity
  8
0
 62
7
100
AcDbLine
 10
10.000037
 20
32.101560
 30
0.0
 11
10.000038
 21
21.101560
 31
0.0
  0
SPLINE
  5
13d
100
AcDbEntity
  8
0
 62
7
100
AcDbSpline
 70
8
 71
3
 72
8
 73
4
 74
0
 40
0
 40
0
 40
0
 40
0
 40
1
 40
1
 40
1
 40
1
 10
10.000038
 20
21.101560
 30
0.0
 10
10.000038
 20
21.046860
 30
0.0
 10
10.043008
 20
21.000000
 30
0.0
 10
10.101600
 20
21.000000
 30
0.0
  0
LINE
  5
13e
100
AcDbEntity
  8
0
 62
7
100
AcDbLine
 10
10.101600
 20
21.000000
 30
0.0
 11
13.101600
 21
21.000000
 31
0.0
  0
LINE
  5
13f
100
AcDbEntity
  8
0
 62
7
100
AcDbLine
 10
13.101600
 20
107.398400
 30
0.0
 11
22.101600
 21
107.398400
 31
0.0
  0
SPLINE
  5
140
100
AcDbEntity
  8
0
 62
7
100
AcDbSpline
 70
8
 71
3
 72
8
 73
4
 74
0
 40
0
 40
0
 40
0
 40
0
 40
1
 40
1
 40
1
 40
1
 10
22.101600
 20
107.398400
 30
0.0
 10
22.046910
 20
107.398400
 30
0.0
 10
22.000038
 20
107.441400
 30
0.0
 10
22.000038
 20
107.499960
 30
0.0
  0
LINE
  5
141
100
AcDbEntity
  8
0
 62
7
100
AcDbLine
 10
22.000038
 20
107.499960
 30
0.0
 11
22.000038
 21
104.499960
 31
0.0
  0
SPLINE
  5
142
100
AcDbEntity
  8
0
 62
7
100
AcDbSpline
 70
8
 71
3
 72
8
 73
4
 74
0
 40
0
 40
0
 40
0
 40
0
 40
1
 40
1
 40
1
 40
1
 10
22.000038
 20
104.499960
 30
0.0
 10
22.000038
 20
104.445260
 30
0.0
 10
22.043008
 20
104.398400
 30
0.0
 10
22.101600
 20
104.398400
 30
0.0
  0
LINE
  5
143
100
AcDbEntity
  8
0
 62
7
100
AcDbLine
 10
22.101600
 20
104.398400
 30
0.0
 11
37.101600
 21
104.398400
 31
0.0
  0
SPLINE
  5
144
100
AcDbEntity
  8
0
 62
7
100
AcDbSpline
 70
8
 71
3
 72
8
 73
4
 74
0
 40
0
 40
0
 40
0
 40
0
 40
1
 40
1
 40
1
 40
1
 10
37.101600
 20
104.398400
 30
0.0
 10
37.156290
 20
104.398400
 30
0.0
 10
37.203163
 20
104.441400
 30
0.0
 10
37.203163
 20
104.499960
 30
0.0
  0
LINE
  5
145
100
AcDbEntity
  8
0
 62
7
100
AcDbLine
 10
37.203163
 20
104.499960
 30
0.0
 11
37.203162
 21
107.499960
 31
0.0
  0
SPLINE
  5
146
100
AcDbEntity
  8
0
 62
7
100
AcDbSpline
 70
8
 71
3
 72
8
 73
4
 74
0
 40
0
 40
0
 40
0
 40
0
 40
1
 40
1
 40
1
 40
1
 10
37.203162
 20
107.499960
 30
0.0
 10
37.203162
 20
107.445260
 30
0.0
 10
37.160192
 20
107.398400
 30
0.0
 10
37.101600
 20
107.398400
 30
0.0
  0
LINE
  5
147
100
AcDbEntity
  8
0
 62
7
100
AcDbLine
 10
37.101600
 20
107.398400
 30
0.0
 11
46.101600
 21
107.398400
 31
0.0
  0
SPLINE
  5
148
100
AcDbEntity
  8
0
 62
7
100
AcDbSpline
 70
8
 71
3
 72
8
 73
4
 74
0
 40
0
 40
0
 40
0
 40
0
 40
1
 40
1
 40
1
 40
1
 10
46.101600
 20
107.398400
 30
0.0
 10
46.046910
 20
107.398400
 30
0.0
 10
46.000038
 20
107.441400
 30
0.0
 10
46.000038
 20
107.499960
 30
0.0
  0
LINE
  5
149
100
AcDbEntity
  8
0
 62
7
100
AcDbLine
 10
46.000038
 20
107.499960
 30
0.0
 11
46.000038
 21
104.499960
 31
0.0
  0
SPLINE
  5
14a
100
AcDbEntity
  8
0
 62
7
100
AcDbSpline
 70
8
 71
3
 72
8
 73
4
 74
0
 40
0
 40
0
 40
0
 40
0
 40
1
 40
1
 40
1
 40
1
 10
46.000038
 20
104.499960
 30
0.0
 10
46.000038
 20
104.445260
 30
0.0
 10
46.043008
 20
104.398400
 30
0.0
 10
46.101600
 20
104.398400
 30
0.0
  0
LINE
  5
14b
100
AcDbEntity
  8
0
 62
7
100
AcDbLine
 10
46.101600
 20
104.398400
 30
0.0
 11
61.101600
 21
104.398400
 31
0.0
  0
SPLINE
  5
14c
100
AcDbEntity
  8
0
 62
7
100
AcDbSpline
 70
8
 71
3
 72
8
 73
4
 74
0
 40
0
 40
0
 40
0
 40
0
 40
1
 40
1
 40
1
 40
1
 10
61.101600
 20
104.398400
 30
0.0
 10
61.156290
 20
104.398400
 30
0.0
 10
61.203162
 20
104.441400
 30
0.0
 10
61.203162
 20
104.499960
 30
0.0
  0
LINE
  5
14d
100
AcDbEntity
  8
0
 62
7
100
AcDbLine
 10
61.203162
 20
104.499960
 30
0.0
 11
61.203162
 21
107.499960
 31
0.0
  0
SPLINE
  5
14e
100
AcDbEntity
  8
0
 62
7
100
AcDbSpline
 70
8
 71
3
 72
8
 73
4
 74
0
 40
0
 40
0
 40
0
 40
0
 40
1
 40
1
 40
1
 40
1
 10
61.203162
 20
107.499960
 30
0.0
 10
61.203162
 20
107.445260
 30
0.0
 10
61.160192
 20
107.398400
 30
0.0
 10
61.101600
 20
107.398400
 30
0.0
  0
LINE
  5
14f
100
AcDbEntity
  8
0
 62
7
100
AcDbLine
 10
61.101600
 20
107.398400
 30
0.0
 11
70.101600
 21
107.398400
 31
0.0
  0
SPLINE
  5
150
100
AcDbEntity
  8
0
 62
7
100
AcDbSpline
 70
8
 71
3
 72
8
 73
4
 74
0
 40
0
 40
0
 40
0
 40
0
 40
1
 40
1
 40
1
 40
1
 10
70.101600
 20
107.398400
 30
0.0
 10
70.156290
 20
107.398400
 30
0.0
 10
70.203162
 20
107.441400
 30
0.0
 10
70.203162
 20
107.499960
 30
0.0
  0
LINE
  5
151
100
AcDbEntity
  8
0
 62
7
100
AcDbLine
 10
70.203162
 20
107.499960
 30
0.0
 11
70.203162
 21
107.499960
 31
0.0
  0
LINE
  5
152
100
AcDbEntity
  8
0
 62
7
100
AcDbLine
 10
70.203162
 20
107.499960
 30
0.0
 11
70.203162
 21
118.999960
 31
0.0
  0
SPLINE
  5
153
100
AcDbEntity
  8
0
 62
7
100
AcDbSpline
 70
8
 71
3
 72
8
 73
4
 74
0
 40
0
 40
0
 40
0
 40
0
 40
1
 40
1
 40
1
 40
1
 10
70.203162
 20
118.999960
 30
0.0
 10
70.203162
 20
118.945260
 30
0.0
 10
70.160192
 20
118.898400
 30
0.0
 10
70.101600
 20
118.898400
 30
0.0
  0
LINE
  5
154
100
AcDbEntity
  8
0
 62
7
100
AcDbLine
 10
70.101600
 20
118.898400
 30
0.0
 11
73.101600
 21
118.898400
 31
0.0
  0
SPLINE
  5
155
100
AcDbEntity
  8
0
 62
7
100
AcDbSpline
 70
8
 71
3
 72
8
 73
4
 74
0
 40
0
 40
0
 40
0
 40
0
 40
1
 40
1
 40
1
 40
1
 10
73.101600
 20
118.898400
 30
0.0
 10
73.156290
 20
118.898400
 30
0.0
 10
73.203162
 20
118.941400
 30
0.0
 10
73.203162
 20
118.999960
 30
0.0
  0
LINE
  5
156
100
AcDbEntity
  8
0
 62
7
100
AcDbLine
 10
73.203162
 20
118.999960
 30
0.0
 11
73.203162
 21
133.999960
 31
0.0
  0
SPLINE
  5
157
100
AcDbEntity
  8
0
 62
7
100
AcDbSpline
 70
8
 71
3
 72
8
 73
4
 74
0
 40
0
 40
0
 40
0
 40
0
 40
1
 40
1
 40
1
 40
1
 10
73.203162
 20
133.999960
 30
0.0
 10
73.203162
 20
134.054660
 30
0.0
 10
73.160192
 20
134.101520
 30
0.0
 10
73.101600
 20
134.101520
 30
0.0
  0
LINE
  5
158
100
AcDbEntity
  8
0
 62
7
100
AcDbLine
 10
73.101600
 20
134.101520
 30
0.0
 11
70.101600
 21
134.101520
 31
0.0
  0
SPLINE
  5
159
100
AcDbEntity
  8
0
 62
7
100
AcDbSpline
 70
8
 71
3
 72
8
 73
4
 74
0
 40
0
 40
0
 40
0
 40
0
 40
1
 40
1
 40
1
 40
1
 10
70.101600
 20
134.101520
 30
0.0
 10
70.156290
 20
134.101520
 30
0.0
 10
70.203162
 20
134.058520
 30
0.0
 10
70.203162
 20
133.999960
 30
0.0
  0
LINE
  5
15a
100
AcDbEntity
  8
0
 62
7
100
AcDbLine
 10
70.203162
 20
133.999960
 30
0.0
 11
70.203162
 21
142.999960
 31
0.0
  0
SPLINE
  5
15b
100
AcDbEntity
  8
0
 62
7
100
AcDbSpline
 70
8
 71
3
 72
8
 73
4
 74
0
 40
0
 40
0
 40
0
 40
0
 40
1
 40
1
 40
1
 40
1
 10
70.203162
 20
142.999960
 30
0.0
 10
70.203162
 20
142.945260
 30
0.0
 10
70.160192
 20
142.898400
 30
0.0
 10
70.101600
 20
142.898400
 30
0.0
  0
LINE
  5
15c
100
AcDbEntity
  8
0
 62
7
100
AcDbLine
 10
70.101600
 20
142.898400
 30
0.0
 11
73.101600
 21
142.898400
 31
0.0
  0
SPLINE
  5
15d
100
AcDbEntity
  8
0
 62
7
100
AcDbSpline
 70
8
 71
3
 72
8
 73
4
 74
0
 40
0
 40
0
 40
0
 40
0
 40
1
 40
1
 40
1
 40
1
 10
73.101600
 20
142.898400
 30
0.0
 10
73.156290
 20
142.898400
 30
0.0
 10
73.203162
 20
142.941400
 30
0.0
 10
73.203162
 20
142.999960
 30
0.0
  0
LINE
  5
15e
100
AcDbEntity
  8
0
 62
7
100
AcDbLine
 10
73.203162
 20
142.999960
 30
0.0
 11
73.203162
 21
157.999960
 31
0.0
  0
SPLINE
  5
15f
100
AcDbEntity
  8
0
 62
7
100
AcDbSpline
 70
8
 71
3
 72
8
 73
4
 74
0
 40
0
 40
0
 40
0
 40
0
 40
1
 40
1
 40
1
 40
1
 10
73.203162
 20
157.999960
 30
0.0
 10
73.203162
 20
158.054660
 30
0.0
 10
73.160192
 20
158.101520
 30
0.0
 10
73.101600
 20
158.101520
 30
0.0
  0
LINE
  5
160
100
AcDbEntity
  8
0
 62
7
100
AcDbLine
 10
73.101600
 20
158.101520
 30
0.0
 11
70.101600
 21
158.101520
 31
0.0
  0
SPLINE
  5
161
100
AcDbEntity
  8
0
 62
7
100
AcDbSpline
 70
8
 71
3
 72
8
 73
4
 74
0
 40
0
 40
0
 40
0
 40
0
 40
1
 40
1
 40
1
 40
1
 10
70.101600
 20
158.101520
 30
0.0
 10
70.156290
 20
158.101520
 30
0.0
 10
70.203162
 20
158.058520
 30
0.0
 10
70.203162
 20
157.999960
 30
0.0
  0
LINE
  5
162
100
AcDbEntity
  8
0
 62
7
100
AcDbLine
 10
70.203162
 20
157.999960
 30
0.0
 11
70.203162
 21
166.999960
 31
0.0
  0
SPLINE
  5
163
100
AcDbEntity
  8
0
 62
7
100
AcDbSpline
 70
8
 71
3
 72
8
 73
4
 74
0
 40
0
 40
0
 40
0
 40
0
 40
1
 40
1
 40
1
 40
1
 10
70.203162
 20
166.999960
 30
0.0
 10
70.203162
 20
166.945260
 30
0.0
 10
70.160192
 20
166.898400
 30
0.0
 10
70.101600
 20
166.898400
 30
0.0
  0
LINE
  5
164
100
AcDbEntity
  8
0
 62
7
100
AcDbLine
 10
70.101600
 20
166.898400
 30
0.0
 11
73.101600
 21
166.898400
 31
0.0
  0
SPLINE
  5
165
100
AcDbEntity
  8
0
 62
7
100
AcDbSpline
 70
8
 71
3
 72
8
 73
4
 74
0
 40
0
 40
0
 40
0
 40
0
 40
1
 40
1
 40
1
 40
1
 10
73.101600
 20
166.898400
 30
0.0
 10
73.156290
 20
166.898400
 30
0.0
 10
73.203162
 20
166.941400
 30
0.0
 10
73.203162
 20
166.999960
 30
0.0
  0
LINE
  5
166
100
AcDbEntity
  8
0
 62
7
100
AcDbLine
 10
73.203162
 20
166.999960
 30
0.0
 11
73.203162
 21
181.999960
 31
0.0
  0
SPLINE
  5
167
100
AcDbEntity
  8
0
 62
7
100
AcDbSpline
 70
8
 71
3
 72
8
 73
4
 74
0
 40
0
 40
0
 40
0
 40
0
 40
1
 40
1
 40
1
 40
1
 10
73.203162
 20
181.999960
 30
0.0
 10
73.203162
 20
182.054660
 30
0.0
 10
73.160192
 20
182.101520
 30
0.0
 10
73.101600
 20
182.101520
 30
0.0
  0
LINE
  5
168
100
AcDbEntity
  8
0
 62
7
100
AcDbLine
 10
73.101600
 20
182.101520
 30
0.0
 11
70.101600
 21
182.101520
 31
0.0
  0
SPLINE
  5
169
100
AcDbEntity
  8
0
 62
7
100
AcDbSpline
 70
8
 71
3
 72
8
 73
4
 74
0
 40
0
 40
0
 40
0
 40
0
 40
1
 40
1
 40
1
 40
1
 10
70.101600
 20
182.101520
 30
0.0
 10
70.156290
 20
182.101520
 30
0.0
 10
70.203162
 20
182.058520
 30
0.0
 10
70.203162
 20
181.999960
 30
0.0
  0
LINE
  5
16a
100
AcDbEntity
  8
0
 62
7
100
AcDbLine
 10
70.203162
 20
181.999960
 30
0.0
 11
70.203162
 21
193.499960
 31
0.0
  0
SPLINE
  5
16b
100
AcDbEntity
  8
0
 62
7
100
AcDbSpline
 70
8
 71
3
 72
8
 73
4
 74
0
 40
0
 40
0
 40
0
 40
0
 40
1
 40
1
 40
1
 40
1
 10
70.203162
 20
193.499960
 30
0.0
 10
70.203162
 20
193.554660
 30
0.0
 10
70.160192
 20
193.601520
 30
0.0
 10
70.101600
 20
193.601520
 30
0.0
  0
LINE
  5
16c
100
AcDbEntity
  8
0
 62
7
100
AcDbLine
 10
70.101600
 20
193.601520
 30
0.0
 11
70.101600
 21
193.601520
 31
0.0
  0
LINE
  5
16d
100
AcDbEntity
  8
0
 62
7
100
AcDbLine
 10
70.101600
 20
193.601520
 30
0.0
 11
61.101600
 21
193.601520
 31
0.0
  0
SPLINE
  5
16e
100
AcDbEntity
  8
0
 62
7
100
AcDbSpline
 70
8
 71
3
 72
8
 73
4
 74
0
 40
0
 40
0
 40
0
 40
0
 40
1
 40
1
 40
1
 40
1
 10
61.101600
 20
193.601520
 30
0.0
 10
61.156290
 20
193.601520
 30
0.0
 10
61.203162
 20
193.558520
 30
0.0
 10
61.203162
 20
193.499960
 30
0.0
  0
LINE
  5
16f
100
AcDbEntity
  8
0
 62
7
100
AcDbLine
 10
61.203162
 20
193.499960
 30
0.0
 11
61.203162
 21
196.499960
 31
0.0
  0
SPLINE
  5
170
100
AcDbEntity
  8
0
 62
7
100
AcDbSpline
 70
8
 71
3
 72
8
 73
4
 74
0
 40
0
 40
0
 40
0
 40
0
 40
1
 40
1
 40
1
 40
1
 10
61.203162
 20
196.499960
 30
0.0
 10
61.203162
 20
196.554660
 30
0.0
 10
61.160192
 20
196.601520
 30
0.0
 10
61.101600
 20
196.601520
 30
0.0
  0
LINE
  5
171
100
AcDbEntity
  8
0
 62
7
100
AcDbLine
 10
61.101600
 20
196.601520
 30
0.0
 11
46.101600
 21
196.601520
 31
0.0
  0
SPLINE
  5
172
100
AcDbEntity
  8
0
 62
7
100
AcDbSpline
 70
8
 71
3
 72
8
 73
4
 74
0
 40
0
 40
0
 40
0
 40
0
 40
1
 40
1
 40
1
 40
1
 10
46.101600
 20
196.601520
 30
0.0
 10
46.046910
 20
196.601520
 30
0.0
 10
46.000037
 20
196.558520
 30
0.0
 10
46.000037
 20
196.499960
 30
0.0
  0
LINE
  5
173
100
AcDbEntity
  8
0
 62
7
100
AcDbLine
 10
46.000037
 20
196.499960
 30
0.0
 11
46.000037
 21
193.499960
 31
0.0
  0
SPLINE
  5
174
100
AcDbEntity
  8
0
 62
7
100
AcDbSpline
 70
8
 71
3
 72
8
 73
4
 74
0
 40
0
 40
0
 40
0
 40
0
 40
1
 40
1
 40
1
 40
1
 10
46.000037
 20
193.499960
 30
0.0
 10
46.000037
 20
193.554660
 30
0.0
 10
46.043007
 20
193.601520
 30
0.0
 10
46.101600
 20
193.601520
 30
0.0
  0
LINE
  5
175
100
AcDbEntity
  8
0
 62
7
100
AcDbLine
 10
46.101600
 20
193.601520
 30
0.0
 11
37.101600
 21
193.601520
 31
0.0
  0
SPLINE
  5
176
100
AcDbEntity
  8
0
 62
7
100
AcDbSpline
 70
8
 71
3
 72
8
 73
4
 74
0
 40
0
 40
0
 40
0
 40
0
 40
1
 40
1
 40
1
 40
1
 10
37.101600
 20
193.601520
 30
0.0
 10
37.156290
 20
193.601520
 30
0.0
 10
37.203162
 20
193.558520
 30
0.0
 10
37.203162
 20
193.499960
 30
0.0
  0
LINE
  5
177
100
AcDbEntity
  8
0
 62
7
100
AcDbLine
 10
37.203162
 20
193.499960
 30
0.0
 11
37.203162
 21
196.499960
 31
0.0
  0
SPLINE
  5
178
100
AcDbEntity
  8
0
 62
7
100
AcDbSpline
 70
8
 71
3
 72
8
 73
4
 74
0
 40
0
 40
0
 40
0
 40
0
 40
1
 40
1
 40
1
 40
1
 10
37.203162
 20
196.499960
 30
0.0
 10
37.203162
 20
196.554660
 30
0.0
 10
37.160192
 20
196.601520
 30
0.0
 10
37.101600
 20
196.601520
 30
0.0
  0
LINE
  5
179
100
AcDbEntity
  8
0
 62
7
100
AcDbLine
 10
37.101600
 20
196.601520
 30
0.0
 11
22.101600
 21
196.601520
 31
0.0
  0
SPLINE
  5
17a
100
AcDbEntity
  8
0
 62
7
100
AcDbSpline
 70
8
 71
3
 72
8
 73
4
 74
0
 40
0
 40
0
 40
0
 40
0
 40
1
 40
1
 40
1
 40
1
 10
22.101600
 20
196.601520
 30
0.0
 10
22.046910
 20
196.601520
 30
0.0
 10
22.000037
 20
196.558520
 30
0.0
 10
22.000037
 20
196.499960
 30
0.0
  0
LINE
  5
17b
100
AcDbEntity
  8
0
 62
7
100
AcDbLine
 10
22.000037
 20
196.499960
 30
0.0
 11
22.000037
 21
193.499960
 31
0.0
  0
SPLINE
  5
17c
100
AcDbEntity
  8
0
 62
7
100
AcDbSpline
 70
8
 71
3
 72
8
 73
4
 74
0
 40
0
 40
0
 40
0
 40
0
 40
1
 40
1
 40
1
 40
1
 10
22.000037
 20
193.499960
 30
0.0
 10
22.000037
 20
193.554660
 30
0.0
 10
22.043007
 20
193.601520
 30
0.0
 10
22.101600
 20
193.601520
 30
0.0
  0
LINE
  5
17d
100
AcDbEntity
  8
0
 62
7
100
AcDbLine
 10
22.101600
 20
193.601520
 30
0.0
 11
13.101600
 21
193.601520
 31
0.0
  0
SPLINE
  5
17e
100
AcDbEntity
  8
0
 62
7
100
AcDbSpline
 70
8
 71
3
 72
8
 73
4
 74
0
 40
0
 40
0
 40
0
 40
0
 40
1
 40
1
 40
1
 40
1
 10
13.101600
 20
193.601520
 30
0.0
 10
13.046910
 20
193.601520
 30
0.0
 10
13.000037
 20
193.558520
 30
0.0
 10
13.000037
 20
193.499960
 30
0.0
  0
LINE
  5
17f
100
AcDbEntity
  8
0
 62
7
100
AcDbLine
 10
13.000037
 20
193.499960
 30
0.0
 11
13.000037
 21
193.499960
 31
0.0
  0
LINE
  5
180
100
AcDbEntity
  8
0
 62
7
100
AcDbLine
 10
13.000037
 20
193.499960
 30
0.0
 11
13.000037
 21
181.999960
 31
0.0
  0
SPLINE
  5
181
100
AcDbEntity
  8
0
 62
7
100
AcDbSpline
 70
8
 71
3
 72
8
 73
4
 74
0
 40
0
 40
0
 40
0
 40
0
 40
1
 40
1
 40
1
 40
1
 10
13.000037
 20
181.999960
 30
0.0
 10
13.000037
 20
182.054660
 30
0.0
 10
13.043007
 20
182.101520
 30
0.0
 10
13.101600
 20
182.101520
 30
0.0
  0
LINE
  5
182
100
AcDbEntity
  8
0
 62
7
100
AcDbLine
 10
13.101600
 20
182.101520
 30
0.0
 11
10.101600
 21
182.101520
 31
0.0
  0
SPLINE
  5
183
100
AcDbEntity
  8
0
 62
7
100
AcDbSpline
 70
8
 71
3
 72
8
 73
4
 74
0
 40
0
 40
0
 40
0
 40
0
 40
1
 40
1
 40
1
 40
1
 10
10.101600
 20
182.101520
 30
0.0
 10
10.046910
 20
182.101520
 30
0.0
 10
10.000037
 20
182.058520
 30
0.0
 10
10.000037
 20
181.999960
 30
0.0
  0
LINE
  5
184
100
AcDbEntity
  8
0
 62
7
100
AcDbLine
 10
10.000037
 20
181.999960
 30
0.0
 11
10.000037
 21
166.999960
 31
0.0
  0
SPLINE
  5
185
100
AcDbEntity
  8
0
 62
7
100
AcDbSpline
 70
8
 71
3
 72
8
 73
4
 74
0
 40
0
 40
0
 40
0
 40
0
 40
1
 40
1
 40
1
 40
1
 10
10.000037
 20
166.999960
 30
0.0
 10
10.000037
 20
166.945260
 30
0.0
 10
10.043007
 20
166.898400
 30
0.0
 10
10.101600
 20
166.898400
 30
0.0
  0
LINE
  5
186
100
AcDbEntity
  8
0
 62
7
100
AcDbLine
 10
10.101600
 20
166.898400
 30
0.0
 11
13.101600
 21
166.898400
 31
0.0
  0
SPLINE
  5
187
100
AcDbEntity
  8
0
 62
7
100
AcDbSpline
 70
8
 71
3
 72
8
 73
4
 74
0
 40
0
 40
0
 40
0
 40
0
 40
1
 40
1
 40
1
 40
1
 10
13.101600
 20
166.898400
 30
0.0
 10
13.046910
 20
166.898400
 30
0.0
 10
13.000037
 20
166.941400
 30
0.0
 10
13.000037
 20
166.999960
 30
0.0
  0
LINE
  5
188
100
AcDbEntity
  8
0
 62
7
100
AcDbLine
 10
13.000037
 20
166.999960
 30
0.0
 11
13.000037
 21
157.999960
 31
0.0
  0
SPLINE
  5
189
100
AcDbEntity
  8
0
 62
7
100
AcDbSpline
 70
8
 71
3
 72
8
 73
4
 74
0
 40
0
 40
0
 40
0
 40
0
 40
1
 40
1
 40
1
 40
1
 10
13.000037
 20
157.999960
 30
0.0
 10
13.000037
 20
158.054660
 30
0.0
 10
13.043007
 20
158.101520
 30
0.0
 10
13.101600
 20
158.101520
 30
0.0
  0
LINE
  5
18a
100
AcDbEntity
  8
0
 62
7
100
AcDbLine
 10
13.101600
 20
158.101520
 30
0.0
 11
10.101600
 21
158.101520
 31
0.0
  0
SPLINE
  5
18b
100
AcDbEntity
  8
0
 62
7
100
AcDbSpline
 70
8
 71
3
 72
8
 73
4
 74
0
 40
0
 40
0
 40
0
 40
0
 40
1
 40
1
 40
1
 40
1
 10
10.101600
 20
158.101520
 30
0.0
 10
10.046910
 20
158.101520
 30
0.0
 10
10.000037
 20
158.058520
 30
0.0
 10
10.000037
 20
157.999960
 30
0.0
  0
LINE
  5
18c
100
AcDbEntity
  8
0
 62
7
100
AcDbLine
 10
10.000037
 20
157.999960
 30
0.0
 11
10.000037
 21
142.999960
 31
0.0
  0
SPLINE
  5
18d
100
AcDbEntity
  8
0
 62
7
100
AcDbSpline
 70
8
 71
3
 72
8
 73
4
 74
0
 40
0
 40
0
 40
0
 40
0
 40
1
 40
1
 40
1
 40
1
 10
10.000037
 20
142.999960
 30
0.0
 10
10.000037
 20
142.945260
 30
0.0
 10
10.043007
 20
142.898400
 30
0.0
 10
10.101600
 20
142.898400
 30
0.0
  0
LINE
  5
18e
100
AcDbEntity
  8
0
 62
7
100
AcDbLine
 10
10.101600
 20
142.898400
 30
0.0
 11
13.101600
 21
142.898400
 31
0.0
  0
SPLINE
  5
18f
100
AcDbEntity
  8
0
 62
7
100
AcDbSpline
 70
8
 71
3
 72
8
 73
4
 74
0
 40
0
 40
0
 40
0
 40
0
 40
1
 40
1
 40
1
 40
1
 10
13.101600
 20
142.898400
 30
0.0
 10
13.046910
 20
142.898400
 30
0.0
 10
13.000037
 20
142.941400
 30
0.0
 10
13.000037
 20
142.999960
 30
0.0
  0
LINE
  5
190
100
AcDbEntity
  8
0
 62
7
100
AcDbLine
 10
13.000037
 20
142.999960
 30
0.0
 11
13.000037
 21
133.999960
 31
0.0
  0
SPLINE
  5
191
100
AcDbEntity
  8
0
 62
7
100
AcDbSpline
 70
8
 71
3
 72
8
 73
4
 74
0
 40
0
 40
0
 40
0
 40
0
 40
1
 40
1
 40
1
 40
1
 10
13.000037
 20
133.999960
 30
0.0
 10
13.000037
 20
134.054660
 30
0.0
 10
13.043007
 20
134.101520
 30
0.0
 10
13.101600
 20
134.101520
 30
0.0
  0
LINE
  5
192
100
AcDbEntity
  8
0
 62
7
100
AcDbLine
 10
13.101600
 20
134.101520
 30
0.0
 11
10.101600
 21
134.101520
 31
0.0
  0
SPLINE
  5
193
100
AcDbEntity
  8
0
 62
7
100
AcDbSpline
 70
8
 71
3
 72
8
 73
4
 74
0
 40
0
 40
0
 40
0
 40
0
 40
1
 40
1
 40
1
 40
1
 10
10.101600
 20
134.101520
 30
0.0
 10
10.046910
 20
134.101520
 30
0.0
 10
10.000037
 20
134.058520
 30
0.0
 10
10.000037
 20
133.999960
 30
0.0
  0
LINE
  5
194
100
AcDbEntity
  8
0
 62
7
100
AcDbLine
 10
10.000037
 20
133.999960
 30
0.0
 11
10.000037
 21
118.999960
 31
0.0
  0
SPLINE
  5
195
100
AcDbEntity
  8
0
 62
7
100
AcDbSpline
 70
8
 71
3
 72
8
 73
4
 74
0
 40
0
 40
0
 40
0
 40
0
 40
1
 40
1
 40
1
 40
1
 10
10.000037
 20
118.999960
 30
0.0
 10
10.000037
 20
118.945260
 30
0.0
 10
10.043007
 20
118.898400
 30
0.0
 10
10.101600
 20
118.898400
 30
0.0
  0
LINE
  5
196
100
AcDbEntity
  8
0
 62
7
100
AcDbLine
 10
10.101600
 20
118.898400
 30
0.0
 11
13.101600
 21
118.898400
 31
0.0
  0
SPLINE
  5
197
100
AcDbEntity
  8
0
 62
7
100
AcDbSpline
 70
8
 71
3
 72
8
 73
4
 74
0
 40
0
 40
0
 40
0
 40
0
 40
1
 40
1
 40
1
 40
1
 10
13.101600
 20
118.898400
 30
0.0
 10
13.046910
 20
118.898400
 30
0.0
 10
13.000037
 20
118.941400
 30
0.0
 10
13.000037
 20
118.999960
 30
0.0
  0
LINE
  5
198
100
AcDbEntity
  8
0
 62
7
100
AcDbLine
 10
13.000037
 20
118.999960
 30
0.0
 11
13.000038
 21
107.499960
 31
0.0
  0
SPLINE
  5
199
100
AcDbEntity
  8
0
 62
7
100
AcDbSpline
 70
8
 71
3
 72
8
 73
4
 74
0
 40
0
 40
0
 40
0
 40
0
 40
1
 40
1
 40
1
 40
1
 10
13.000038
 20
107.499960
 30
0.0
 10
13.000038
 20
107.445260
 30
0.0
 10
13.043008
 20
107.398400
 30
0.0
 10
13.101600
 20
107.398400
 30
0.0
  0
LINE
  5
19a
100
AcDbEntity
  8
0
 62
7
100
AcDbLine
 10
13.101600
 20
107.398400
 30
0.0
 11
13.101600
 21
107.398400
 31
0.0
  0
LINE
  5
19b
100
AcDbEntity
  8
0
 62
7
100
AcDbLine
 10
77.800800
 20
21.000000
 30
0.0
 11
89.300800
 21
21.000000
 31
0.0
  0
SPLINE
  5
19c
100
AcDbEntity
  8
0
 62
7
100
AcDbSpline
 70
8
 71
3
 72
8
 73
4
 74
0
 40
0
 40
0
 40
0
 40
0
 40
1
 40
1
 40
1
 40
1
 10
89.300800
 20
21.000000
 30
0.0
 10
89.355490
 20
21.000000
 30
0.0
 10
89.402362
 20
21.043000
 30
0.0
 10
89.402362
 20
21.101560
 30
0.0
  0
LINE
  5
19d
100
AcDbEntity
  8
0
 62
7
100
AcDbLine
 10
89.402362
 20
21.101560
 30
0.0
 11
89.402362
 21
24.101560
 31
0.0
  0
SPLINE
  5
19e
100
AcDbEntity
  8
0
 62
7
100
AcDbSpline
 70
8
 71
3
 72
8
 73
4
 74
0
 40
0
 40
0
 40
0
 40
0
 40
1
 40
1
 40
1
 40
1
 10
89.402362
 20
24.101560
 30
0.0
 10
89.402362
 20
24.046860
 30
0.0
 10
89.359392
 20
24.000000
 30
0.0
 10
89.300800
 20
24.000000
 30
0.0
  0
LINE
  5
19f
100
AcDbEntity
  8
0
 62
7
100
AcDbLine
 10
89.300800
 20
24.000000
 30
0.0
 11
104.300800
 21
24.000000
 31
0.0
  0
SPLINE
  5
1a0
100
AcDbEntity
  8
0
 62
7
100
AcDbSpline
 70
8
 71
3
 72
8
 73
4
 74
0
 40
0
 40
0
 40
0
 40
0
 40
1
 40
1
 40
1
 40
1
 10
104.300800
 20
24.000000
 30
0.0
 10
104.246100
 20
24.000000
 30
0.0
 10
104.199240
 20
24.043000
 30
0.0
 10
104.199240
 20
24.101560
 30
0.0
  0
LINE
  5
1a1
100
AcDbEntity
  8
0
 62
7
100
AcDbLine
 10
104.199240
 20
24.101560
 30
0.0
 11
104.199240
 21
21.101560
 31
0.0
  0
SPLINE
  5
1a2
100
AcDbEntity
  8
0
 62
7
100
AcDbSpline
 70
8
 71
3
 72
8
 73
4
 74
0
 40
0
 40
0
 40
0
 40
0
 40
1
 40
1
 40
1
 40
1
 10
104.199240
 20
21.101560
 30
0.0
 10
104.199240
 20
21.046860
 30
0.0
 10
104.242240
 20
21.000000
 30
0.0
 10
104.300800
 20
21.000000
 30
0.0
  0
LINE
  5
1a3
100
AcDbEntity
  8
0
 62
7
100
AcDbLine
 10
104.300800
 20
21.000000
 30
0.0
 11
113.300800
 21
21.000000
 31
0.0
  0
SPLINE
  5
1a4
100
AcDbEntity
  8
0
 62
7
100
AcDbSpline
 70
8
 71
3
 72
8
 73
4
 74
0
 40
0
 40
0
 40
0
 40
0
 40
1
 40
1
 40
1
 40
1
 10
113.300800
 20
21.000000
 30
0.0
 10
113.355500
 20
21.000000
 30
0.0
 10
113.402360
 20
21.043000
 30
0.0
 10
113.402360
 20
21.101560
 30
0.0
  0
LINE
  5
1a5
100
AcDbEntity
  8
0
 62
7
100
AcDbLine
 10
113.402360
 20
21.101560
 30
0.0
 11
113.402360
 21
24.101560
 31
0.0
  0
SPLINE
  5
1a6
100
AcDbEntity
  8
0
 62
7
100
AcDbSpline
 70
8
 71
3
 72
8
 73
4
 74
0
 40
0
 40
0
 40
0
 40
0
 40
1
 40
1
 40
1
 40
1
 10
113.402360
 20
24.101560
 30
0.0
 10
113.402360
 20
24.046860
 30
0.0
 10
113.359360
 20
24.000000
 30
0.0
 10
113.300800
 20
24.000000
 30
0.0
  0
LINE
  5
1a7
100
AcDbEntity
  8
0
 62
7
100
AcDbLine
 10
113.300800
 20
24.000000
 30
0.0
 11
128.300800
 21
24.000000
 31
0.0
  0
SPLINE
  5
1a8
100
AcDbEntity
  8
0
 62
7
100
AcDbSpline
 70
8
 71
3
 72
8
 73
4
 74
0
 40
0
 40
0
 40
0
 40
0
 40
1
 40
1
 40
1
 40
1
 10
128.300800
 20
24.000000
 30
0.0
 10
128.246100
 20
24.000000
 30
0.0
 10
128.199240
 20
24.043000
 30
0.0
 10
128.199240
 20
24.101560
 30
0.0
  0
LINE
  5
1a9
100
AcDbEntity
  8
0
 62
7
100
AcDbLine
 10
128.199240
 20
24.101560
 30
0.0
 11
128.199240
 21
21.101560
 31
0.0
  0
SPLINE
  5
1aa
100
AcDbEntity
  8
0
 62
7
100
AcDbSpline
 70
8
 71
3
 72
8
 73
4
 74
0
 40
0
 40
0
 40
0
 40
0
 40
1
 40
1
 40
1
 40
1
 10
128.199240
 20
21.101560
 30
0.0
 10
128.199240
 20
21.046860
 30
0.0
 10
128.242240
 20
21.000000
 30
0.0
 10
128.300800
 20
21.000000
 30
0.0
  0
LINE
  5
1ab
100
AcDbEntity
  8
0
 62
7
100
AcDbLine
 10
128.300800
 20
21.000000
 30
0.0
 11
137.300800
 21
21.000000
 31
0.0
  0
SPLINE
  5
1ac
100
AcDbEntity
  8
0
 62
7
100
AcDbSpline
 70
8
 71
3
 72
8
 73
4
 74
0
 40
0
 40
0
 40
0
 40
0
 40
1
 40
1
 40
1
 40
1
 10
137.300800
 20
21.000000
 30
0.0
 10
137.355500
 20
21.000000
 30
0.0
 10
137.402360
 20
21.043000
 30
0.0
 10
137.402360
 20
21.101560
 30
0.0
  0
LINE
  5
1ad
100
AcDbEntity
  8
0
 62
7
100
AcDbLine
 10
137.402360
 20
21.101560
 30
0.0
 11
137.402360
 21
24.101560
 31
0.0
  0
SPLINE
  5
1ae
100
AcDbEntity
  8
0
 62
7
100
AcDbSpline
 70
8
 71
3
 72
8
 73
4
 74
0
 40
0
 40
0
 40
0
 40
0
 40
1
 40
1
 40
1
 40
1
 10
137.402360
 20
24.101560
 30
0.0
 10
137.402360
 20
24.046860
 30
0.0
 10
137.359360
 20
24.000000
 30
0.0
 10
137.300800
 20
24.000000
 30
0.0
  0
LINE
  5
1af
100
AcDbEntity
  8
0
 62
7
100
AcDbLine
 10
137.300800
 20
24.000000
 30
0.0
 11
152.300800
 21
24.000000
 31
0.0
  0
SPLINE
  5
1b0
100
AcDbEntity
  8
0
 62
7
100
AcDbSpline
 70
8
 71
3
 72
8
 73
4
 74
0
 40
0
 40
0
 40
0
 40
0
 40
1
 40
1
 40
1
 40
1
 10
152.300800
 20
24.000000
 30
0.0
 10
152.246100
 20
24.000000
 30
0.0
 10
152.199240
 20
24.043000
 30
0.0
 10
152.199240
 20
24.101560
 30
0.0
  0
LINE
  5
1b1
100
AcDbEntity
  8
0
 62
7
100
AcDbLine
 10
152.199240
 20
24.101560
 30
0.0
 11
152.199240
 21
21.101560
 31
0.0
  0
SPLINE
  5
1b2
100
AcDbEntity
  8
0
 62
7
100
AcDbSpline
 70
8
 71
3
 72
8
 73
4
 74
0
 40
0
 40
0
 40
0
 40
0
 40
1
 40
1
 40
1
 40
1
 10
152.199240
 20
21.101560
 30
0.0
 10
152.199240
 20
21.046860
 30
0.0
 10
152.242240
 20
21.000000
 30
0.0
 10
152.300800
 20
21.000000
 30
0.0
  0
LINE
  5
1b3
100
AcDbEntity
  8
0
 62
7
100
AcDbLine
 10
152.300800
 20
21.000000
 30
0.0
 11
163.800800
 21
21.000000
 31
0.0
  0
SPLINE
  5
1b4
100
AcDbEntity
  8
0
 62
7
100
AcDbSpline
 70
8
 71
3
 72
8
 73
4
 74
0
 40
0
 40
0
 40
0
 40
0
 40
1
 40
1
 40
1
 40
1
 10
163.800800
 20
21.000000
 30
0.0
 10
163.855500
 20
21.000000
 30
0.0
 10
163.902360
 20
21.043000
 30
0.0
 10
163.902360
 20
21.101560
 30
0.0
  0
LINE
  5
1b5
100
AcDbEntity
  8
0
 62
7
100
AcDbLine
 10
163.902360
 20
21.101560
 30
0.0
 11
163.902360
 21
21.101560
 31
0.0
  0
LINE
  5
1b6
100
AcDbEntity
  8
0
 62
7
100
AcDbLine
 10
163.902360
 20
21.101560
 30
0.0
 11
163.902360
 21
32.101560
 31
0.0
  0
SPLINE
  5
1b7
100
AcDbEntity
  8
0
 62
7
100
AcDbSpline
 70
8
 71
3
 72
8
 73
4
 74
0
 40
0
 40
0
 40
0
 40
0
 40
1
 40
1
 40
1
 40
1
 10
163.902360
 20
32.101560
 30
0.0
 10
163.902360
 20
32.046860
 30
0.0
 10
163.859360
 20
32.000000
 30
0.0
 10
163.800800
 20
32.000000
 30
0.0
  0
LINE
  5
1b8
100
AcDbEntity
  8
0
 62
7
100
AcDbLine
 10
163.800800
 20
32.000000
 30
0.0
 11
166.800800
 21
32.000000
 31
0.0
  0
SPLINE
  5
1b9
100
AcDbEntity
  8
0
 62
7
100
AcDbSpline
 70
8
 71
3
 72
8
 73
4
 74
0
 40
0
 40
0
 40
0
 40
0
 40
1
 40
1
 40
1
 40
1
 10
166.800800
 20
32.000000
 30
0.0
 10
166.855500
 20
32.000000
 30
0.0
 10
166.902360
 20
32.043000
 30
0.0
 10
166.902360
 20
32.101560
 30
0.0
  0
LINE
  5
1ba
100
AcDbEntity
  8
0
 62
7
100
AcDbLine
 10
166.902360
 20
32.101560
 30
0.0
 11
166.902360
 21
47.101560
 31
0.0
  0
SPLINE
  5
1bb
100
AcDbEntity
  8
0
 62
7
100
AcDbSpline
 70
8
 71
3
 72
8
 73
4
 74
0
 40
0
 40
0
 40
0
 40
0
 40
1
 40
1
 40
1
 40
1
 10
166.902360
 20
47.101560
 30
0.0
 10
166.902360
 20
47.156260
 30
0.0
 10
166.859360
 20
47.203130
 30
0.0
 10
166.800800
 20
47.203130
 30
0.0
  0
LINE
  5
1bc
100
AcDbEntity
  8
0
 62
7
100
AcDbLine
 10
166.800800
 20
47.203130
 30
0.0
 11
163.800800
 21
47.203130
 31
0.0
  0
SPLINE
  5
1bd
100
AcDbEntity
  8
0
 62
7
100
AcDbSpline
 70
8
 71
3
 72
8
 73
4
 74
0
 40
0
 40
0
 40
0
 40
0
 40
1
 40
1
 40
1
 40
1
 10
163.800800
 20
47.203130
 30
0.0
 10
163.855500
 20
47.203130
 30
0.0
 10
163.902360
 20
47.160130
 30
0.0
 10
163.902360
 20
47.101560
 30
0.0
  0
LINE
  5
1be
100
AcDbEntity
  8
0
 62
7
100
AcDbLine
 10
163.902360
 20
47.101560
 30
0.0
 11
163.902360
 21
58.101560
 31
0.0
  0
LINE
  5
1bf
100
AcDbEntity
  8
0
 62
7
100
AcDbLine
 10
163.902360
 20
58.101560
 30
0.0
 11
163.902360
 21
61.101560
 31
0.0
  0
SPLINE
  5
1c0
100
AcDbEntity
  8
0
 62
7
100
AcDbSpline
 70
8
 71
3
 72
8
 73
4
 74
0
 40
0
 40
0
 40
0
 40
0
 40
1
 40
1
 40
1
 40
1
 10
163.902360
 20
61.101560
 30
0.0
 10
163.902360
 20
61.156260
 30
0.0
 10
163.859360
 20
61.203130
 30
0.0
 10
163.800800
 20
61.203130
 30
0.0
  0
LINE
  5
1c1
100
AcDbEntity
  8
0
 62
7
100
AcDbLine
 10
163.800800
 20
61.203130
 30
0.0
 11
163.800800
 21
61.203130
 31
0.0
  0
LINE
  5
1c2
100
AcDbEntity
  8
0
 62
7
100
AcDbLine
 10
163.800800
 20
61.203130
 30
0.0
 11
152.300800
 21
61.203130
 31
0.0
  0
SPLINE
  5
1c3
100
AcDbEntity
  8
0
 62
7
100
AcDbSpline
 70
8
 71
3
 72
8
 73
4
 74
0
 40
0
 40
0
 40
0
 40
0
 40
1
 40
1
 40
1
 40
1
 10
152.300800
 20
61.203130
 30
0.0
 10
152.246100
 20
61.203130
 30
0.0
 10
152.199240
 20
61.160130
 30
0.0
 10
152.199240
 20
61.101560
 30
0.0
  0
LINE
  5
1c4
100
AcDbEntity
  8
0
 62
7
100
AcDbLine
 10
152.199240
 20
61.101560
 30
0.0
 11
152.199240
 21
58.101560
 31
0.0
  0
SPLINE
  5
1c5
100
AcDbEntity
  8
0
 62
7
100
AcDbSpline
 70
8
 71
3
 72
8
 73
4
 74
0
 40
0
 40
0
 40
0
 40
0
 40
1
 40
1
 40
1
 40
1
 10
152.199240
 20
58.101560
 30
0.0
 10
152.199240
 20
58.156260
 30
0.0
 10
152.242240
 20
58.203130
 30
0.0
 10
152.300800
 20
58.203130
 30
0.0
  0
LINE
  5
1c6
100
AcDbEntity
  8
0
 62
7
100
AcDbLine
 10
152.300800
 20
58.203130
 30
0.0
 11
137.300800
 21
58.203130
 31
0.0
  0
SPLINE
  5
1c7
100
AcDbEntity
  8
0
 62
7
100
AcDbSpline
 70
8
 71
3
 72
8
 73
4
 74
0
 40
0
 40
0
 40
0
 40
0
 40
1
 40
1
 40
1
 40
1
 10
137.300800
 20
58.203130
 30
0.0
 10
137.355500
 20
58.203130
 30
0.0
 10
137.402360
 20
58.160130
 30
0.0
 10
137.402360
 20
58.101560
 30
0.0
  0
LINE
  5
1c8
100
AcDbEntity
  8
0
 62
7
100
AcDbLine
 10
137.402360
 20
58.101560
 30
0.0
 11
137.402360
 21
61.101560
 31
0.0
  0
SPLINE
  5
1c9
100
AcDbEntity
  8
0
 62
7
100
AcDbSpline
 70
8
 71
3
 72
8
 73
4
 74
0
 40
0
 40
0
 40
0
 40
0
 40
1
 40
1
 40
1
 40
1
 10
137.402360
 20
61.101560
 30
0.0
 10
137.402360
 20
61.156260
 30
0.0
 10
137.359360
 20
61.203130
 30
0.0
 10
137.300800
 20
61.203130
 30
0.0
  0
LINE
  5
1ca
100
AcDbEntity
  8
0
 62
7
100
AcDbLine
 10
137.300800
 20
61.203130
 30
0.0
 11
128.300800
 21
61.203130
 31
0.0
  0
SPLINE
  5
1cb
100
AcDbEntity
  8
0
 62
7
100
AcDbSpline
 70
8
 71
3
 72
8
 73
4
 74
0
 40
0
 40
0
 40
0
 40
0
 40
1
 40
1
 40
1
 40
1
 10
128.300800
 20
61.203130
 30
0.0
 10
128.246100
 20
61.203130
 30
0.0
 10
128.199240
 20
61.160130
 30
0.0
 10
128.199240
 20
61.101560
 30
0.0
  0
LINE
  5
1cc
100
AcDbEntity
  8
0
 62
7
100
AcDbLine
 10
128.199240
 20
61.101560
 30
0.0
 11
128.199240
 21
58.101560
 31
0.0
  0
SPLINE
  5
1cd
100
AcDbEntity
  8
0
 62
7
100
AcDbSpline
 70
8
 71
3
 72
8
 73
4
 74
0
 40
0
 40
0
 40
0
 40
0
 40
1
 40
1
 40
1
 40
1
 10
128.199240
 20
58.101560
 30
0.0
 10
128.199240
 20
58.156260
 30
0.0
 10
128.242240
 20
58.203130
 30
0.0
 10
128.300800
 20
58.203130
 30
0.0
  0
LINE
  5
1ce
100
AcDbEntity
  8
0
 62
7
100
AcDbLine
 10
128.300800
 20
58.203130
 30
0.0
 11
113.300800
 21
58.203130
 31
0.0
  0
SPLINE
  5
1cf
100
AcDbEntity
  8
0
 62
7
100
AcDbSpline
 70
8
 71
3
 72
8
 73
4
 74
0
 40
0
 40
0
 40
0
 40
0
 40
1
 40
1
 40
1
 40
1
 10
113.300800
 20
58.203130
 30
0.0
 10
113.355500
 20
58.203130
 30
0.0
 10
113.402360
 20
58.160130
 30
0.0
 10
113.402360
 20
58.101560
 30
0.0
  0
LINE
  5
1d0
100
AcDbEntity
  8
0
 62
7
100
AcDbLine
 10
113.402360
 20
58.101560
 30
0.0
 11
113.402360
 21
61.101560
 31
0.0
  0
SPLINE
  5
1d1
100
AcDbEntity
  8
0
 62
7
100
AcDbSpline
 70
8
 71
3
 72
8
 73
4
 74
0
 40
0
 40
0
 40
0
 40
0
 40
1
 40
1
 40
1
 40
1
 10
113.402360
 20
61.101560
 30
0.0
 10
113.402360
 20
61.156260
 30
0.0
 10
113.359360
 20
61.203130
 30
0.0
 10
113.300800
 20
61.203130
 30
0.0
  0
LINE
  5
1d2
100
AcDbEntity
  8
0
 62
7
100
AcDbLine
 10
113.300800
 20
61.203130
 30
0.0
 11
104.300800
 21
61.203130
 31
0.0
  0
SPLINE
  5
1d3
100
AcDbEntity
  8
0
 62
7
100
AcDbSpline
 70
8
 71
3
 72
8
 73
4
 74
0
 40
0
 40
0
 40
0
 40
0
 40
1
 40
1
 40
1
 40
1
 10
104.300800
 20
61.203130
 30
0.0
 10
104.246100
 20
61.203130
 30
0.0
 10
104.199240
 20
61.160130
 30
0.0
 10
104.199240
 20
61.101560
 30
0.0
  0
LINE
  5
1d4
100
AcDbEntity
  8
0
 62
7
100
AcDbLine
 10
104.199240
 20
61.101560
 30
0.0
 11
104.199240
 21
58.101560
 31
0.0
  0
SPLINE
  5
1d5
100
AcDbEntity
  8
0
 62
7
100
AcDbSpline
 70
8
 71
3
 72
8
 73
4
 74
0
 40
0
 40
0
 40
0
 40
0
 40
1
 40
1
 40
1
 40
1
 10
104.199240
 20
58.101560
 30
0.0
 10
104.199240
 20
58.156260
 30
0.0
 10
104.242240
 20
58.203130
 30
0.0
 10
104.300800
 20
58.203130
 30
0.0
  0
LINE
  5
1d6
100
AcDbEntity
  8
0
 62
7
100
AcDbLine
 10
104.300800
 20
58.203130
 30
0.0
 11
89.300800
 21
58.203130
 31
0.0
  0
SPLINE
  5
1d7
100
AcDbEntity
  8
0
 62
7
100
AcDbSpline
 70
8
 71
3
 72
8
 73
4
 74
0
 40
0
 40
0
 40
0
 40
0
 40
1
 40
1
 40
1
 40
1
 10
89.300800
 20
58.203130
 30
0.0
 10
89.355490
 20
58.203130
 30
0.0
 10
89.402362
 20
58.160130
 30
0.0
 10
89.402362
 20
58.101560
 30
0.0
  0
LINE
  5
1d8
100
AcDbEntity
  8
0
 62
7
100
AcDbLine
 10
89.402362
 20
58.101560
 30
0.0
 11
89.402362
 21
61.101560
 31
0.0
  0
SPLINE
  5
1d9
100
AcDbEntity
  8
0
 62
7
100
AcDbSpline
 70
8
 71
3
 72
8
 73
4
 74
0
 40
0
 40
0
 40
0
 40
0
 40
1
 40
1
 40
1
 40
1
 10
89.402362
 20
61.101560
 30
0.0
 10
89.402362
 20
61.156260
 30
0.0
 10
89.359392
 20
61.203130
 30
0.0
 10
89.300800
 20
61.203130
 30
0.0
  0
LINE
  5
1da
100
AcDbEntity
  8
0
 62
7
100
AcDbLine
 10
89.300800
 20
61.203130
 30
0.0
 11
77.800800
 21
61.203130
 31
0.0
  0
SPLINE
  5
1db
100
AcDbEntity
  8
0
 62
7
100
AcDbSpline
 70
8
 71
3
 72
8
 73
4
 74
0
 40
0
 40
0
 40
0
 40
0
 40
1
 40
1
 40
1
 40
1
 10
77.800800
 20
61.203130
 30
0.0
 10
77.746110
 20
61.203130
 30
0.0
 10
77.699238
 20
61.160130
 30
0.0
 10
77.699238
 20
61.101560
 30
0.0
  0
LINE
  5
1dc
100
AcDbEntity
  8
0
 62
7
100
AcDbLine
 10
77.699238
 20
61.101560
 30
0.0
 11
77.699238
 21
58.101560
 31
0.0
  0
LINE
  5
1dd
100
AcDbEntity
  8
0
 62
7
100
AcDbLine
 10
77.699238
 20
58.101560
 30
0.0
 11
77.699238
 21
47.101560
 31
0.0
  0
SPLINE
  5
1de
100
AcDbEntity
  8
0
 62
7
100
AcDbSpline
 70
8
 71
3
 72
8
 73
4
 74
0
 40
0
 40
0
 40
0
 40
0
 40
1
 40
1
 40
1
 40
1
 10
77.699238
 20
47.101560
 30
0.0
 10
77.699238
 20
47.156260
 30
0.0
 10
77.742208
 20
47.203130
 30
0.0
 10
77.800800
 20
47.203130
 30
0.0
  0
LINE
  5
1df
100
AcDbEntity
  8
0
 62
7
100
AcDbLine
 10
77.800800
 20
47.203130
 30
0.0
 11
74.800800
 21
47.203130
 31
0.0
  0
SPLINE
  5
1e0
100
AcDbEntity
  8
0
 62
7
100
AcDbSpline
 70
8
 71
3
 72
8
 73
4
 74
0
 40
0
 40
0
 40
0
 40
0
 40
1
 40
1
 40
1
 40
1
 10
74.800800
 20
47.203130
 30
0.0
 10
74.746110
 20
47.203130
 30
0.0
 10
74.699238
 20
47.160130
 30
0.0
 10
74.699238
 20
47.101560
 30
0.0
  0
LINE
  5
1e1
100
AcDbEntity
  8
0
 62
7
100
AcDbLine
 10
74.699238
 20
47.101560
 30
0.0
 11
74.699238
 21
32.101560
 31
0.0
  0
SPLINE
  5
1e2
100
AcDbEntity
  8
0
 62
7
100
AcDbSpline
 70
8
 71
3
 72
8
 73
4
 74
0
 40
0
 40
0
 40
0
 40
0
 40
1
 40
1
 40
1
 40
1
 10
74.699238
 20
32.101560
 30
0.0
 10
74.699238
 20
32.046860
 30
0.0
 10
74.742208
 20
32.000000
 30
0.0
 10
74.800800
 20
32.000000
 30
0.0
  0
LINE
  5
1e3
100
AcDbEntity
  8
0
 62
7
100
AcDbLine
 10
74.800800
 20
32.000000
 30
0.0
 11
77.800800
 21
32.000000
 31
0.0
  0
SPLINE
  5
1e4
100
AcDbEntity
  8
0
 62
7
100
AcDbSpline
 70
8
 71
3
 72
8
 73
4
 74
0
 40
0
 40
0
 40
0
 40
0
 40
1
 40
1
 40
1
 40
1
 10
77.800800
 20
32.000000
 30
0.0
 10
77.746110
 20
32.000000
 30
0.0
 10
77.699238
 20
32.043000
 30
0.0
 10
77.699238
 20
32.101560
 30
0.0
  0
LINE
  5
1e5
100
AcDbEntity
  8
0
 62
7
100
AcDbLine
 10
77.699238
 20
32.101560
 30
0.0
 11
77.699238
 21
21.101560
 31
0.0
  0
SPLINE
  5
1e6
100
AcDbEntity
  8
0
 62
7
100
AcDbSpline
 70
8
 71
3
 72
8
 73
4
 74
0
 40
0
 40
0
 40
0
 40
0
 40
1
 40
1
 40
1
 40
1
 10
77.699238
 20
21.101560
 30
0.0
 10
77.699238
 20
21.046860
 30
0.0
 10
77.742208
 20
21.000000
 30
0.0
 10
77.800800
 20
21.000000
 30
0.0
  0
LINE
  5
1e7
100
AcDbEntity
  8
0
 62
7
100
AcDbLine
 10
77.800800
 20
21.000000
 30
0.0
 11
77.800800
 21
21.000000
 31
0.0
  0
LINE
  5
1e8
100
AcDbEntity
  8
0
 62
7
100
AcDbLine
 10
90.643973
 20
108.000290
 30
0.0
 11
99.643969
 21
108.000290
 31
0.0
  0
SPLINE
  5
1e9
100
AcDbEntity
  8
0
 62
7
100
AcDbSpline
 70
8
 71
3
 72
8
 73
4
 74
0
 40
0
 40
0
 40
0
 40
0
 40
1
 40
1
 40
1
 40
1
 10
99.643969
 20
108.000290
 30
0.0
 10
99.589269
 20
108.000290
 30
0.0
 10
99.542409
 20
108.043290
 30
0.0
 10
99.542409
 20
108.101850
 30
0.0
  0
LINE
  5
1ea
100
AcDbEntity
  8
0
 62
7
100
AcDbLine
 10
99.542409
 20
108.101850
 30
0.0
 11
99.542409
 21
105.101850
 31
0.0
  0
SPLINE
  5
1eb
100
AcDbEntity
  8
0
 62
7
100
AcDbSpline
 70
8
 71
3
 72
8
 73
4
 74
0
 40
0
 40
0
 40
0
 40
0
 40
1
 40
1
 40
1
 40
1
 10
99.542409
 20
105.101850
 30
0.0
 10
99.542409
 20
105.047150
 30
0.0
 10
99.585409
 20
105.000290
 30
0.0
 10
99.643969
 20
105.000290
 30
0.0
  0
LINE
  5
1ec
100
AcDbEntity
  8
0
 62
7
100
AcDbLine
 10
99.643969
 20
105.000290
 30
0.0
 11
114.643970
 21
105.000290
 31
0.0
  0
SPLINE
  5
1ed
100
AcDbEntity
  8
0
 62
7
100
AcDbSpline
 70
8
 71
3
 72
8
 73
4
 74
0
 40
0
 40
0
 40
0
 40
0
 40
1
 40
1
 40
1
 40
1
 10
114.643970
 20
105.000290
 30
0.0
 10
114.698670
 20
105.000290
 30
0.0
 10
114.745540
 20
105.043290
 30
0.0
 10
114.745540
 20
105.101850
 30
0.0
  0
LINE
  5
1ee
100
AcDbEntity
  8
0
 62
7
100
AcDbLine
 10
114.745540
 20
105.101850
 30
0.0
 11
114.745540
 21
108.101850
 31
0.0
  0
SPLINE
  5
1ef
100
AcDbEntity
  8
0
 62
7
100
AcDbSpline
 70
8
 71
3
 72
8
 73
4
 74
0
 40
0
 40
0
 40
0
 40
0
 40
1
 40
1
 40
1
 40
1
 10
114.745540
 20
108.101850
 30
0.0
 10
114.745540
 20
108.047150
 30
0.0
 10
114.702540
 20
108.000290
 30
0.0
 10
114.643970
 20
108.000290
 30
0.0
  0
LINE
  5
1f0
100
AcDbEntity
  8
0
 62
7
100
AcDbLine
 10
114.643970
 20
108.000290
 30
0.0
 11
123.643970
 21
108.000290
 31
0.0
  0
SPLINE
  5
1f1
100
AcDbEntity
  8
0
 62
7
100
AcDbSpline
 70
8
 71
3
 72
8
 73
4
 74
0
 40
0
 40
0
 40
0
 40
0
 40
1
 40
1
 40
1
 40
1
 10
123.643970
 20
108.000290
 30
0.0
 10
123.589270
 20
108.000290
 30
0.0
 10
123.542410
 20
108.043290
 30
0.0
 10
123.542410
 20
108.101850
 30
0.0
  0
LINE
  5
1f2
100
AcDbEntity
  8
0
 62
7
100
AcDbLine
 10
123.542410
 20
108.101850
 30
0.0
 11
123.542410
 21
105.101850
 31
0.0
  0
SPLINE
  5
1f3
100
AcDbEntity
  8
0
 62
7
100
AcDbSpline
 70
8
 71
3
 72
8
 73
4
 74
0
 40
0
 40
0
 40
0
 40
0
 40
1
 40
1
 40
1
 40
1
 10
123.542410
 20
105.101850
 30
0.0
 10
123.542410
 20
105.047150
 30
0.0
 10
123.585410
 20
105.000290
 30
0.0
 10
123.643970
 20
105.000290
 30
0.0
  0
LINE
  5
1f4
100
AcDbEntity
  8
0
 62
7
100
AcDbLine
 10
123.643970
 20
105.000290
 30
0.0
 11
138.643970
 21
105.000290
 31
0.0
  0
SPLINE
  5
1f5
100
AcDbEntity
  8
0
 62
7
100
AcDbSpline
 70
8
 71
3
 72
8
 73
4
 74
0
 40
0
 40
0
 40
0
 40
0
 40
1
 40
1
 40
1
 40
1
 10
138.643970
 20
105.000290
 30
0.0
 10
138.698670
 20
105.000290
 30
0.0
 10
138.745540
 20
105.043290
 30
0.0
 10
138.745540
 20
105.101850
 30
0.0
  0
LINE
  5
1f6
100
AcDbEntity
  8
0
 62
7
100
AcDbLine
 10
138.745540
 20
105.101850
 30
0.0
 11
138.745540
 21
108.101850
 31
0.0
  0
SPLINE
  5
1f7
100
AcDbEntity
  8
0
 62
7
100
AcDbSpline
 70
8
 71
3
 72
8
 73
4
 74
0
 40
0
 40
0
 40
0
 40
0
 40
1
 40
1
 40
1
 40
1
 10
138.745540
 20
108.101850
 30
0.0
 10
138.745540
 20
108.047150
 30
0.0
 10
138.702540
 20
108.000290
 30
0.0
 10
138.643970
 20
108.000290
 30
0.0
  0
LINE
  5
1f8
100
AcDbEntity
  8
0
 62
7
100
AcDbLine
 10
138.643970
 20
108.000290
 30
0.0
 11
147.643970
 21
108.000290
 31
0.0
  0
SPLINE
  5
1f9
100
AcDbEntity
  8
0
 62
7
100
AcDbSpline
 70
8
 71
3
 72
8
 73
4
 74
0
 40
0
 40
0
 40
0
 40
0
 40
1
 40
1
 40
1
 40
1
 10
147.643970
 20
108.000290
 30
0.0
 10
147.698670
 20
108.000290
 30
0.0
 10
147.745540
 20
108.043290
 30
0.0
 10
147.745540
 20
108.101850
 30
0.0
  0
LINE
  5
1fa
100
AcDbEntity
  8
0
 62
7
100
AcDbLine
 10
147.745540
 20
108.101850
 30
0.0
 11
147.745540
 21
108.101850
 31
0.0
  0
LINE
  5
1fb
100
AcDbEntity
  8
0
 62
7
100
AcDbLine
 10
147.745540
 20
108.101850
 30
0.0
 11
147.745540
 21
119.601850
 31
0.0
  0
SPLINE
  5
1fc
100
AcDbEntity
  8
0
 62
7
100
AcDbSpline
 70
8
 71
3
 72
8
 73
4
 74
0
 40
0
 40
0
 40
0
 40
0
 40
1
 40
1
 40
1
 40
1
 10
147.745540
 20
119.601850
 30
0.0
 10
147.745540
 20
119.547150
 30
0.0
 10
147.702540
 20
119.500290
 30
0.0
 10
147.643970
 20
119.500290
 30
0.0
  0
LINE
  5
1fd
100
AcDbEntity
  8
0
 62
7
100
AcDbLine
 10
147.643970
 20
119.500290
 30
0.0
 11
150.643970
 21
119.500290
 31
0.0
  0
SPLINE
  5
1fe
100
AcDbEntity
  8
0
 62
7
100
AcDbSpline
 70
8
 71
3
 72
8
 73
4
 74
0
 40
0
 40
0
 40
0
 40
0
 40
1
 40
1
 40
1
 40
1
 10
150.643970
 20
119.500290
 30
0.0
 10
150.698670
 20
119.500290
 30
0.0
 10
150.745540
 20
119.543290
 30
0.0
 10
150.745540
 20
119.601850
 30
0.0
  0
LINE
  5
1ff
100
AcDbEntity
  8
0
 62
7
100
AcDbLine
 10
150.745540
 20
119.601850
 30
0.0
 11
150.745540
 21
134.601850
 31
0.0
  0
SPLINE
  5
200
100
AcDbEntity
  8
0
 62
7
100
AcDbSpline
 70
8
 71
3
 72
8
 73
4
 74
0
 40
0
 40
0
 40
0
 40
0
 40
1
 40
1
 40
1
 40
1
 10
150.745540
 20
134.601850
 30
0.0
 10
150.745540
 20
134.656550
 30
0.0
 10
150.702540
 20
134.703410
 30
0.0
 10
150.643970
 20
134.703410
 30
0.0
  0
LINE
  5
201
100
AcDbEntity
  8
0
 62
7
100
AcDbLine
 10
150.643970
 20
134.703410
 30
0.0
 11
147.643970
 21
134.703410
 31
0.0
  0
SPLINE
  5
202
100
AcDbEntity
  8
0
 62
7
100
AcDbSpline
 70
8
 71
3
 72
8
 73
4
 74
0
 40
0
 40
0
 40
0
 40
0
 40
1
 40
1
 40
1
 40
1
 10
147.643970
 20
134.703410
 30
0.0
 10
147.698670
 20
134.703410
 30
0.0
 10
147.745540
 20
134.660410
 30
0.0
 10
147.745540
 20
134.601850
 30
0.0
  0
LINE
  5
203
100
AcDbEntity
  8
0
 62
7
100
AcDbLine
 10
147.745540
 20
134.601850
 30
0.0
 11
147.745540
 21
143.601850
 31
0.0
  0
SPLINE
  5
204
100
AcDbEntity
  8
0
 62
7
100
AcDbSpline
 70
8
 71
3
 72
8
 73
4
 74
0
 40
0
 40
0
 40
0
 40
0
 40
1
 40
1
 40
1
 40
1
 10
147.745540
 20
143.601850
 30
0.0
 10
147.745540
 20
143.547150
 30
0.0
 10
147.702540
 20
143.500290
 30
0.0
 10
147.643970
 20
143.500290
 30
0.0
  0
LINE
  5
205
100
AcDbEntity
  8
0
 62
7
100
AcDbLine
 10
147.643970
 20
143.500290
 30
0.0
 11
150.643970
 21
143.500290
 31
0.0
  0
SPLINE
  5
206
100
AcDbEntity
  8
0
 62
7
100
AcDbSpline
 70
8
 71
3
 72
8
 73
4
 74
0
 40
0
 40
0
 40
0
 40
0
 40
1
 40
1
 40
1
 40
1
 10
150.643970
 20
143.500290
 30
0.0
 10
150.698670
 20
143.500290
 30
0.0
 10
150.745540
 20
143.543290
 30
0.0
 10
150.745540
 20
143.601850
 30
0.0
  0
LINE
  5
207
100
AcDbEntity
  8
0
 62
7
100
AcDbLine
 10
150.745540
 20
143.601850
 30
0.0
 11
150.745540
 21
158.601850
 31
0.0
  0
SPLINE
  5
208
100
AcDbEntity
  8
0
 62
7
100
AcDbSpline
 70
8
 71
3
 72
8
 73
4
 74
0
 40
0
 40
0
 40
0
 40
0
 40
1
 40
1
 40
1
 40
1
 10
150.745540
 20
158.601850
 30
0.0
 10
150.745540
 20
158.656550
 30
0.0
 10
150.702540
 20
158.703410
 30
0.0
 10
150.643970
 20
158.703410
 30
0.0
  0
LINE
  5
209
100
AcDbEntity
  8
0
 62
7
100
AcDbLine
 10
150.643970
 20
158.703410
 30
0.0
 11
147.643970
 21
158.703410
 31
0.0
  0
SPLINE
  5
20a
100
AcDbEntity
  8
0
 62
7
100
AcDbSpline
 70
8
 71
3
 72
8
 73
4
 74
0
 40
0
 40
0
 40
0
 40
0
 40
1
 40
1
 40
1
 40
1
 10
147.643970
 20
158.703410
 30
0.0
 10
147.698670
 20
158.703410
 30
0.0
 10
147.745540
 20
158.660410
 30
0.0
 10
147.745540
 20
158.601850
 30
0.0
  0
LINE
  5
20b
100
AcDbEntity
  8
0
 62
7
100
AcDbLine
 10
147.745540
 20
158.601850
 30
0.0
 11
147.745540
 21
167.601850
 31
0.0
  0
SPLINE
  5
20c
100
AcDbEntity
  8
0
 62
7
100
AcDbSpline
 70
8
 71
3
 72
8
 73
4
 74
0
 40
0
 40
0
 40
0
 40
0
 40
1
 40
1
 40
1
 40
1
 10
147.745540
 20
167.601850
 30
0.0
 10
147.745540
 20
167.547150
 30
0.0
 10
147.702540
 20
167.500290
 30
0.0
 10
147.643970
 20
167.500290
 30
0.0
  0
LINE
  5
20d
100
AcDbEntity
  8
0
 62
7
100
AcDbLine
 10
147.643970
 20
167.500290
 30
0.0
 11
150.643970
 21
167.500290
 31
0.0
  0
SPLINE
  5
20e
100
AcDbEntity
  8
0
 62
7
100
AcDbSpline
 70
8
 71
3
 72
8
 73
4
 74
0
 40
0
 40
0
 40
0
 40
0
 40
1
 40
1
 40
1
 40
1
 10
150.643970
 20
167.500290
 30
0.0
 10
150.698670
 20
167.500290
 30
0.0
 10
150.745540
 20
167.543290
 30
0.0
 10
150.745540
 20
167.601850
 30
0.0
  0
LINE
  5
20f
100
AcDbEntity
  8
0
 62
7
100
AcDbLine
 10
150.745540
 20
167.601850
 30
0.0
 11
150.745540
 21
182.601850
 31
0.0
  0
SPLINE
  5
210
100
AcDbEntity
  8
0
 62
7
100
AcDbSpline
 70
8
 71
3
 72
8
 73
4
 74
0
 40
0
 40
0
 40
0
 40
0
 40
1
 40
1
 40
1
 40
1
 10
150.745540
 20
182.601850
 30
0.0
 10
150.745540
 20
182.656550
 30
0.0
 10
150.702540
 20
182.703410
 30
0.0
 10
150.643970
 20
182.703410
 30
0.0
  0
LINE
  5
211
100
AcDbEntity
  8
0
 62
7
100
AcDbLine
 10
150.643970
 20
182.703410
 30
0.0
 11
147.643970
 21
182.703410
 31
0.0
  0
SPLINE
  5
212
100
AcDbEntity
  8
0
 62
7
100
AcDbSpline
 70
8
 71
3
 72
8
 73
4
 74
0
 40
0
 40
0
 40
0
 40
0
 40
1
 40
1
 40
1
 40
1
 10
147.643970
 20
182.703410
 30
0.0
 10
147.698670
 20
182.703410
 30
0.0
 10
147.745540
 20
182.660410
 30
0.0
 10
147.745540
 20
182.601850
 30
0.0
  0
LINE
  5
213
100
AcDbEntity
  8
0
 62
7
100
AcDbLine
 10
147.745540
 20
182.601850
 30
0.0
 11
147.745540
 21
194.101850
 31
0.0
  0
SPLINE
  5
214
100
AcDbEntity
  8
0
 62
7
100
AcDbSpline
 70
8
 71
3
 72
8
 73
4
 74
0
 40
0
 40
0
 40
0
 40
0
 40
1
 40
1
 40
1
 40
1
 10
147.745540
 20
194.101850
 30
0.0
 10
147.745540
 20
194.156550
 30
0.0
 10
147.702540
 20
194.203410
 30
0.0
 10
147.643970
 20
194.203410
 30
0.0
  0
LINE
  5
215
100
AcDbEntity
  8
0
 62
7
100
AcDbLine
 10
147.643970
 20
194.203410
 30
0.0
 11
147.643970
 21
194.203410
 31
0.0
  0
LINE
  5
216
100
AcDbEntity
  8
0
 62
7
100
AcDbLine
 10
147.643970
 20
194.203410
 30
0.0
 11
138.643970
 21
194.203410
 31
0.0
  0
SPLINE
  5
217
100
AcDbEntity
  8
0
 62
7
100
AcDbSpline
 70
8
 71
3
 72
8
 73
4
 74
0
 40
0
 40
0
 40
0
 40
0
 40
1
 40
1
 40
1
 40
1
 10
138.643970
 20
194.203410
 30
0.0
 10
138.698670
 20
194.203410
 30
0.0
 10
138.745540
 20
194.160410
 30
0.0
 10
138.745540
 20
194.101850
 30
0.0
  0
LINE
  5
218
100
AcDbEntity
  8
0
 62
7
100
AcDbLine
 10
138.745540
 20
194.101850
 30
0.0
 11
138.745540
 21
197.101850
 31
0.0
  0
SPLINE
  5
219
100
AcDbEntity
  8
0
 62
7
100
AcDbSpline
 70
8
 71
3
 72
8
 73
4
 74
0
 40
0
 40
0
 40
0
 40
0
 40
1
 40
1
 40
1
 40
1
 10
138.745540
 20
197.101850
 30
0.0
 10
138.745540
 20
197.156550
 30
0.0
 10
138.702540
 20
197.203410
 30
0.0
 10
138.643970
 20
197.203410
 30
0.0
  0
LINE
  5
21a
100
AcDbEntity
  8
0
 62
7
100
AcDbLine
 10
138.643970
 20
197.203410
 30
0.0
 11
123.643970
 21
197.203410
 31
0.0
  0
SPLINE
  5
21b
100
AcDbEntity
  8
0
 62
7
100
AcDbSpline
 70
8
 71
3
 72
8
 73
4
 74
0
 40
0
 40
0
 40
0
 40
0
 40
1
 40
1
 40
1
 40
1
 10
123.643970
 20
197.203410
 30
0.0
 10
123.589270
 20
197.203410
 30
0.0
 10
123.542410
 20
197.160410
 30
0.0
 10
123.542410
 20
197.101850
 30
0.0
  0
LINE
  5
21c
100
AcDbEntity
  8
0
 62
7
100
AcDbLine
 10
123.542410
 20
197.101850
 30
0.0
 11
123.542410
 21
194.101850
 31
0.0
  0
SPLINE
  5
21d
100
AcDbEntity
  8
0
 62
7
100
AcDbSpline
 70
8
 71
3
 72
8
 73
4
 74
0
 40
0
 40
0
 40
0
 40
0
 40
1
 40
1
 40
1
 40
1
 10
123.542410
 20
194.101850
 30
0.0
 10
123.542410
 20
194.156550
 30
0.0
 10
123.585410
 20
194.203410
 30
0.0
 10
123.643970
 20
194.203410
 30
0.0
  0
LINE
  5
21e
100
AcDbEntity
  8
0
 62
7
100
AcDbLine
 10
123.643970
 20
194.203410
 30
0.0
 11
114.643970
 21
194.203410
 31
0.0
  0
SPLINE
  5
21f
100
AcDbEntity
  8
0
 62
7
100
AcDbSpline
 70
8
 71
3
 72
8
 73
4
 74
0
 40
0
 40
0
 40
0
 40
0
 40
1
 40
1
 40
1
 40
1
 10
114.643970
 20
194.203410
 30
0.0
 10
114.698670
 20
194.203410
 30
0.0
 10
114.745540
 20
194.160410
 30
0.0
 10
114.745540
 20
194.101850
 30
0.0
  0
LINE
  5
220
100
AcDbEntity
  8
0
 62
7
100
AcDbLine
 10
114.745540
 20
194.101850
 30
0.0
 11
114.745540
 21
197.101850
 31
0.0
  0
SPLINE
  5
221
100
AcDbEntity
  8
0
 62
7
100
AcDbSpline
 70
8
 71
3
 72
8
 73
4
 74
0
 40
0
 40
0
 40
0
 40
0
 40
1
 40
1
 40
1
 40
1
 10
114.745540
 20
197.101850
 30
0.0
 10
114.745540
 20
197.156550
 30
0.0
 10
114.702540
 20
197.203410
 30
0.0
 10
114.643970
 20
197.203410
 30
0.0
  0
LINE
  5
222
100
AcDbEntity
  8
0
 62
7
100
AcDbLine
 10
114.643970
 20
197.203410
 30
0.0
 11
99.643969
 21
197.203410
 31
0.0
  0
SPLINE
  5
223
100
AcDbEntity
  8
0
 62
7
100
AcDbSpline
 70
8
 71
3
 72
8
 73
4
 74
0
 40
0
 40
0
 40
0
 40
0
 40
1
 40
1
 40
1
 40
1
 10
99.643969
 20
197.203410
 30
0.0
 10
99.589269
 20
197.203410
 30
0.0
 10
99.542409
 20
197.160410
 30
0.0
 10
99.542409
 20
197.101850
 30
0.0
  0
LINE
  5
224
100
AcDbEntity
  8
0
 62
7
100
AcDbLine
 10
99.542409
 20
197.101850
 30
0.0
 11
99.542409
 21
194.101850
 31
0.0
  0
SPLINE
  5
225
100
AcDbEntity
  8
0
 62
7
100
AcDbSpline
 70
8
 71
3
 72
8
 73
4
 74
0
 40
0
 40
0
 40
0
 40
0
 40
1
 40
1
 40
1
 40
1
 10
99.542409
 20
194.101850
 30
0.0
 10
99.542409
 20
194.156550
 30
0.0
 10
99.585409
 20
194.203410
 30
0.0
 10
99.643969
 20
194.203410
 30
0.0
  0
LINE
  5
226
100
AcDbEntity
  8
0
 62
7
100
AcDbLine
 10
99.643969
 20
194.203410
 30
0.0
 11
90.643973
 21
194.203410
 31
0.0
  0
SPLINE
  5
227
100
AcDbEntity
  8
0
 62
7
100
AcDbSpline
 70
8
 71
3
 72
8
 73
4
 74
0
 40
0
 40
0
 40
0
 40
0
 40
1
 40
1
 40
1
 40
1
 10
90.643973
 20
194.203410
 30
0.0
 10
90.589283
 20
194.203410
 30
0.0
 10
90.542410
 20
194.160410
 30
0.0
 10
90.542410
 20
194.101850
 30
0.0
  0
LINE
  5
228
100
AcDbEntity
  8
0
 62
7
100
AcDbLine
 10
90.542410
 20
194.101850
 30
0.0
 11
90.542410
 21
194.101850
 31
0.0
  0
LINE
  5
229
100
AcDbEntity
  8
0
 62
7
100
AcDbLine
 10
90.542410
 20
194.101850
 30
0.0
 11
90.542410
 21
182.601850
 31
0.0
  0
SPLINE
  5
22a
100
AcDbEntity
  8
0
 62
7
100
AcDbSpline
 70
8
 71
3
 72
8
 73
4
 74
0
 40
0
 40
0
 40
0
 40
0
 40
1
 40
1
 40
1
 40
1
 10
90.542410
 20
182.601850
 30
0.0
 10
90.542410
 20
182.656550
 30
0.0
 10
90.585380
 20
182.703410
 30
0.0
 10
90.643973
 20
182.703410
 30
0.0
  0
LINE
  5
22b
100
AcDbEntity
  8
0
 62
7
100
AcDbLine
 10
90.643973
 20
182.703410
 30
0.0
 11
87.643973
 21
182.703410
 31
0.0
  0
SPLINE
  5
22c
100
AcDbEntity
  8
0
 62
7
100
AcDbSpline
 70
8
 71
3
 72
8
 73
4
 74
0
 40
0
 40
0
 40
0
 40
0
 40
1
 40
1
 40
1
 40
1
 10
87.643973
 20
182.703410
 30
0.0
 10
87.589283
 20
182.703410
 30
0.0
 10
87.542410
 20
182.660410
 30
0.0
 10
87.542410
 20
182.601850
 30
0.0
  0
LINE
  5
22d
100
AcDbEntity
  8
0
 62
7
100
AcDbLine
 10
87.542410
 20
182.601850
 30
0.0
 11
87.542410
 21
167.601850
 31
0.0
  0
SPLINE
  5
22e
100
AcDbEntity
  8
0
 62
7
100
AcDbSpline
 70
8
 71
3
 72
8
 73
4
 74
0
 40
0
 40
0
 40
0
 40
0
 40
1
 40
1
 40
1
 40
1
 10
87.542410
 20
167.601850
 30
0.0
 10
87.542410
 20
167.547150
 30
0.0
 10
87.585380
 20
167.500290
 30
0.0
 10
87.643973
 20
167.500290
 30
0.0
  0
LINE
  5
22f
100
AcDbEntity
  8
0
 62
7
100
AcDbLine
 10
87.643973
 20
167.500290
 30
0.0
 11
90.643973
 21
167.500290
 31
0.0
  0
SPLINE
  5
230
100
AcDbEntity
  8
0
 62
7
100
AcDbSpline
 70
8
 71
3
 72
8
 73
4
 74
0
 40
0
 40
0
 40
0
 40
0
 40
1
 40
1
 40
1
 40
1
 10
90.643973
 20
167.500290
 30
0.0
 10
90.589283
 20
167.500290
 30
0.0
 10
90.542410
 20
167.543290
 30
0.0
 10
90.542410
 20
167.601850
 30
0.0
  0
LINE
  5
231
100
AcDbEntity
  8
0
 62
7
100
AcDbLine
 10
90.542410
 20
167.601850
 30
0.0
 11
90.542410
 21
158.601850
 31
0.0
  0
SPLINE
  5
232
100
AcDbEntity
  8
0
 62
7
100
AcDbSpline
 70
8
 71
3
 72
8
 73
4
 74
0
 40
0
 40
0
 40
0
 40
0
 40
1
 40
1
 40
1
 40
1
 10
90.542410
 20
158.601850
 30
0.0
 10
90.542410
 20
158.656550
 30
0.0
 10
90.585380
 20
158.703410
 30
0.0
 10
90.643973
 20
158.703410
 30
0.0
  0
LINE
  5
233
100
AcDbEntity
  8
0
 62
7
100
AcDbLine
 10
90.643973
 20
158.703410
 30
0.0
 11
87.643973
 21
158.703410
 31
0.0
  0
SPLINE
  5
234
100
AcDbEntity
  8
0
 62
7
100
AcDbSpline
 70
8
 71
3
 72
8
 73
4
 74
0
 40
0
 40
0
 40
0
 40
0
 40
1
 40
1
 40
1
 40
1
 10
87.643973
 20
158.703410
 30
0.0
 10
87.589283
 20
158.703410
 30
0.0
 10
87.542410
 20
158.660410
 30
0.0
 10
87.542410
 20
158.601850
 30
0.0
  0
LINE
  5
235
100
AcDbEntity
  8
0
 62
7
100
AcDbLine
 10
87.542410
 20
158.601850
 30
0.0
 11
87.542410
 21
143.601850
 31
0.0
  0
SPLINE
  5
236
100
AcDbEntity
  8
0
 62
7
100
AcDbSpline
 70
8
 71
3
 72
8
 73
4
 74
0
 40
0
 40
0
 40
0
 40
0
 40
1
 40
1
 40
1
 40
1
 10
87.542410
 20
143.601850
 30
0.0
 10
87.542410
 20
143.547150
 30
0.0
 10
87.585380
 20
143.500290
 30
0.0
 10
87.643973
 20
143.500290
 30
0.0
  0
LINE
  5
237
100
AcDbEntity
  8
0
 62
7
100
AcDbLine
 10
87.643973
 20
143.500290
 30
0.0
 11
90.643973
 21
143.500290
 31
0.0
  0
SPLINE
  5
238
100
AcDbEntity
  8
0
 62
7
100
AcDbSpline
 70
8
 71
3
 72
8
 73
4
 74
0
 40
0
 40
0
 40
0
 40
0
 40
1
 40
1
 40
1
 40
1
 10
90.643973
 20
143.500290
 30
0.0
 10
90.589283
 20
143.500290
 30
0.0
 10
90.542410
 20
143.543290
 30
0.0
 10
90.542410
 20
143.601850
 30
0.0
  0
LINE
  5
239
100
AcDbEntity
  8
0
 62
7
100
AcDbLine
 10
90.542410
 20
143.601850
 30
0.0
 11
90.542410
 21
134.601850
 31
0.0
  0
SPLINE
  5
23a
100
AcDbEntity
  8
0
 62
7
100
AcDbSpline
 70
8
 71
3
 72
8
 73
4
 74
0
 40
0
 40
0
 40
0
 40
0
 40
1
 40
1
 40
1
 40
1
 10
90.542410
 20
134.601850
 30
0.0
 10
90.542410
 20
134.656550
 30
0.0
 10
90.585380
 20
134.703410
 30
0.0
 10
90.643973
 20
134.703410
 30
0.0
  0
LINE
  5
23b
100
AcDbEntity
  8
0
 62
7
100
AcDbLine
 10
90.643973
 20
134.703410
 30
0.0
 11
87.643973
 21
134.703410
 31
0.0
  0
SPLINE
  5
23c
100
AcDbEntity
  8
0
 62
7
100
AcDbSpline
 70
8
 71
3
 72
8
 73
4
 74
0
 40
0
 40
0
 40
0
 40
0
 40
1
 40
1
 40
1
 40
1
 10
87.643973
 20
134.703410
 30
0.0
 10
87.589283
 20
134.703410
 30
0.0
 10
87.542410
 20
134.660410
 30
0.0
 10
87.542410
 20
134.601850
 30
0.0
  0
LINE
  5
23d
100
AcDbEntity
  8
0
 62
7
100
AcDbLine
 10
87.542410
 20
134.601850
 30
0.0
 11
87.542410
 21
119.601850
 31
0.0
  0
SPLINE
  5
23e
100
AcDbEntity
  8
0
 62
7
100
AcDbSpline
 70
8
 71
3
 72
8
 73
4
 74
0
 40
0
 40
0
 40
0
 40
0
 40
1
 40
1
 40
1
 40
1
 10
87.542410
 20
119.601850
 30
0.0
 10
87.542410
 20
119.547150
 30
0.0
 10
87.585380
 20
119.500290
 30
0.0
 10
87.643973
 20
119.500290
 30
0.0
  0
LINE
  5
23f
100
AcDbEntity
  8
0
 62
7
100
AcDbLine
 10
87.643973
 20
119.500290
 30
0.0
 11
90.643973
 21
119.500290
 31
0.0
  0
SPLINE
  5
240
100
AcDbEntity
  8
0
 62
7
100
AcDbSpline
 70
8
 71
3
 72
8
 73
4
 74
0
 40
0
 40
0
 40
0
 40
0
 40
1
 40
1
 40
1
 40
1
 10
90.643973
 20
119.500290
 30
0.0
 10
90.589283
 20
119.500290
 30
0.0
 10
90.542410
 20
119.543290
 30
0.0
 10
90.542410
 20
119.601850
 30
0.0
  0
LINE
  5
241
100
AcDbEntity
  8
0
 62
7
100
AcDbLine
 10
90.542410
 20
119.601850
 30
0.0
 11
90.542410
 21
108.101850
 31
0.0
  0
SPLINE
  5
242
100
AcDbEntity
  8
0
 62
7
100
AcDbSpline
 70
8
 71
3
 72
8
 73
4
 74
0
 40
0
 40
0
 40
0
 40
0
 40
1
 40
1
 40
1
 40
1
 10
90.542410
 20
108.101850
 30
0.0
 10
90.542411
 20
108.047150
 30
0.0
 10
90.585380
 20
108.000290
 30
0.0
 10
90.643973
 20
108.000290
 30
0.0
  0
LINE
  5
243
100
AcDbEntity
  8
0
 62
7
100
AcDbLine
 10
90.643973
 20
108.000290
 30
0.0
 11
90.643973
 21
108.000290
 31
0.0
  0
SPLINE
  5
244
100
AcDbEntity
  8
0
 62
7
100
AcDbSpline
 70
8
 71
3
 72
8
 73
4
 74
0
 40
0
 40
0
 40
0
 40
0
 40
1
 40
1
 40
1
 40
1
 10
131.466360
 20
183.629401
 30
0.0
 10
126.957350
 20
180.380961
 30
0.0
 10
123.030700
 20
176.696161
 30
0.0
 10
120.558250
 20
171.799881
 30
0.0
  0
LINE
  5
245
100
AcDbEntity
  8
0
 62
7
100
AcDbLine
 10
120.558250
 20
171.799881
 30
0.0
 11
122.304040
 21
178.732451
 31
0.0
  0
SPLINE
  5
246
100
AcDbEntity
  8
0
 62
7
100
AcDbSpline
 70
8
 71
3
 72
8
 73
4
 74
0
 40
0
 40
0
 40
0
 40
0
 40
1
 40
1
 40
1
 40
1
 10
122.304040
 20
178.732451
 30
0.0
 10
119.690750
 20
174.076031
 30
0.0
 10
118.016630
 20
169.378481
 30
0.0
 10
117.444420
 20
164.670311
 30
0.0
  0
LINE
  5
247
100
AcDbEntity
  8
0
 62
7
100
AcDbLine
 10
117.444420
 20
164.670311
 30
0.0
 11
113.820500
 21
166.903621
 31
0.0
  0
LINE
  5
248
100
AcDbEntity
  8
0
 62
7
100
AcDbLine
 10
113.820500
 20
166.903621
 30
0.0
 11
113.190280
 21
166.418281
 31
0.0
  0
SPLINE
  5
249
100
AcDbEntity
  8
0
 62
7
100
AcDbSpline
 70
8
 71
3
 72
8
 73
4
 74
0
 40
0
 40
0
 40
0
 40
0
 40
1
 40
1
 40
1
 40
1
 10
113.190280
 20
166.418281
 30
0.0
 10
116.341800
 20
160.746361
 30
0.0
 10
114.693360
 20
157.740991
 30
0.0
 10
113.141680
 20
156.674271
 30
0.0
  0
SPLINE
  5
24a
100
AcDbEntity
  8
0
 62
7
100
AcDbSpline
 70
8
 71
3
 72
8
 73
4
 74
0
 40
0
 40
0
 40
0
 40
0
 40
1
 40
1
 40
1
 40
1
 10
113.141680
 20
156.674271
 30
0.0
 10
109.990140
 20
154.492551
 30
0.0
 10
105.384060
 20
151.777521
 30
0.0
 10
103.105770
 20
149.401961
 30
0.0
  0
SPLINE
  5
24b
100
AcDbEntity
  8
0
 62
7
100
AcDbSpline
 70
8
 71
3
 72
8
 73
4
 74
0
 40
0
 40
0
 40
0
 40
0
 40
1
 40
1
 40
1
 40
1
 10
103.105770
 20
149.401961
 30
0.0
 10
98.693690
 20
144.893321
 30
0.0
 10
97.433250
 20
140.578181
 30
0.0
 10
97.821250
 20
134.905901
 30
0.0
  0
SPLINE
  5
24c
100
AcDbEntity
  8
0
 62
7
100
AcDbSpline
 70
8
 71
3
 72
8
 73
4
 74
0
 40
0
 40
0
 40
0
 40
0
 40
1
 40
1
 40
1
 40
1
 10
97.821250
 20
134.905901
 30
0.0
 10
98.257520
 20
127.633371
 30
0.0
 10
103.542040
 20
121.573451
 30
0.0
 10
110.620050
 20
119.197911
 30
0.0
  0
SPLINE
  5
24d
100
AcDbEntity
  8
0
 62
7
100
AcDbSpline
 70
8
 71
3
 72
8
 73
4
 74
0
 40
0
 40
0
 40
0
 40
0
 40
1
 40
1
 40
1
 40
1
 10
110.620050
 20
119.197911
 30
0.0
 10
113.722590
 20
118.179461
 30
0.0
 10
116.583220
 20
118.034501
 30
0.0
 10
119.783040
 20
118.034501
 30
0.0
  0
SPLINE
  5
24e
100
AcDbEntity
  8
0
 62
7
100
AcDbSpline
 70
8
 71
3
 72
8
 73
4
 74
0
 40
0
 40
0
 40
0
 40
0
 40
1
 40
1
 40
1
 40
1
 10
119.783040
 20
118.034501
 30
0.0
 10
124.922140
 20
118.034501
 30
0.0
 10
130.206540
 20
119.391911
 30
0.0
 10
134.036450
 20
122.591741
 30
0.0
  0
SPLINE
  5
24f
100
AcDbEntity
  8
0
 62
7
100
AcDbSpline
 70
8
 71
3
 72
8
 73
4
 74
0
 40
0
 40
0
 40
0
 40
0
 40
1
 40
1
 40
1
 40
1
 10
134.036450
 20
122.591741
 30
0.0
 10
138.108820
 20
125.985371
 30
0.0
 10
140.532930
 20
131.075541
 30
0.0
 10
140.532930
 20
136.359811
 30
0.0
  0
SPLINE
  5
250
100
AcDbEntity
  8
0
 62
7
100
AcDbSpline
 70
8
 71
3
 72
8
 73
4
 74
0
 40
0
 40
0
 40
0
 40
0
 40
1
 40
1
 40
1
 40
1
 10
140.532930
 20
136.359811
 30
0.0
 10
140.532930
 20
141.692721
 30
0.0
 10
138.302670
 20
146.735241
 30
0.0
 10
134.375490
 20
150.322711
 30
0.0
  0
SPLINE
  5
251
100
AcDbEntity
  8
0
 62
7
100
AcDbSpline
 70
8
 71
3
 72
8
 73
4
 74
0
 40
0
 40
0
 40
0
 40
0
 40
1
 40
1
 40
1
 40
1
 10
134.375490
 20
150.322711
 30
0.0
 10
132.290660
 20
152.213351
 30
0.0
 10
129.672500
 20
153.764521
 30
0.0
 10
126.957570
 20
155.267521
 30
0.0
  0
SPLINE
  5
252
100
AcDbEntity
  8
0
 62
7
100
AcDbSpline
 70
8
 71
3
 72
8
 73
4
 74
0
 40
0
 40
0
 40
0
 40
0
 40
1
 40
1
 40
1
 40
1
 10
126.957570
 20
155.267521
 30
0.0
 10
125.745670
 20
155.946591
 30
0.0
 10
122.012690
 20
158.855171
 30
0.0
 10
123.273240
 20
163.024441
 30
0.0
  0
LINE
  5
253
100
AcDbEntity
  8
0
 62
7
100
AcDbLine
 10
123.273240
 20
163.024441
 30
0.0
 11
120.576200
 21
163.391911
 31
0.0
  0
SPLINE
  5
254
100
AcDbEntity
  8
0
 62
7
100
AcDbSpline
 70
8
 71
3
 72
8
 73
4
 74
0
 40
0
 40
0
 40
0
 40
0
 40
1
 40
1
 40
1
 40
1
 10
120.576200
 20
163.391911
 30
0.0
 10
124.322280
 20
169.256741
 30
0.0
 10
129.193220
 20
175.085421
 30
0.0
 10
135.296220
 20
180.526091
 30
0.0
  0
SPLINE
  5
255
100
AcDbEntity
  8
0
 62
7
100
AcDbSpline
 70
8
 71
3
 72
8
 73
4
 74
0
 40
0
 40
0
 40
0
 40
0
 40
1
 40
1
 40
1
 40
1
 10
135.296220
 20
180.526091
 30
0.0
 10
130.593750
 20
178.926181
 30
0.0
 10
126.424680
 20
176.502371
 30
0.0
 10
123.321760
 20
172.138921
 30
0.0
  0
SPLINE
  5
256
100
AcDbEntity
  8
0
 62
7
100
AcDbSpline
 70
8
 71
3
 72
8
 73
4
 74
0
 40
0
 40
0
 40
0
 40
0
 40
1
 40
1
 40
1
 40
1
 10
123.321760
 20
172.138921
 30
0.0
 10
125.164150
 20
175.968831
 30
0.0
 10
128.169550
 20
179.799491
 30
0.0
 10
131.466290
 20
183.629401
 30
0.0
  0
LINE
  5
257
100
AcDbEntity
  8
0
 62
7
100
AcDbLine
 10
131.466290
 20
183.629401
 30
0.0
 11
131.466360
 21
183.629401
 31
0.0
  0
LINE
  5
258
100
AcDbEntity
  8
0
 62
7
100
AcDbLine
 10
114.547790
 20
165.400481
 30
0.0
 11
117.291980
 21
164.269661
 31
0.0
  0
SPLINE
  5
259
100
AcDbEntity
  8
0
 62
7
100
AcDbSpline
 70
8
 71
3
 72
8
 73
4
 74
0
 40
0
 40
0
 40
0
 40
0
 40
1
 40
1
 40
1
 40
1
 10
117.291980
 20
164.269661
 30
0.0
 10
117.291840
 20
164.268661
 30
0.0
 10
117.291270
 20
164.266661
 30
0.0
 10
117.291270
 20
164.265661
 30
0.0
  0
LINE
  5
25a
100
AcDbEntity
  8
0
 62
7
100
AcDbLine
 10
117.291270
 20
164.265661
 30
0.0
 11
120.296850
 21
162.956661
 31
0.0
  0
SPLINE
  5
25b
100
AcDbEntity
  8
0
 62
7
100
AcDbSpline
 70
8
 71
3
 72
8
 73
4
 74
0
 40
0
 40
0
 40
0
 40
0
 40
1
 40
1
 40
1
 40
1
 10
120.296850
 20
162.956661
 30
0.0
 10
120.297560
 20
162.957661
 30
0.0
 10
120.297850
 20
162.959661
 30
0.0
 10
120.299850
 20
162.960661
 30
0.0
  0
LINE
  5
25c
100
AcDbEntity
  8
0
 62
7
100
AcDbLine
 10
120.299850
 20
162.960661
 30
0.0
 11
121.626190
 21
162.297851
 31
0.0
  0
SPLINE
  5
25d
100
AcDbEntity
  8
0
 62
7
100
AcDbSpline
 70
8
 71
3
 72
8
 73
4
 74
0
 40
0
 40
0
 40
0
 40
0
 40
1
 40
1
 40
1
 40
1
 10
121.626190
 20
162.297851
 30
0.0
 10
120.753630
 20
159.049761
 30
0.0
 10
123.420090
 20
155.655771
 30
0.0
 10
125.553180
 20
154.443841
 30
0.0
  0
SPLINE
  5
25e
100
AcDbEntity
  8
0
 62
7
100
AcDbSpline
 70
8
 71
3
 72
8
 73
4
 74
0
 40
0
 40
0
 40
0
 40
0
 40
1
 40
1
 40
1
 40
1
 10
125.553180
 20
154.443841
 30
0.0
 10
127.686270
 20
153.231581
 30
0.0
 10
131.128240
 20
150.952891
 30
0.0
 10
133.213060
 20
149.062241
 30
0.0
  0
SPLINE
  5
25f
100
AcDbEntity
  8
0
 62
7
100
AcDbSpline
 70
8
 71
3
 72
8
 73
4
 74
0
 40
0
 40
0
 40
0
 40
0
 40
1
 40
1
 40
1
 40
1
 10
133.213060
 20
149.062241
 30
0.0
 10
136.849160
 20
145.813791
 30
0.0
 10
138.788790
 20
141.208171
 30
0.0
 10
138.788790
 20
136.359811
 30
0.0
  0
SPLINE
  5
260
100
AcDbEntity
  8
0
 62
7
100
AcDbSpline
 70
8
 71
3
 72
8
 73
4
 74
0
 40
0
 40
0
 40
0
 40
0
 40
1
 40
1
 40
1
 40
1
 10
138.788790
 20
136.359811
 30
0.0
 10
138.788790
 20
131.560441
 30
0.0
 10
136.704100
 20
126.857701
 30
0.0
 10
132.971090
 20
123.755131
 30
0.0
  0
SPLINE
  5
261
100
AcDbEntity
  8
0
 62
7
100
AcDbSpline
 70
8
 71
3
 72
8
 73
4
 74
0
 40
0
 40
0
 40
0
 40
0
 40
1
 40
1
 40
1
 40
1
 10
132.971090
 20
123.755131
 30
0.0
 10
130.125490
 20
121.383851
 30
0.0
 10
125.347380
 20
119.625721
 30
0.0
 10
121.866080
 20
119.135501
 30
0.0
  0
SPLINE
  5
262
100
AcDbEntity
  8
0
 62
7
100
AcDbSpline
 70
8
 71
3
 72
8
 73
4
 74
0
 40
0
 40
0
 40
0
 40
0
 40
1
 40
1
 40
1
 40
1
 10
121.866080
 20
119.135501
 30
0.0
 10
117.310180
 20
118.910401
 30
0.0
 10
113.007490
 20
119.513051
 30
0.0
 10
109.117590
 20
121.380361
 30
0.0
  0
SPLINE
  5
263
100
AcDbEntity
  8
0
 62
7
100
AcDbSpline
 70
8
 71
3
 72
8
 73
4
 74
0
 40
0
 40
0
 40
0
 40
0
 40
1
 40
1
 40
1
 40
1
 10
109.117590
 20
121.380361
 30
0.0
 10
103.445660
 20
124.143881
 30
0.0
 10
99.664550
 20
130.058451
 30
0.0
 10
99.422100
 20
134.906451
 30
0.0
  0
SPLINE
  5
264
100
AcDbEntity
  8
0
 62
7
100
AcDbSpline
 70
8
 71
3
 72
8
 73
4
 74
0
 40
0
 40
0
 40
0
 40
0
 40
1
 40
1
 40
1
 40
1
 10
99.422100
 20
134.906451
 30
0.0
 10
98.888910
 20
144.748001
 30
0.0
 10
103.639940
 20
147.608701
 30
0.0
 10
108.003400
 20
151.196151
 30
0.0
  0
SPLINE
  5
265
100
AcDbEntity
  8
0
 62
7
100
AcDbSpline
 70
8
 71
3
 72
8
 73
4
 74
0
 40
0
 40
0
 40
0
 40
0
 40
1
 40
1
 40
1
 40
1
 10
108.003400
 20
151.196151
 30
0.0
 10
110.475850
 20
153.232321
 30
0.0
 10
113.869160
 20
154.201881
 30
0.0
 10
115.856700
 20
157.789691
 30
0.0
  0
SPLINE
  5
266
100
AcDbEntity
  8
0
 62
7
100
AcDbSpline
 70
8
 71
3
 72
8
 73
4
 74
0
 40
0
 40
0
 40
0
 40
0
 40
1
 40
1
 40
1
 40
1
 10
115.856700
 20
157.789691
 30
0.0
 10
116.244700
 20
158.564981
 30
0.0
 10
116.438590
 20
160.310541
 30
0.0
 10
116.002300
 20
162.104261
 30
0.0
  0
SPLINE
  5
267
100
AcDbEntity
  8
0
 62
7
100
AcDbSpline
 70
8
 71
3
 72
8
 73
4
 74
0
 40
0
 40
0
 40
0
 40
0
 40
1
 40
1
 40
1
 40
1
 10
116.002300
 20
162.104261
 30
0.0
 10
115.808140
 20
162.734361
 30
0.0
 10
114.887070
 20
164.916131
 30
0.0
 10
114.547710
 20
165.401031
 30
0.0
  0
LINE
  5
268
100
AcDbEntity
  8
0
 62
7
100
AcDbLine
 10
114.547710
 20
165.401031
 30
0.0
 11
114.547790
 21
165.400481
 31
0.0
  0
SPLINE
  5
269
100
AcDbEntity
  8
0
 62
7
100
AcDbSpline
 70
8
 71
3
 72
8
 73
4
 74
0
 40
0
 40
0
 40
0
 40
0
 40
1
 40
1
 40
1
 40
1
 10
119.598080
 20
137.209241
 30
0.0
 10
119.598080
 20
137.474457
 30
0.0
 10
119.492723
 20
137.728811
 30
0.0
 10
119.305187
 20
137.916348
 30
0.0
  0
SPLINE
  5
26a
100
AcDbEntity
  8
0
 62
7
100
AcDbSpline
 70
8
 71
3
 72
8
 73
4
 74
0
 40
0
 40
0
 40
0
 40
0
 40
1
 40
1
 40
1
 40
1
 10
119.305187
 20
137.916348
 30
0.0
 10
119.117650
 20
138.103884
 30
0.0
 10
118.863296
 20
138.209241
 30
0.0
 10
118.598080
 20
138.209241
 30
0.0
  0
SPLINE
  5
26b
100
AcDbEntity
  8
0
 62
7
100
AcDbSpline
 70
8
 71
3
 72
8
 73
4
 74
0
 40
0
 40
0
 40
0
 40
0
 40
1
 40
1
 40
1
 40
1
 10
118.598080
 20
138.209241
 30
0.0
 10
118.332864
 20
138.209241
 30
0.0
 10
118.078510
 20
138.103884
 30
0.0
 10
117.890973
 20
137.916348
 30
0.0
  0
SPLINE
  5
26c
100
AcDbEntity
  8
0
 62
7
100
AcDbSpline
 70
8
 71
3
 72
8
 73
4
 74
0
 40
0
 40
0
 40
0
 40
0
 40
1
 40
1
 40
1
 40
1
 10
117.890973
 20
137.916348
 30
0.0
 10
117.703437
 20
137.728811
 30
0.0
 10
117.598080
 20
137.474457
 30
0.0
 10
117.598080
 20
137.209241
 30
0.0
  0
SPLINE
  5
26d
100
AcDbEntity
  8
0
 62
7
100
AcDbSpline
 70
8
 71
3
 72
8
 73
4
 74
0
 40
0
 40
0
 40
0
 40
0
 40
1
 40
1
 40
1
 40
1
 10
117.598080
 20
137.209241
 30
0.0
 10
117.598080
 20
136.944025
 30
0.0
 10
117.703437
 20
136.689671
 30
0.0
 10
117.890973
 20
136.502134
 30
0.0
  0
SPLINE
  5
26e
100
AcDbEntity
  8
0
 62
7
100
AcDbSpline
 70
8
 71
3
 72
8
 73
4
 74
0
 40
0
 40
0
 40
0
 40
0
 40
1
 40
1
 40
1
 40
1
 10
117.890973
 20
136.502134
 30
0.0
 10
118.078510
 20
136.314598
 30
0.0
 10
118.332864
 20
136.209241
 30
0.0
 10
118.598080
 20
136.209241
 30
0.0
  0
SPLINE
  5
26f
100
AcDbEntity
  8
0
 62
7
100
AcDbSpline
 70
8
 71
3
 72
8
 73
4
 74
0
 40
0
 40
0
 40
0
 40
0
 40
1
 40
1
 40
1
 40
1
 10
118.598080
 20
136.209241
 30
0.0
 10
118.863296
 20
136.209241
 30
0.0
 10
119.117650
 20
136.314598
 30
0.0
 10
119.305187
 20
136.502134
 30
0.0
  0
SPLINE
  5
270
100
AcDbEntity
  8
0
 62
7
100
AcDbSpline
 70
8
 71
3
 72
8
 73
4
 74
0
 40
0
 40
0
 40
0
 40
0
 40
1
 40
1
 40
1
 40
1
 10
119.305187
 20
136.502134
 30
0.0
 10
119.492723
 20
136.689671
 30
0.0
 10
119.598080
 20
136.944025
 30
0.0
 10
119.598080
 20
137.209241
 30
0.0
  0
LINE
  5
271
100
AcDbEntity
  8
0
 62
7
100
AcDbLine
 10
119.598080
 20
137.209241
 30
0.0
 11
119.598080
 21
137.209241
 31
0.0
  0
SPLINE
  5
272
100
AcDbEntity
  8
0
 62
7
100
AcDbSpline
 70
8
 71
3
 72
8
 73
4
 74
0
 40
0
 40
0
 40
0
 40
0
 40
1
 40
1
 40
1
 40
1
 10
120.925410
 20
135.363581
 30
0.0
 10
120.925410
 20
135.628797
 30
0.0
 10
120.820053
 20
135.883151
 30
0.0
 10
120.632517
 20
136.070688
 30
0.0
  0
SPLINE
  5
273
100
AcDbEntity
  8
0
 62
7
100
AcDbSpline
 70
8
 71
3
 72
8
 73
4
 74
0
 40
0
 40
0
 40
0
 40
0
 40
1
 40
1
 40
1
 40
1
 10
120.632517
 20
136.070688
 30
0.0
 10
120.444980
 20
136.258224
 30
0.0
 10
120.190626
 20
136.363581
 30
0.0
 10
119.925410
 20
136.363581
 30
0.0
  0
SPLINE
  5
274
100
AcDbEntity
  8
0
 62
7
100
AcDbSpline
 70
8
 71
3
 72
8
 73
4
 74
0
 40
0
 40
0
 40
0
 40
0
 40
1
 40
1
 40
1
 40
1
 10
119.925410
 20
136.363581
 30
0.0
 10
119.660194
 20
136.363581
 30
0.0
 10
119.405840
 20
136.258224
 30
0.0
 10
119.218303
 20
136.070688
 30
0.0
  0
SPLINE
  5
275
100
AcDbEntity
  8
0
 62
7
100
AcDbSpline
 70
8
 71
3
 72
8
 73
4
 74
0
 40
0
 40
0
 40
0
 40
0
 40
1
 40
1
 40
1
 40
1
 10
119.218303
 20
136.070688
 30
0.0
 10
119.030767
 20
135.883151
 30
0.0
 10
118.925410
 20
135.628797
 30
0.0
 10
118.925410
 20
135.363581
 30
0.0
  0
SPLINE
  5
276
100
AcDbEntity
  8
0
 62
7
100
AcDbSpline
 70
8
 71
3
 72
8
 73
4
 74
0
 40
0
 40
0
 40
0
 40
0
 40
1
 40
1
 40
1
 40
1
 10
118.925410
 20
135.363581
 30
0.0
 10
118.925410
 20
135.098365
 30
0.0
 10
119.030767
 20
134.844011
 30
0.0
 10
119.218303
 20
134.656474
 30
0.0
  0
SPLINE
  5
277
100
AcDbEntity
  8
0
 62
7
100
AcDbSpline
 70
8
 71
3
 72
8
 73
4
 74
0
 40
0
 40
0
 40
0
 40
0
 40
1
 40
1
 40
1
 40
1
 10
119.218303
 20
134.656474
 30
0.0
 10
119.405840
 20
134.468938
 30
0.0
 10
119.660194
 20
134.363581
 30
0.0
 10
119.925410
 20
134.363581
 30
0.0
  0
SPLINE
  5
278
100
AcDbEntity
  8
0
 62
7
100
AcDbSpline
 70
8
 71
3
 72
8
 73
4
 74
0
 40
0
 40
0
 40
0
 40
0
 40
1
 40
1
 40
1
 40
1
 10
119.925410
 20
134.363581
 30
0.0
 10
120.190626
 20
134.363581
 30
0.0
 10
120.444980
 20
134.468938
 30
0.0
 10
120.632517
 20
134.656474
 30
0.0
  0
SPLINE
  5
279
100
AcDbEntity
  8
0
 62
7
100
AcDbSpline
 70
8
 71
3
 72
8
 73
4
 74
0
 40
0
 40
0
 40
0
 40
0
 40
1
 40
1
 40
1
 40
1
 10
120.632517
 20
134.656474
 30
0.0
 10
120.820053
 20
134.844011
 30
0.0
 10
120.925410
 20
135.098365
 30
0.0
 10
120.925410
 20
135.363581
 30
0.0
  0
LINE
  5
27a
100
AcDbEntity
  8
0
 62
7
100
AcDbLine
 10
120.925410
 20
135.363581
 30
0.0
 11
120.925410
 21
135.363581
 31
0.0
  0
SPLINE
  5
27b
100
AcDbEntity
  8
0
 62
7
100
AcDbSpline
 70
8
 71
3
 72
8
 73
4
 74
0
 40
0
 40
0
 40
0
 40
0
 40
1
 40
1
 40
1
 40
1
 10
117.296970
 20
135.417041
 30
0.0
 10
117.296973
 20
135.682259
 30
0.0
 10
117.191617
 20
135.936616
 30
0.0
 10
117.004080
 20
136.124154
 30
0.0
  0
SPLINE
  5
27c
100
AcDbEntity
  8
0
 62
7
100
AcDbSpline
 70
8
 71
3
 72
8
 73
4
 74
0
 40
0
 40
0
 40
0
 40
0
 40
1
 40
1
 40
1
 40
1
 10
117.004080
 20
136.124154
 30
0.0
 10
116.816544
 20
136.311693
 30
0.0
 10
116.562188
 20
136.417051
 30
0.0
 10
116.296970
 20
136.417051
 30
0.0
  0
SPLINE
  5
27d
100
AcDbEntity
  8
0
 62
7
100
AcDbSpline
 70
8
 71
3
 72
8
 73
4
 74
0
 40
0
 40
0
 40
0
 40
0
 40
1
 40
1
 40
1
 40
1
 10
116.296970
 20
136.417051
 30
0.0
 10
116.031752
 20
136.417051
 30
0.0
 10
115.777396
 20
136.311693
 30
0.0
 10
115.589860
 20
136.124154
 30
0.0
  0
SPLINE
  5
27e
100
AcDbEntity
  8
0
 62
7
100
AcDbSpline
 70
8
 71
3
 72
8
 73
4
 74
0
 40
0
 40
0
 40
0
 40
0
 40
1
 40
1
 40
1
 40
1
 10
115.589860
 20
136.124154
 30
0.0
 10
115.402323
 20
135.936616
 30
0.0
 10
115.296967
 20
135.682259
 30
0.0
 10
115.296970
 20
135.417041
 30
0.0
  0
SPLINE
  5
27f
100
AcDbEntity
  8
0
 62
7
100
AcDbSpline
 70
8
 71
3
 72
8
 73
4
 74
0
 40
0
 40
0
 40
0
 40
0
 40
1
 40
1
 40
1
 40
1
 10
115.296970
 20
135.417041
 30
0.0
 10
115.296970
 20
135.151825
 30
0.0
 10
115.402327
 20
134.897471
 30
0.0
 10
115.589863
 20
134.709934
 30
0.0
  0
SPLINE
  5
280
100
AcDbEntity
  8
0
 62
7
100
AcDbSpline
 70
8
 71
3
 72
8
 73
4
 74
0
 40
0
 40
0
 40
0
 40
0
 40
1
 40
1
 40
1
 40
1
 10
115.589863
 20
134.709934
 30
0.0
 10
115.777400
 20
134.522398
 30
0.0
 10
116.031754
 20
134.417041
 30
0.0
 10
116.296970
 20
134.417041
 30
0.0
  0
SPLINE
  5
281
100
AcDbEntity
  8
0
 62
7
100
AcDbSpline
 70
8
 71
3
 72
8
 73
4
 74
0
 40
0
 40
0
 40
0
 40
0
 40
1
 40
1
 40
1
 40
1
 10
116.296970
 20
134.417041
 30
0.0
 10
116.562186
 20
134.417041
 30
0.0
 10
116.816540
 20
134.522398
 30
0.0
 10
117.004077
 20
134.709934
 30
0.0
  0
SPLINE
  5
282
100
AcDbEntity
  8
0
 62
7
100
AcDbSpline
 70
8
 71
3
 72
8
 73
4
 74
0
 40
0
 40
0
 40
0
 40
0
 40
1
 40
1
 40
1
 40
1
 10
117.004077
 20
134.709934
 30
0.0
 10
117.191613
 20
134.897471
 30
0.0
 10
117.296970
 20
135.151825
 30
0.0
 10
117.296970
 20
135.417041
 30
0.0
  0
LINE
  5
283
100
AcDbEntity
  8
0
 62
7
100
AcDbLine
 10
117.296970
 20
135.417041
 30
0.0
 11
117.296970
 21
135.417041
 31
0.0
  0
SPLINE
  5
284
100
AcDbEntity
  8
0
 62
7
100
AcDbSpline
 70
8
 71
3
 72
8
 73
4
 74
0
 40
0
 40
0
 40
0
 40
0
 40
1
 40
1
 40
1
 40
1
 10
116.676700
 20
139.101051
 30
0.0
 10
116.676700
 20
139.366267
 30
0.0
 10
116.571343
 20
139.620621
 30
0.0
 10
116.383807
 20
139.808158
 30
0.0
  0
SPLINE
  5
285
100
AcDbEntity
  8
0
 62
7
100
AcDbSpline
 70
8
 71
3
 72
8
 73
4
 74
0
 40
0
 40
0
 40
0
 40
0
 40
1
 40
1
 40
1
 40
1
 10
116.383807
 20
139.808158
 30
0.0
 10
116.196270
 20
139.995694
 30
0.0
 10
115.941916
 20
140.101051
 30
0.0
 10
115.676700
 20
140.101051
 30
0.0
  0
SPLINE
  5
286
100
AcDbEntity
  8
0
 62
7
100
AcDbSpline
 70
8
 71
3
 72
8
 73
4
 74
0
 40
0
 40
0
 40
0
 40
0
 40
1
 40
1
 40
1
 40
1
 10
115.676700
 20
140.101051
 30
0.0
 10
115.411484
 20
140.101051
 30
0.0
 10
115.157130
 20
139.995694
 30
0.0
 10
114.969593
 20
139.808158
 30
0.0
  0
SPLINE
  5
287
100
AcDbEntity
  8
0
 62
7
100
AcDbSpline
 70
8
 71
3
 72
8
 73
4
 74
0
 40
0
 40
0
 40
0
 40
0
 40
1
 40
1
 40
1
 40
1
 10
114.969593
 20
139.808158
 30
0.0
 10
114.782057
 20
139.620621
 30
0.0
 10
114.676700
 20
139.366267
 30
0.0
 10
114.676700
 20
139.101051
 30
0.0
  0
SPLINE
  5
288
100
AcDbEntity
  8
0
 62
7
100
AcDbSpline
 70
8
 71
3
 72
8
 73
4
 74
0
 40
0
 40
0
 40
0
 40
0
 40
1
 40
1
 40
1
 40
1
 10
114.676700
 20
139.101051
 30
0.0
 10
114.676700
 20
138.835835
 30
0.0
 10
114.782057
 20
138.581481
 30
0.0
 10
114.969593
 20
138.393944
 30
0.0
  0
SPLINE
  5
289
100
AcDbEntity
  8
0
 62
7
100
AcDbSpline
 70
8
 71
3
 72
8
 73
4
 74
0
 40
0
 40
0
 40
0
 40
0
 40
1
 40
1
 40
1
 40
1
 10
114.969593
 20
138.393944
 30
0.0
 10
115.157130
 20
138.206408
 30
0.0
 10
115.411484
 20
138.101051
 30
0.0
 10
115.676700
 20
138.101051
 30
0.0
  0
SPLINE
  5
28a
100
AcDbEntity
  8
0
 62
7
100
AcDbSpline
 70
8
 71
3
 72
8
 73
4
 74
0
 40
0
 40
0
 40
0
 40
0
 40
1
 40
1
 40
1
 40
1
 10
115.676700
 20
138.101051
 30
0.0
 10
115.941916
 20
138.101051
 30
0.0
 10
116.196270
 20
138.206408
 30
0.0
 10
116.383807
 20
138.393944
 30
0.0
  0
SPLINE
  5
28b
100
AcDbEntity
  8
0
 62
7
100
AcDbSpline
 70
8
 71
3
 72
8
 73
4
 74
0
 40
0
 40
0
 40
0
 40
0
 40
1
 40
1
 40
1
 40
1
 10
116.383807
 20
138.393944
 30
0.0
 10
116.571343
 20
138.581481
 30
0.0
 10
116.676700
 20
138.835835
 30
0.0
 10
116.676700
 20
139.101051
 30
0.0
  0
LINE
  5
28c
100
AcDbEntity
  8
0
 62
7
100
AcDbLine
 10
116.676700
 20
139.101051
 30
0.0
 11
116.676700
 21
139.101051
 31
0.0
  0
SPLINE
  5
28d
100
AcDbEntity
  8
0
 62
7
100
AcDbSpline
 70
8
 71
3
 72
8
 73
4
 74
0
 40
0
 40
0
 40
0
 40
0
 40
1
 40
1
 40
1
 40
1
 10
119.903410
 20
141.078541
 30
0.0
 10
119.903410
 20
141.343757
 30
0.0
 10
119.798053
 20
141.598111
 30
0.0
 10
119.610517
 20
141.785648
 30
0.0
  0
SPLINE
  5
28e
100
AcDbEntity
  8
0
 62
7
100
AcDbSpline
 70
8
 71
3
 72
8
 73
4
 74
0
 40
0
 40
0
 40
0
 40
0
 40
1
 40
1
 40
1
 40
1
 10
119.610517
 20
141.785648
 30
0.0
 10
119.422980
 20
141.973184
 30
0.0
 10
119.168626
 20
142.078541
 30
0.0
 10
118.903410
 20
142.078541
 30
0.0
  0
SPLINE
  5
28f
100
AcDbEntity
  8
0
 62
7
100
AcDbSpline
 70
8
 71
3
 72
8
 73
4
 74
0
 40
0
 40
0
 40
0
 40
0
 40
1
 40
1
 40
1
 40
1
 10
118.903410
 20
142.078541
 30
0.0
 10
118.638194
 20
142.078541
 30
0.0
 10
118.383840
 20
141.973184
 30
0.0
 10
118.196303
 20
141.785648
 30
0.0
  0
SPLINE
  5
290
100
AcDbEntity
  8
0
 62
7
100
AcDbSpline
 70
8
 71
3
 72
8
 73
4
 74
0
 40
0
 40
0
 40
0
 40
0
 40
1
 40
1
 40
1
 40
1
 10
118.196303
 20
141.785648
 30
0.0
 10
118.008767
 20
141.598111
 30
0.0
 10
117.903410
 20
141.343757
 30
0.0
 10
117.903410
 20
141.078541
 30
0.0
  0
SPLINE
  5
291
100
AcDbEntity
  8
0
 62
7
100
AcDbSpline
 70
8
 71
3
 72
8
 73
4
 74
0
 40
0
 40
0
 40
0
 40
0
 40
1
 40
1
 40
1
 40
1
 10
117.903410
 20
141.078541
 30
0.0
 10
117.903407
 20
140.813323
 30
0.0
 10
118.008763
 20
140.558966
 30
0.0
 10
118.196300
 20
140.371428
 30
0.0
  0
SPLINE
  5
292
100
AcDbEntity
  8
0
 62
7
100
AcDbSpline
 70
8
 71
3
 72
8
 73
4
 74
0
 40
0
 40
0
 40
0
 40
0
 40
1
 40
1
 40
1
 40
1
 10
118.196300
 20
140.371428
 30
0.0
 10
118.383836
 20
140.183889
 30
0.0
 10
118.638192
 20
140.078531
 30
0.0
 10
118.903410
 20
140.078531
 30
0.0
  0
SPLINE
  5
293
100
AcDbEntity
  8
0
 62
7
100
AcDbSpline
 70
8
 71
3
 72
8
 73
4
 74
0
 40
0
 40
0
 40
0
 40
0
 40
1
 40
1
 40
1
 40
1
 10
118.903410
 20
140.078531
 30
0.0
 10
119.168628
 20
140.078531
 30
0.0
 10
119.422984
 20
140.183889
 30
0.0
 10
119.610520
 20
140.371428
 30
0.0
  0
SPLINE
  5
294
100
AcDbEntity
  8
0
 62
7
100
AcDbSpline
 70
8
 71
3
 72
8
 73
4
 74
0
 40
0
 40
0
 40
0
 40
0
 40
1
 40
1
 40
1
 40
1
 10
119.610520
 20
140.371428
 30
0.0
 10
119.798057
 20
140.558966
 30
0.0
 10
119.903413
 20
140.813323
 30
0.0
 10
119.903410
 20
141.078541
 30
0.0
  0
LINE
  5
295
100
AcDbEntity
  8
0
 62
7
100
AcDbLine
 10
119.903410
 20
141.078541
 30
0.0
 11
119.903410
 21
141.078541
 31
0.0
  0
SPLINE
  5
296
100
AcDbEntity
  8
0
 62
7
100
AcDbSpline
 70
8
 71
3
 72
8
 73
4
 74
0
 40
0
 40
0
 40
0
 40
0
 40
1
 40
1
 40
1
 40
1
 10
123.261710
 20
139.235201
 30
0.0
 10
123.261710
 20
139.500417
 30
0.0
 10
123.156353
 20
139.754771
 30
0.0
 10
122.968817
 20
139.942308
 30
0.0
  0
SPLINE
  5
297
100
AcDbEntity
  8
0
 62
7
100
AcDbSpline
 70
8
 71
3
 72
8
 73
4
 74
0
 40
0
 40
0
 40
0
 40
0
 40
1
 40
1
 40
1
 40
1
 10
122.968817
 20
139.942308
 30
0.0
 10
122.781280
 20
140.129844
 30
0.0
 10
122.526926
 20
140.235201
 30
0.0
 10
122.261710
 20
140.235201
 30
0.0
  0
SPLINE
  5
298
100
AcDbEntity
  8
0
 62
7
100
AcDbSpline
 70
8
 71
3
 72
8
 73
4
 74
0
 40
0
 40
0
 40
0
 40
0
 40
1
 40
1
 40
1
 40
1
 10
122.261710
 20
140.235201
 30
0.0
 10
121.996494
 20
140.235201
 30
0.0
 10
121.742140
 20
140.129844
 30
0.0
 10
121.554603
 20
139.942308
 30
0.0
  0
SPLINE
  5
299
100
AcDbEntity
  8
0
 62
7
100
AcDbSpline
 70
8
 71
3
 72
8
 73
4
 74
0
 40
0
 40
0
 40
0
 40
0
 40
1
 40
1
 40
1
 40
1
 10
121.554603
 20
139.942308
 30
0.0
 10
121.367067
 20
139.754771
 30
0.0
 10
121.261710
 20
139.500417
 30
0.0
 10
121.261710
 20
139.235201
 30
0.0
  0
SPLINE
  5
29a
100
AcDbEntity
  8
0
 62
7
100
AcDbSpline
 70
8
 71
3
 72
8
 73
4
 74
0
 40
0
 40
0
 40
0
 40
0
 40
1
 40
1
 40
1
 40
1
 10
121.261710
 20
139.235201
 30
0.0
 10
121.261710
 20
138.969985
 30
0.0
 10
121.367067
 20
138.715631
 30
0.0
 10
121.554603
 20
138.528094
 30
0.0
  0
SPLINE
  5
29b
100
AcDbEntity
  8
0
 62
7
100
AcDbSpline
 70
8
 71
3
 72
8
 73
4
 74
0
 40
0
 40
0
 40
0
 40
0
 40
1
 40
1
 40
1
 40
1
 10
121.554603
 20
138.528094
 30
0.0
 10
121.742140
 20
138.340558
 30
0.0
 10
121.996494
 20
138.235201
 30
0.0
 10
122.261710
 20
138.235201
 30
0.0
  0
SPLINE
  5
29c
100
AcDbEntity
  8
0
 62
7
100
AcDbSpline
 70
8
 71
3
 72
8
 73
4
 74
0
 40
0
 40
0
 40
0
 40
0
 40
1
 40
1
 40
1
 40
1
 10
122.261710
 20
138.235201
 30
0.0
 10
122.526926
 20
138.235201
 30
0.0
 10
122.781280
 20
138.340558
 30
0.0
 10
122.968817
 20
138.528094
 30
0.0
  0
SPLINE
  5
29d
100
AcDbEntity
  8
0
 62
7
100
AcDbSpline
 70
8
 71
3
 72
8
 73
4
 74
0
 40
0
 40
0
 40
0
 40
0
 40
1
 40
1
 40
1
 40
1
 10
122.968817
 20
138.528094
 30
0.0
 10
123.156353
 20
138.715631
 30
0.0
 10
123.261710
 20
138.969985
 30
0.0
 10
123.261710
 20
139.235201
 30
0.0
  0
LINE
  5
29e
100
AcDbEntity
  8
0
 62
7
100
AcDbLine
 10
123.261710
 20
139.235201
 30
0.0
 11
123.261710
 21
139.235201
 31
0.0
  0
SPLINE
  5
29f
100
AcDbEntity
  8
0
 62
7
100
AcDbSpline
 70
8
 71
3
 72
8
 73
4
 74
0
 40
0
 40
0
 40
0
 40
0
 40
1
 40
1
 40
1
 40
1
 10
123.645130
 20
135.393721
 30
0.0
 10
123.645130
 20
135.658937
 30
0.0
 10
123.539773
 20
135.913291
 30
0.0
 10
123.352237
 20
136.100828
 30
0.0
  0
SPLINE
  5
2a0
100
AcDbEntity
  8
0
 62
7
100
AcDbSpline
 70
8
 71
3
 72
8
 73
4
 74
0
 40
0
 40
0
 40
0
 40
0
 40
1
 40
1
 40
1
 40
1
 10
123.352237
 20
136.100828
 30
0.0
 10
123.164700
 20
136.288364
 30
0.0
 10
122.910346
 20
136.393721
 30
0.0
 10
122.645130
 20
136.393721
 30
0.0
  0
SPLINE
  5
2a1
100
AcDbEntity
  8
0
 62
7
100
AcDbSpline
 70
8
 71
3
 72
8
 73
4
 74
0
 40
0
 40
0
 40
0
 40
0
 40
1
 40
1
 40
1
 40
1
 10
122.645130
 20
136.393721
 30
0.0
 10
122.379914
 20
136.393721
 30
0.0
 10
122.125560
 20
136.288364
 30
0.0
 10
121.938023
 20
136.100828
 30
0.0
  0
SPLINE
  5
2a2
100
AcDbEntity
  8
0
 62
7
100
AcDbSpline
 70
8
 71
3
 72
8
 73
4
 74
0
 40
0
 40
0
 40
0
 40
0
 40
1
 40
1
 40
1
 40
1
 10
121.938023
 20
136.100828
 30
0.0
 10
121.750487
 20
135.913291
 30
0.0
 10
121.645130
 20
135.658937
 30
0.0
 10
121.645130
 20
135.393721
 30
0.0
  0
SPLINE
  5
2a3
100
AcDbEntity
  8
0
 62
7
100
AcDbSpline
 70
8
 71
3
 72
8
 73
4
 74
0
 40
0
 40
0
 40
0
 40
0
 40
1
 40
1
 40
1
 40
1
 10
121.645130
 20
135.393721
 30
0.0
 10
121.645130
 20
135.128505
 30
0.0
 10
121.750487
 20
134.874151
 30
0.0
 10
121.938023
 20
134.686614
 30
0.0
  0
SPLINE
  5
2a4
100
AcDbEntity
  8
0
 62
7
100
AcDbSpline
 70
8
 71
3
 72
8
 73
4
 74
0
 40
0
 40
0
 40
0
 40
0
 40
1
 40
1
 40
1
 40
1
 10
121.938023
 20
134.686614
 30
0.0
 10
122.125560
 20
134.499078
 30
0.0
 10
122.379914
 20
134.393721
 30
0.0
 10
122.645130
 20
134.393721
 30
0.0
  0
SPLINE
  5
2a5
100
AcDbEntity
  8
0
 62
7
100
AcDbSpline
 70
8
 71
3
 72
8
 73
4
 74
0
 40
0
 40
0
 40
0
 40
0
 40
1
 40
1
 40
1
 40
1
 10
122.645130
 20
134.393721
 30
0.0
 10
122.910346
 20
134.393721
 30
0.0
 10
123.164700
 20
134.499078
 30
0.0
 10
123.352237
 20
134.686614
 30
0.0
  0
SPLINE
  5
2a6
100
AcDbEntity
  8
0
 62
7
100
AcDbSpline
 70
8
 71
3
 72
8
 73
4
 74
0
 40
0
 40
0
 40
0
 40
0
 40
1
 40
1
 40
1
 40
1
 10
123.352237
 20
134.686614
 30
0.0
 10
123.539773
 20
134.874151
 30
0.0
 10
123.645130
 20
135.128505
 30
0.0
 10
123.645130
 20
135.393721
 30
0.0
  0
LINE
  5
2a7
100
AcDbEntity
  8
0
 62
7
100
AcDbLine
 10
123.645130
 20
135.393721
 30
0.0
 11
123.645130
 21
135.393721
 31
0.0
  0
SPLINE
  5
2a8
100
AcDbEntity
  8
0
 62
7
100
AcDbSpline
 70
8
 71
3
 72
8
 73
4
 74
0
 40
0
 40
0
 40
0
 40
0
 40
1
 40
1
 40
1
 40
1
 10
120.914830
 20
132.649581
 30
0.0
 10
120.914830
 20
132.914797
 30
0.0
 10
120.809473
 20
133.169151
 30
0.0
 10
120.621937
 20
133.356688
 30
0.0
  0
SPLINE
  5
2a9
100
AcDbEntity
  8
0
 62
7
100
AcDbSpline
 70
8
 71
3
 72
8
 73
4
 74
0
 40
0
 40
0
 40
0
 40
0
 40
1
 40
1
 40
1
 40
1
 10
120.621937
 20
133.356688
 30
0.0
 10
120.434400
 20
133.544224
 30
0.0
 10
120.180046
 20
133.649581
 30
0.0
 10
119.914830
 20
133.649581
 30
0.0
  0
SPLINE
  5
2aa
100
AcDbEntity
  8
0
 62
7
100
AcDbSpline
 70
8
 71
3
 72
8
 73
4
 74
0
 40
0
 40
0
 40
0
 40
0
 40
1
 40
1
 40
1
 40
1
 10
119.914830
 20
133.649581
 30
0.0
 10
119.649614
 20
133.649581
 30
0.0
 10
119.395260
 20
133.544224
 30
0.0
 10
119.207723
 20
133.356688
 30
0.0
  0
SPLINE
  5
2ab
100
AcDbEntity
  8
0
 62
7
100
AcDbSpline
 70
8
 71
3
 72
8
 73
4
 74
0
 40
0
 40
0
 40
0
 40
0
 40
1
 40
1
 40
1
 40
1
 10
119.207723
 20
133.356688
 30
0.0
 10
119.020187
 20
133.169151
 30
0.0
 10
118.914830
 20
132.914797
 30
0.0
 10
118.914830
 20
132.649581
 30
0.0
  0
SPLINE
  5
2ac
100
AcDbEntity
  8
0
 62
7
100
AcDbSpline
 70
8
 71
3
 72
8
 73
4
 74
0
 40
0
 40
0
 40
0
 40
0
 40
1
 40
1
 40
1
 40
1
 10
118.914830
 20
132.649581
 30
0.0
 10
118.914827
 20
132.384363
 30
0.0
 10
119.020183
 20
132.130006
 30
0.0
 10
119.207720
 20
131.942468
 30
0.0
  0
SPLINE
  5
2ad
100
AcDbEntity
  8
0
 62
7
100
AcDbSpline
 70
8
 71
3
 72
8
 73
4
 74
0
 40
0
 40
0
 40
0
 40
0
 40
1
 40
1
 40
1
 40
1
 10
119.207720
 20
131.942468
 30
0.0
 10
119.395256
 20
131.754929
 30
0.0
 10
119.649612
 20
131.649571
 30
0.0
 10
119.914830
 20
131.649571
 30
0.0
  0
SPLINE
  5
2ae
100
AcDbEntity
  8
0
 62
7
100
AcDbSpline
 70
8
 71
3
 72
8
 73
4
 74
0
 40
0
 40
0
 40
0
 40
0
 40
1
 40
1
 40
1
 40
1
 10
119.914830
 20
131.649571
 30
0.0
 10
120.180048
 20
131.649571
 30
0.0
 10
120.434404
 20
131.754929
 30
0.0
 10
120.621940
 20
131.942468
 30
0.0
  0
SPLINE
  5
2af
100
AcDbEntity
  8
0
 62
7
100
AcDbSpline
 70
8
 71
3
 72
8
 73
4
 74
0
 40
0
 40
0
 40
0
 40
0
 40
1
 40
1
 40
1
 40
1
 10
120.621940
 20
131.942468
 30
0.0
 10
120.809477
 20
132.130006
 30
0.0
 10
120.914833
 20
132.384363
 30
0.0
 10
120.914830
 20
132.649581
 30
0.0
  0
LINE
  5
2b0
100
AcDbEntity
  8
0
 62
7
100
AcDbLine
 10
120.914830
 20
132.649581
 30
0.0
 11
120.914830
 21
132.649581
 31
0.0
  0
SPLINE
  5
2b1
100
AcDbEntity
  8
0
 62
7
100
AcDbSpline
 70
8
 71
3
 72
8
 73
4
 74
0
 40
0
 40
0
 40
0
 40
0
 40
1
 40
1
 40
1
 40
1
 10
117.022540
 20
132.823501
 30
0.0
 10
117.022540
 20
133.088717
 30
0.0
 10
116.917183
 20
133.343071
 30
0.0
 10
116.729647
 20
133.530608
 30
0.0
  0
SPLINE
  5
2b2
100
AcDbEntity
  8
0
 62
7
100
AcDbSpline
 70
8
 71
3
 72
8
 73
4
 74
0
 40
0
 40
0
 40
0
 40
0
 40
1
 40
1
 40
1
 40
1
 10
116.729647
 20
133.530608
 30
0.0
 10
116.542110
 20
133.718144
 30
0.0
 10
116.287756
 20
133.823501
 30
0.0
 10
116.022540
 20
133.823501
 30
0.0
  0
SPLINE
  5
2b3
100
AcDbEntity
  8
0
 62
7
100
AcDbSpline
 70
8
 71
3
 72
8
 73
4
 74
0
 40
0
 40
0
 40
0
 40
0
 40
1
 40
1
 40
1
 40
1
 10
116.022540
 20
133.823501
 30
0.0
 10
115.757324
 20
133.823501
 30
0.0
 10
115.502970
 20
133.718144
 30
0.0
 10
115.315433
 20
133.530608
 30
0.0
  0
SPLINE
  5
2b4
100
AcDbEntity
  8
0
 62
7
100
AcDbSpline
 70
8
 71
3
 72
8
 73
4
 74
0
 40
0
 40
0
 40
0
 40
0
 40
1
 40
1
 40
1
 40
1
 10
115.315433
 20
133.530608
 30
0.0
 10
115.127897
 20
133.343071
 30
0.0
 10
115.022540
 20
133.088717
 30
0.0
 10
115.022540
 20
132.823501
 30
0.0
  0
SPLINE
  5
2b5
100
AcDbEntity
  8
0
 62
7
100
AcDbSpline
 70
8
 71
3
 72
8
 73
4
 74
0
 40
0
 40
0
 40
0
 40
0
 40
1
 40
1
 40
1
 40
1
 10
115.022540
 20
132.823501
 30
0.0
 10
115.022540
 20
132.558285
 30
0.0
 10
115.127897
 20
132.303931
 30
0.0
 10
115.315433
 20
132.116394
 30
0.0
  0
SPLINE
  5
2b6
100
AcDbEntity
  8
0
 62
7
100
AcDbSpline
 70
8
 71
3
 72
8
 73
4
 74
0
 40
0
 40
0
 40
0
 40
0
 40
1
 40
1
 40
1
 40
1
 10
115.315433
 20
132.116394
 30
0.0
 10
115.502970
 20
131.928858
 30
0.0
 10
115.757324
 20
131.823501
 30
0.0
 10
116.022540
 20
131.823501
 30
0.0
  0
SPLINE
  5
2b7
100
AcDbEntity
  8
0
 62
7
100
AcDbSpline
 70
8
 71
3
 72
8
 73
4
 74
0
 40
0
 40
0
 40
0
 40
0
 40
1
 40
1
 40
1
 40
1
 10
116.022540
 20
131.823501
 30
0.0
 10
116.287756
 20
131.823501
 30
0.0
 10
116.542110
 20
131.928858
 30
0.0
 10
116.729647
 20
132.116394
 30
0.0
  0
SPLINE
  5
2b8
100
AcDbEntity
  8
0
 62
7
100
AcDbSpline
 70
8
 71
3
 72
8
 73
4
 74
0
 40
0
 40
0
 40
0
 40
0
 40
1
 40
1
 40
1
 40
1
 10
116.729647
 20
132.116394
 30
0.0
 10
116.917183
 20
132.303931
 30
0.0
 10
117.022540
 20
132.558285
 30
0.0
 10
117.022540
 20
132.823501
 30
0.0
  0
LINE
  5
2b9
100
AcDbEntity
  8
0
 62
7
100
AcDbLine
 10
117.022540
 20
132.823501
 30
0.0
 11
117.022540
 21
132.823501
 31
0.0
  0
SPLINE
  5
2ba
100
AcDbEntity
  8
0
 62
7
100
AcDbSpline
 70
8
 71
3
 72
8
 73
4
 74
0
 40
0
 40
0
 40
0
 40
0
 40
1
 40
1
 40
1
 40
1
 10
114.373770
 20
135.682671
 30
0.0
 10
114.373770
 20
135.947887
 30
0.0
 10
114.268413
 20
136.202241
 30
0.0
 10
114.080877
 20
136.389778
 30
0.0
  0
SPLINE
  5
2bb
100
AcDbEntity
  8
0
 62
7
100
AcDbSpline
 70
8
 71
3
 72
8
 73
4
 74
0
 40
0
 40
0
 40
0
 40
0
 40
1
 40
1
 40
1
 40
1
 10
114.080877
 20
136.389778
 30
0.0
 10
113.893340
 20
136.577314
 30
0.0
 10
113.638986
 20
136.682671
 30
0.0
 10
113.373770
 20
136.682671
 30
0.0
  0
SPLINE
  5
2bc
100
AcDbEntity
  8
0
 62
7
100
AcDbSpline
 70
8
 71
3
 72
8
 73
4
 74
0
 40
0
 40
0
 40
0
 40
0
 40
1
 40
1
 40
1
 40
1
 10
113.373770
 20
136.682671
 30
0.0
 10
113.108554
 20
136.682671
 30
0.0
 10
112.854200
 20
136.577314
 30
0.0
 10
112.666663
 20
136.389778
 30
0.0
  0
SPLINE
  5
2bd
100
AcDbEntity
  8
0
 62
7
100
AcDbSpline
 70
8
 71
3
 72
8
 73
4
 74
0
 40
0
 40
0
 40
0
 40
0
 40
1
 40
1
 40
1
 40
1
 10
112.666663
 20
136.389778
 30
0.0
 10
112.479127
 20
136.202241
 30
0.0
 10
112.373770
 20
135.947887
 30
0.0
 10
112.373770
 20
135.682671
 30
0.0
  0
SPLINE
  5
2be
100
AcDbEntity
  8
0
 62
7
100
AcDbSpline
 70
8
 71
3
 72
8
 73
4
 74
0
 40
0
 40
0
 40
0
 40
0
 40
1
 40
1
 40
1
 40
1
 10
112.373770
 20
135.682671
 30
0.0
 10
112.373767
 20
135.417453
 30
0.0
 10
112.479123
 20
135.163096
 30
0.0
 10
112.666660
 20
134.975558
 30
0.0
  0
SPLINE
  5
2bf
100
AcDbEntity
  8
0
 62
7
100
AcDbSpline
 70
8
 71
3
 72
8
 73
4
 74
0
 40
0
 40
0
 40
0
 40
0
 40
1
 40
1
 40
1
 40
1
 10
112.666660
 20
134.975558
 30
0.0
 10
112.854196
 20
134.788019
 30
0.0
 10
113.108552
 20
134.682661
 30
0.0
 10
113.373770
 20
134.682661
 30
0.0
  0
SPLINE
  5
2c0
100
AcDbEntity
  8
0
 62
7
100
AcDbSpline
 70
8
 71
3
 72
8
 73
4
 74
0
 40
0
 40
0
 40
0
 40
0
 40
1
 40
1
 40
1
 40
1
 10
113.373770
 20
134.682661
 30
0.0
 10
113.638988
 20
134.682661
 30
0.0
 10
113.893344
 20
134.788019
 30
0.0
 10
114.080880
 20
134.975558
 30
0.0
  0
SPLINE
  5
2c1
100
AcDbEntity
  8
0
 62
7
100
AcDbSpline
 70
8
 71
3
 72
8
 73
4
 74
0
 40
0
 40
0
 40
0
 40
0
 40
1
 40
1
 40
1
 40
1
 10
114.080880
 20
134.975558
 30
0.0
 10
114.268417
 20
135.163096
 30
0.0
 10
114.373773
 20
135.417453
 30
0.0
 10
114.373770
 20
135.682671
 30
0.0
  0
LINE
  5
2c2
100
AcDbEntity
  8
0
 62
7
100
AcDbLine
 10
114.373770
 20
135.682671
 30
0.0
 11
114.373770
 21
135.682671
 31
0.0
  0
SPLINE
  5
2c3
100
AcDbEntity
  8
0
 62
7
100
AcDbSpline
 70
8
 71
3
 72
8
 73
4
 74
0
 40
0
 40
0
 40
0
 40
0
 40
1
 40
1
 40
1
 40
1
 10
114.353730
 20
139.597411
 30
0.0
 10
114.353730
 20
139.862627
 30
0.0
 10
114.248373
 20
140.116981
 30
0.0
 10
114.060837
 20
140.304518
 30
0.0
  0
SPLINE
  5
2c4
100
AcDbEntity
  8
0
 62
7
100
AcDbSpline
 70
8
 71
3
 72
8
 73
4
 74
0
 40
0
 40
0
 40
0
 40
0
 40
1
 40
1
 40
1
 40
1
 10
114.060837
 20
140.304518
 30
0.0
 10
113.873300
 20
140.492054
 30
0.0
 10
113.618946
 20
140.597411
 30
0.0
 10
113.353730
 20
140.597411
 30
0.0
  0
SPLINE
  5
2c5
100
AcDbEntity
  8
0
 62
7
100
AcDbSpline
 70
8
 71
3
 72
8
 73
4
 74
0
 40
0
 40
0
 40
0
 40
0
 40
1
 40
1
 40
1
 40
1
 10
113.353730
 20
140.597411
 30
0.0
 10
113.088514
 20
140.597411
 30
0.0
 10
112.834160
 20
140.492054
 30
0.0
 10
112.646623
 20
140.304518
 30
0.0
  0
SPLINE
  5
2c6
100
AcDbEntity
  8
0
 62
7
100
AcDbSpline
 70
8
 71
3
 72
8
 73
4
 74
0
 40
0
 40
0
 40
0
 40
0
 40
1
 40
1
 40
1
 40
1
 10
112.646623
 20
140.304518
 30
0.0
 10
112.459087
 20
140.116981
 30
0.0
 10
112.353730
 20
139.862627
 30
0.0
 10
112.353730
 20
139.597411
 30
0.0
  0
SPLINE
  5
2c7
100
AcDbEntity
  8
0
 62
7
100
AcDbSpline
 70
8
 71
3
 72
8
 73
4
 74
0
 40
0
 40
0
 40
0
 40
0
 40
1
 40
1
 40
1
 40
1
 10
112.353730
 20
139.597411
 30
0.0
 10
112.353730
 20
139.332195
 30
0.0
 10
112.459087
 20
139.077841
 30
0.0
 10
112.646623
 20
138.890304
 30
0.0
  0
SPLINE
  5
2c8
100
AcDbEntity
  8
0
 62
7
100
AcDbSpline
 70
8
 71
3
 72
8
 73
4
 74
0
 40
0
 40
0
 40
0
 40
0
 40
1
 40
1
 40
1
 40
1
 10
112.646623
 20
138.890304
 30
0.0
 10
112.834160
 20
138.702768
 30
0.0
 10
113.088514
 20
138.597411
 30
0.0
 10
113.353730
 20
138.597411
 30
0.0
  0
SPLINE
  5
2c9
100
AcDbEntity
  8
0
 62
7
100
AcDbSpline
 70
8
 71
3
 72
8
 73
4
 74
0
 40
0
 40
0
 40
0
 40
0
 40
1
 40
1
 40
1
 40
1
 10
113.353730
 20
138.597411
 30
0.0
 10
113.618946
 20
138.597411
 30
0.0
 10
113.873300
 20
138.702768
 30
0.0
 10
114.060837
 20
138.890304
 30
0.0
  0
SPLINE
  5
2ca
100
AcDbEntity
  8
0
 62
7
100
AcDbSpline
 70
8
 71
3
 72
8
 73
4
 74
0
 40
0
 40
0
 40
0
 40
0
 40
1
 40
1
 40
1
 40
1
 10
114.060837
 20
138.890304
 30
0.0
 10
114.248373
 20
139.077841
 30
0.0
 10
114.353730
 20
139.332195
 30
0.0
 10
114.353730
 20
139.597411
 30
0.0
  0
LINE
  5
2cb
100
AcDbEntity
  8
0
 62
7
100
AcDbLine
 10
114.353730
 20
139.597411
 30
0.0
 11
114.353730
 21
139.597411
 31
0.0
  0
SPLINE
  5
2cc
100
AcDbEntity
  8
0
 62
7
100
AcDbSpline
 70
8
 71
3
 72
8
 73
4
 74
0
 40
0
 40
0
 40
0
 40
0
 40
1
 40
1
 40
1
 40
1
 10
116.858310
 20
142.609591
 30
0.0
 10
116.858310
 20
142.874807
 30
0.0
 10
116.752953
 20
143.129161
 30
0.0
 10
116.565417
 20
143.316698
 30
0.0
  0
SPLINE
  5
2cd
100
AcDbEntity
  8
0
 62
7
100
AcDbSpline
 70
8
 71
3
 72
8
 73
4
 74
0
 40
0
 40
0
 40
0
 40
0
 40
1
 40
1
 40
1
 40
1
 10
116.565417
 20
143.316698
 30
0.0
 10
116.377880
 20
143.504234
 30
0.0
 10
116.123526
 20
143.609591
 30
0.0
 10
115.858310
 20
143.609591
 30
0.0
  0
SPLINE
  5
2ce
100
AcDbEntity
  8
0
 62
7
100
AcDbSpline
 70
8
 71
3
 72
8
 73
4
 74
0
 40
0
 40
0
 40
0
 40
0
 40
1
 40
1
 40
1
 40
1
 10
115.858310
 20
143.609591
 30
0.0
 10
115.593094
 20
143.609591
 30
0.0
 10
115.338740
 20
143.504234
 30
0.0
 10
115.151203
 20
143.316698
 30
0.0
  0
SPLINE
  5
2cf
100
AcDbEntity
  8
0
 62
7
100
AcDbSpline
 70
8
 71
3
 72
8
 73
4
 74
0
 40
0
 40
0
 40
0
 40
0
 40
1
 40
1
 40
1
 40
1
 10
115.151203
 20
143.316698
 30
0.0
 10
114.963667
 20
143.129161
 30
0.0
 10
114.858310
 20
142.874807
 30
0.0
 10
114.858310
 20
142.609591
 30
0.0
  0
SPLINE
  5
2d0
100
AcDbEntity
  8
0
 62
7
100
AcDbSpline
 70
8
 71
3
 72
8
 73
4
 74
0
 40
0
 40
0
 40
0
 40
0
 40
1
 40
1
 40
1
 40
1
 10
114.858310
 20
142.609591
 30
0.0
 10
114.858310
 20
142.344375
 30
0.0
 10
114.963667
 20
142.090021
 30
0.0
 10
115.151203
 20
141.902484
 30
0.0
  0
SPLINE
  5
2d1
100
AcDbEntity
  8
0
 62
7
100
AcDbSpline
 70
8
 71
3
 72
8
 73
4
 74
0
 40
0
 40
0
 40
0
 40
0
 40
1
 40
1
 40
1
 40
1
 10
115.151203
 20
141.902484
 30
0.0
 10
115.338740
 20
141.714948
 30
0.0
 10
115.593094
 20
141.609591
 30
0.0
 10
115.858310
 20
141.609591
 30
0.0
  0
SPLINE
  5
2d2
100
AcDbEntity
  8
0
 62
7
100
AcDbSpline
 70
8
 71
3
 72
8
 73
4
 74
0
 40
0
 40
0
 40
0
 40
0
 40
1
 40
1
 40
1
 40
1
 10
115.858310
 20
141.609591
 30
0.0
 10
116.123526
 20
141.609591
 30
0.0
 10
116.377880
 20
141.714948
 30
0.0
 10
116.565417
 20
141.902484
 30
0.0
  0
SPLINE
  5
2d3
100
AcDbEntity
  8
0
 62
7
100
AcDbSpline
 70
8
 71
3
 72
8
 73
4
 74
0
 40
0
 40
0
 40
0
 40
0
 40
1
 40
1
 40
1
 40
1
 10
116.565417
 20
141.902484
 30
0.0
 10
116.752953
 20
142.090021
 30
0.0
 10
116.858310
 20
142.344375
 30
0.0
 10
116.858310
 20
142.609591
 30
0.0
  0
LINE
  5
2d4
100
AcDbEntity
  8
0
 62
7
100
AcDbLine
 10
116.858310
 20
142.609591
 30
0.0
 11
116.858310
 21
142.609591
 31
0.0
  0
SPLINE
  5
2d5
100
AcDbEntity
  8
0
 62
7
100
AcDbSpline
 70
8
 71
3
 72
8
 73
4
 74
0
 40
0
 40
0
 40
0
 40
0
 40
1
 40
1
 40
1
 40
1
 10
120.712270
 20
143.360031
 30
0.0
 10
120.712270
 20
143.625247
 30
0.0
 10
120.606913
 20
143.879601
 30
0.0
 10
120.419377
 20
144.067138
 30
0.0
  0
SPLINE
  5
2d6
100
AcDbEntity
  8
0
 62
7
100
AcDbSpline
 70
8
 71
3
 72
8
 73
4
 74
0
 40
0
 40
0
 40
0
 40
0
 40
1
 40
1
 40
1
 40
1
 10
120.419377
 20
144.067138
 30
0.0
 10
120.231840
 20
144.254674
 30
0.0
 10
119.977486
 20
144.360031
 30
0.0
 10
119.712270
 20
144.360031
 30
0.0
  0
SPLINE
  5
2d7
100
AcDbEntity
  8
0
 62
7
100
AcDbSpline
 70
8
 71
3
 72
8
 73
4
 74
0
 40
0
 40
0
 40
0
 40
0
 40
1
 40
1
 40
1
 40
1
 10
119.712270
 20
144.360031
 30
0.0
 10
119.447054
 20
144.360031
 30
0.0
 10
119.192700
 20
144.254674
 30
0.0
 10
119.005163
 20
144.067138
 30
0.0
  0
SPLINE
  5
2d8
100
AcDbEntity
  8
0
 62
7
100
AcDbSpline
 70
8
 71
3
 72
8
 73
4
 74
0
 40
0
 40
0
 40
0
 40
0
 40
1
 40
1
 40
1
 40
1
 10
119.005163
 20
144.067138
 30
0.0
 10
118.817627
 20
143.879601
 30
0.0
 10
118.712270
 20
143.625247
 30
0.0
 10
118.712270
 20
143.360031
 30
0.0
  0
SPLINE
  5
2d9
100
AcDbEntity
  8
0
 62
7
100
AcDbSpline
 70
8
 71
3
 72
8
 73
4
 74
0
 40
0
 40
0
 40
0
 40
0
 40
1
 40
1
 40
1
 40
1
 10
118.712270
 20
143.360031
 30
0.0
 10
118.712270
 20
143.094815
 30
0.0
 10
118.817627
 20
142.840461
 30
0.0
 10
119.005163
 20
142.652924
 30
0.0
  0
SPLINE
  5
2da
100
AcDbEntity
  8
0
 62
7
100
AcDbSpline
 70
8
 71
3
 72
8
 73
4
 74
0
 40
0
 40
0
 40
0
 40
0
 40
1
 40
1
 40
1
 40
1
 10
119.005163
 20
142.652924
 30
0.0
 10
119.192700
 20
142.465388
 30
0.0
 10
119.447054
 20
142.360031
 30
0.0
 10
119.712270
 20
142.360031
 30
0.0
  0
SPLINE
  5
2db
100
AcDbEntity
  8
0
 62
7
100
AcDbSpline
 70
8
 71
3
 72
8
 73
4
 74
0
 40
0
 40
0
 40
0
 40
0
 40
1
 40
1
 40
1
 40
1
 10
119.712270
 20
142.360031
 30
0.0
 10
119.977486
 20
142.360031
 30
0.0
 10
120.231840
 20
142.465388
 30
0.0
 10
120.419377
 20
142.652924
 30
0.0
  0
SPLINE
  5
2dc
100
AcDbEntity
  8
0
 62
7
100
AcDbSpline
 70
8
 71
3
 72
8
 73
4
 74
0
 40
0
 40
0
 40
0
 40
0
 40
1
 40
1
 40
1
 40
1
 10
120.419377
 20
142.652924
 30
0.0
 10
120.606913
 20
142.840461
 30
0.0
 10
120.712270
 20
143.094815
 30
0.0
 10
120.712270
 20
143.360031
 30
0.0
  0
LINE
  5
2dd
100
AcDbEntity
  8
0
 62
7
100
AcDbLine
 10
120.712270
 20
143.360031
 30
0.0
 11
120.712270
 21
143.360031
 31
0.0
  0
SPLINE
  5
2de
100
AcDbEntity
  8
0
 62
7
100
AcDbSpline
 70
8
 71
3
 72
8
 73
4
 74
0
 40
0
 40
0
 40
0
 40
0
 40
1
 40
1
 40
1
 40
1
 10
124.263350
 20
141.676501
 30
0.0
 10
124.263350
 20
141.941717
 30
0.0
 10
124.157993
 20
142.196071
 30
0.0
 10
123.970457
 20
142.383608
 30
0.0
  0
SPLINE
  5
2df
100
AcDbEntity
  8
0
 62
7
100
AcDbSpline
 70
8
 71
3
 72
8
 73
4
 74
0
 40
0
 40
0
 40
0
 40
0
 40
1
 40
1
 40
1
 40
1
 10
123.970457
 20
142.383608
 30
0.0
 10
123.782920
 20
142.571144
 30
0.0
 10
123.528566
 20
142.676501
 30
0.0
 10
123.263350
 20
142.676501
 30
0.0
  0
SPLINE
  5
2e0
100
AcDbEntity
  8
0
 62
7
100
AcDbSpline
 70
8
 71
3
 72
8
 73
4
 74
0
 40
0
 40
0
 40
0
 40
0
 40
1
 40
1
 40
1
 40
1
 10
123.263350
 20
142.676501
 30
0.0
 10
122.998134
 20
142.676501
 30
0.0
 10
122.743780
 20
142.571144
 30
0.0
 10
122.556243
 20
142.383608
 30
0.0
  0
SPLINE
  5
2e1
100
AcDbEntity
  8
0
 62
7
100
AcDbSpline
 70
8
 71
3
 72
8
 73
4
 74
0
 40
0
 40
0
 40
0
 40
0
 40
1
 40
1
 40
1
 40
1
 10
122.556243
 20
142.383608
 30
0.0
 10
122.368707
 20
142.196071
 30
0.0
 10
122.263350
 20
141.941717
 30
0.0
 10
122.263350
 20
141.676501
 30
0.0
  0
SPLINE
  5
2e2
100
AcDbEntity
  8
0
 62
7
100
AcDbSpline
 70
8
 71
3
 72
8
 73
4
 74
0
 40
0
 40
0
 40
0
 40
0
 40
1
 40
1
 40
1
 40
1
 10
122.263350
 20
141.676501
 30
0.0
 10
122.263347
 20
141.411283
 30
0.0
 10
122.368703
 20
141.156926
 30
0.0
 10
122.556240
 20
140.969388
 30
0.0
  0
SPLINE
  5
2e3
100
AcDbEntity
  8
0
 62
7
100
AcDbSpline
 70
8
 71
3
 72
8
 73
4
 74
0
 40
0
 40
0
 40
0
 40
0
 40
1
 40
1
 40
1
 40
1
 10
122.556240
 20
140.969388
 30
0.0
 10
122.743776
 20
140.781849
 30
0.0
 10
122.998132
 20
140.676491
 30
0.0
 10
123.263350
 20
140.676491
 30
0.0
  0
SPLINE
  5
2e4
100
AcDbEntity
  8
0
 62
7
100
AcDbSpline
 70
8
 71
3
 72
8
 73
4
 74
0
 40
0
 40
0
 40
0
 40
0
 40
1
 40
1
 40
1
 40
1
 10
123.263350
 20
140.676491
 30
0.0
 10
123.528568
 20
140.676491
 30
0.0
 10
123.782924
 20
140.781849
 30
0.0
 10
123.970460
 20
140.969388
 30
0.0
  0
SPLINE
  5
2e5
100
AcDbEntity
  8
0
 62
7
100
AcDbSpline
 70
8
 71
3
 72
8
 73
4
 74
0
 40
0
 40
0
 40
0
 40
0
 40
1
 40
1
 40
1
 40
1
 10
123.970460
 20
140.969388
 30
0.0
 10
124.157997
 20
141.156926
 30
0.0
 10
124.263353
 20
141.411283
 30
0.0
 10
124.263350
 20
141.676501
 30
0.0
  0
LINE
  5
2e6
100
AcDbEntity
  8
0
 62
7
100
AcDbLine
 10
124.263350
 20
141.676501
 30
0.0
 11
124.263350
 21
141.676501
 31
0.0
  0
SPLINE
  5
2e7
100
AcDbEntity
  8
0
 62
7
100
AcDbSpline
 70
8
 71
3
 72
8
 73
4
 74
0
 40
0
 40
0
 40
0
 40
0
 40
1
 40
1
 40
1
 40
1
 10
126.131760
 20
138.217601
 30
0.0
 10
126.131760
 20
138.482817
 30
0.0
 10
126.026403
 20
138.737171
 30
0.0
 10
125.838867
 20
138.924708
 30
0.0
  0
SPLINE
  5
2e8
100
AcDbEntity
  8
0
 62
7
100
AcDbSpline
 70
8
 71
3
 72
8
 73
4
 74
0
 40
0
 40
0
 40
0
 40
0
 40
1
 40
1
 40
1
 40
1
 10
125.838867
 20
138.924708
 30
0.0
 10
125.651330
 20
139.112244
 30
0.0
 10
125.396976
 20
139.217601
 30
0.0
 10
125.131760
 20
139.217601
 30
0.0
  0
SPLINE
  5
2e9
100
AcDbEntity
  8
0
 62
7
100
AcDbSpline
 70
8
 71
3
 72
8
 73
4
 74
0
 40
0
 40
0
 40
0
 40
0
 40
1
 40
1
 40
1
 40
1
 10
125.131760
 20
139.217601
 30
0.0
 10
124.866544
 20
139.217601
 30
0.0
 10
124.612190
 20
139.112244
 30
0.0
 10
124.424653
 20
138.924708
 30
0.0
  0
SPLINE
  5
2ea
100
AcDbEntity
  8
0
 62
7
100
AcDbSpline
 70
8
 71
3
 72
8
 73
4
 74
0
 40
0
 40
0
 40
0
 40
0
 40
1
 40
1
 40
1
 40
1
 10
124.424653
 20
138.924708
 30
0.0
 10
124.237117
 20
138.737171
 30
0.0
 10
124.131760
 20
138.482817
 30
0.0
 10
124.131760
 20
138.217601
 30
0.0
  0
SPLINE
  5
2eb
100
AcDbEntity
  8
0
 62
7
100
AcDbSpline
 70
8
 71
3
 72
8
 73
4
 74
0
 40
0
 40
0
 40
0
 40
0
 40
1
 40
1
 40
1
 40
1
 10
124.131760
 20
138.217601
 30
0.0
 10
124.131760
 20
137.952385
 30
0.0
 10
124.237117
 20
137.698031
 30
0.0
 10
124.424653
 20
137.510494
 30
0.0
  0
SPLINE
  5
2ec
100
AcDbEntity
  8
0
 62
7
100
AcDbSpline
 70
8
 71
3
 72
8
 73
4
 74
0
 40
0
 40
0
 40
0
 40
0
 40
1
 40
1
 40
1
 40
1
 10
124.424653
 20
137.510494
 30
0.0
 10
124.612190
 20
137.322958
 30
0.0
 10
124.866544
 20
137.217601
 30
0.0
 10
125.131760
 20
137.217601
 30
0.0
  0
SPLINE
  5
2ed
100
AcDbEntity
  8
0
 62
7
100
AcDbSpline
 70
8
 71
3
 72
8
 73
4
 74
0
 40
0
 40
0
 40
0
 40
0
 40
1
 40
1
 40
1
 40
1
 10
125.131760
 20
137.217601
 30
0.0
 10
125.396976
 20
137.217601
 30
0.0
 10
125.651330
 20
137.322958
 30
0.0
 10
125.838867
 20
137.510494
 30
0.0
  0
SPLINE
  5
2ee
100
AcDbEntity
  8
0
 62
7
100
AcDbSpline
 70
8
 71
3
 72
8
 73
4
 74
0
 40
0
 40
0
 40
0
 40
0
 40
1
 40
1
 40
1
 40
1
 10
125.838867
 20
137.510494
 30
0.0
 10
126.026403
 20
137.698031
 30
0.0
 10
126.131760
 20
137.952385
 30
0.0
 10
126.131760
 20
138.217601
 30
0.0
  0
LINE
  5
2ef
100
AcDbEntity
  8
0
 62
7
100
AcDbLine
 10
126.131760
 20
138.217601
 30
0.0
 11
126.131760
 21
138.217601
 31
0.0
  0
SPLINE
  5
2f0
100
AcDbEntity
  8
0
 62
7
100
AcDbSpline
 70
8
 71
3
 72
8
 73
4
 74
0
 40
0
 40
0
 40
0
 40
0
 40
1
 40
1
 40
1
 40
1
 10
125.724830
 20
134.297751
 30
0.0
 10
125.724830
 20
134.562967
 30
0.0
 10
125.619473
 20
134.817321
 30
0.0
 10
125.431937
 20
135.004858
 30
0.0
  0
SPLINE
  5
2f1
100
AcDbEntity
  8
0
 62
7
100
AcDbSpline
 70
8
 71
3
 72
8
 73
4
 74
0
 40
0
 40
0
 40
0
 40
0
 40
1
 40
1
 40
1
 40
1
 10
125.431937
 20
135.004858
 30
0.0
 10
125.244400
 20
135.192394
 30
0.0
 10
124.990046
 20
135.297751
 30
0.0
 10
124.724830
 20
135.297751
 30
0.0
  0
SPLINE
  5
2f2
100
AcDbEntity
  8
0
 62
7
100
AcDbSpline
 70
8
 71
3
 72
8
 73
4
 74
0
 40
0
 40
0
 40
0
 40
0
 40
1
 40
1
 40
1
 40
1
 10
124.724830
 20
135.297751
 30
0.0
 10
124.459614
 20
135.297751
 30
0.0
 10
124.205260
 20
135.192394
 30
0.0
 10
124.017723
 20
135.004858
 30
0.0
  0
SPLINE
  5
2f3
100
AcDbEntity
  8
0
 62
7
100
AcDbSpline
 70
8
 71
3
 72
8
 73
4
 74
0
 40
0
 40
0
 40
0
 40
0
 40
1
 40
1
 40
1
 40
1
 10
124.017723
 20
135.004858
 30
0.0
 10
123.830187
 20
134.817321
 30
0.0
 10
123.724830
 20
134.562967
 30
0.0
 10
123.724830
 20
134.297751
 30
0.0
  0
SPLINE
  5
2f4
100
AcDbEntity
  8
0
 62
7
100
AcDbSpline
 70
8
 71
3
 72
8
 73
4
 74
0
 40
0
 40
0
 40
0
 40
0
 40
1
 40
1
 40
1
 40
1
 10
123.724830
 20
134.297751
 30
0.0
 10
123.724830
 20
134.032535
 30
0.0
 10
123.830187
 20
133.778181
 30
0.0
 10
124.017723
 20
133.590644
 30
0.0
  0
SPLINE
  5
2f5
100
AcDbEntity
  8
0
 62
7
100
AcDbSpline
 70
8
 71
3
 72
8
 73
4
 74
0
 40
0
 40
0
 40
0
 40
0
 40
1
 40
1
 40
1
 40
1
 10
124.017723
 20
133.590644
 30
0.0
 10
124.205260
 20
133.403108
 30
0.0
 10
124.459614
 20
133.297751
 30
0.0
 10
124.724830
 20
133.297751
 30
0.0
  0
SPLINE
  5
2f6
100
AcDbEntity
  8
0
 62
7
100
AcDbSpline
 70
8
 71
3
 72
8
 73
4
 74
0
 40
0
 40
0
 40
0
 40
0
 40
1
 40
1
 40
1
 40
1
 10
124.724830
 20
133.297751
 30
0.0
 10
124.990046
 20
133.297751
 30
0.0
 10
125.244400
 20
133.403108
 30
0.0
 10
125.431937
 20
133.590644
 30
0.0
  0
SPLINE
  5
2f7
100
AcDbEntity
  8
0
 62
7
100
AcDbSpline
 70
8
 71
3
 72
8
 73
4
 74
0
 40
0
 40
0
 40
0
 40
0
 40
1
 40
1
 40
1
 40
1
 10
125.431937
 20
133.590644
 30
0.0
 10
125.619473
 20
133.778181
 30
0.0
 10
125.724830
 20
134.032535
 30
0.0
 10
125.724830
 20
134.297751
 30
0.0
  0
LINE
  5
2f8
100
AcDbEntity
  8
0
 62
7
100
AcDbLine
 10
125.724830
 20
134.297751
 30
0.0
 11
125.724830
 21
134.297751
 31
0.0
  0
SPLINE
  5
2f9
100
AcDbEntity
  8
0
 62
7
100
AcDbSpline
 70
8
 71
3
 72
8
 73
4
 74
0
 40
0
 40
0
 40
0
 40
0
 40
1
 40
1
 40
1
 40
1
 10
123.245630
 20
131.237451
 30
0.0
 10
123.245630
 20
131.502667
 30
0.0
 10
123.140273
 20
131.757021
 30
0.0
 10
122.952737
 20
131.944558
 30
0.0
  0
SPLINE
  5
2fa
100
AcDbEntity
  8
0
 62
7
100
AcDbSpline
 70
8
 71
3
 72
8
 73
4
 74
0
 40
0
 40
0
 40
0
 40
0
 40
1
 40
1
 40
1
 40
1
 10
122.952737
 20
131.944558
 30
0.0
 10
122.765200
 20
132.132094
 30
0.0
 10
122.510846
 20
132.237451
 30
0.0
 10
122.245630
 20
132.237451
 30
0.0
  0
SPLINE
  5
2fb
100
AcDbEntity
  8
0
 62
7
100
AcDbSpline
 70
8
 71
3
 72
8
 73
4
 74
0
 40
0
 40
0
 40
0
 40
0
 40
1
 40
1
 40
1
 40
1
 10
122.245630
 20
132.237451
 30
0.0
 10
121.980414
 20
132.237451
 30
0.0
 10
121.726060
 20
132.132094
 30
0.0
 10
121.538523
 20
131.944558
 30
0.0
  0
SPLINE
  5
2fc
100
AcDbEntity
  8
0
 62
7
100
AcDbSpline
 70
8
 71
3
 72
8
 73
4
 74
0
 40
0
 40
0
 40
0
 40
0
 40
1
 40
1
 40
1
 40
1
 10
121.538523
 20
131.944558
 30
0.0
 10
121.350987
 20
131.757021
 30
0.0
 10
121.245630
 20
131.502667
 30
0.0
 10
121.245630
 20
131.237451
 30
0.0
  0
SPLINE
  5
2fd
100
AcDbEntity
  8
0
 62
7
100
AcDbSpline
 70
8
 71
3
 72
8
 73
4
 74
0
 40
0
 40
0
 40
0
 40
0
 40
1
 40
1
 40
1
 40
1
 10
121.245630
 20
131.237451
 30
0.0
 10
121.245627
 20
130.972233
 30
0.0
 10
121.350983
 20
130.717876
 30
0.0
 10
121.538520
 20
130.530338
 30
0.0
  0
SPLINE
  5
2fe
100
AcDbEntity
  8
0
 62
7
100
AcDbSpline
 70
8
 71
3
 72
8
 73
4
 74
0
 40
0
 40
0
 40
0
 40
0
 40
1
 40
1
 40
1
 40
1
 10
121.538520
 20
130.530338
 30
0.0
 10
121.726056
 20
130.342799
 30
0.0
 10
121.980412
 20
130.237441
 30
0.0
 10
122.245630
 20
130.237441
 30
0.0
  0
SPLINE
  5
2ff
100
AcDbEntity
  8
0
 62
7
100
AcDbSpline
 70
8
 71
3
 72
8
 73
4
 74
0
 40
0
 40
0
 40
0
 40
0
 40
1
 40
1
 40
1
 40
1
 10
122.245630
 20
130.237441
 30
0.0
 10
122.510848
 20
130.237441
 30
0.0
 10
122.765204
 20
130.342799
 30
0.0
 10
122.952740
 20
130.530338
 30
0.0
  0
SPLINE
  5
300
100
AcDbEntity
  8
0
 62
7
100
AcDbSpline
 70
8
 71
3
 72
8
 73
4
 74
0
 40
0
 40
0
 40
0
 40
0
 40
1
 40
1
 40
1
 40
1
 10
122.952740
 20
130.530338
 30
0.0
 10
123.140277
 20
130.717876
 30
0.0
 10
123.245633
 20
130.972233
 30
0.0
 10
123.245630
 20
131.237451
 30
0.0
  0
LINE
  5
301
100
AcDbEntity
  8
0
 62
7
100
AcDbLine
 10
123.245630
 20
131.237451
 30
0.0
 11
123.245630
 21
131.237451
 31
0.0
  0
SPLINE
  5
302
100
AcDbEntity
  8
0
 62
7
100
AcDbSpline
 70
8
 71
3
 72
8
 73
4
 74
0
 40
0
 40
0
 40
0
 40
0
 40
1
 40
1
 40
1
 40
1
 10
119.495770
 20
130.013161
 30
0.0
 10
119.495770
 20
130.278377
 30
0.0
 10
119.390413
 20
130.532731
 30
0.0
 10
119.202877
 20
130.720268
 30
0.0
  0
SPLINE
  5
303
100
AcDbEntity
  8
0
 62
7
100
AcDbSpline
 70
8
 71
3
 72
8
 73
4
 74
0
 40
0
 40
0
 40
0
 40
0
 40
1
 40
1
 40
1
 40
1
 10
119.202877
 20
130.720268
 30
0.0
 10
119.015340
 20
130.907804
 30
0.0
 10
118.760986
 20
131.013161
 30
0.0
 10
118.495770
 20
131.013161
 30
0.0
  0
SPLINE
  5
304
100
AcDbEntity
  8
0
 62
7
100
AcDbSpline
 70
8
 71
3
 72
8
 73
4
 74
0
 40
0
 40
0
 40
0
 40
0
 40
1
 40
1
 40
1
 40
1
 10
118.495770
 20
131.013161
 30
0.0
 10
118.230554
 20
131.013161
 30
0.0
 10
117.976200
 20
130.907804
 30
0.0
 10
117.788663
 20
130.720268
 30
0.0
  0
SPLINE
  5
305
100
AcDbEntity
  8
0
 62
7
100
AcDbSpline
 70
8
 71
3
 72
8
 73
4
 74
0
 40
0
 40
0
 40
0
 40
0
 40
1
 40
1
 40
1
 40
1
 10
117.788663
 20
130.720268
 30
0.0
 10
117.601127
 20
130.532731
 30
0.0
 10
117.495770
 20
130.278377
 30
0.0
 10
117.495770
 20
130.013161
 30
0.0
  0
SPLINE
  5
306
100
AcDbEntity
  8
0
 62
7
100
AcDbSpline
 70
8
 71
3
 72
8
 73
4
 74
0
 40
0
 40
0
 40
0
 40
0
 40
1
 40
1
 40
1
 40
1
 10
117.495770
 20
130.013161
 30
0.0
 10
117.495767
 20
129.747943
 30
0.0
 10
117.601123
 20
129.493586
 30
0.0
 10
117.788660
 20
129.306048
 30
0.0
  0
SPLINE
  5
307
100
AcDbEntity
  8
0
 62
7
100
AcDbSpline
 70
8
 71
3
 72
8
 73
4
 74
0
 40
0
 40
0
 40
0
 40
0
 40
1
 40
1
 40
1
 40
1
 10
117.788660
 20
129.306048
 30
0.0
 10
117.976196
 20
129.118509
 30
0.0
 10
118.230552
 20
129.013151
 30
0.0
 10
118.495770
 20
129.013151
 30
0.0
  0
SPLINE
  5
308
100
AcDbEntity
  8
0
 62
7
100
AcDbSpline
 70
8
 71
3
 72
8
 73
4
 74
0
 40
0
 40
0
 40
0
 40
0
 40
1
 40
1
 40
1
 40
1
 10
118.495770
 20
129.013151
 30
0.0
 10
118.760988
 20
129.013151
 30
0.0
 10
119.015344
 20
129.118509
 30
0.0
 10
119.202880
 20
129.306048
 30
0.0
  0
SPLINE
  5
309
100
AcDbEntity
  8
0
 62
7
100
AcDbSpline
 70
8
 71
3
 72
8
 73
4
 74
0
 40
0
 40
0
 40
0
 40
0
 40
1
 40
1
 40
1
 40
1
 10
119.202880
 20
129.306048
 30
0.0
 10
119.390417
 20
129.493586
 30
0.0
 10
119.495773
 20
129.747943
 30
0.0
 10
119.495770
 20
130.013161
 30
0.0
  0
LINE
  5
30a
100
AcDbEntity
  8
0
 62
7
100
AcDbLine
 10
119.495770
 20
130.013161
 30
0.0
 11
119.495770
 21
130.013161
 31
0.0
  0
SPLINE
  5
30b
100
AcDbEntity
  8
0
 62
7
100
AcDbSpline
 70
8
 71
3
 72
8
 73
4
 74
0
 40
0
 40
0
 40
0
 40
0
 40
1
 40
1
 40
1
 40
1
 10
115.646210
 20
130.900931
 30
0.0
 10
115.646210
 20
131.166147
 30
0.0
 10
115.540853
 20
131.420501
 30
0.0
 10
115.353317
 20
131.608038
 30
0.0
  0
SPLINE
  5
30c
100
AcDbEntity
  8
0
 62
7
100
AcDbSpline
 70
8
 71
3
 72
8
 73
4
 74
0
 40
0
 40
0
 40
0
 40
0
 40
1
 40
1
 40
1
 40
1
 10
115.353317
 20
131.608038
 30
0.0
 10
115.165780
 20
131.795574
 30
0.0
 10
114.911426
 20
131.900931
 30
0.0
 10
114.646210
 20
131.900931
 30
0.0
  0
SPLINE
  5
30d
100
AcDbEntity
  8
0
 62
7
100
AcDbSpline
 70
8
 71
3
 72
8
 73
4
 74
0
 40
0
 40
0
 40
0
 40
0
 40
1
 40
1
 40
1
 40
1
 10
114.646210
 20
131.900931
 30
0.0
 10
114.380994
 20
131.900931
 30
0.0
 10
114.126640
 20
131.795574
 30
0.0
 10
113.939103
 20
131.608038
 30
0.0
  0
SPLINE
  5
30e
100
AcDbEntity
  8
0
 62
7
100
AcDbSpline
 70
8
 71
3
 72
8
 73
4
 74
0
 40
0
 40
0
 40
0
 40
0
 40
1
 40
1
 40
1
 40
1
 10
113.939103
 20
131.608038
 30
0.0
 10
113.751567
 20
131.420501
 30
0.0
 10
113.646210
 20
131.166147
 30
0.0
 10
113.646210
 20
130.900931
 30
0.0
  0
SPLINE
  5
30f
100
AcDbEntity
  8
0
 62
7
100
AcDbSpline
 70
8
 71
3
 72
8
 73
4
 74
0
 40
0
 40
0
 40
0
 40
0
 40
1
 40
1
 40
1
 40
1
 10
113.646210
 20
130.900931
 30
0.0
 10
113.646210
 20
130.635715
 30
0.0
 10
113.751567
 20
130.381361
 30
0.0
 10
113.939103
 20
130.193824
 30
0.0
  0
SPLINE
  5
310
100
AcDbEntity
  8
0
 62
7
100
AcDbSpline
 70
8
 71
3
 72
8
 73
4
 74
0
 40
0
 40
0
 40
0
 40
0
 40
1
 40
1
 40
1
 40
1
 10
113.939103
 20
130.193824
 30
0.0
 10
114.126640
 20
130.006288
 30
0.0
 10
114.380994
 20
129.900931
 30
0.0
 10
114.646210
 20
129.900931
 30
0.0
  0
SPLINE
  5
311
100
AcDbEntity
  8
0
 62
7
100
AcDbSpline
 70
8
 71
3
 72
8
 73
4
 74
0
 40
0
 40
0
 40
0
 40
0
 40
1
 40
1
 40
1
 40
1
 10
114.646210
 20
129.900931
 30
0.0
 10
114.911426
 20
129.900931
 30
0.0
 10
115.165780
 20
130.006288
 30
0.0
 10
115.353317
 20
130.193824
 30
0.0
  0
SPLINE
  5
312
100
AcDbEntity
  8
0
 62
7
100
AcDbSpline
 70
8
 71
3
 72
8
 73
4
 74
0
 40
0
 40
0
 40
0
 40
0
 40
1
 40
1
 40
1
 40
1
 10
115.353317
 20
130.193824
 30
0.0
 10
115.540853
 20
130.381361
 30
0.0
 10
115.646210
 20
130.635715
 30
0.0
 10
115.646210
 20
130.900931
 30
0.0
  0
LINE
  5
313
100
AcDbEntity
  8
0
 62
7
100
AcDbLine
 10
115.646210
 20
130.900931
 30
0.0
 11
115.646210
 21
130.900931
 31
0.0
  0
SPLINE
  5
314
100
AcDbEntity
  8
0
 62
7
100
AcDbSpline
 70
8
 71
3
 72
8
 73
4
 74
0
 40
0
 40
0
 40
0
 40
0
 40
1
 40
1
 40
1
 40
1
 10
112.781880
 20
133.617271
 30
0.0
 10
112.781880
 20
133.882487
 30
0.0
 10
112.676523
 20
134.136841
 30
0.0
 10
112.488987
 20
134.324378
 30
0.0
  0
SPLINE
  5
315
100
AcDbEntity
  8
0
 62
7
100
AcDbSpline
 70
8
 71
3
 72
8
 73
4
 74
0
 40
0
 40
0
 40
0
 40
0
 40
1
 40
1
 40
1
 40
1
 10
112.488987
 20
134.324378
 30
0.0
 10
112.301450
 20
134.511914
 30
0.0
 10
112.047096
 20
134.617271
 30
0.0
 10
111.781880
 20
134.617271
 30
0.0
  0
SPLINE
  5
316
100
AcDbEntity
  8
0
 62
7
100
AcDbSpline
 70
8
 71
3
 72
8
 73
4
 74
0
 40
0
 40
0
 40
0
 40
0
 40
1
 40
1
 40
1
 40
1
 10
111.781880
 20
134.617271
 30
0.0
 10
111.516664
 20
134.617271
 30
0.0
 10
111.262310
 20
134.511914
 30
0.0
 10
111.074773
 20
134.324378
 30
0.0
  0
SPLINE
  5
317
100
AcDbEntity
  8
0
 62
7
100
AcDbSpline
 70
8
 71
3
 72
8
 73
4
 74
0
 40
0
 40
0
 40
0
 40
0
 40
1
 40
1
 40
1
 40
1
 10
111.074773
 20
134.324378
 30
0.0
 10
110.887237
 20
134.136841
 30
0.0
 10
110.781880
 20
133.882487
 30
0.0
 10
110.781880
 20
133.617271
 30
0.0
  0
SPLINE
  5
318
100
AcDbEntity
  8
0
 62
7
100
AcDbSpline
 70
8
 71
3
 72
8
 73
4
 74
0
 40
0
 40
0
 40
0
 40
0
 40
1
 40
1
 40
1
 40
1
 10
110.781880
 20
133.617271
 30
0.0
 10
110.781877
 20
133.352053
 30
0.0
 10
110.887233
 20
133.097696
 30
0.0
 10
111.074770
 20
132.910158
 30
0.0
  0
SPLINE
  5
319
100
AcDbEntity
  8
0
 62
7
100
AcDbSpline
 70
8
 71
3
 72
8
 73
4
 74
0
 40
0
 40
0
 40
0
 40
0
 40
1
 40
1
 40
1
 40
1
 10
111.074770
 20
132.910158
 30
0.0
 10
111.262306
 20
132.722619
 30
0.0
 10
111.516662
 20
132.617261
 30
0.0
 10
111.781880
 20
132.617261
 30
0.0
  0
SPLINE
  5
31a
100
AcDbEntity
  8
0
 62
7
100
AcDbSpline
 70
8
 71
3
 72
8
 73
4
 74
0
 40
0
 40
0
 40
0
 40
0
 40
1
 40
1
 40
1
 40
1
 10
111.781880
 20
132.617261
 30
0.0
 10
112.047098
 20
132.617261
 30
0.0
 10
112.301454
 20
132.722619
 30
0.0
 10
112.488990
 20
132.910158
 30
0.0
  0
SPLINE
  5
31b
100
AcDbEntity
  8
0
 62
7
100
AcDbSpline
 70
8
 71
3
 72
8
 73
4
 74
0
 40
0
 40
0
 40
0
 40
0
 40
1
 40
1
 40
1
 40
1
 10
112.488990
 20
132.910158
 30
0.0
 10
112.676527
 20
133.097696
 30
0.0
 10
112.781883
 20
133.352053
 30
0.0
 10
112.781880
 20
133.617271
 30
0.0
  0
LINE
  5
31c
100
AcDbEntity
  8
0
 62
7
100
AcDbLine
 10
112.781880
 20
133.617271
 30
0.0
 11
112.781880
 21
133.617271
 31
0.0
  0
SPLINE
  5
31d
100
AcDbEntity
  8
0
 62
7
100
AcDbSpline
 70
8
 71
3
 72
8
 73
4
 74
0
 40
0
 40
0
 40
0
 40
0
 40
1
 40
1
 40
1
 40
1
 10
111.677180
 20
137.413181
 30
0.0
 10
111.677180
 20
137.678397
 30
0.0
 10
111.571823
 20
137.932751
 30
0.0
 10
111.384287
 20
138.120288
 30
0.0
  0
SPLINE
  5
31e
100
AcDbEntity
  8
0
 62
7
100
AcDbSpline
 70
8
 71
3
 72
8
 73
4
 74
0
 40
0
 40
0
 40
0
 40
0
 40
1
 40
1
 40
1
 40
1
 10
111.384287
 20
138.120288
 30
0.0
 10
111.196750
 20
138.307824
 30
0.0
 10
110.942396
 20
138.413181
 30
0.0
 10
110.677180
 20
138.413181
 30
0.0
  0
SPLINE
  5
31f
100
AcDbEntity
  8
0
 62
7
100
AcDbSpline
 70
8
 71
3
 72
8
 73
4
 74
0
 40
0
 40
0
 40
0
 40
0
 40
1
 40
1
 40
1
 40
1
 10
110.677180
 20
138.413181
 30
0.0
 10
110.411964
 20
138.413181
 30
0.0
 10
110.157610
 20
138.307824
 30
0.0
 10
109.970073
 20
138.120288
 30
0.0
  0
SPLINE
  5
320
100
AcDbEntity
  8
0
 62
7
100
AcDbSpline
 70
8
 71
3
 72
8
 73
4
 74
0
 40
0
 40
0
 40
0
 40
0
 40
1
 40
1
 40
1
 40
1
 10
109.970073
 20
138.120288
 30
0.0
 10
109.782537
 20
137.932751
 30
0.0
 10
109.677180
 20
137.678397
 30
0.0
 10
109.677180
 20
137.413181
 30
0.0
  0
SPLINE
  5
321
100
AcDbEntity
  8
0
 62
7
100
AcDbSpline
 70
8
 71
3
 72
8
 73
4
 74
0
 40
0
 40
0
 40
0
 40
0
 40
1
 40
1
 40
1
 40
1
 10
109.677180
 20
137.413181
 30
0.0
 10
109.677180
 20
137.147965
 30
0.0
 10
109.782537
 20
136.893611
 30
0.0
 10
109.970073
 20
136.706074
 30
0.0
  0
SPLINE
  5
322
100
AcDbEntity
  8
0
 62
7
100
AcDbSpline
 70
8
 71
3
 72
8
 73
4
 74
0
 40
0
 40
0
 40
0
 40
0
 40
1
 40
1
 40
1
 40
1
 10
109.970073
 20
136.706074
 30
0.0
 10
110.157610
 20
136.518538
 30
0.0
 10
110.411964
 20
136.413181
 30
0.0
 10
110.677180
 20
136.413181
 30
0.0
  0
SPLINE
  5
323
100
AcDbEntity
  8
0
 62
7
100
AcDbSpline
 70
8
 71
3
 72
8
 73
4
 74
0
 40
0
 40
0
 40
0
 40
0
 40
1
 40
1
 40
1
 40
1
 10
110.677180
 20
136.413181
 30
0.0
 10
110.942396
 20
136.413181
 30
0.0
 10
111.196750
 20
136.518538
 30
0.0
 10
111.384287
 20
136.706074
 30
0.0
  0
SPLINE
  5
324
100
AcDbEntity
  8
0
 62
7
100
AcDbSpline
 70
8
 71
3
 72
8
 73
4
 74
0
 40
0
 40
0
 40
0
 40
0
 40
1
 40
1
 40
1
 40
1
 10
111.384287
 20
136.706074
 30
0.0
 10
111.571823
 20
136.893611
 30
0.0
 10
111.677180
 20
137.147965
 30
0.0
 10
111.677180
 20
137.413181
 30
0.0
  0
LINE
  5
325
100
AcDbEntity
  8
0
 62
7
100
AcDbLine
 10
111.677180
 20
137.413181
 30
0.0
 11
111.677180
 21
137.413181
 31
0.0
  0
SPLINE
  5
326
100
AcDbEntity
  8
0
 62
7
100
AcDbSpline
 70
8
 71
3
 72
8
 73
4
 74
0
 40
0
 40
0
 40
0
 40
0
 40
1
 40
1
 40
1
 40
1
 10
112.532180
 20
141.278541
 30
0.0
 10
112.532180
 20
141.543757
 30
0.0
 10
112.426823
 20
141.798111
 30
0.0
 10
112.239287
 20
141.985648
 30
0.0
  0
SPLINE
  5
327
100
AcDbEntity
  8
0
 62
7
100
AcDbSpline
 70
8
 71
3
 72
8
 73
4
 74
0
 40
0
 40
0
 40
0
 40
0
 40
1
 40
1
 40
1
 40
1
 10
112.239287
 20
141.985648
 30
0.0
 10
112.051750
 20
142.173184
 30
0.0
 10
111.797396
 20
142.278541
 30
0.0
 10
111.532180
 20
142.278541
 30
0.0
  0
SPLINE
  5
328
100
AcDbEntity
  8
0
 62
7
100
AcDbSpline
 70
8
 71
3
 72
8
 73
4
 74
0
 40
0
 40
0
 40
0
 40
0
 40
1
 40
1
 40
1
 40
1
 10
111.532180
 20
142.278541
 30
0.0
 10
111.266964
 20
142.278541
 30
0.0
 10
111.012610
 20
142.173184
 30
0.0
 10
110.825073
 20
141.985648
 30
0.0
  0
SPLINE
  5
329
100
AcDbEntity
  8
0
 62
7
100
AcDbSpline
 70
8
 71
3
 72
8
 73
4
 74
0
 40
0
 40
0
 40
0
 40
0
 40
1
 40
1
 40
1
 40
1
 10
110.825073
 20
141.985648
 30
0.0
 10
110.637537
 20
141.798111
 30
0.0
 10
110.532180
 20
141.543757
 30
0.0
 10
110.532180
 20
141.278541
 30
0.0
  0
SPLINE
  5
32a
100
AcDbEntity
  8
0
 62
7
100
AcDbSpline
 70
8
 71
3
 72
8
 73
4
 74
0
 40
0
 40
0
 40
0
 40
0
 40
1
 40
1
 40
1
 40
1
 10
110.532180
 20
141.278541
 30
0.0
 10
110.532180
 20
141.013325
 30
0.0
 10
110.637537
 20
140.758971
 30
0.0
 10
110.825073
 20
140.571434
 30
0.0
  0
SPLINE
  5
32b
100
AcDbEntity
  8
0
 62
7
100
AcDbSpline
 70
8
 71
3
 72
8
 73
4
 74
0
 40
0
 40
0
 40
0
 40
0
 40
1
 40
1
 40
1
 40
1
 10
110.825073
 20
140.571434
 30
0.0
 10
111.012610
 20
140.383898
 30
0.0
 10
111.266964
 20
140.278541
 30
0.0
 10
111.532180
 20
140.278541
 30
0.0
  0
SPLINE
  5
32c
100
AcDbEntity
  8
0
 62
7
100
AcDbSpline
 70
8
 71
3
 72
8
 73
4
 74
0
 40
0
 40
0
 40
0
 40
0
 40
1
 40
1
 40
1
 40
1
 10
111.532180
 20
140.278541
 30
0.0
 10
111.797396
 20
140.278541
 30
0.0
 10
112.051750
 20
140.383898
 30
0.0
 10
112.239287
 20
140.571434
 30
0.0
  0
SPLINE
  5
32d
100
AcDbEntity
  8
0
 62
7
100
AcDbSpline
 70
8
 71
3
 72
8
 73
4
 74
0
 40
0
 40
0
 40
0
 40
0
 40
1
 40
1
 40
1
 40
1
 10
112.239287
 20
140.571434
 30
0.0
 10
112.426823
 20
140.758971
 30
0.0
 10
112.532180
 20
141.013325
 30
0.0
 10
112.532180
 20
141.278541
 30
0.0
  0
LINE
  5
32e
100
AcDbEntity
  8
0
 62
7
100
AcDbLine
 10
112.532180
 20
141.278541
 30
0.0
 11
112.532180
 21
141.278541
 31
0.0
  0
SPLINE
  5
32f
100
AcDbEntity
  8
0
 62
7
100
AcDbSpline
 70
8
 71
3
 72
8
 73
4
 74
0
 40
0
 40
0
 40
0
 40
0
 40
1
 40
1
 40
1
 40
1
 10
115.114640
 20
144.275021
 30
0.0
 10
115.114643
 20
144.540239
 30
0.0
 10
115.009287
 20
144.794596
 30
0.0
 10
114.821750
 20
144.982134
 30
0.0
  0
SPLINE
  5
330
100
AcDbEntity
  8
0
 62
7
100
AcDbSpline
 70
8
 71
3
 72
8
 73
4
 74
0
 40
0
 40
0
 40
0
 40
0
 40
1
 40
1
 40
1
 40
1
 10
114.821750
 20
144.982134
 30
0.0
 10
114.634214
 20
145.169673
 30
0.0
 10
114.379858
 20
145.275031
 30
0.0
 10
114.114640
 20
145.275031
 30
0.0
  0
SPLINE
  5
331
100
AcDbEntity
  8
0
 62
7
100
AcDbSpline
 70
8
 71
3
 72
8
 73
4
 74
0
 40
0
 40
0
 40
0
 40
0
 40
1
 40
1
 40
1
 40
1
 10
114.114640
 20
145.275031
 30
0.0
 10
113.849422
 20
145.275031
 30
0.0
 10
113.595066
 20
145.169673
 30
0.0
 10
113.407530
 20
144.982134
 30
0.0
  0
SPLINE
  5
332
100
AcDbEntity
  8
0
 62
7
100
AcDbSpline
 70
8
 71
3
 72
8
 73
4
 74
0
 40
0
 40
0
 40
0
 40
0
 40
1
 40
1
 40
1
 40
1
 10
113.407530
 20
144.982134
 30
0.0
 10
113.219993
 20
144.794596
 30
0.0
 10
113.114637
 20
144.540239
 30
0.0
 10
113.114640
 20
144.275021
 30
0.0
  0
SPLINE
  5
333
100
AcDbEntity
  8
0
 62
7
100
AcDbSpline
 70
8
 71
3
 72
8
 73
4
 74
0
 40
0
 40
0
 40
0
 40
0
 40
1
 40
1
 40
1
 40
1
 10
113.114640
 20
144.275021
 30
0.0
 10
113.114640
 20
144.009805
 30
0.0
 10
113.219997
 20
143.755451
 30
0.0
 10
113.407533
 20
143.567914
 30
0.0
  0
SPLINE
  5
334
100
AcDbEntity
  8
0
 62
7
100
AcDbSpline
 70
8
 71
3
 72
8
 73
4
 74
0
 40
0
 40
0
 40
0
 40
0
 40
1
 40
1
 40
1
 40
1
 10
113.407533
 20
143.567914
 30
0.0
 10
113.595070
 20
143.380378
 30
0.0
 10
113.849424
 20
143.275021
 30
0.0
 10
114.114640
 20
143.275021
 30
0.0
  0
SPLINE
  5
335
100
AcDbEntity
  8
0
 62
7
100
AcDbSpline
 70
8
 71
3
 72
8
 73
4
 74
0
 40
0
 40
0
 40
0
 40
0
 40
1
 40
1
 40
1
 40
1
 10
114.114640
 20
143.275021
 30
0.0
 10
114.379856
 20
143.275021
 30
0.0
 10
114.634210
 20
143.380378
 30
0.0
 10
114.821747
 20
143.567914
 30
0.0
  0
SPLINE
  5
336
100
AcDbEntity
  8
0
 62
7
100
AcDbSpline
 70
8
 71
3
 72
8
 73
4
 74
0
 40
0
 40
0
 40
0
 40
0
 40
1
 40
1
 40
1
 40
1
 10
114.821747
 20
143.567914
 30
0.0
 10
115.009283
 20
143.755451
 30
0.0
 10
115.114640
 20
144.009805
 30
0.0
 10
115.114640
 20
144.275021
 30
0.0
  0
LINE
  5
337
100
AcDbEntity
  8
0
 62
7
100
AcDbLine
 10
115.114640
 20
144.275021
 30
0.0
 11
115.114640
 21
144.275021
 31
0.0
  0
SPLINE
  5
338
100
AcDbEntity
  8
0
 62
7
100
AcDbSpline
 70
8
 71
3
 72
8
 73
4
 74
0
 40
0
 40
0
 40
0
 40
0
 40
1
 40
1
 40
1
 40
1
 10
118.812970
 20
145.688131
 30
0.0
 10
118.812970
 20
145.953347
 30
0.0
 10
118.707613
 20
146.207701
 30
0.0
 10
118.520077
 20
146.395238
 30
0.0
  0
SPLINE
  5
339
100
AcDbEntity
  8
0
 62
7
100
AcDbSpline
 70
8
 71
3
 72
8
 73
4
 74
0
 40
0
 40
0
 40
0
 40
0
 40
1
 40
1
 40
1
 40
1
 10
118.520077
 20
146.395238
 30
0.0
 10
118.332540
 20
146.582774
 30
0.0
 10
118.078186
 20
146.688131
 30
0.0
 10
117.812970
 20
146.688131
 30
0.0
  0
SPLINE
  5
33a
100
AcDbEntity
  8
0
 62
7
100
AcDbSpline
 70
8
 71
3
 72
8
 73
4
 74
0
 40
0
 40
0
 40
0
 40
0
 40
1
 40
1
 40
1
 40
1
 10
117.812970
 20
146.688131
 30
0.0
 10
117.547754
 20
146.688131
 30
0.0
 10
117.293400
 20
146.582774
 30
0.0
 10
117.105863
 20
146.395238
 30
0.0
  0
SPLINE
  5
33b
100
AcDbEntity
  8
0
 62
7
100
AcDbSpline
 70
8
 71
3
 72
8
 73
4
 74
0
 40
0
 40
0
 40
0
 40
0
 40
1
 40
1
 40
1
 40
1
 10
117.105863
 20
146.395238
 30
0.0
 10
116.918327
 20
146.207701
 30
0.0
 10
116.812970
 20
145.953347
 30
0.0
 10
116.812970
 20
145.688131
 30
0.0
  0
SPLINE
  5
33c
100
AcDbEntity
  8
0
 62
7
100
AcDbSpline
 70
8
 71
3
 72
8
 73
4
 74
0
 40
0
 40
0
 40
0
 40
0
 40
1
 40
1
 40
1
 40
1
 10
116.812970
 20
145.688131
 30
0.0
 10
116.812970
 20
145.422915
 30
0.0
 10
116.918327
 20
145.168561
 30
0.0
 10
117.105863
 20
144.981024
 30
0.0
  0
SPLINE
  5
33d
100
AcDbEntity
  8
0
 62
7
100
AcDbSpline
 70
8
 71
3
 72
8
 73
4
 74
0
 40
0
 40
0
 40
0
 40
0
 40
1
 40
1
 40
1
 40
1
 10
117.105863
 20
144.981024
 30
0.0
 10
117.293400
 20
144.793488
 30
0.0
 10
117.547754
 20
144.688131
 30
0.0
 10
117.812970
 20
144.688131
 30
0.0
  0
SPLINE
  5
33e
100
AcDbEntity
  8
0
 62
7
100
AcDbSpline
 70
8
 71
3
 72
8
 73
4
 74
0
 40
0
 40
0
 40
0
 40
0
 40
1
 40
1
 40
1
 40
1
 10
117.812970
 20
144.688131
 30
0.0
 10
118.078186
 20
144.688131
 30
0.0
 10
118.332540
 20
144.793488
 30
0.0
 10
118.520077
 20
144.981024
 30
0.0
  0
SPLINE
  5
33f
100
AcDbEntity
  8
0
 62
7
100
AcDbSpline
 70
8
 71
3
 72
8
 73
4
 74
0
 40
0
 40
0
 40
0
 40
0
 40
1
 40
1
 40
1
 40
1
 10
118.520077
 20
144.981024
 30
0.0
 10
118.707613
 20
145.168561
 30
0.0
 10
118.812970
 20
145.422915
 30
0.0
 10
118.812970
 20
145.688131
 30
0.0
  0
LINE
  5
340
100
AcDbEntity
  8
0
 62
7
100
AcDbLine
 10
118.812970
 20
145.688131
 30
0.0
 11
118.812970
 21
145.688131
 31
0.0
  0
SPLINE
  5
341
100
AcDbEntity
  8
0
 62
7
100
AcDbSpline
 70
8
 71
3
 72
8
 73
4
 74
0
 40
0
 40
0
 40
0
 40
0
 40
1
 40
1
 40
1
 40
1
 10
122.754120
 20
145.270471
 30
0.0
 10
122.754114
 20
145.822752
 30
0.0
 10
122.306401
 20
146.270461
 30
0.0
 10
121.754120
 20
146.270461
 30
0.0
  0
SPLINE
  5
342
100
AcDbEntity
  8
0
 62
7
100
AcDbSpline
 70
8
 71
3
 72
8
 73
4
 74
0
 40
0
 40
0
 40
0
 40
0
 40
1
 40
1
 40
1
 40
1
 10
121.754120
 20
146.270461
 30
0.0
 10
121.201839
 20
146.270461
 30
0.0
 10
120.754126
 20
145.822752
 30
0.0
 10
120.754120
 20
145.270471
 30
0.0
  0
SPLINE
  5
343
100
AcDbEntity
  8
0
 62
7
100
AcDbSpline
 70
8
 71
3
 72
8
 73
4
 74
0
 40
0
 40
0
 40
0
 40
0
 40
1
 40
1
 40
1
 40
1
 10
120.754120
 20
145.270471
 30
0.0
 10
120.754117
 20
145.005253
 30
0.0
 10
120.859473
 20
144.750896
 30
0.0
 10
121.047010
 20
144.563358
 30
0.0
  0
SPLINE
  5
344
100
AcDbEntity
  8
0
 62
7
100
AcDbSpline
 70
8
 71
3
 72
8
 73
4
 74
0
 40
0
 40
0
 40
0
 40
0
 40
1
 40
1
 40
1
 40
1
 10
121.047010
 20
144.563358
 30
0.0
 10
121.234546
 20
144.375819
 30
0.0
 10
121.488902
 20
144.270461
 30
0.0
 10
121.754120
 20
144.270461
 30
0.0
  0
SPLINE
  5
345
100
AcDbEntity
  8
0
 62
7
100
AcDbSpline
 70
8
 71
3
 72
8
 73
4
 74
0
 40
0
 40
0
 40
0
 40
0
 40
1
 40
1
 40
1
 40
1
 10
121.754120
 20
144.270461
 30
0.0
 10
122.019338
 20
144.270461
 30
0.0
 10
122.273694
 20
144.375819
 30
0.0
 10
122.461230
 20
144.563358
 30
0.0
  0
SPLINE
  5
346
100
AcDbEntity
  8
0
 62
7
100
AcDbSpline
 70
8
 71
3
 72
8
 73
4
 74
0
 40
0
 40
0
 40
0
 40
0
 40
1
 40
1
 40
1
 40
1
 10
122.461230
 20
144.563358
 30
0.0
 10
122.648767
 20
144.750896
 30
0.0
 10
122.754123
 20
145.005253
 30
0.0
 10
122.754120
 20
145.270471
 30
0.0
  0
LINE
  5
347
100
AcDbEntity
  8
0
 62
7
100
AcDbLine
 10
122.754120
 20
145.270471
 30
0.0
 11
122.754120
 21
145.270471
 31
0.0
  0
SPLINE
  5
348
100
AcDbEntity
  8
0
 62
7
100
AcDbSpline
 70
8
 71
3
 72
8
 73
4
 74
0
 40
0
 40
0
 40
0
 40
0
 40
1
 40
1
 40
1
 40
1
 10
126.101700
 20
143.155311
 30
0.0
 10
126.101700
 20
143.420527
 30
0.0
 10
125.996343
 20
143.674881
 30
0.0
 10
125.808807
 20
143.862418
 30
0.0
  0
SPLINE
  5
349
100
AcDbEntity
  8
0
 62
7
100
AcDbSpline
 70
8
 71
3
 72
8
 73
4
 74
0
 40
0
 40
0
 40
0
 40
0
 40
1
 40
1
 40
1
 40
1
 10
125.808807
 20
143.862418
 30
0.0
 10
125.621270
 20
144.049954
 30
0.0
 10
125.366916
 20
144.155311
 30
0.0
 10
125.101700
 20
144.155311
 30
0.0
  0
SPLINE
  5
34a
100
AcDbEntity
  8
0
 62
7
100
AcDbSpline
 70
8
 71
3
 72
8
 73
4
 74
0
 40
0
 40
0
 40
0
 40
0
 40
1
 40
1
 40
1
 40
1
 10
125.101700
 20
144.155311
 30
0.0
 10
124.836484
 20
144.155311
 30
0.0
 10
124.582130
 20
144.049954
 30
0.0
 10
124.394593
 20
143.862418
 30
0.0
  0
SPLINE
  5
34b
100
AcDbEntity
  8
0
 62
7
100
AcDbSpline
 70
8
 71
3
 72
8
 73
4
 74
0
 40
0
 40
0
 40
0
 40
0
 40
1
 40
1
 40
1
 40
1
 10
124.394593
 20
143.862418
 30
0.0
 10
124.207057
 20
143.674881
 30
0.0
 10
124.101700
 20
143.420527
 30
0.0
 10
124.101700
 20
143.155311
 30
0.0
  0
SPLINE
  5
34c
100
AcDbEntity
  8
0
 62
7
100
AcDbSpline
 70
8
 71
3
 72
8
 73
4
 74
0
 40
0
 40
0
 40
0
 40
0
 40
1
 40
1
 40
1
 40
1
 10
124.101700
 20
143.155311
 30
0.0
 10
124.101700
 20
142.890095
 30
0.0
 10
124.207057
 20
142.635741
 30
0.0
 10
124.394593
 20
142.448204
 30
0.0
  0
SPLINE
  5
34d
100
AcDbEntity
  8
0
 62
7
100
AcDbSpline
 70
8
 71
3
 72
8
 73
4
 74
0
 40
0
 40
0
 40
0
 40
0
 40
1
 40
1
 40
1
 40
1
 10
124.394593
 20
142.448204
 30
0.0
 10
124.582130
 20
142.260668
 30
0.0
 10
124.836484
 20
142.155311
 30
0.0
 10
125.101700
 20
142.155311
 30
0.0
  0
SPLINE
  5
34e
100
AcDbEntity
  8
0
 62
7
100
AcDbSpline
 70
8
 71
3
 72
8
 73
4
 74
0
 40
0
 40
0
 40
0
 40
0
 40
1
 40
1
 40
1
 40
1
 10
125.101700
 20
142.155311
 30
0.0
 10
125.366916
 20
142.155311
 30
0.0
 10
125.621270
 20
142.260668
 30
0.0
 10
125.808807
 20
142.448204
 30
0.0
  0
SPLINE
  5
34f
100
AcDbEntity
  8
0
 62
7
100
AcDbSpline
 70
8
 71
3
 72
8
 73
4
 74
0
 40
0
 40
0
 40
0
 40
0
 40
1
 40
1
 40
1
 40
1
 10
125.808807
 20
142.448204
 30
0.0
 10
125.996343
 20
142.635741
 30
0.0
 10
126.101700
 20
142.890095
 30
0.0
 10
126.101700
 20
143.155311
 30
0.0
  0
LINE
  5
350
100
AcDbEntity
  8
0
 62
7
100
AcDbLine
 10
126.101700
 20
143.155311
 30
0.0
 11
126.101700
 21
143.155311
 31
0.0
  0
SPLINE
  5
351
100
AcDbEntity
  8
0
 62
7
100
AcDbSpline
 70
8
 71
3
 72
8
 73
4
 74
0
 40
0
 40
0
 40
0
 40
0
 40
1
 40
1
 40
1
 40
1
 10
128.155760
 20
139.767441
 30
0.0
 10
128.155760
 20
140.032657
 30
0.0
 10
128.050403
 20
140.287011
 30
0.0
 10
127.862867
 20
140.474548
 30
0.0
  0
SPLINE
  5
352
100
AcDbEntity
  8
0
 62
7
100
AcDbSpline
 70
8
 71
3
 72
8
 73
4
 74
0
 40
0
 40
0
 40
0
 40
0
 40
1
 40
1
 40
1
 40
1
 10
127.862867
 20
140.474548
 30
0.0
 10
127.675330
 20
140.662084
 30
0.0
 10
127.420976
 20
140.767441
 30
0.0
 10
127.155760
 20
140.767441
 30
0.0
  0
SPLINE
  5
353
100
AcDbEntity
  8
0
 62
7
100
AcDbSpline
 70
8
 71
3
 72
8
 73
4
 74
0
 40
0
 40
0
 40
0
 40
0
 40
1
 40
1
 40
1
 40
1
 10
127.155760
 20
140.767441
 30
0.0
 10
126.890544
 20
140.767441
 30
0.0
 10
126.636190
 20
140.662084
 30
0.0
 10
126.448653
 20
140.474548
 30
0.0
  0
SPLINE
  5
354
100
AcDbEntity
  8
0
 62
7
100
AcDbSpline
 70
8
 71
3
 72
8
 73
4
 74
0
 40
0
 40
0
 40
0
 40
0
 40
1
 40
1
 40
1
 40
1
 10
126.448653
 20
140.474548
 30
0.0
 10
126.261117
 20
140.287011
 30
0.0
 10
126.155760
 20
140.032657
 30
0.0
 10
126.155760
 20
139.767441
 30
0.0
  0
SPLINE
  5
355
100
AcDbEntity
  8
0
 62
7
100
AcDbSpline
 70
8
 71
3
 72
8
 73
4
 74
0
 40
0
 40
0
 40
0
 40
0
 40
1
 40
1
 40
1
 40
1
 10
126.155760
 20
139.767441
 30
0.0
 10
126.155760
 20
139.502225
 30
0.0
 10
126.261117
 20
139.247871
 30
0.0
 10
126.448653
 20
139.060334
 30
0.0
  0
SPLINE
  5
356
100
AcDbEntity
  8
0
 62
7
100
AcDbSpline
 70
8
 71
3
 72
8
 73
4
 74
0
 40
0
 40
0
 40
0
 40
0
 40
1
 40
1
 40
1
 40
1
 10
126.448653
 20
139.060334
 30
0.0
 10
126.636190
 20
138.872798
 30
0.0
 10
126.890544
 20
138.767441
 30
0.0
 10
127.155760
 20
138.767441
 30
0.0
  0
SPLINE
  5
357
100
AcDbEntity
  8
0
 62
7
100
AcDbSpline
 70
8
 71
3
 72
8
 73
4
 74
0
 40
0
 40
0
 40
0
 40
0
 40
1
 40
1
 40
1
 40
1
 10
127.155760
 20
138.767441
 30
0.0
 10
127.420976
 20
138.767441
 30
0.0
 10
127.675330
 20
138.872798
 30
0.0
 10
127.862867
 20
139.060334
 30
0.0
  0
SPLINE
  5
358
100
AcDbEntity
  8
0
 62
7
100
AcDbSpline
 70
8
 71
3
 72
8
 73
4
 74
0
 40
0
 40
0
 40
0
 40
0
 40
1
 40
1
 40
1
 40
1
 10
127.862867
 20
139.060334
 30
0.0
 10
128.050403
 20
139.247871
 30
0.0
 10
128.155760
 20
139.502225
 30
0.0
 10
128.155760
 20
139.767441
 30
0.0
  0
LINE
  5
359
100
AcDbEntity
  8
0
 62
7
100
AcDbLine
 10
128.155760
 20
139.767441
 30
0.0
 11
128.155760
 21
139.767441
 31
0.0
  0
SPLINE
  5
35a
100
AcDbEntity
  8
0
 62
7
100
AcDbSpline
 70
8
 71
3
 72
8
 73
4
 74
0
 40
0
 40
0
 40
0
 40
0
 40
1
 40
1
 40
1
 40
1
 10
128.516880
 20
135.817991
 30
0.0
 10
128.516880
 20
136.083207
 30
0.0
 10
128.411523
 20
136.337561
 30
0.0
 10
128.223987
 20
136.525098
 30
0.0
  0
SPLINE
  5
35b
100
AcDbEntity
  8
0
 62
7
100
AcDbSpline
 70
8
 71
3
 72
8
 73
4
 74
0
 40
0
 40
0
 40
0
 40
0
 40
1
 40
1
 40
1
 40
1
 10
128.223987
 20
136.525098
 30
0.0
 10
128.036450
 20
136.712634
 30
0.0
 10
127.782096
 20
136.817991
 30
0.0
 10
127.516880
 20
136.817991
 30
0.0
  0
SPLINE
  5
35c
100
AcDbEntity
  8
0
 62
7
100
AcDbSpline
 70
8
 71
3
 72
8
 73
4
 74
0
 40
0
 40
0
 40
0
 40
0
 40
1
 40
1
 40
1
 40
1
 10
127.516880
 20
136.817991
 30
0.0
 10
127.251664
 20
136.817991
 30
0.0
 10
126.997310
 20
136.712634
 30
0.0
 10
126.809773
 20
136.525098
 30
0.0
  0
SPLINE
  5
35d
100
AcDbEntity
  8
0
 62
7
100
AcDbSpline
 70
8
 71
3
 72
8
 73
4
 74
0
 40
0
 40
0
 40
0
 40
0
 40
1
 40
1
 40
1
 40
1
 10
126.809773
 20
136.525098
 30
0.0
 10
126.622237
 20
136.337561
 30
0.0
 10
126.516880
 20
136.083207
 30
0.0
 10
126.516880
 20
135.817991
 30
0.0
  0
SPLINE
  5
35e
100
AcDbEntity
  8
0
 62
7
100
AcDbSpline
 70
8
 71
3
 72
8
 73
4
 74
0
 40
0
 40
0
 40
0
 40
0
 40
1
 40
1
 40
1
 40
1
 10
126.516880
 20
135.817991
 30
0.0
 10
126.516880
 20
135.552775
 30
0.0
 10
126.622237
 20
135.298421
 30
0.0
 10
126.809773
 20
135.110884
 30
0.0
  0
SPLINE
  5
35f
100
AcDbEntity
  8
0
 62
7
100
AcDbSpline
 70
8
 71
3
 72
8
 73
4
 74
0
 40
0
 40
0
 40
0
 40
0
 40
1
 40
1
 40
1
 40
1
 10
126.809773
 20
135.110884
 30
0.0
 10
126.997310
 20
134.923348
 30
0.0
 10
127.251664
 20
134.817991
 30
0.0
 10
127.516880
 20
134.817991
 30
0.0
  0
SPLINE
  5
360
100
AcDbEntity
  8
0
 62
7
100
AcDbSpline
 70
8
 71
3
 72
8
 73
4
 74
0
 40
0
 40
0
 40
0
 40
0
 40
1
 40
1
 40
1
 40
1
 10
127.516880
 20
134.817991
 30
0.0
 10
127.782096
 20
134.817991
 30
0.0
 10
128.036450
 20
134.923348
 30
0.0
 10
128.223987
 20
135.110884
 30
0.0
  0
SPLINE
  5
361
100
AcDbEntity
  8
0
 62
7
100
AcDbSpline
 70
8
 71
3
 72
8
 73
4
 74
0
 40
0
 40
0
 40
0
 40
0
 40
1
 40
1
 40
1
 40
1
 10
128.223987
 20
135.110884
 30
0.0
 10
128.411523
 20
135.298421
 30
0.0
 10
128.516880
 20
135.552775
 30
0.0
 10
128.516880
 20
135.817991
 30
0.0
  0
LINE
  5
362
100
AcDbEntity
  8
0
 62
7
100
AcDbLine
 10
128.516880
 20
135.817991
 30
0.0
 11
128.516880
 21
135.817991
 31
0.0
  0
SPLINE
  5
363
100
AcDbEntity
  8
0
 62
7
100
AcDbSpline
 70
8
 71
3
 72
8
 73
4
 74
0
 40
0
 40
0
 40
0
 40
0
 40
1
 40
1
 40
1
 40
1
 10
127.221680
 20
132.068011
 30
0.0
 10
127.221680
 20
132.333227
 30
0.0
 10
127.116323
 20
132.587581
 30
0.0
 10
126.928787
 20
132.775118
 30
0.0
  0
SPLINE
  5
364
100
AcDbEntity
  8
0
 62
7
100
AcDbSpline
 70
8
 71
3
 72
8
 73
4
 74
0
 40
0
 40
0
 40
0
 40
0
 40
1
 40
1
 40
1
 40
1
 10
126.928787
 20
132.775118
 30
0.0
 10
126.741250
 20
132.962654
 30
0.0
 10
126.486896
 20
133.068011
 30
0.0
 10
126.221680
 20
133.068011
 30
0.0
  0
SPLINE
  5
365
100
AcDbEntity
  8
0
 62
7
100
AcDbSpline
 70
8
 71
3
 72
8
 73
4
 74
0
 40
0
 40
0
 40
0
 40
0
 40
1
 40
1
 40
1
 40
1
 10
126.221680
 20
133.068011
 30
0.0
 10
125.956464
 20
133.068011
 30
0.0
 10
125.702110
 20
132.962654
 30
0.0
 10
125.514573
 20
132.775118
 30
0.0
  0
SPLINE
  5
366
100
AcDbEntity
  8
0
 62
7
100
AcDbSpline
 70
8
 71
3
 72
8
 73
4
 74
0
 40
0
 40
0
 40
0
 40
0
 40
1
 40
1
 40
1
 40
1
 10
125.514573
 20
132.775118
 30
0.0
 10
125.327037
 20
132.587581
 30
0.0
 10
125.221680
 20
132.333227
 30
0.0
 10
125.221680
 20
132.068011
 30
0.0
  0
SPLINE
  5
367
100
AcDbEntity
  8
0
 62
7
100
AcDbSpline
 70
8
 71
3
 72
8
 73
4
 74
0
 40
0
 40
0
 40
0
 40
0
 40
1
 40
1
 40
1
 40
1
 10
125.221680
 20
132.068011
 30
0.0
 10
125.221680
 20
131.802795
 30
0.0
 10
125.327037
 20
131.548441
 30
0.0
 10
125.514573
 20
131.360904
 30
0.0
  0
SPLINE
  5
368
100
AcDbEntity
  8
0
 62
7
100
AcDbSpline
 70
8
 71
3
 72
8
 73
4
 74
0
 40
0
 40
0
 40
0
 40
0
 40
1
 40
1
 40
1
 40
1
 10
125.514573
 20
131.360904
 30
0.0
 10
125.702110
 20
131.173368
 30
0.0
 10
125.956464
 20
131.068011
 30
0.0
 10
126.221680
 20
131.068011
 30
0.0
  0
SPLINE
  5
369
100
AcDbEntity
  8
0
 62
7
100
AcDbSpline
 70
8
 71
3
 72
8
 73
4
 74
0
 40
0
 40
0
 40
0
 40
0
 40
1
 40
1
 40
1
 40
1
 10
126.221680
 20
131.068011
 30
0.0
 10
126.486896
 20
131.068011
 30
0.0
 10
126.741250
 20
131.173368
 30
0.0
 10
126.928787
 20
131.360904
 30
0.0
  0
SPLINE
  5
36a
100
AcDbEntity
  8
0
 62
7
100
AcDbSpline
 70
8
 71
3
 72
8
 73
4
 74
0
 40
0
 40
0
 40
0
 40
0
 40
1
 40
1
 40
1
 40
1
 10
126.928787
 20
131.360904
 30
0.0
 10
127.116323
 20
131.548441
 30
0.0
 10
127.221680
 20
131.802795
 30
0.0
 10
127.221680
 20
132.068011
 30
0.0
  0
LINE
  5
36b
100
AcDbEntity
  8
0
 62
7
100
AcDbLine
 10
127.221680
 20
132.068011
 30
0.0
 11
127.221680
 21
132.068011
 31
0.0
  0
SPLINE
  5
36c
100
AcDbEntity
  8
0
 62
7
100
AcDbSpline
 70
8
 71
3
 72
8
 73
4
 74
0
 40
0
 40
0
 40
0
 40
0
 40
1
 40
1
 40
1
 40
1
 10
124.457030
 20
129.225411
 30
0.0
 10
124.457030
 20
129.490627
 30
0.0
 10
124.351673
 20
129.744981
 30
0.0
 10
124.164137
 20
129.932518
 30
0.0
  0
SPLINE
  5
36d
100
AcDbEntity
  8
0
 62
7
100
AcDbSpline
 70
8
 71
3
 72
8
 73
4
 74
0
 40
0
 40
0
 40
0
 40
0
 40
1
 40
1
 40
1
 40
1
 10
124.164137
 20
129.932518
 30
0.0
 10
123.976600
 20
130.120054
 30
0.0
 10
123.722246
 20
130.225411
 30
0.0
 10
123.457030
 20
130.225411
 30
0.0
  0
SPLINE
  5
36e
100
AcDbEntity
  8
0
 62
7
100
AcDbSpline
 70
8
 71
3
 72
8
 73
4
 74
0
 40
0
 40
0
 40
0
 40
0
 40
1
 40
1
 40
1
 40
1
 10
123.457030
 20
130.225411
 30
0.0
 10
123.191814
 20
130.225411
 30
0.0
 10
122.937460
 20
130.120054
 30
0.0
 10
122.749923
 20
129.932518
 30
0.0
  0
SPLINE
  5
36f
100
AcDbEntity
  8
0
 62
7
100
AcDbSpline
 70
8
 71
3
 72
8
 73
4
 74
0
 40
0
 40
0
 40
0
 40
0
 40
1
 40
1
 40
1
 40
1
 10
122.749923
 20
129.932518
 30
0.0
 10
122.562387
 20
129.744981
 30
0.0
 10
122.457030
 20
129.490627
 30
0.0
 10
122.457030
 20
129.225411
 30
0.0
  0
SPLINE
  5
370
100
AcDbEntity
  8
0
 62
7
100
AcDbSpline
 70
8
 71
3
 72
8
 73
4
 74
0
 40
0
 40
0
 40
0
 40
0
 40
1
 40
1
 40
1
 40
1
 10
122.457030
 20
129.225411
 30
0.0
 10
122.457030
 20
128.960195
 30
0.0
 10
122.562387
 20
128.705841
 30
0.0
 10
122.749923
 20
128.518304
 30
0.0
  0
SPLINE
  5
371
100
AcDbEntity
  8
0
 62
7
100
AcDbSpline
 70
8
 71
3
 72
8
 73
4
 74
0
 40
0
 40
0
 40
0
 40
0
 40
1
 40
1
 40
1
 40
1
 10
122.749923
 20
128.518304
 30
0.0
 10
122.937460
 20
128.330768
 30
0.0
 10
123.191814
 20
128.225411
 30
0.0
 10
123.457030
 20
128.225411
 30
0.0
  0
SPLINE
  5
372
100
AcDbEntity
  8
0
 62
7
100
AcDbSpline
 70
8
 71
3
 72
8
 73
4
 74
0
 40
0
 40
0
 40
0
 40
0
 40
1
 40
1
 40
1
 40
1
 10
123.457030
 20
128.225411
 30
0.0
 10
123.722246
 20
128.225411
 30
0.0
 10
123.976600
 20
128.330768
 30
0.0
 10
124.164137
 20
128.518304
 30
0.0
  0
SPLINE
  5
373
100
AcDbEntity
  8
0
 62
7
100
AcDbSpline
 70
8
 71
3
 72
8
 73
4
 74
0
 40
0
 40
0
 40
0
 40
0
 40
1
 40
1
 40
1
 40
1
 10
124.164137
 20
128.518304
 30
0.0
 10
124.351673
 20
128.705841
 30
0.0
 10
124.457030
 20
128.960195
 30
0.0
 10
124.457030
 20
129.225411
 30
0.0
  0
LINE
  5
374
100
AcDbEntity
  8
0
 62
7
100
AcDbLine
 10
124.457030
 20
129.225411
 30
0.0
 11
124.457030
 21
129.225411
 31
0.0
  0
SPLINE
  5
375
100
AcDbEntity
  8
0
 62
7
100
AcDbSpline
 70
8
 71
3
 72
8
 73
4
 74
0
 40
0
 40
0
 40
0
 40
0
 40
1
 40
1
 40
1
 40
1
 10
120.758300
 20
127.796201
 30
0.0
 10
120.758300
 20
128.061417
 30
0.0
 10
120.652943
 20
128.315771
 30
0.0
 10
120.465407
 20
128.503308
 30
0.0
  0
SPLINE
  5
376
100
AcDbEntity
  8
0
 62
7
100
AcDbSpline
 70
8
 71
3
 72
8
 73
4
 74
0
 40
0
 40
0
 40
0
 40
0
 40
1
 40
1
 40
1
 40
1
 10
120.465407
 20
128.503308
 30
0.0
 10
120.277870
 20
128.690844
 30
0.0
 10
120.023516
 20
128.796201
 30
0.0
 10
119.758300
 20
128.796201
 30
0.0
  0
SPLINE
  5
377
100
AcDbEntity
  8
0
 62
7
100
AcDbSpline
 70
8
 71
3
 72
8
 73
4
 74
0
 40
0
 40
0
 40
0
 40
0
 40
1
 40
1
 40
1
 40
1
 10
119.758300
 20
128.796201
 30
0.0
 10
119.493084
 20
128.796201
 30
0.0
 10
119.238730
 20
128.690844
 30
0.0
 10
119.051193
 20
128.503308
 30
0.0
  0
SPLINE
  5
378
100
AcDbEntity
  8
0
 62
7
100
AcDbSpline
 70
8
 71
3
 72
8
 73
4
 74
0
 40
0
 40
0
 40
0
 40
0
 40
1
 40
1
 40
1
 40
1
 10
119.051193
 20
128.503308
 30
0.0
 10
118.863657
 20
128.315771
 30
0.0
 10
118.758300
 20
128.061417
 30
0.0
 10
118.758300
 20
127.796201
 30
0.0
  0
SPLINE
  5
379
100
AcDbEntity
  8
0
 62
7
100
AcDbSpline
 70
8
 71
3
 72
8
 73
4
 74
0
 40
0
 40
0
 40
0
 40
0
 40
1
 40
1
 40
1
 40
1
 10
118.758300
 20
127.796201
 30
0.0
 10
118.758300
 20
127.530985
 30
0.0
 10
118.863657
 20
127.276631
 30
0.0
 10
119.051193
 20
127.089094
 30
0.0
  0
SPLINE
  5
37a
100
AcDbEntity
  8
0
 62
7
100
AcDbSpline
 70
8
 71
3
 72
8
 73
4
 74
0
 40
0
 40
0
 40
0
 40
0
 40
1
 40
1
 40
1
 40
1
 10
119.051193
 20
127.089094
 30
0.0
 10
119.238730
 20
126.901558
 30
0.0
 10
119.493084
 20
126.796201
 30
0.0
 10
119.758300
 20
126.796201
 30
0.0
  0
SPLINE
  5
37b
100
AcDbEntity
  8
0
 62
7
100
AcDbSpline
 70
8
 71
3
 72
8
 73
4
 74
0
 40
0
 40
0
 40
0
 40
0
 40
1
 40
1
 40
1
 40
1
 10
119.758300
 20
126.796201
 30
0.0
 10
120.023516
 20
126.796201
 30
0.0
 10
120.277870
 20
126.901558
 30
0.0
 10
120.465407
 20
127.089094
 30
0.0
  0
SPLINE
  5
37c
100
AcDbEntity
  8
0
 62
7
100
AcDbSpline
 70
8
 71
3
 72
8
 73
4
 74
0
 40
0
 40
0
 40
0
 40
0
 40
1
 40
1
 40
1
 40
1
 10
120.465407
 20
127.089094
 30
0.0
 10
120.652943
 20
127.276631
 30
0.0
 10
120.758300
 20
127.530985
 30
0.0
 10
120.758300
 20
127.796201
 30
0.0
  0
LINE
  5
37d
100
AcDbEntity
  8
0
 62
7
100
AcDbLine
 10
120.758300
 20
127.796201
 30
0.0
 11
120.758300
 21
127.796201
 31
0.0
  0
SPLINE
  5
37e
100
AcDbEntity
  8
0
 62
7
100
AcDbSpline
 70
8
 71
3
 72
8
 73
4
 74
0
 40
0
 40
0
 40
0
 40
0
 40
1
 40
1
 40
1
 40
1
 10
116.792520
 20
127.968931
 30
0.0
 10
116.792520
 20
128.234147
 30
0.0
 10
116.687163
 20
128.488501
 30
0.0
 10
116.499627
 20
128.676038
 30
0.0
  0
SPLINE
  5
37f
100
AcDbEntity
  8
0
 62
7
100
AcDbSpline
 70
8
 71
3
 72
8
 73
4
 74
0
 40
0
 40
0
 40
0
 40
0
 40
1
 40
1
 40
1
 40
1
 10
116.499627
 20
128.676038
 30
0.0
 10
116.312090
 20
128.863574
 30
0.0
 10
116.057736
 20
128.968931
 30
0.0
 10
115.792520
 20
128.968931
 30
0.0
  0
SPLINE
  5
380
100
AcDbEntity
  8
0
 62
7
100
AcDbSpline
 70
8
 71
3
 72
8
 73
4
 74
0
 40
0
 40
0
 40
0
 40
0
 40
1
 40
1
 40
1
 40
1
 10
115.792520
 20
128.968931
 30
0.0
 10
115.527304
 20
128.968931
 30
0.0
 10
115.272950
 20
128.863574
 30
0.0
 10
115.085413
 20
128.676038
 30
0.0
  0
SPLINE
  5
381
100
AcDbEntity
  8
0
 62
7
100
AcDbSpline
 70
8
 71
3
 72
8
 73
4
 74
0
 40
0
 40
0
 40
0
 40
0
 40
1
 40
1
 40
1
 40
1
 10
115.085413
 20
128.676038
 30
0.0
 10
114.897877
 20
128.488501
 30
0.0
 10
114.792520
 20
128.234147
 30
0.0
 10
114.792520
 20
127.968931
 30
0.0
  0
SPLINE
  5
382
100
AcDbEntity
  8
0
 62
7
100
AcDbSpline
 70
8
 71
3
 72
8
 73
4
 74
0
 40
0
 40
0
 40
0
 40
0
 40
1
 40
1
 40
1
 40
1
 10
114.792520
 20
127.968931
 30
0.0
 10
114.792520
 20
127.703715
 30
0.0
 10
114.897877
 20
127.449361
 30
0.0
 10
115.085413
 20
127.261824
 30
0.0
  0
SPLINE
  5
383
100
AcDbEntity
  8
0
 62
7
100
AcDbSpline
 70
8
 71
3
 72
8
 73
4
 74
0
 40
0
 40
0
 40
0
 40
0
 40
1
 40
1
 40
1
 40
1
 10
115.085413
 20
127.261824
 30
0.0
 10
115.272950
 20
127.074288
 30
0.0
 10
115.527304
 20
126.968931
 30
0.0
 10
115.792520
 20
126.968931
 30
0.0
  0
SPLINE
  5
384
100
AcDbEntity
  8
0
 62
7
100
AcDbSpline
 70
8
 71
3
 72
8
 73
4
 74
0
 40
0
 40
0
 40
0
 40
0
 40
1
 40
1
 40
1
 40
1
 10
115.792520
 20
126.968931
 30
0.0
 10
116.057736
 20
126.968931
 30
0.0
 10
116.312090
 20
127.074288
 30
0.0
 10
116.499627
 20
127.261824
 30
0.0
  0
SPLINE
  5
385
100
AcDbEntity
  8
0
 62
7
100
AcDbSpline
 70
8
 71
3
 72
8
 73
4
 74
0
 40
0
 40
0
 40
0
 40
0
 40
1
 40
1
 40
1
 40
1
 10
116.499627
 20
127.261824
 30
0.0
 10
116.687163
 20
127.449361
 30
0.0
 10
116.792520
 20
127.703715
 30
0.0
 10
116.792520
 20
127.968931
 30
0.0
  0
LINE
  5
386
100
AcDbEntity
  8
0
 62
7
100
AcDbLine
 10
116.792520
 20
127.968931
 30
0.0
 11
116.792520
 21
127.968931
 31
0.0
  0
SPLINE
  5
387
100
AcDbEntity
  8
0
 62
7
100
AcDbSpline
 70
8
 71
3
 72
8
 73
4
 74
0
 40
0
 40
0
 40
0
 40
0
 40
1
 40
1
 40
1
 40
1
 10
113.207180
 20
129.675981
 30
0.0
 10
113.207180
 20
129.941197
 30
0.0
 10
113.101823
 20
130.195551
 30
0.0
 10
112.914287
 20
130.383088
 30
0.0
  0
SPLINE
  5
388
100
AcDbEntity
  8
0
 62
7
100
AcDbSpline
 70
8
 71
3
 72
8
 73
4
 74
0
 40
0
 40
0
 40
0
 40
0
 40
1
 40
1
 40
1
 40
1
 10
112.914287
 20
130.383088
 30
0.0
 10
112.726750
 20
130.570624
 30
0.0
 10
112.472396
 20
130.675981
 30
0.0
 10
112.207180
 20
130.675981
 30
0.0
  0
SPLINE
  5
389
100
AcDbEntity
  8
0
 62
7
100
AcDbSpline
 70
8
 71
3
 72
8
 73
4
 74
0
 40
0
 40
0
 40
0
 40
0
 40
1
 40
1
 40
1
 40
1
 10
112.207180
 20
130.675981
 30
0.0
 10
111.941964
 20
130.675981
 30
0.0
 10
111.687610
 20
130.570624
 30
0.0
 10
111.500073
 20
130.383088
 30
0.0
  0
SPLINE
  5
38a
100
AcDbEntity
  8
0
 62
7
100
AcDbSpline
 70
8
 71
3
 72
8
 73
4
 74
0
 40
0
 40
0
 40
0
 40
0
 40
1
 40
1
 40
1
 40
1
 10
111.500073
 20
130.383088
 30
0.0
 10
111.312537
 20
130.195551
 30
0.0
 10
111.207180
 20
129.941197
 30
0.0
 10
111.207180
 20
129.675981
 30
0.0
  0
SPLINE
  5
38b
100
AcDbEntity
  8
0
 62
7
100
AcDbSpline
 70
8
 71
3
 72
8
 73
4
 74
0
 40
0
 40
0
 40
0
 40
0
 40
1
 40
1
 40
1
 40
1
 10
111.207180
 20
129.675981
 30
0.0
 10
111.207180
 20
129.410765
 30
0.0
 10
111.312537
 20
129.156411
 30
0.0
 10
111.500073
 20
128.968874
 30
0.0
  0
SPLINE
  5
38c
100
AcDbEntity
  8
0
 62
7
100
AcDbSpline
 70
8
 71
3
 72
8
 73
4
 74
0
 40
0
 40
0
 40
0
 40
0
 40
1
 40
1
 40
1
 40
1
 10
111.500073
 20
128.968874
 30
0.0
 10
111.687610
 20
128.781338
 30
0.0
 10
111.941964
 20
128.675981
 30
0.0
 10
112.207180
 20
128.675981
 30
0.0
  0
SPLINE
  5
38d
100
AcDbEntity
  8
0
 62
7
100
AcDbSpline
 70
8
 71
3
 72
8
 73
4
 74
0
 40
0
 40
0
 40
0
 40
0
 40
1
 40
1
 40
1
 40
1
 10
112.207180
 20
128.675981
 30
0.0
 10
112.472396
 20
128.675981
 30
0.0
 10
112.726750
 20
128.781338
 30
0.0
 10
112.914287
 20
128.968874
 30
0.0
  0
SPLINE
  5
38e
100
AcDbEntity
  8
0
 62
7
100
AcDbSpline
 70
8
 71
3
 72
8
 73
4
 74
0
 40
0
 40
0
 40
0
 40
0
 40
1
 40
1
 40
1
 40
1
 10
112.914287
 20
128.968874
 30
0.0
 10
113.101823
 20
129.156411
 30
0.0
 10
113.207180
 20
129.410765
 30
0.0
 10
113.207180
 20
129.675981
 30
0.0
  0
LINE
  5
38f
100
AcDbEntity
  8
0
 62
7
100
AcDbLine
 10
113.207180
 20
129.675981
 30
0.0
 11
113.207180
 21
129.675981
 31
0.0
  0
SPLINE
  5
390
100
AcDbEntity
  8
0
 62
7
100
AcDbSpline
 70
8
 71
3
 72
8
 73
4
 74
0
 40
0
 40
0
 40
0
 40
0
 40
1
 40
1
 40
1
 40
1
 10
110.604530
 20
132.676101
 30
0.0
 10
110.604530
 20
132.941317
 30
0.0
 10
110.499173
 20
133.195671
 30
0.0
 10
110.311637
 20
133.383208
 30
0.0
  0
SPLINE
  5
391
100
AcDbEntity
  8
0
 62
7
100
AcDbSpline
 70
8
 71
3
 72
8
 73
4
 74
0
 40
0
 40
0
 40
0
 40
0
 40
1
 40
1
 40
1
 40
1
 10
110.311637
 20
133.383208
 30
0.0
 10
110.124100
 20
133.570744
 30
0.0
 10
109.869746
 20
133.676101
 30
0.0
 10
109.604530
 20
133.676101
 30
0.0
  0
SPLINE
  5
392
100
AcDbEntity
  8
0
 62
7
100
AcDbSpline
 70
8
 71
3
 72
8
 73
4
 74
0
 40
0
 40
0
 40
0
 40
0
 40
1
 40
1
 40
1
 40
1
 10
109.604530
 20
133.676101
 30
0.0
 10
109.339314
 20
133.676101
 30
0.0
 10
109.084960
 20
133.570744
 30
0.0
 10
108.897423
 20
133.383208
 30
0.0
  0
SPLINE
  5
393
100
AcDbEntity
  8
0
 62
7
100
AcDbSpline
 70
8
 71
3
 72
8
 73
4
 74
0
 40
0
 40
0
 40
0
 40
0
 40
1
 40
1
 40
1
 40
1
 10
108.897423
 20
133.383208
 30
0.0
 10
108.709887
 20
133.195671
 30
0.0
 10
108.604530
 20
132.941317
 30
0.0
 10
108.604530
 20
132.676101
 30
0.0
  0
SPLINE
  5
394
100
AcDbEntity
  8
0
 62
7
100
AcDbSpline
 70
8
 71
3
 72
8
 73
4
 74
0
 40
0
 40
0
 40
0
 40
0
 40
1
 40
1
 40
1
 40
1
 10
108.604530
 20
132.676101
 30
0.0
 10
108.604530
 20
132.410885
 30
0.0
 10
108.709887
 20
132.156531
 30
0.0
 10
108.897423
 20
131.968994
 30
0.0
  0
SPLINE
  5
395
100
AcDbEntity
  8
0
 62
7
100
AcDbSpline
 70
8
 71
3
 72
8
 73
4
 74
0
 40
0
 40
0
 40
0
 40
0
 40
1
 40
1
 40
1
 40
1
 10
108.897423
 20
131.968994
 30
0.0
 10
109.084960
 20
131.781458
 30
0.0
 10
109.339314
 20
131.676101
 30
0.0
 10
109.604530
 20
131.676101
 30
0.0
  0
SPLINE
  5
396
100
AcDbEntity
  8
0
 62
7
100
AcDbSpline
 70
8
 71
3
 72
8
 73
4
 74
0
 40
0
 40
0
 40
0
 40
0
 40
1
 40
1
 40
1
 40
1
 10
109.604530
 20
131.676101
 30
0.0
 10
109.869746
 20
131.676101
 30
0.0
 10
110.124100
 20
131.781458
 30
0.0
 10
110.311637
 20
131.968994
 30
0.0
  0
SPLINE
  5
397
100
AcDbEntity
  8
0
 62
7
100
AcDbSpline
 70
8
 71
3
 72
8
 73
4
 74
0
 40
0
 40
0
 40
0
 40
0
 40
1
 40
1
 40
1
 40
1
 10
110.311637
 20
131.968994
 30
0.0
 10
110.499173
 20
132.156531
 30
0.0
 10
110.604530
 20
132.410885
 30
0.0
 10
110.604530
 20
132.676101
 30
0.0
  0
LINE
  5
398
100
AcDbEntity
  8
0
 62
7
100
AcDbLine
 10
110.604530
 20
132.676101
 30
0.0
 11
110.604530
 21
132.676101
 31
0.0
  0
SPLINE
  5
399
100
AcDbEntity
  8
0
 62
7
100
AcDbSpline
 70
8
 71
3
 72
8
 73
4
 74
0
 40
0
 40
0
 40
0
 40
0
 40
1
 40
1
 40
1
 40
1
 10
109.397350
 20
136.461841
 30
0.0
 10
109.397350
 20
136.727057
 30
0.0
 10
109.291993
 20
136.981411
 30
0.0
 10
109.104457
 20
137.168948
 30
0.0
  0
SPLINE
  5
39a
100
AcDbEntity
  8
0
 62
7
100
AcDbSpline
 70
8
 71
3
 72
8
 73
4
 74
0
 40
0
 40
0
 40
0
 40
0
 40
1
 40
1
 40
1
 40
1
 10
109.104457
 20
137.168948
 30
0.0
 10
108.916920
 20
137.356484
 30
0.0
 10
108.662566
 20
137.461841
 30
0.0
 10
108.397350
 20
137.461841
 30
0.0
  0
SPLINE
  5
39b
100
AcDbEntity
  8
0
 62
7
100
AcDbSpline
 70
8
 71
3
 72
8
 73
4
 74
0
 40
0
 40
0
 40
0
 40
0
 40
1
 40
1
 40
1
 40
1
 10
108.397350
 20
137.461841
 30
0.0
 10
108.132134
 20
137.461841
 30
0.0
 10
107.877780
 20
137.356484
 30
0.0
 10
107.690243
 20
137.168948
 30
0.0
  0
SPLINE
  5
39c
100
AcDbEntity
  8
0
 62
7
100
AcDbSpline
 70
8
 71
3
 72
8
 73
4
 74
0
 40
0
 40
0
 40
0
 40
0
 40
1
 40
1
 40
1
 40
1
 10
107.690243
 20
137.168948
 30
0.0
 10
107.502707
 20
136.981411
 30
0.0
 10
107.397350
 20
136.727057
 30
0.0
 10
107.397350
 20
136.461841
 30
0.0
  0
SPLINE
  5
39d
100
AcDbEntity
  8
0
 62
7
100
AcDbSpline
 70
8
 71
3
 72
8
 73
4
 74
0
 40
0
 40
0
 40
0
 40
0
 40
1
 40
1
 40
1
 40
1
 10
107.397350
 20
136.461841
 30
0.0
 10
107.397350
 20
136.196625
 30
0.0
 10
107.502707
 20
135.942271
 30
0.0
 10
107.690243
 20
135.754734
 30
0.0
  0
SPLINE
  5
39e
100
AcDbEntity
  8
0
 62
7
100
AcDbSpline
 70
8
 71
3
 72
8
 73
4
 74
0
 40
0
 40
0
 40
0
 40
0
 40
1
 40
1
 40
1
 40
1
 10
107.690243
 20
135.754734
 30
0.0
 10
107.877780
 20
135.567198
 30
0.0
 10
108.132134
 20
135.461841
 30
0.0
 10
108.397350
 20
135.461841
 30
0.0
  0
SPLINE
  5
39f
100
AcDbEntity
  8
0
 62
7
100
AcDbSpline
 70
8
 71
3
 72
8
 73
4
 74
0
 40
0
 40
0
 40
0
 40
0
 40
1
 40
1
 40
1
 40
1
 10
108.397350
 20
135.461841
 30
0.0
 10
108.662566
 20
135.461841
 30
0.0
 10
108.916920
 20
135.567198
 30
0.0
 10
109.104457
 20
135.754734
 30
0.0
  0
SPLINE
  5
3a0
100
AcDbEntity
  8
0
 62
7
100
AcDbSpline
 70
8
 71
3
 72
8
 73
4
 74
0
 40
0
 40
0
 40
0
 40
0
 40
1
 40
1
 40
1
 40
1
 10
109.104457
 20
135.754734
 30
0.0
 10
109.291993
 20
135.942271
 30
0.0
 10
109.397350
 20
136.196625
 30
0.0
 10
109.397350
 20
136.461841
 30
0.0
  0
LINE
  5
3a1
100
AcDbEntity
  8
0
 62
7
100
AcDbLine
 10
109.397350
 20
136.461841
 30
0.0
 11
109.397350
 21
136.461841
 31
0.0
  0
SPLINE
  5
3a2
100
AcDbEntity
  8
0
 62
7
100
AcDbSpline
 70
8
 71
3
 72
8
 73
4
 74
0
 40
0
 40
0
 40
0
 40
0
 40
1
 40
1
 40
1
 40
1
 10
109.708480
 20
140.425631
 30
0.0
 10
109.708480
 20
140.690847
 30
0.0
 10
109.603123
 20
140.945201
 30
0.0
 10
109.415587
 20
141.132738
 30
0.0
  0
SPLINE
  5
3a3
100
AcDbEntity
  8
0
 62
7
100
AcDbSpline
 70
8
 71
3
 72
8
 73
4
 74
0
 40
0
 40
0
 40
0
 40
0
 40
1
 40
1
 40
1
 40
1
 10
109.415587
 20
141.132738
 30
0.0
 10
109.228050
 20
141.320274
 30
0.0
 10
108.973696
 20
141.425631
 30
0.0
 10
108.708480
 20
141.425631
 30
0.0
  0
SPLINE
  5
3a4
100
AcDbEntity
  8
0
 62
7
100
AcDbSpline
 70
8
 71
3
 72
8
 73
4
 74
0
 40
0
 40
0
 40
0
 40
0
 40
1
 40
1
 40
1
 40
1
 10
108.708480
 20
141.425631
 30
0.0
 10
108.443264
 20
141.425631
 30
0.0
 10
108.188910
 20
141.320274
 30
0.0
 10
108.001373
 20
141.132738
 30
0.0
  0
SPLINE
  5
3a5
100
AcDbEntity
  8
0
 62
7
100
AcDbSpline
 70
8
 71
3
 72
8
 73
4
 74
0
 40
0
 40
0
 40
0
 40
0
 40
1
 40
1
 40
1
 40
1
 10
108.001373
 20
141.132738
 30
0.0
 10
107.813837
 20
140.945201
 30
0.0
 10
107.708480
 20
140.690847
 30
0.0
 10
107.708480
 20
140.425631
 30
0.0
  0
SPLINE
  5
3a6
100
AcDbEntity
  8
0
 62
7
100
AcDbSpline
 70
8
 71
3
 72
8
 73
4
 74
0
 40
0
 40
0
 40
0
 40
0
 40
1
 40
1
 40
1
 40
1
 10
107.708480
 20
140.425631
 30
0.0
 10
107.708480
 20
140.160415
 30
0.0
 10
107.813837
 20
139.906061
 30
0.0
 10
108.001373
 20
139.718524
 30
0.0
  0
SPLINE
  5
3a7
100
AcDbEntity
  8
0
 62
7
100
AcDbSpline
 70
8
 71
3
 72
8
 73
4
 74
0
 40
0
 40
0
 40
0
 40
0
 40
1
 40
1
 40
1
 40
1
 10
108.001373
 20
139.718524
 30
0.0
 10
108.188910
 20
139.530988
 30
0.0
 10
108.443264
 20
139.425631
 30
0.0
 10
108.708480
 20
139.425631
 30
0.0
  0
SPLINE
  5
3a8
100
AcDbEntity
  8
0
 62
7
100
AcDbSpline
 70
8
 71
3
 72
8
 73
4
 74
0
 40
0
 40
0
 40
0
 40
0
 40
1
 40
1
 40
1
 40
1
 10
108.708480
 20
139.425631
 30
0.0
 10
108.973696
 20
139.425631
 30
0.0
 10
109.228050
 20
139.530988
 30
0.0
 10
109.415587
 20
139.718524
 30
0.0
  0
SPLINE
  5
3a9
100
AcDbEntity
  8
0
 62
7
100
AcDbSpline
 70
8
 71
3
 72
8
 73
4
 74
0
 40
0
 40
0
 40
0
 40
0
 40
1
 40
1
 40
1
 40
1
 10
109.415587
 20
139.718524
 30
0.0
 10
109.603123
 20
139.906061
 30
0.0
 10
109.708480
 20
140.160415
 30
0.0
 10
109.708480
 20
140.425631
 30
0.0
  0
LINE
  5
3aa
100
AcDbEntity
  8
0
 62
7
100
AcDbLine
 10
109.708480
 20
140.425631
 30
0.0
 11
109.708480
 21
140.425631
 31
0.0
  0
SPLINE
  5
3ab
100
AcDbEntity
  8
0
 62
7
100
AcDbSpline
 70
8
 71
3
 72
8
 73
4
 74
0
 40
0
 40
0
 40
0
 40
0
 40
1
 40
1
 40
1
 40
1
 10
111.461610
 20
143.993701
 30
0.0
 10
111.461610
 20
144.258917
 30
0.0
 10
111.356253
 20
144.513271
 30
0.0
 10
111.168717
 20
144.700808
 30
0.0
  0
SPLINE
  5
3ac
100
AcDbEntity
  8
0
 62
7
100
AcDbSpline
 70
8
 71
3
 72
8
 73
4
 74
0
 40
0
 40
0
 40
0
 40
0
 40
1
 40
1
 40
1
 40
1
 10
111.168717
 20
144.700808
 30
0.0
 10
110.981180
 20
144.888344
 30
0.0
 10
110.726826
 20
144.993701
 30
0.0
 10
110.461610
 20
144.993701
 30
0.0
  0
SPLINE
  5
3ad
100
AcDbEntity
  8
0
 62
7
100
AcDbSpline
 70
8
 71
3
 72
8
 73
4
 74
0
 40
0
 40
0
 40
0
 40
0
 40
1
 40
1
 40
1
 40
1
 10
110.461610
 20
144.993701
 30
0.0
 10
110.196394
 20
144.993701
 30
0.0
 10
109.942040
 20
144.888344
 30
0.0
 10
109.754503
 20
144.700808
 30
0.0
  0
SPLINE
  5
3ae
100
AcDbEntity
  8
0
 62
7
100
AcDbSpline
 70
8
 71
3
 72
8
 73
4
 74
0
 40
0
 40
0
 40
0
 40
0
 40
1
 40
1
 40
1
 40
1
 10
109.754503
 20
144.700808
 30
0.0
 10
109.566967
 20
144.513271
 30
0.0
 10
109.461610
 20
144.258917
 30
0.0
 10
109.461610
 20
143.993701
 30
0.0
  0
SPLINE
  5
3af
100
AcDbEntity
  8
0
 62
7
100
AcDbSpline
 70
8
 71
3
 72
8
 73
4
 74
0
 40
0
 40
0
 40
0
 40
0
 40
1
 40
1
 40
1
 40
1
 10
109.461610
 20
143.993701
 30
0.0
 10
109.461610
 20
143.728485
 30
0.0
 10
109.566967
 20
143.474131
 30
0.0
 10
109.754503
 20
143.286594
 30
0.0
  0
SPLINE
  5
3b0
100
AcDbEntity
  8
0
 62
7
100
AcDbSpline
 70
8
 71
3
 72
8
 73
4
 74
0
 40
0
 40
0
 40
0
 40
0
 40
1
 40
1
 40
1
 40
1
 10
109.754503
 20
143.286594
 30
0.0
 10
109.942040
 20
143.099058
 30
0.0
 10
110.196394
 20
142.993701
 30
0.0
 10
110.461610
 20
142.993701
 30
0.0
  0
SPLINE
  5
3b1
100
AcDbEntity
  8
0
 62
7
100
AcDbSpline
 70
8
 71
3
 72
8
 73
4
 74
0
 40
0
 40
0
 40
0
 40
0
 40
1
 40
1
 40
1
 40
1
 10
110.461610
 20
142.993701
 30
0.0
 10
110.726826
 20
142.993701
 30
0.0
 10
110.981180
 20
143.099058
 30
0.0
 10
111.168717
 20
143.286594
 30
0.0
  0
SPLINE
  5
3b2
100
AcDbEntity
  8
0
 62
7
100
AcDbSpline
 70
8
 71
3
 72
8
 73
4
 74
0
 40
0
 40
0
 40
0
 40
0
 40
1
 40
1
 40
1
 40
1
 10
111.168717
 20
143.286594
 30
0.0
 10
111.356253
 20
143.474131
 30
0.0
 10
111.461610
 20
143.728485
 30
0.0
 10
111.461610
 20
143.993701
 30
0.0
  0
LINE
  5
3b3
100
AcDbEntity
  8
0
 62
7
100
AcDbLine
 10
111.461610
 20
143.993701
 30
0.0
 11
111.461610
 21
143.993701
 31
0.0
  0
SPLINE
  5
3b4
100
AcDbEntity
  8
0
 62
7
100
AcDbSpline
 70
8
 71
3
 72
8
 73
4
 74
0
 40
0
 40
0
 40
0
 40
0
 40
1
 40
1
 40
1
 40
1
 10
114.438760
 20
146.624601
 30
0.0
 10
114.438760
 20
146.889817
 30
0.0
 10
114.333403
 20
147.144171
 30
0.0
 10
114.145867
 20
147.331708
 30
0.0
  0
SPLINE
  5
3b5
100
AcDbEntity
  8
0
 62
7
100
AcDbSpline
 70
8
 71
3
 72
8
 73
4
 74
0
 40
0
 40
0
 40
0
 40
0
 40
1
 40
1
 40
1
 40
1
 10
114.145867
 20
147.331708
 30
0.0
 10
113.958330
 20
147.519244
 30
0.0
 10
113.703976
 20
147.624601
 30
0.0
 10
113.438760
 20
147.624601
 30
0.0
  0
SPLINE
  5
3b6
100
AcDbEntity
  8
0
 62
7
100
AcDbSpline
 70
8
 71
3
 72
8
 73
4
 74
0
 40
0
 40
0
 40
0
 40
0
 40
1
 40
1
 40
1
 40
1
 10
113.438760
 20
147.624601
 30
0.0
 10
113.173544
 20
147.624601
 30
0.0
 10
112.919190
 20
147.519244
 30
0.0
 10
112.731653
 20
147.331708
 30
0.0
  0
SPLINE
  5
3b7
100
AcDbEntity
  8
0
 62
7
100
AcDbSpline
 70
8
 71
3
 72
8
 73
4
 74
0
 40
0
 40
0
 40
0
 40
0
 40
1
 40
1
 40
1
 40
1
 10
112.731653
 20
147.331708
 30
0.0
 10
112.544117
 20
147.144171
 30
0.0
 10
112.438760
 20
146.889817
 30
0.0
 10
112.438760
 20
146.624601
 30
0.0
  0
SPLINE
  5
3b8
100
AcDbEntity
  8
0
 62
7
100
AcDbSpline
 70
8
 71
3
 72
8
 73
4
 74
0
 40
0
 40
0
 40
0
 40
0
 40
1
 40
1
 40
1
 40
1
 10
112.438760
 20
146.624601
 30
0.0
 10
112.438760
 20
146.359385
 30
0.0
 10
112.544117
 20
146.105031
 30
0.0
 10
112.731653
 20
145.917494
 30
0.0
  0
SPLINE
  5
3b9
100
AcDbEntity
  8
0
 62
7
100
AcDbSpline
 70
8
 71
3
 72
8
 73
4
 74
0
 40
0
 40
0
 40
0
 40
0
 40
1
 40
1
 40
1
 40
1
 10
112.731653
 20
145.917494
 30
0.0
 10
112.919190
 20
145.729958
 30
0.0
 10
113.173544
 20
145.624601
 30
0.0
 10
113.438760
 20
145.624601
 30
0.0
  0
SPLINE
  5
3ba
100
AcDbEntity
  8
0
 62
7
100
AcDbSpline
 70
8
 71
3
 72
8
 73
4
 74
0
 40
0
 40
0
 40
0
 40
0
 40
1
 40
1
 40
1
 40
1
 10
113.438760
 20
145.624601
 30
0.0
 10
113.703976
 20
145.624601
 30
0.0
 10
113.958330
 20
145.729958
 30
0.0
 10
114.145867
 20
145.917494
 30
0.0
  0
SPLINE
  5
3bb
100
AcDbEntity
  8
0
 62
7
100
AcDbSpline
 70
8
 71
3
 72
8
 73
4
 74
0
 40
0
 40
0
 40
0
 40
0
 40
1
 40
1
 40
1
 40
1
 10
114.145867
 20
145.917494
 30
0.0
 10
114.333403
 20
146.105031
 30
0.0
 10
114.438760
 20
146.359385
 30
0.0
 10
114.438760
 20
146.624601
 30
0.0
  0
LINE
  5
3bc
100
AcDbEntity
  8
0
 62
7
100
AcDbLine
 10
114.438760
 20
146.624601
 30
0.0
 11
114.438760
 21
146.624601
 31
0.0
  0
SPLINE
  5
3bd
100
AcDbEntity
  8
0
 62
7
100
AcDbSpline
 70
8
 71
3
 72
8
 73
4
 74
0
 40
0
 40
0
 40
0
 40
0
 40
1
 40
1
 40
1
 40
1
 10
118.181050
 20
147.955081
 30
0.0
 10
118.181050
 20
148.220297
 30
0.0
 10
118.075693
 20
148.474651
 30
0.0
 10
117.888157
 20
148.662188
 30
0.0
  0
SPLINE
  5
3be
100
AcDbEntity
  8
0
 62
7
100
AcDbSpline
 70
8
 71
3
 72
8
 73
4
 74
0
 40
0
 40
0
 40
0
 40
0
 40
1
 40
1
 40
1
 40
1
 10
117.888157
 20
148.662188
 30
0.0
 10
117.700620
 20
148.849724
 30
0.0
 10
117.446266
 20
148.955081
 30
0.0
 10
117.181050
 20
148.955081
 30
0.0
  0
SPLINE
  5
3bf
100
AcDbEntity
  8
0
 62
7
100
AcDbSpline
 70
8
 71
3
 72
8
 73
4
 74
0
 40
0
 40
0
 40
0
 40
0
 40
1
 40
1
 40
1
 40
1
 10
117.181050
 20
148.955081
 30
0.0
 10
116.915834
 20
148.955081
 30
0.0
 10
116.661480
 20
148.849724
 30
0.0
 10
116.473943
 20
148.662188
 30
0.0
  0
SPLINE
  5
3c0
100
AcDbEntity
  8
0
 62
7
100
AcDbSpline
 70
8
 71
3
 72
8
 73
4
 74
0
 40
0
 40
0
 40
0
 40
0
 40
1
 40
1
 40
1
 40
1
 10
116.473943
 20
148.662188
 30
0.0
 10
116.286407
 20
148.474651
 30
0.0
 10
116.181050
 20
148.220297
 30
0.0
 10
116.181050
 20
147.955081
 30
0.0
  0
SPLINE
  5
3c1
100
AcDbEntity
  8
0
 62
7
100
AcDbSpline
 70
8
 71
3
 72
8
 73
4
 74
0
 40
0
 40
0
 40
0
 40
0
 40
1
 40
1
 40
1
 40
1
 10
116.181050
 20
147.955081
 30
0.0
 10
116.181050
 20
147.689865
 30
0.0
 10
116.286407
 20
147.435511
 30
0.0
 10
116.473943
 20
147.247974
 30
0.0
  0
SPLINE
  5
3c2
100
AcDbEntity
  8
0
 62
7
100
AcDbSpline
 70
8
 71
3
 72
8
 73
4
 74
0
 40
0
 40
0
 40
0
 40
0
 40
1
 40
1
 40
1
 40
1
 10
116.473943
 20
147.247974
 30
0.0
 10
116.661480
 20
147.060438
 30
0.0
 10
116.915834
 20
146.955081
 30
0.0
 10
117.181050
 20
146.955081
 30
0.0
  0
SPLINE
  5
3c3
100
AcDbEntity
  8
0
 62
7
100
AcDbSpline
 70
8
 71
3
 72
8
 73
4
 74
0
 40
0
 40
0
 40
0
 40
0
 40
1
 40
1
 40
1
 40
1
 10
117.181050
 20
146.955081
 30
0.0
 10
117.446266
 20
146.955081
 30
0.0
 10
117.700620
 20
147.060438
 30
0.0
 10
117.888157
 20
147.247974
 30
0.0
  0
SPLINE
  5
3c4
100
AcDbEntity
  8
0
 62
7
100
AcDbSpline
 70
8
 71
3
 72
8
 73
4
 74
0
 40
0
 40
0
 40
0
 40
0
 40
1
 40
1
 40
1
 40
1
 10
117.888157
 20
147.247974
 30
0.0
 10
118.075693
 20
147.435511
 30
0.0
 10
118.181050
 20
147.689865
 30
0.0
 10
118.181050
 20
147.955081
 30
0.0
  0
LINE
  5
3c5
100
AcDbEntity
  8
0
 62
7
100
AcDbLine
 10
118.181050
 20
147.955081
 30
0.0
 11
118.181050
 21
147.955081
 31
0.0
  0
SPLINE
  5
3c6
100
AcDbEntity
  8
0
 62
7
100
AcDbSpline
 70
8
 71
3
 72
8
 73
4
 74
0
 40
0
 40
0
 40
0
 40
0
 40
1
 40
1
 40
1
 40
1
 10
122.153980
 20
147.854451
 30
0.0
 10
122.153980
 20
148.119667
 30
0.0
 10
122.048623
 20
148.374021
 30
0.0
 10
121.861087
 20
148.561558
 30
0.0
  0
SPLINE
  5
3c7
100
AcDbEntity
  8
0
 62
7
100
AcDbSpline
 70
8
 71
3
 72
8
 73
4
 74
0
 40
0
 40
0
 40
0
 40
0
 40
1
 40
1
 40
1
 40
1
 10
121.861087
 20
148.561558
 30
0.0
 10
121.673550
 20
148.749094
 30
0.0
 10
121.419196
 20
148.854451
 30
0.0
 10
121.153980
 20
148.854451
 30
0.0
  0
SPLINE
  5
3c8
100
AcDbEntity
  8
0
 62
7
100
AcDbSpline
 70
8
 71
3
 72
8
 73
4
 74
0
 40
0
 40
0
 40
0
 40
0
 40
1
 40
1
 40
1
 40
1
 10
121.153980
 20
148.854451
 30
0.0
 10
120.888764
 20
148.854451
 30
0.0
 10
120.634410
 20
148.749094
 30
0.0
 10
120.446873
 20
148.561558
 30
0.0
  0
SPLINE
  5
3c9
100
AcDbEntity
  8
0
 62
7
100
AcDbSpline
 70
8
 71
3
 72
8
 73
4
 74
0
 40
0
 40
0
 40
0
 40
0
 40
1
 40
1
 40
1
 40
1
 10
120.446873
 20
148.561558
 30
0.0
 10
120.259337
 20
148.374021
 30
0.0
 10
120.153980
 20
148.119667
 30
0.0
 10
120.153980
 20
147.854451
 30
0.0
  0
SPLINE
  5
3ca
100
AcDbEntity
  8
0
 62
7
100
AcDbSpline
 70
8
 71
3
 72
8
 73
4
 74
0
 40
0
 40
0
 40
0
 40
0
 40
1
 40
1
 40
1
 40
1
 10
120.153980
 20
147.854451
 30
0.0
 10
120.153980
 20
147.589235
 30
0.0
 10
120.259337
 20
147.334881
 30
0.0
 10
120.446873
 20
147.147344
 30
0.0
  0
SPLINE
  5
3cb
100
AcDbEntity
  8
0
 62
7
100
AcDbSpline
 70
8
 71
3
 72
8
 73
4
 74
0
 40
0
 40
0
 40
0
 40
0
 40
1
 40
1
 40
1
 40
1
 10
120.446873
 20
147.147344
 30
0.0
 10
120.634410
 20
146.959808
 30
0.0
 10
120.888764
 20
146.854451
 30
0.0
 10
121.153980
 20
146.854451
 30
0.0
  0
SPLINE
  5
3cc
100
AcDbEntity
  8
0
 62
7
100
AcDbSpline
 70
8
 71
3
 72
8
 73
4
 74
0
 40
0
 40
0
 40
0
 40
0
 40
1
 40
1
 40
1
 40
1
 10
121.153980
 20
146.854451
 30
0.0
 10
121.419196
 20
146.854451
 30
0.0
 10
121.673550
 20
146.959808
 30
0.0
 10
121.861087
 20
147.147344
 30
0.0
  0
SPLINE
  5
3cd
100
AcDbEntity
  8
0
 62
7
100
AcDbSpline
 70
8
 71
3
 72
8
 73
4
 74
0
 40
0
 40
0
 40
0
 40
0
 40
1
 40
1
 40
1
 40
1
 10
121.861087
 20
147.147344
 30
0.0
 10
122.048623
 20
147.334881
 30
0.0
 10
122.153980
 20
147.589235
 30
0.0
 10
122.153980
 20
147.854451
 30
0.0
  0
LINE
  5
3ce
100
AcDbEntity
  8
0
 62
7
100
AcDbLine
 10
122.153980
 20
147.854451
 30
0.0
 11
122.153980
 21
147.854451
 31
0.0
  0
SPLINE
  5
3cf
100
AcDbEntity
  8
0
 62
7
100
AcDbSpline
 70
8
 71
3
 72
8
 73
4
 74
0
 40
0
 40
0
 40
0
 40
0
 40
1
 40
1
 40
1
 40
1
 10
125.842940
 20
146.372431
 30
0.0
 10
125.842940
 20
146.637647
 30
0.0
 10
125.737583
 20
146.892001
 30
0.0
 10
125.550047
 20
147.079538
 30
0.0
  0
SPLINE
  5
3d0
100
AcDbEntity
  8
0
 62
7
100
AcDbSpline
 70
8
 71
3
 72
8
 73
4
 74
0
 40
0
 40
0
 40
0
 40
0
 40
1
 40
1
 40
1
 40
1
 10
125.550047
 20
147.079538
 30
0.0
 10
125.362510
 20
147.267074
 30
0.0
 10
125.108156
 20
147.372431
 30
0.0
 10
124.842940
 20
147.372431
 30
0.0
  0
SPLINE
  5
3d1
100
AcDbEntity
  8
0
 62
7
100
AcDbSpline
 70
8
 71
3
 72
8
 73
4
 74
0
 40
0
 40
0
 40
0
 40
0
 40
1
 40
1
 40
1
 40
1
 10
124.842940
 20
147.372431
 30
0.0
 10
124.577724
 20
147.372431
 30
0.0
 10
124.323370
 20
147.267074
 30
0.0
 10
124.135833
 20
147.079538
 30
0.0
  0
SPLINE
  5
3d2
100
AcDbEntity
  8
0
 62
7
100
AcDbSpline
 70
8
 71
3
 72
8
 73
4
 74
0
 40
0
 40
0
 40
0
 40
0
 40
1
 40
1
 40
1
 40
1
 10
124.135833
 20
147.079538
 30
0.0
 10
123.948297
 20
146.892001
 30
0.0
 10
123.842940
 20
146.637647
 30
0.0
 10
123.842940
 20
146.372431
 30
0.0
  0
SPLINE
  5
3d3
100
AcDbEntity
  8
0
 62
7
100
AcDbSpline
 70
8
 71
3
 72
8
 73
4
 74
0
 40
0
 40
0
 40
0
 40
0
 40
1
 40
1
 40
1
 40
1
 10
123.842940
 20
146.372431
 30
0.0
 10
123.842940
 20
146.107215
 30
0.0
 10
123.948297
 20
145.852861
 30
0.0
 10
124.135833
 20
145.665324
 30
0.0
  0
SPLINE
  5
3d4
100
AcDbEntity
  8
0
 62
7
100
AcDbSpline
 70
8
 71
3
 72
8
 73
4
 74
0
 40
0
 40
0
 40
0
 40
0
 40
1
 40
1
 40
1
 40
1
 10
124.135833
 20
145.665324
 30
0.0
 10
124.323370
 20
145.477788
 30
0.0
 10
124.577724
 20
145.372431
 30
0.0
 10
124.842940
 20
145.372431
 30
0.0
  0
SPLINE
  5
3d5
100
AcDbEntity
  8
0
 62
7
100
AcDbSpline
 70
8
 71
3
 72
8
 73
4
 74
0
 40
0
 40
0
 40
0
 40
0
 40
1
 40
1
 40
1
 40
1
 10
124.842940
 20
145.372431
 30
0.0
 10
125.108156
 20
145.372431
 30
0.0
 10
125.362510
 20
145.477788
 30
0.0
 10
125.550047
 20
145.665324
 30
0.0
  0
SPLINE
  5
3d6
100
AcDbEntity
  8
0
 62
7
100
AcDbSpline
 70
8
 71
3
 72
8
 73
4
 74
0
 40
0
 40
0
 40
0
 40
0
 40
1
 40
1
 40
1
 40
1
 10
125.550047
 20
145.665324
 30
0.0
 10
125.737583
 20
145.852861
 30
0.0
 10
125.842940
 20
146.107215
 30
0.0
 10
125.842940
 20
146.372431
 30
0.0
  0
LINE
  5
3d7
100
AcDbEntity
  8
0
 62
7
100
AcDbLine
 10
125.842940
 20
146.372431
 30
0.0
 11
125.842940
 21
146.372431
 31
0.0
  0
SPLINE
  5
3d8
100
AcDbEntity
  8
0
 62
7
100
AcDbSpline
 70
8
 71
3
 72
8
 73
4
 74
0
 40
0
 40
0
 40
0
 40
0
 40
1
 40
1
 40
1
 40
1
 10
128.755450
 20
143.666311
 30
0.0
 10
128.755444
 20
144.218592
 30
0.0
 10
128.307731
 20
144.666301
 30
0.0
 10
127.755450
 20
144.666301
 30
0.0
  0
SPLINE
  5
3d9
100
AcDbEntity
  8
0
 62
7
100
AcDbSpline
 70
8
 71
3
 72
8
 73
4
 74
0
 40
0
 40
0
 40
0
 40
0
 40
1
 40
1
 40
1
 40
1
 10
127.755450
 20
144.666301
 30
0.0
 10
127.203169
 20
144.666301
 30
0.0
 10
126.755456
 20
144.218592
 30
0.0
 10
126.755450
 20
143.666311
 30
0.0
  0
SPLINE
  5
3da
100
AcDbEntity
  8
0
 62
7
100
AcDbSpline
 70
8
 71
3
 72
8
 73
4
 74
0
 40
0
 40
0
 40
0
 40
0
 40
1
 40
1
 40
1
 40
1
 10
126.755450
 20
143.666311
 30
0.0
 10
126.755447
 20
143.401093
 30
0.0
 10
126.860803
 20
143.146736
 30
0.0
 10
127.048340
 20
142.959198
 30
0.0
  0
SPLINE
  5
3db
100
AcDbEntity
  8
0
 62
7
100
AcDbSpline
 70
8
 71
3
 72
8
 73
4
 74
0
 40
0
 40
0
 40
0
 40
0
 40
1
 40
1
 40
1
 40
1
 10
127.048340
 20
142.959198
 30
0.0
 10
127.235876
 20
142.771659
 30
0.0
 10
127.490232
 20
142.666301
 30
0.0
 10
127.755450
 20
142.666301
 30
0.0
  0
SPLINE
  5
3dc
100
AcDbEntity
  8
0
 62
7
100
AcDbSpline
 70
8
 71
3
 72
8
 73
4
 74
0
 40
0
 40
0
 40
0
 40
0
 40
1
 40
1
 40
1
 40
1
 10
127.755450
 20
142.666301
 30
0.0
 10
128.020668
 20
142.666301
 30
0.0
 10
128.275024
 20
142.771659
 30
0.0
 10
128.462560
 20
142.959198
 30
0.0
  0
SPLINE
  5
3dd
100
AcDbEntity
  8
0
 62
7
100
AcDbSpline
 70
8
 71
3
 72
8
 73
4
 74
0
 40
0
 40
0
 40
0
 40
0
 40
1
 40
1
 40
1
 40
1
 10
128.462560
 20
142.959198
 30
0.0
 10
128.650097
 20
143.146736
 30
0.0
 10
128.755453
 20
143.401093
 30
0.0
 10
128.755450
 20
143.666311
 30
0.0
  0
LINE
  5
3de
100
AcDbEntity
  8
0
 62
7
100
AcDbLine
 10
128.755450
 20
143.666311
 30
0.0
 11
128.755450
 21
143.666311
 31
0.0
  0
SPLINE
  5
3df
100
AcDbEntity
  8
0
 62
7
100
AcDbSpline
 70
8
 71
3
 72
8
 73
4
 74
0
 40
0
 40
0
 40
0
 40
0
 40
1
 40
1
 40
1
 40
1
 10
130.497520
 20
140.093111
 30
0.0
 10
130.497520
 20
140.358327
 30
0.0
 10
130.392163
 20
140.612681
 30
0.0
 10
130.204627
 20
140.800218
 30
0.0
  0
SPLINE
  5
3e0
100
AcDbEntity
  8
0
 62
7
100
AcDbSpline
 70
8
 71
3
 72
8
 73
4
 74
0
 40
0
 40
0
 40
0
 40
0
 40
1
 40
1
 40
1
 40
1
 10
130.204627
 20
140.800218
 30
0.0
 10
130.017090
 20
140.987754
 30
0.0
 10
129.762736
 20
141.093111
 30
0.0
 10
129.497520
 20
141.093111
 30
0.0
  0
SPLINE
  5
3e1
100
AcDbEntity
  8
0
 62
7
100
AcDbSpline
 70
8
 71
3
 72
8
 73
4
 74
0
 40
0
 40
0
 40
0
 40
0
 40
1
 40
1
 40
1
 40
1
 10
129.497520
 20
141.093111
 30
0.0
 10
129.232304
 20
141.093111
 30
0.0
 10
128.977950
 20
140.987754
 30
0.0
 10
128.790413
 20
140.800218
 30
0.0
  0
SPLINE
  5
3e2
100
AcDbEntity
  8
0
 62
7
100
AcDbSpline
 70
8
 71
3
 72
8
 73
4
 74
0
 40
0
 40
0
 40
0
 40
0
 40
1
 40
1
 40
1
 40
1
 10
128.790413
 20
140.800218
 30
0.0
 10
128.602877
 20
140.612681
 30
0.0
 10
128.497520
 20
140.358327
 30
0.0
 10
128.497520
 20
140.093111
 30
0.0
  0
SPLINE
  5
3e3
100
AcDbEntity
  8
0
 62
7
100
AcDbSpline
 70
8
 71
3
 72
8
 73
4
 74
0
 40
0
 40
0
 40
0
 40
0
 40
1
 40
1
 40
1
 40
1
 10
128.497520
 20
140.093111
 30
0.0
 10
128.497520
 20
139.827895
 30
0.0
 10
128.602877
 20
139.573541
 30
0.0
 10
128.790413
 20
139.386004
 30
0.0
  0
SPLINE
  5
3e4
100
AcDbEntity
  8
0
 62
7
100
AcDbSpline
 70
8
 71
3
 72
8
 73
4
 74
0
 40
0
 40
0
 40
0
 40
0
 40
1
 40
1
 40
1
 40
1
 10
128.790413
 20
139.386004
 30
0.0
 10
128.977950
 20
139.198468
 30
0.0
 10
129.232304
 20
139.093111
 30
0.0
 10
129.497520
 20
139.093111
 30
0.0
  0
SPLINE
  5
3e5
100
AcDbEntity
  8
0
 62
7
100
AcDbSpline
 70
8
 71
3
 72
8
 73
4
 74
0
 40
0
 40
0
 40
0
 40
0
 40
1
 40
1
 40
1
 40
1
 10
129.497520
 20
139.093111
 30
0.0
 10
129.762736
 20
139.093111
 30
0.0
 10
130.017090
 20
139.198468
 30
0.0
 10
130.204627
 20
139.386004
 30
0.0
  0
SPLINE
  5
3e6
100
AcDbEntity
  8
0
 62
7
100
AcDbSpline
 70
8
 71
3
 72
8
 73
4
 74
0
 40
0
 40
0
 40
0
 40
0
 40
1
 40
1
 40
1
 40
1
 10
130.204627
 20
139.386004
 30
0.0
 10
130.392163
 20
139.573541
 30
0.0
 10
130.497520
 20
139.827895
 30
0.0
 10
130.497520
 20
140.093111
 30
0.0
  0
LINE
  5
3e7
100
AcDbEntity
  8
0
 62
7
100
AcDbLine
 10
130.497520
 20
140.093111
 30
0.0
 11
130.497520
 21
140.093111
 31
0.0
  0
SPLINE
  5
3e8
100
AcDbEntity
  8
0
 62
7
100
AcDbSpline
 70
8
 71
3
 72
8
 73
4
 74
0
 40
0
 40
0
 40
0
 40
0
 40
1
 40
1
 40
1
 40
1
 10
130.903860
 20
136.136291
 30
0.0
 10
130.903860
 20
136.401507
 30
0.0
 10
130.798503
 20
136.655861
 30
0.0
 10
130.610967
 20
136.843398
 30
0.0
  0
SPLINE
  5
3e9
100
AcDbEntity
  8
0
 62
7
100
AcDbSpline
 70
8
 71
3
 72
8
 73
4
 74
0
 40
0
 40
0
 40
0
 40
0
 40
1
 40
1
 40
1
 40
1
 10
130.610967
 20
136.843398
 30
0.0
 10
130.423430
 20
137.030934
 30
0.0
 10
130.169076
 20
137.136291
 30
0.0
 10
129.903860
 20
137.136291
 30
0.0
  0
SPLINE
  5
3ea
100
AcDbEntity
  8
0
 62
7
100
AcDbSpline
 70
8
 71
3
 72
8
 73
4
 74
0
 40
0
 40
0
 40
0
 40
0
 40
1
 40
1
 40
1
 40
1
 10
129.903860
 20
137.136291
 30
0.0
 10
129.638644
 20
137.136291
 30
0.0
 10
129.384290
 20
137.030934
 30
0.0
 10
129.196753
 20
136.843398
 30
0.0
  0
SPLINE
  5
3eb
100
AcDbEntity
  8
0
 62
7
100
AcDbSpline
 70
8
 71
3
 72
8
 73
4
 74
0
 40
0
 40
0
 40
0
 40
0
 40
1
 40
1
 40
1
 40
1
 10
129.196753
 20
136.843398
 30
0.0
 10
129.009217
 20
136.655861
 30
0.0
 10
128.903860
 20
136.401507
 30
0.0
 10
128.903860
 20
136.136291
 30
0.0
  0
SPLINE
  5
3ec
100
AcDbEntity
  8
0
 62
7
100
AcDbSpline
 70
8
 71
3
 72
8
 73
4
 74
0
 40
0
 40
0
 40
0
 40
0
 40
1
 40
1
 40
1
 40
1
 10
128.903860
 20
136.136291
 30
0.0
 10
128.903860
 20
135.871075
 30
0.0
 10
129.009217
 20
135.616721
 30
0.0
 10
129.196753
 20
135.429184
 30
0.0
  0
SPLINE
  5
3ed
100
AcDbEntity
  8
0
 62
7
100
AcDbSpline
 70
8
 71
3
 72
8
 73
4
 74
0
 40
0
 40
0
 40
0
 40
0
 40
1
 40
1
 40
1
 40
1
 10
129.196753
 20
135.429184
 30
0.0
 10
129.384290
 20
135.241648
 30
0.0
 10
129.638644
 20
135.136291
 30
0.0
 10
129.903860
 20
135.136291
 30
0.0
  0
SPLINE
  5
3ee
100
AcDbEntity
  8
0
 62
7
100
AcDbSpline
 70
8
 71
3
 72
8
 73
4
 74
0
 40
0
 40
0
 40
0
 40
0
 40
1
 40
1
 40
1
 40
1
 10
129.903860
 20
135.136291
 30
0.0
 10
130.169076
 20
135.136291
 30
0.0
 10
130.423430
 20
135.241648
 30
0.0
 10
130.610967
 20
135.429184
 30
0.0
  0
SPLINE
  5
3ef
100
AcDbEntity
  8
0
 62
7
100
AcDbSpline
 70
8
 71
3
 72
8
 73
4
 74
0
 40
0
 40
0
 40
0
 40
0
 40
1
 40
1
 40
1
 40
1
 10
130.610967
 20
135.429184
 30
0.0
 10
130.798503
 20
135.616721
 30
0.0
 10
130.903860
 20
135.871075
 30
0.0
 10
130.903860
 20
136.136291
 30
0.0
  0
LINE
  5
3f0
100
AcDbEntity
  8
0
 62
7
100
AcDbLine
 10
130.903860
 20
136.136291
 30
0.0
 11
130.903860
 21
136.136291
 31
0.0
  0
SPLINE
  5
3f1
100
AcDbEntity
  8
0
 62
7
100
AcDbSpline
 70
8
 71
3
 72
8
 73
4
 74
0
 40
0
 40
0
 40
0
 40
0
 40
1
 40
1
 40
1
 40
1
 10
129.951380
 20
132.274241
 30
0.0
 10
129.951380
 20
132.539457
 30
0.0
 10
129.846023
 20
132.793811
 30
0.0
 10
129.658487
 20
132.981348
 30
0.0
  0
SPLINE
  5
3f2
100
AcDbEntity
  8
0
 62
7
100
AcDbSpline
 70
8
 71
3
 72
8
 73
4
 74
0
 40
0
 40
0
 40
0
 40
0
 40
1
 40
1
 40
1
 40
1
 10
129.658487
 20
132.981348
 30
0.0
 10
129.470950
 20
133.168884
 30
0.0
 10
129.216596
 20
133.274241
 30
0.0
 10
128.951380
 20
133.274241
 30
0.0
  0
SPLINE
  5
3f3
100
AcDbEntity
  8
0
 62
7
100
AcDbSpline
 70
8
 71
3
 72
8
 73
4
 74
0
 40
0
 40
0
 40
0
 40
0
 40
1
 40
1
 40
1
 40
1
 10
128.951380
 20
133.274241
 30
0.0
 10
128.686164
 20
133.274241
 30
0.0
 10
128.431810
 20
133.168884
 30
0.0
 10
128.244273
 20
132.981348
 30
0.0
  0
SPLINE
  5
3f4
100
AcDbEntity
  8
0
 62
7
100
AcDbSpline
 70
8
 71
3
 72
8
 73
4
 74
0
 40
0
 40
0
 40
0
 40
0
 40
1
 40
1
 40
1
 40
1
 10
128.244273
 20
132.981348
 30
0.0
 10
128.056737
 20
132.793811
 30
0.0
 10
127.951380
 20
132.539457
 30
0.0
 10
127.951380
 20
132.274241
 30
0.0
  0
SPLINE
  5
3f5
100
AcDbEntity
  8
0
 62
7
100
AcDbSpline
 70
8
 71
3
 72
8
 73
4
 74
0
 40
0
 40
0
 40
0
 40
0
 40
1
 40
1
 40
1
 40
1
 10
127.951380
 20
132.274241
 30
0.0
 10
127.951380
 20
132.009025
 30
0.0
 10
128.056737
 20
131.754671
 30
0.0
 10
128.244273
 20
131.567134
 30
0.0
  0
SPLINE
  5
3f6
100
AcDbEntity
  8
0
 62
7
100
AcDbSpline
 70
8
 71
3
 72
8
 73
4
 74
0
 40
0
 40
0
 40
0
 40
0
 40
1
 40
1
 40
1
 40
1
 10
128.244273
 20
131.567134
 30
0.0
 10
128.431810
 20
131.379598
 30
0.0
 10
128.686164
 20
131.274241
 30
0.0
 10
128.951380
 20
131.274241
 30
0.0
  0
SPLINE
  5
3f7
100
AcDbEntity
  8
0
 62
7
100
AcDbSpline
 70
8
 71
3
 72
8
 73
4
 74
0
 40
0
 40
0
 40
0
 40
0
 40
1
 40
1
 40
1
 40
1
 10
128.951380
 20
131.274241
 30
0.0
 10
129.216596
 20
131.274241
 30
0.0
 10
129.470950
 20
131.379598
 30
0.0
 10
129.658487
 20
131.567134
 30
0.0
  0
SPLINE
  5
3f8
100
AcDbEntity
  8
0
 62
7
100
AcDbSpline
 70
8
 71
3
 72
8
 73
4
 74
0
 40
0
 40
0
 40
0
 40
0
 40
1
 40
1
 40
1
 40
1
 10
129.658487
 20
131.567134
 30
0.0
 10
129.846023
 20
131.754671
 30
0.0
 10
129.951380
 20
132.009025
 30
0.0
 10
129.951380
 20
132.274241
 30
0.0
  0
LINE
  5
3f9
100
AcDbEntity
  8
0
 62
7
100
AcDbLine
 10
129.951380
 20
132.274241
 30
0.0
 11
129.951380
 21
132.274241
 31
0.0
  0
SPLINE
  5
3fa
100
AcDbEntity
  8
0
 62
7
100
AcDbSpline
 70
8
 71
3
 72
8
 73
4
 74
0
 40
0
 40
0
 40
0
 40
0
 40
1
 40
1
 40
1
 40
1
 10
127.773510
 20
128.946191
 30
0.0
 10
127.773510
 20
129.211407
 30
0.0
 10
127.668153
 20
129.465761
 30
0.0
 10
127.480617
 20
129.653298
 30
0.0
  0
SPLINE
  5
3fb
100
AcDbEntity
  8
0
 62
7
100
AcDbSpline
 70
8
 71
3
 72
8
 73
4
 74
0
 40
0
 40
0
 40
0
 40
0
 40
1
 40
1
 40
1
 40
1
 10
127.480617
 20
129.653298
 30
0.0
 10
127.293080
 20
129.840834
 30
0.0
 10
127.038726
 20
129.946191
 30
0.0
 10
126.773510
 20
129.946191
 30
0.0
  0
SPLINE
  5
3fc
100
AcDbEntity
  8
0
 62
7
100
AcDbSpline
 70
8
 71
3
 72
8
 73
4
 74
0
 40
0
 40
0
 40
0
 40
0
 40
1
 40
1
 40
1
 40
1
 10
126.773510
 20
129.946191
 30
0.0
 10
126.508294
 20
129.946191
 30
0.0
 10
126.253940
 20
129.840834
 30
0.0
 10
126.066403
 20
129.653298
 30
0.0
  0
SPLINE
  5
3fd
100
AcDbEntity
  8
0
 62
7
100
AcDbSpline
 70
8
 71
3
 72
8
 73
4
 74
0
 40
0
 40
0
 40
0
 40
0
 40
1
 40
1
 40
1
 40
1
 10
126.066403
 20
129.653298
 30
0.0
 10
125.878867
 20
129.465761
 30
0.0
 10
125.773510
 20
129.211407
 30
0.0
 10
125.773510
 20
128.946191
 30
0.0
  0
SPLINE
  5
3fe
100
AcDbEntity
  8
0
 62
7
100
AcDbSpline
 70
8
 71
3
 72
8
 73
4
 74
0
 40
0
 40
0
 40
0
 40
0
 40
1
 40
1
 40
1
 40
1
 10
125.773510
 20
128.946191
 30
0.0
 10
125.773510
 20
128.680975
 30
0.0
 10
125.878867
 20
128.426621
 30
0.0
 10
126.066403
 20
128.239084
 30
0.0
  0
SPLINE
  5
3ff
100
AcDbEntity
  8
0
 62
7
100
AcDbSpline
 70
8
 71
3
 72
8
 73
4
 74
0
 40
0
 40
0
 40
0
 40
0
 40
1
 40
1
 40
1
 40
1
 10
126.066403
 20
128.239084
 30
0.0
 10
126.253940
 20
128.051548
 30
0.0
 10
126.508294
 20
127.946191
 30
0.0
 10
126.773510
 20
127.946191
 30
0.0
  0
SPLINE
  5
400
100
AcDbEntity
  8
0
 62
7
100
AcDbSpline
 70
8
 71
3
 72
8
 73
4
 74
0
 40
0
 40
0
 40
0
 40
0
 40
1
 40
1
 40
1
 40
1
 10
126.773510
 20
127.946191
 30
0.0
 10
127.038726
 20
127.946191
 30
0.0
 10
127.293080
 20
128.051548
 30
0.0
 10
127.480617
 20
128.239084
 30
0.0
  0
SPLINE
  5
401
100
AcDbEntity
  8
0
 62
7
100
AcDbSpline
 70
8
 71
3
 72
8
 73
4
 74
0
 40
0
 40
0
 40
0
 40
0
 40
1
 40
1
 40
1
 40
1
 10
127.480617
 20
128.239084
 30
0.0
 10
127.668153
 20
128.426621
 30
0.0
 10
127.773510
 20
128.680975
 30
0.0
 10
127.773510
 20
128.946191
 30
0.0
  0
LINE
  5
402
100
AcDbEntity
  8
0
 62
7
100
AcDbLine
 10
127.773510
 20
128.946191
 30
0.0
 11
127.773510
 21
128.946191
 31
0.0
  0
SPLINE
  5
403
100
AcDbEntity
  8
0
 62
7
100
AcDbSpline
 70
8
 71
3
 72
8
 73
4
 74
0
 40
0
 40
0
 40
0
 40
0
 40
1
 40
1
 40
1
 40
1
 10
124.576950
 20
126.576251
 30
0.0
 10
124.576950
 20
126.841467
 30
0.0
 10
124.471593
 20
127.095821
 30
0.0
 10
124.284057
 20
127.283358
 30
0.0
  0
SPLINE
  5
404
100
AcDbEntity
  8
0
 62
7
100
AcDbSpline
 70
8
 71
3
 72
8
 73
4
 74
0
 40
0
 40
0
 40
0
 40
0
 40
1
 40
1
 40
1
 40
1
 10
124.284057
 20
127.283358
 30
0.0
 10
124.096520
 20
127.470894
 30
0.0
 10
123.842166
 20
127.576251
 30
0.0
 10
123.576950
 20
127.576251
 30
0.0
  0
SPLINE
  5
405
100
AcDbEntity
  8
0
 62
7
100
AcDbSpline
 70
8
 71
3
 72
8
 73
4
 74
0
 40
0
 40
0
 40
0
 40
0
 40
1
 40
1
 40
1
 40
1
 10
123.576950
 20
127.576251
 30
0.0
 10
123.311734
 20
127.576251
 30
0.0
 10
123.057380
 20
127.470894
 30
0.0
 10
122.869843
 20
127.283358
 30
0.0
  0
SPLINE
  5
406
100
AcDbEntity
  8
0
 62
7
100
AcDbSpline
 70
8
 71
3
 72
8
 73
4
 74
0
 40
0
 40
0
 40
0
 40
0
 40
1
 40
1
 40
1
 40
1
 10
122.869843
 20
127.283358
 30
0.0
 10
122.682307
 20
127.095821
 30
0.0
 10
122.576950
 20
126.841467
 30
0.0
 10
122.576950
 20
126.576251
 30
0.0
  0
SPLINE
  5
407
100
AcDbEntity
  8
0
 62
7
100
AcDbSpline
 70
8
 71
3
 72
8
 73
4
 74
0
 40
0
 40
0
 40
0
 40
0
 40
1
 40
1
 40
1
 40
1
 10
122.576950
 20
126.576251
 30
0.0
 10
122.576950
 20
126.311035
 30
0.0
 10
122.682307
 20
126.056681
 30
0.0
 10
122.869843
 20
125.869144
 30
0.0
  0
SPLINE
  5
408
100
AcDbEntity
  8
0
 62
7
100
AcDbSpline
 70
8
 71
3
 72
8
 73
4
 74
0
 40
0
 40
0
 40
0
 40
0
 40
1
 40
1
 40
1
 40
1
 10
122.869843
 20
125.869144
 30
0.0
 10
123.057380
 20
125.681608
 30
0.0
 10
123.311734
 20
125.576251
 30
0.0
 10
123.576950
 20
125.576251
 30
0.0
  0
SPLINE
  5
409
100
AcDbEntity
  8
0
 62
7
100
AcDbSpline
 70
8
 71
3
 72
8
 73
4
 74
0
 40
0
 40
0
 40
0
 40
0
 40
1
 40
1
 40
1
 40
1
 10
123.576950
 20
125.576251
 30
0.0
 10
123.842166
 20
125.576251
 30
0.0
 10
124.096520
 20
125.681608
 30
0.0
 10
124.284057
 20
125.869144
 30
0.0
  0
SPLINE
  5
40a
100
AcDbEntity
  8
0
 62
7
100
AcDbSpline
 70
8
 71
3
 72
8
 73
4
 74
0
 40
0
 40
0
 40
0
 40
0
 40
1
 40
1
 40
1
 40
1
 10
124.284057
 20
125.869144
 30
0.0
 10
124.471593
 20
126.056681
 30
0.0
 10
124.576950
 20
126.311035
 30
0.0
 10
124.576950
 20
126.576251
 30
0.0
  0
LINE
  5
40b
100
AcDbEntity
  8
0
 62
7
100
AcDbLine
 10
124.576950
 20
126.576251
 30
0.0
 11
124.576950
 21
126.576251
 31
0.0
  0
SPLINE
  5
40c
100
AcDbEntity
  8
0
 62
7
100
AcDbSpline
 70
8
 71
3
 72
8
 73
4
 74
0
 40
0
 40
0
 40
0
 40
0
 40
1
 40
1
 40
1
 40
1
 10
120.766920
 20
125.428511
 30
0.0
 10
120.766920
 20
125.693727
 30
0.0
 10
120.661563
 20
125.948081
 30
0.0
 10
120.474027
 20
126.135618
 30
0.0
  0
SPLINE
  5
40d
100
AcDbEntity
  8
0
 62
7
100
AcDbSpline
 70
8
 71
3
 72
8
 73
4
 74
0
 40
0
 40
0
 40
0
 40
0
 40
1
 40
1
 40
1
 40
1
 10
120.474027
 20
126.135618
 30
0.0
 10
120.286490
 20
126.323154
 30
0.0
 10
120.032136
 20
126.428511
 30
0.0
 10
119.766920
 20
126.428511
 30
0.0
  0
SPLINE
  5
40e
100
AcDbEntity
  8
0
 62
7
100
AcDbSpline
 70
8
 71
3
 72
8
 73
4
 74
0
 40
0
 40
0
 40
0
 40
0
 40
1
 40
1
 40
1
 40
1
 10
119.766920
 20
126.428511
 30
0.0
 10
119.501704
 20
126.428511
 30
0.0
 10
119.247350
 20
126.323154
 30
0.0
 10
119.059813
 20
126.135618
 30
0.0
  0
SPLINE
  5
40f
100
AcDbEntity
  8
0
 62
7
100
AcDbSpline
 70
8
 71
3
 72
8
 73
4
 74
0
 40
0
 40
0
 40
0
 40
0
 40
1
 40
1
 40
1
 40
1
 10
119.059813
 20
126.135618
 30
0.0
 10
118.872277
 20
125.948081
 30
0.0
 10
118.766920
 20
125.693727
 30
0.0
 10
118.766920
 20
125.428511
 30
0.0
  0
SPLINE
  5
410
100
AcDbEntity
  8
0
 62
7
100
AcDbSpline
 70
8
 71
3
 72
8
 73
4
 74
0
 40
0
 40
0
 40
0
 40
0
 40
1
 40
1
 40
1
 40
1
 10
118.766920
 20
125.428511
 30
0.0
 10
118.766920
 20
125.163295
 30
0.0
 10
118.872277
 20
124.908941
 30
0.0
 10
119.059813
 20
124.721404
 30
0.0
  0
SPLINE
  5
411
100
AcDbEntity
  8
0
 62
7
100
AcDbSpline
 70
8
 71
3
 72
8
 73
4
 74
0
 40
0
 40
0
 40
0
 40
0
 40
1
 40
1
 40
1
 40
1
 10
119.059813
 20
124.721404
 30
0.0
 10
119.247350
 20
124.533868
 30
0.0
 10
119.501704
 20
124.428511
 30
0.0
 10
119.766920
 20
124.428511
 30
0.0
  0
SPLINE
  5
412
100
AcDbEntity
  8
0
 62
7
100
AcDbSpline
 70
8
 71
3
 72
8
 73
4
 74
0
 40
0
 40
0
 40
0
 40
0
 40
1
 40
1
 40
1
 40
1
 10
119.766920
 20
124.428511
 30
0.0
 10
120.032136
 20
124.428511
 30
0.0
 10
120.286490
 20
124.533868
 30
0.0
 10
120.474027
 20
124.721404
 30
0.0
  0
SPLINE
  5
413
100
AcDbEntity
  8
0
 62
7
100
AcDbSpline
 70
8
 71
3
 72
8
 73
4
 74
0
 40
0
 40
0
 40
0
 40
0
 40
1
 40
1
 40
1
 40
1
 10
120.474027
 20
124.721404
 30
0.0
 10
120.661563
 20
124.908941
 30
0.0
 10
120.766920
 20
125.163295
 30
0.0
 10
120.766920
 20
125.428511
 30
0.0
  0
LINE
  5
414
100
AcDbEntity
  8
0
 62
7
100
AcDbLine
 10
120.766920
 20
125.428511
 30
0.0
 11
120.766920
 21
125.428511
 31
0.0
  0
SPLINE
  5
415
100
AcDbEntity
  8
0
 62
7
100
AcDbSpline
 70
8
 71
3
 72
8
 73
4
 74
0
 40
0
 40
0
 40
0
 40
0
 40
1
 40
1
 40
1
 40
1
 10
116.790340
 20
125.573141
 30
0.0
 10
116.790343
 20
125.838359
 30
0.0
 10
116.684987
 20
126.092716
 30
0.0
 10
116.497450
 20
126.280254
 30
0.0
  0
SPLINE
  5
416
100
AcDbEntity
  8
0
 62
7
100
AcDbSpline
 70
8
 71
3
 72
8
 73
4
 74
0
 40
0
 40
0
 40
0
 40
0
 40
1
 40
1
 40
1
 40
1
 10
116.497450
 20
126.280254
 30
0.0
 10
116.309914
 20
126.467793
 30
0.0
 10
116.055558
 20
126.573151
 30
0.0
 10
115.790340
 20
126.573151
 30
0.0
  0
SPLINE
  5
417
100
AcDbEntity
  8
0
 62
7
100
AcDbSpline
 70
8
 71
3
 72
8
 73
4
 74
0
 40
0
 40
0
 40
0
 40
0
 40
1
 40
1
 40
1
 40
1
 10
115.790340
 20
126.573151
 30
0.0
 10
115.525122
 20
126.573151
 30
0.0
 10
115.270766
 20
126.467793
 30
0.0
 10
115.083230
 20
126.280254
 30
0.0
  0
SPLINE
  5
418
100
AcDbEntity
  8
0
 62
7
100
AcDbSpline
 70
8
 71
3
 72
8
 73
4
 74
0
 40
0
 40
0
 40
0
 40
0
 40
1
 40
1
 40
1
 40
1
 10
115.083230
 20
126.280254
 30
0.0
 10
114.895693
 20
126.092716
 30
0.0
 10
114.790337
 20
125.838359
 30
0.0
 10
114.790340
 20
125.573141
 30
0.0
  0
SPLINE
  5
419
100
AcDbEntity
  8
0
 62
7
100
AcDbSpline
 70
8
 71
3
 72
8
 73
4
 74
0
 40
0
 40
0
 40
0
 40
0
 40
1
 40
1
 40
1
 40
1
 10
114.790340
 20
125.573141
 30
0.0
 10
114.790340
 20
125.307925
 30
0.0
 10
114.895697
 20
125.053571
 30
0.0
 10
115.083233
 20
124.866034
 30
0.0
  0
SPLINE
  5
41a
100
AcDbEntity
  8
0
 62
7
100
AcDbSpline
 70
8
 71
3
 72
8
 73
4
 74
0
 40
0
 40
0
 40
0
 40
0
 40
1
 40
1
 40
1
 40
1
 10
115.083233
 20
124.866034
 30
0.0
 10
115.270770
 20
124.678498
 30
0.0
 10
115.525124
 20
124.573141
 30
0.0
 10
115.790340
 20
124.573141
 30
0.0
  0
SPLINE
  5
41b
100
AcDbEntity
  8
0
 62
7
100
AcDbSpline
 70
8
 71
3
 72
8
 73
4
 74
0
 40
0
 40
0
 40
0
 40
0
 40
1
 40
1
 40
1
 40
1
 10
115.790340
 20
124.573141
 30
0.0
 10
116.055556
 20
124.573141
 30
0.0
 10
116.309910
 20
124.678498
 30
0.0
 10
116.497447
 20
124.866034
 30
0.0
  0
SPLINE
  5
41c
100
AcDbEntity
  8
0
 62
7
100
AcDbSpline
 70
8
 71
3
 72
8
 73
4
 74
0
 40
0
 40
0
 40
0
 40
0
 40
1
 40
1
 40
1
 40
1
 10
116.497447
 20
124.866034
 30
0.0
 10
116.684983
 20
125.053571
 30
0.0
 10
116.790340
 20
125.307925
 30
0.0
 10
116.790340
 20
125.573141
 30
0.0
  0
LINE
  5
41d
100
AcDbEntity
  8
0
 62
7
100
AcDbLine
 10
116.790340
 20
125.573141
 30
0.0
 11
116.790340
 21
125.573141
 31
0.0
  0
SPLINE
  5
41e
100
AcDbEntity
  8
0
 62
7
100
AcDbSpline
 70
8
 71
3
 72
8
 73
4
 74
0
 40
0
 40
0
 40
0
 40
0
 40
1
 40
1
 40
1
 40
1
 10
113.065690
 20
126.973221
 30
0.0
 10
113.065690
 20
127.238437
 30
0.0
 10
112.960333
 20
127.492791
 30
0.0
 10
112.772797
 20
127.680328
 30
0.0
  0
SPLINE
  5
41f
100
AcDbEntity
  8
0
 62
7
100
AcDbSpline
 70
8
 71
3
 72
8
 73
4
 74
0
 40
0
 40
0
 40
0
 40
0
 40
1
 40
1
 40
1
 40
1
 10
112.772797
 20
127.680328
 30
0.0
 10
112.585260
 20
127.867864
 30
0.0
 10
112.330906
 20
127.973221
 30
0.0
 10
112.065690
 20
127.973221
 30
0.0
  0
SPLINE
  5
420
100
AcDbEntity
  8
0
 62
7
100
AcDbSpline
 70
8
 71
3
 72
8
 73
4
 74
0
 40
0
 40
0
 40
0
 40
0
 40
1
 40
1
 40
1
 40
1
 10
112.065690
 20
127.973221
 30
0.0
 10
111.800474
 20
127.973221
 30
0.0
 10
111.546120
 20
127.867864
 30
0.0
 10
111.358583
 20
127.680328
 30
0.0
  0
SPLINE
  5
421
100
AcDbEntity
  8
0
 62
7
100
AcDbSpline
 70
8
 71
3
 72
8
 73
4
 74
0
 40
0
 40
0
 40
0
 40
0
 40
1
 40
1
 40
1
 40
1
 10
111.358583
 20
127.680328
 30
0.0
 10
111.171047
 20
127.492791
 30
0.0
 10
111.065690
 20
127.238437
 30
0.0
 10
111.065690
 20
126.973221
 30
0.0
  0
SPLINE
  5
422
100
AcDbEntity
  8
0
 62
7
100
AcDbSpline
 70
8
 71
3
 72
8
 73
4
 74
0
 40
0
 40
0
 40
0
 40
0
 40
1
 40
1
 40
1
 40
1
 10
111.065690
 20
126.973221
 30
0.0
 10
111.065690
 20
126.708005
 30
0.0
 10
111.171047
 20
126.453651
 30
0.0
 10
111.358583
 20
126.266114
 30
0.0
  0
SPLINE
  5
423
100
AcDbEntity
  8
0
 62
7
100
AcDbSpline
 70
8
 71
3
 72
8
 73
4
 74
0
 40
0
 40
0
 40
0
 40
0
 40
1
 40
1
 40
1
 40
1
 10
111.358583
 20
126.266114
 30
0.0
 10
111.546120
 20
126.078578
 30
0.0
 10
111.800474
 20
125.973221
 30
0.0
 10
112.065690
 20
125.973221
 30
0.0
  0
SPLINE
  5
424
100
AcDbEntity
  8
0
 62
7
100
AcDbSpline
 70
8
 71
3
 72
8
 73
4
 74
0
 40
0
 40
0
 40
0
 40
0
 40
1
 40
1
 40
1
 40
1
 10
112.065690
 20
125.973221
 30
0.0
 10
112.330906
 20
125.973221
 30
0.0
 10
112.585260
 20
126.078578
 30
0.0
 10
112.772797
 20
126.266114
 30
0.0
  0
SPLINE
  5
425
100
AcDbEntity
  8
0
 62
7
100
AcDbSpline
 70
8
 71
3
 72
8
 73
4
 74
0
 40
0
 40
0
 40
0
 40
0
 40
1
 40
1
 40
1
 40
1
 10
112.772797
 20
126.266114
 30
0.0
 10
112.960333
 20
126.453651
 30
0.0
 10
113.065690
 20
126.708005
 30
0.0
 10
113.065690
 20
126.973221
 30
0.0
  0
LINE
  5
426
100
AcDbEntity
  8
0
 62
7
100
AcDbLine
 10
113.065690
 20
126.973221
 30
0.0
 11
113.065690
 21
126.973221
 31
0.0
  0
SPLINE
  5
427
100
AcDbEntity
  8
0
 62
7
100
AcDbSpline
 70
8
 71
3
 72
8
 73
4
 74
0
 40
0
 40
0
 40
0
 40
0
 40
1
 40
1
 40
1
 40
1
 10
109.984770
 20
129.491311
 30
0.0
 10
109.984764
 20
130.043592
 30
0.0
 10
109.537051
 20
130.491301
 30
0.0
 10
108.984770
 20
130.491301
 30
0.0
  0
SPLINE
  5
428
100
AcDbEntity
  8
0
 62
7
100
AcDbSpline
 70
8
 71
3
 72
8
 73
4
 74
0
 40
0
 40
0
 40
0
 40
0
 40
1
 40
1
 40
1
 40
1
 10
108.984770
 20
130.491301
 30
0.0
 10
108.432489
 20
130.491301
 30
0.0
 10
107.984776
 20
130.043592
 30
0.0
 10
107.984770
 20
129.491311
 30
0.0
  0
SPLINE
  5
429
100
AcDbEntity
  8
0
 62
7
100
AcDbSpline
 70
8
 71
3
 72
8
 73
4
 74
0
 40
0
 40
0
 40
0
 40
0
 40
1
 40
1
 40
1
 40
1
 10
107.984770
 20
129.491311
 30
0.0
 10
107.984767
 20
129.226093
 30
0.0
 10
108.090123
 20
128.971736
 30
0.0
 10
108.277660
 20
128.784198
 30
0.0
  0
SPLINE
  5
42a
100
AcDbEntity
  8
0
 62
7
100
AcDbSpline
 70
8
 71
3
 72
8
 73
4
 74
0
 40
0
 40
0
 40
0
 40
0
 40
1
 40
1
 40
1
 40
1
 10
108.277660
 20
128.784198
 30
0.0
 10
108.465196
 20
128.596659
 30
0.0
 10
108.719552
 20
128.491301
 30
0.0
 10
108.984770
 20
128.491301
 30
0.0
  0
SPLINE
  5
42b
100
AcDbEntity
  8
0
 62
7
100
AcDbSpline
 70
8
 71
3
 72
8
 73
4
 74
0
 40
0
 40
0
 40
0
 40
0
 40
1
 40
1
 40
1
 40
1
 10
108.984770
 20
128.491301
 30
0.0
 10
109.249988
 20
128.491301
 30
0.0
 10
109.504344
 20
128.596659
 30
0.0
 10
109.691880
 20
128.784198
 30
0.0
  0
SPLINE
  5
42c
100
AcDbEntity
  8
0
 62
7
100
AcDbSpline
 70
8
 71
3
 72
8
 73
4
 74
0
 40
0
 40
0
 40
0
 40
0
 40
1
 40
1
 40
1
 40
1
 10
109.691880
 20
128.784198
 30
0.0
 10
109.879417
 20
128.971736
 30
0.0
 10
109.984773
 20
129.226093
 30
0.0
 10
109.984770
 20
129.491311
 30
0.0
  0
LINE
  5
42d
100
AcDbEntity
  8
0
 62
7
100
AcDbLine
 10
109.984770
 20
129.491311
 30
0.0
 11
109.984770
 21
129.491311
 31
0.0
  0
SPLINE
  5
42e
100
AcDbEntity
  8
0
 62
7
100
AcDbSpline
 70
8
 71
3
 72
8
 73
4
 74
0
 40
0
 40
0
 40
0
 40
0
 40
1
 40
1
 40
1
 40
1
 10
107.907140
 20
132.887401
 30
0.0
 10
107.907140
 20
133.152617
 30
0.0
 10
107.801783
 20
133.406971
 30
0.0
 10
107.614247
 20
133.594508
 30
0.0
  0
SPLINE
  5
42f
100
AcDbEntity
  8
0
 62
7
100
AcDbSpline
 70
8
 71
3
 72
8
 73
4
 74
0
 40
0
 40
0
 40
0
 40
0
 40
1
 40
1
 40
1
 40
1
 10
107.614247
 20
133.594508
 30
0.0
 10
107.426710
 20
133.782044
 30
0.0
 10
107.172356
 20
133.887401
 30
0.0
 10
106.907140
 20
133.887401
 30
0.0
  0
SPLINE
  5
430
100
AcDbEntity
  8
0
 62
7
100
AcDbSpline
 70
8
 71
3
 72
8
 73
4
 74
0
 40
0
 40
0
 40
0
 40
0
 40
1
 40
1
 40
1
 40
1
 10
106.907140
 20
133.887401
 30
0.0
 10
106.641924
 20
133.887401
 30
0.0
 10
106.387570
 20
133.782044
 30
0.0
 10
106.200033
 20
133.594508
 30
0.0
  0
SPLINE
  5
431
100
AcDbEntity
  8
0
 62
7
100
AcDbSpline
 70
8
 71
3
 72
8
 73
4
 74
0
 40
0
 40
0
 40
0
 40
0
 40
1
 40
1
 40
1
 40
1
 10
106.200033
 20
133.594508
 30
0.0
 10
106.012497
 20
133.406971
 30
0.0
 10
105.907140
 20
133.152617
 30
0.0
 10
105.907140
 20
132.887401
 30
0.0
  0
SPLINE
  5
432
100
AcDbEntity
  8
0
 62
7
100
AcDbSpline
 70
8
 71
3
 72
8
 73
4
 74
0
 40
0
 40
0
 40
0
 40
0
 40
1
 40
1
 40
1
 40
1
 10
105.907140
 20
132.887401
 30
0.0
 10
105.907140
 20
132.622185
 30
0.0
 10
106.012497
 20
132.367831
 30
0.0
 10
106.200033
 20
132.180294
 30
0.0
  0
SPLINE
  5
433
100
AcDbEntity
  8
0
 62
7
100
AcDbSpline
 70
8
 71
3
 72
8
 73
4
 74
0
 40
0
 40
0
 40
0
 40
0
 40
1
 40
1
 40
1
 40
1
 10
106.200033
 20
132.180294
 30
0.0
 10
106.387570
 20
131.992758
 30
0.0
 10
106.641924
 20
131.887401
 30
0.0
 10
106.907140
 20
131.887401
 30
0.0
  0
SPLINE
  5
434
100
AcDbEntity
  8
0
 62
7
100
AcDbSpline
 70
8
 71
3
 72
8
 73
4
 74
0
 40
0
 40
0
 40
0
 40
0
 40
1
 40
1
 40
1
 40
1
 10
106.907140
 20
131.887401
 30
0.0
 10
107.172356
 20
131.887401
 30
0.0
 10
107.426710
 20
131.992758
 30
0.0
 10
107.614247
 20
132.180294
 30
0.0
  0
SPLINE
  5
435
100
AcDbEntity
  8
0
 62
7
100
AcDbSpline
 70
8
 71
3
 72
8
 73
4
 74
0
 40
0
 40
0
 40
0
 40
0
 40
1
 40
1
 40
1
 40
1
 10
107.614247
 20
132.180294
 30
0.0
 10
107.801783
 20
132.367831
 30
0.0
 10
107.907140
 20
132.622185
 30
0.0
 10
107.907140
 20
132.887401
 30
0.0
  0
LINE
  5
436
100
AcDbEntity
  8
0
 62
7
100
AcDbLine
 10
107.907140
 20
132.887401
 30
0.0
 11
107.907140
 21
132.887401
 31
0.0
  0
SPLINE
  5
437
100
AcDbEntity
  8
0
 62
7
100
AcDbSpline
 70
8
 71
3
 72
8
 73
4
 74
0
 40
0
 40
0
 40
0
 40
0
 40
1
 40
1
 40
1
 40
1
 10
107.032620
 20
136.770401
 30
0.0
 10
107.032620
 20
137.035617
 30
0.0
 10
106.927263
 20
137.289971
 30
0.0
 10
106.739727
 20
137.477508
 30
0.0
  0
SPLINE
  5
438
100
AcDbEntity
  8
0
 62
7
100
AcDbSpline
 70
8
 71
3
 72
8
 73
4
 74
0
 40
0
 40
0
 40
0
 40
0
 40
1
 40
1
 40
1
 40
1
 10
106.739727
 20
137.477508
 30
0.0
 10
106.552190
 20
137.665044
 30
0.0
 10
106.297836
 20
137.770401
 30
0.0
 10
106.032620
 20
137.770401
 30
0.0
  0
SPLINE
  5
439
100
AcDbEntity
  8
0
 62
7
100
AcDbSpline
 70
8
 71
3
 72
8
 73
4
 74
0
 40
0
 40
0
 40
0
 40
0
 40
1
 40
1
 40
1
 40
1
 10
106.032620
 20
137.770401
 30
0.0
 10
105.767404
 20
137.770401
 30
0.0
 10
105.513050
 20
137.665044
 30
0.0
 10
105.325513
 20
137.477508
 30
0.0
  0
SPLINE
  5
43a
100
AcDbEntity
  8
0
 62
7
100
AcDbSpline
 70
8
 71
3
 72
8
 73
4
 74
0
 40
0
 40
0
 40
0
 40
0
 40
1
 40
1
 40
1
 40
1
 10
105.325513
 20
137.477508
 30
0.0
 10
105.137977
 20
137.289971
 30
0.0
 10
105.032620
 20
137.035617
 30
0.0
 10
105.032620
 20
136.770401
 30
0.0
  0
SPLINE
  5
43b
100
AcDbEntity
  8
0
 62
7
100
AcDbSpline
 70
8
 71
3
 72
8
 73
4
 74
0
 40
0
 40
0
 40
0
 40
0
 40
1
 40
1
 40
1
 40
1
 10
105.032620
 20
136.770401
 30
0.0
 10
105.032620
 20
136.505185
 30
0.0
 10
105.137977
 20
136.250831
 30
0.0
 10
105.325513
 20
136.063294
 30
0.0
  0
SPLINE
  5
43c
100
AcDbEntity
  8
0
 62
7
100
AcDbSpline
 70
8
 71
3
 72
8
 73
4
 74
0
 40
0
 40
0
 40
0
 40
0
 40
1
 40
1
 40
1
 40
1
 10
105.325513
 20
136.063294
 30
0.0
 10
105.513050
 20
135.875758
 30
0.0
 10
105.767404
 20
135.770401
 30
0.0
 10
106.032620
 20
135.770401
 30
0.0
  0
SPLINE
  5
43d
100
AcDbEntity
  8
0
 62
7
100
AcDbSpline
 70
8
 71
3
 72
8
 73
4
 74
0
 40
0
 40
0
 40
0
 40
0
 40
1
 40
1
 40
1
 40
1
 10
106.032620
 20
135.770401
 30
0.0
 10
106.297836
 20
135.770401
 30
0.0
 10
106.552190
 20
135.875758
 30
0.0
 10
106.739727
 20
136.063294
 30
0.0
  0
SPLINE
  5
43e
100
AcDbEntity
  8
0
 62
7
100
AcDbSpline
 70
8
 71
3
 72
8
 73
4
 74
0
 40
0
 40
0
 40
0
 40
0
 40
1
 40
1
 40
1
 40
1
 10
106.739727
 20
136.063294
 30
0.0
 10
106.927263
 20
136.250831
 30
0.0
 10
107.032620
 20
136.505185
 30
0.0
 10
107.032620
 20
136.770401
 30
0.0
  0
LINE
  5
43f
100
AcDbEntity
  8
0
 62
7
100
AcDbLine
 10
107.032620
 20
136.770401
 30
0.0
 11
107.032620
 21
136.770401
 31
0.0
  0
SPLINE
  5
440
100
AcDbEntity
  8
0
 62
7
100
AcDbSpline
 70
8
 71
3
 72
8
 73
4
 74
0
 40
0
 40
0
 40
0
 40
0
 40
1
 40
1
 40
1
 40
1
 10
107.381270
 20
140.735591
 30
0.0
 10
107.381270
 20
141.000807
 30
0.0
 10
107.275913
 20
141.255161
 30
0.0
 10
107.088377
 20
141.442698
 30
0.0
  0
SPLINE
  5
441
100
AcDbEntity
  8
0
 62
7
100
AcDbSpline
 70
8
 71
3
 72
8
 73
4
 74
0
 40
0
 40
0
 40
0
 40
0
 40
1
 40
1
 40
1
 40
1
 10
107.088377
 20
141.442698
 30
0.0
 10
106.900840
 20
141.630234
 30
0.0
 10
106.646486
 20
141.735591
 30
0.0
 10
106.381270
 20
141.735591
 30
0.0
  0
SPLINE
  5
442
100
AcDbEntity
  8
0
 62
7
100
AcDbSpline
 70
8
 71
3
 72
8
 73
4
 74
0
 40
0
 40
0
 40
0
 40
0
 40
1
 40
1
 40
1
 40
1
 10
106.381270
 20
141.735591
 30
0.0
 10
106.116054
 20
141.735591
 30
0.0
 10
105.861700
 20
141.630234
 30
0.0
 10
105.674163
 20
141.442698
 30
0.0
  0
SPLINE
  5
443
100
AcDbEntity
  8
0
 62
7
100
AcDbSpline
 70
8
 71
3
 72
8
 73
4
 74
0
 40
0
 40
0
 40
0
 40
0
 40
1
 40
1
 40
1
 40
1
 10
105.674163
 20
141.442698
 30
0.0
 10
105.486627
 20
141.255161
 30
0.0
 10
105.381270
 20
141.000807
 30
0.0
 10
105.381270
 20
140.735591
 30
0.0
  0
SPLINE
  5
444
100
AcDbEntity
  8
0
 62
7
100
AcDbSpline
 70
8
 71
3
 72
8
 73
4
 74
0
 40
0
 40
0
 40
0
 40
0
 40
1
 40
1
 40
1
 40
1
 10
105.381270
 20
140.735591
 30
0.0
 10
105.381267
 20
140.470373
 30
0.0
 10
105.486623
 20
140.216016
 30
0.0
 10
105.674160
 20
140.028478
 30
0.0
  0
SPLINE
  5
445
100
AcDbEntity
  8
0
 62
7
100
AcDbSpline
 70
8
 71
3
 72
8
 73
4
 74
0
 40
0
 40
0
 40
0
 40
0
 40
1
 40
1
 40
1
 40
1
 10
105.674160
 20
140.028478
 30
0.0
 10
105.861696
 20
139.840939
 30
0.0
 10
106.116052
 20
139.735581
 30
0.0
 10
106.381270
 20
139.735581
 30
0.0
  0
SPLINE
  5
446
100
AcDbEntity
  8
0
 62
7
100
AcDbSpline
 70
8
 71
3
 72
8
 73
4
 74
0
 40
0
 40
0
 40
0
 40
0
 40
1
 40
1
 40
1
 40
1
 10
106.381270
 20
139.735581
 30
0.0
 10
106.646488
 20
139.735581
 30
0.0
 10
106.900844
 20
139.840939
 30
0.0
 10
107.088380
 20
140.028478
 30
0.0
  0
SPLINE
  5
447
100
AcDbEntity
  8
0
 62
7
100
AcDbSpline
 70
8
 71
3
 72
8
 73
4
 74
0
 40
0
 40
0
 40
0
 40
0
 40
1
 40
1
 40
1
 40
1
 10
107.088380
 20
140.028478
 30
0.0
 10
107.275917
 20
140.216016
 30
0.0
 10
107.381273
 20
140.470373
 30
0.0
 10
107.381270
 20
140.735591
 30
0.0
  0
LINE
  5
448
100
AcDbEntity
  8
0
 62
7
100
AcDbLine
 10
107.381270
 20
140.735591
 30
0.0
 11
107.381270
 21
140.735591
 31
0.0
  0
SPLINE
  5
449
100
AcDbEntity
  8
0
 62
7
100
AcDbSpline
 70
8
 71
3
 72
8
 73
4
 74
0
 40
0
 40
0
 40
0
 40
0
 40
1
 40
1
 40
1
 40
1
 10
108.908890
 20
144.412511
 30
0.0
 10
108.908890
 20
144.677727
 30
0.0
 10
108.803533
 20
144.932081
 30
0.0
 10
108.615997
 20
145.119618
 30
0.0
  0
SPLINE
  5
44a
100
AcDbEntity
  8
0
 62
7
100
AcDbSpline
 70
8
 71
3
 72
8
 73
4
 74
0
 40
0
 40
0
 40
0
 40
0
 40
1
 40
1
 40
1
 40
1
 10
108.615997
 20
145.119618
 30
0.0
 10
108.428460
 20
145.307154
 30
0.0
 10
108.174106
 20
145.412511
 30
0.0
 10
107.908890
 20
145.412511
 30
0.0
  0
SPLINE
  5
44b
100
AcDbEntity
  8
0
 62
7
100
AcDbSpline
 70
8
 71
3
 72
8
 73
4
 74
0
 40
0
 40
0
 40
0
 40
0
 40
1
 40
1
 40
1
 40
1
 10
107.908890
 20
145.412511
 30
0.0
 10
107.643674
 20
145.412511
 30
0.0
 10
107.389320
 20
145.307154
 30
0.0
 10
107.201783
 20
145.119618
 30
0.0
  0
SPLINE
  5
44c
100
AcDbEntity
  8
0
 62
7
100
AcDbSpline
 70
8
 71
3
 72
8
 73
4
 74
0
 40
0
 40
0
 40
0
 40
0
 40
1
 40
1
 40
1
 40
1
 10
107.201783
 20
145.119618
 30
0.0
 10
107.014247
 20
144.932081
 30
0.0
 10
106.908890
 20
144.677727
 30
0.0
 10
106.908890
 20
144.412511
 30
0.0
  0
SPLINE
  5
44d
100
AcDbEntity
  8
0
 62
7
100
AcDbSpline
 70
8
 71
3
 72
8
 73
4
 74
0
 40
0
 40
0
 40
0
 40
0
 40
1
 40
1
 40
1
 40
1
 10
106.908890
 20
144.412511
 30
0.0
 10
106.908890
 20
144.147295
 30
0.0
 10
107.014247
 20
143.892941
 30
0.0
 10
107.201783
 20
143.705404
 30
0.0
  0
SPLINE
  5
44e
100
AcDbEntity
  8
0
 62
7
100
AcDbSpline
 70
8
 71
3
 72
8
 73
4
 74
0
 40
0
 40
0
 40
0
 40
0
 40
1
 40
1
 40
1
 40
1
 10
107.201783
 20
143.705404
 30
0.0
 10
107.389320
 20
143.517868
 30
0.0
 10
107.643674
 20
143.412511
 30
0.0
 10
107.908890
 20
143.412511
 30
0.0
  0
SPLINE
  5
44f
100
AcDbEntity
  8
0
 62
7
100
AcDbSpline
 70
8
 71
3
 72
8
 73
4
 74
0
 40
0
 40
0
 40
0
 40
0
 40
1
 40
1
 40
1
 40
1
 10
107.908890
 20
143.412511
 30
0.0
 10
108.174106
 20
143.412511
 30
0.0
 10
108.428460
 20
143.517868
 30
0.0
 10
108.615997
 20
143.705404
 30
0.0
  0
SPLINE
  5
450
100
AcDbEntity
  8
0
 62
7
100
AcDbSpline
 70
8
 71
3
 72
8
 73
4
 74
0
 40
0
 40
0
 40
0
 40
0
 40
1
 40
1
 40
1
 40
1
 10
108.615997
 20
143.705404
 30
0.0
 10
108.803533
 20
143.892941
 30
0.0
 10
108.908890
 20
144.147295
 30
0.0
 10
108.908890
 20
144.412511
 30
0.0
  0
LINE
  5
451
100
AcDbEntity
  8
0
 62
7
100
AcDbLine
 10
108.908890
 20
144.412511
 30
0.0
 11
108.908890
 21
144.412511
 31
0.0
  0
SPLINE
  5
452
100
AcDbEntity
  8
0
 62
7
100
AcDbSpline
 70
8
 71
3
 72
8
 73
4
 74
0
 40
0
 40
0
 40
0
 40
0
 40
1
 40
1
 40
1
 40
1
 10
111.508990
 20
147.428341
 30
0.0
 10
111.508990
 20
147.693557
 30
0.0
 10
111.403633
 20
147.947911
 30
0.0
 10
111.216097
 20
148.135448
 30
0.0
  0
SPLINE
  5
453
100
AcDbEntity
  8
0
 62
7
100
AcDbSpline
 70
8
 71
3
 72
8
 73
4
 74
0
 40
0
 40
0
 40
0
 40
0
 40
1
 40
1
 40
1
 40
1
 10
111.216097
 20
148.135448
 30
0.0
 10
111.028560
 20
148.322984
 30
0.0
 10
110.774206
 20
148.428341
 30
0.0
 10
110.508990
 20
148.428341
 30
0.0
  0
SPLINE
  5
454
100
AcDbEntity
  8
0
 62
7
100
AcDbSpline
 70
8
 71
3
 72
8
 73
4
 74
0
 40
0
 40
0
 40
0
 40
0
 40
1
 40
1
 40
1
 40
1
 10
110.508990
 20
148.428341
 30
0.0
 10
110.243774
 20
148.428341
 30
0.0
 10
109.989420
 20
148.322984
 30
0.0
 10
109.801883
 20
148.135448
 30
0.0
  0
SPLINE
  5
455
100
AcDbEntity
  8
0
 62
7
100
AcDbSpline
 70
8
 71
3
 72
8
 73
4
 74
0
 40
0
 40
0
 40
0
 40
0
 40
1
 40
1
 40
1
 40
1
 10
109.801883
 20
148.135448
 30
0.0
 10
109.614347
 20
147.947911
 30
0.0
 10
109.508990
 20
147.693557
 30
0.0
 10
109.508990
 20
147.428341
 30
0.0
  0
SPLINE
  5
456
100
AcDbEntity
  8
0
 62
7
100
AcDbSpline
 70
8
 71
3
 72
8
 73
4
 74
0
 40
0
 40
0
 40
0
 40
0
 40
1
 40
1
 40
1
 40
1
 10
109.508990
 20
147.428341
 30
0.0
 10
109.508990
 20
147.163125
 30
0.0
 10
109.614347
 20
146.908771
 30
0.0
 10
109.801883
 20
146.721234
 30
0.0
  0
SPLINE
  5
457
100
AcDbEntity
  8
0
 62
7
100
AcDbSpline
 70
8
 71
3
 72
8
 73
4
 74
0
 40
0
 40
0
 40
0
 40
0
 40
1
 40
1
 40
1
 40
1
 10
109.801883
 20
146.721234
 30
0.0
 10
109.989420
 20
146.533698
 30
0.0
 10
110.243774
 20
146.428341
 30
0.0
 10
110.508990
 20
146.428341
 30
0.0
  0
SPLINE
  5
458
100
AcDbEntity
  8
0
 62
7
100
AcDbSpline
 70
8
 71
3
 72
8
 73
4
 74
0
 40
0
 40
0
 40
0
 40
0
 40
1
 40
1
 40
1
 40
1
 10
110.508990
 20
146.428341
 30
0.0
 10
110.774206
 20
146.428341
 30
0.0
 10
111.028560
 20
146.533698
 30
0.0
 10
111.216097
 20
146.721234
 30
0.0
  0
SPLINE
  5
459
100
AcDbEntity
  8
0
 62
7
100
AcDbSpline
 70
8
 71
3
 72
8
 73
4
 74
0
 40
0
 40
0
 40
0
 40
0
 40
1
 40
1
 40
1
 40
1
 10
111.216097
 20
146.721234
 30
0.0
 10
111.403633
 20
146.908771
 30
0.0
 10
111.508990
 20
147.163125
 30
0.0
 10
111.508990
 20
147.428341
 30
0.0
  0
LINE
  5
45a
100
AcDbEntity
  8
0
 62
7
100
AcDbLine
 10
111.508990
 20
147.428341
 30
0.0
 11
111.508990
 21
147.428341
 31
0.0
  0
SPLINE
  5
45b
100
AcDbEntity
  8
0
 62
7
100
AcDbSpline
 70
8
 71
3
 72
8
 73
4
 74
0
 40
0
 40
0
 40
0
 40
0
 40
1
 40
1
 40
1
 40
1
 10
114.920760
 20
149.482461
 30
0.0
 10
114.920760
 20
149.747677
 30
0.0
 10
114.815403
 20
150.002031
 30
0.0
 10
114.627867
 20
150.189568
 30
0.0
  0
SPLINE
  5
45c
100
AcDbEntity
  8
0
 62
7
100
AcDbSpline
 70
8
 71
3
 72
8
 73
4
 74
0
 40
0
 40
0
 40
0
 40
0
 40
1
 40
1
 40
1
 40
1
 10
114.627867
 20
150.189568
 30
0.0
 10
114.440330
 20
150.377104
 30
0.0
 10
114.185976
 20
150.482461
 30
0.0
 10
113.920760
 20
150.482461
 30
0.0
  0
SPLINE
  5
45d
100
AcDbEntity
  8
0
 62
7
100
AcDbSpline
 70
8
 71
3
 72
8
 73
4
 74
0
 40
0
 40
0
 40
0
 40
0
 40
1
 40
1
 40
1
 40
1
 10
113.920760
 20
150.482461
 30
0.0
 10
113.655544
 20
150.482461
 30
0.0
 10
113.401190
 20
150.377104
 30
0.0
 10
113.213653
 20
150.189568
 30
0.0
  0
SPLINE
  5
45e
100
AcDbEntity
  8
0
 62
7
100
AcDbSpline
 70
8
 71
3
 72
8
 73
4
 74
0
 40
0
 40
0
 40
0
 40
0
 40
1
 40
1
 40
1
 40
1
 10
113.213653
 20
150.189568
 30
0.0
 10
113.026117
 20
150.002031
 30
0.0
 10
112.920760
 20
149.747677
 30
0.0
 10
112.920760
 20
149.482461
 30
0.0
  0
SPLINE
  5
45f
100
AcDbEntity
  8
0
 62
7
100
AcDbSpline
 70
8
 71
3
 72
8
 73
4
 74
0
 40
0
 40
0
 40
0
 40
0
 40
1
 40
1
 40
1
 40
1
 10
112.920760
 20
149.482461
 30
0.0
 10
112.920760
 20
149.217245
 30
0.0
 10
113.026117
 20
148.962891
 30
0.0
 10
113.213653
 20
148.775354
 30
0.0
  0
SPLINE
  5
460
100
AcDbEntity
  8
0
 62
7
100
AcDbSpline
 70
8
 71
3
 72
8
 73
4
 74
0
 40
0
 40
0
 40
0
 40
0
 40
1
 40
1
 40
1
 40
1
 10
113.213653
 20
148.775354
 30
0.0
 10
113.401190
 20
148.587818
 30
0.0
 10
113.655544
 20
148.482461
 30
0.0
 10
113.920760
 20
148.482461
 30
0.0
  0
SPLINE
  5
461
100
AcDbEntity
  8
0
 62
7
100
AcDbSpline
 70
8
 71
3
 72
8
 73
4
 74
0
 40
0
 40
0
 40
0
 40
0
 40
1
 40
1
 40
1
 40
1
 10
113.920760
 20
148.482461
 30
0.0
 10
114.185976
 20
148.482461
 30
0.0
 10
114.440330
 20
148.587818
 30
0.0
 10
114.627867
 20
148.775354
 30
0.0
  0
SPLINE
  5
462
100
AcDbEntity
  8
0
 62
7
100
AcDbSpline
 70
8
 71
3
 72
8
 73
4
 74
0
 40
0
 40
0
 40
0
 40
0
 40
1
 40
1
 40
1
 40
1
 10
114.627867
 20
148.775354
 30
0.0
 10
114.815403
 20
148.962891
 30
0.0
 10
114.920760
 20
149.217245
 30
0.0
 10
114.920760
 20
149.482461
 30
0.0
  0
LINE
  5
463
100
AcDbEntity
  8
0
 62
7
100
AcDbLine
 10
114.920760
 20
149.482461
 30
0.0
 11
114.920760
 21
149.482461
 31
0.0
  0
SPLINE
  5
464
100
AcDbEntity
  8
0
 62
7
100
AcDbSpline
 70
8
 71
3
 72
8
 73
4
 74
0
 40
0
 40
0
 40
0
 40
0
 40
1
 40
1
 40
1
 40
1
 10
118.798960
 20
150.385971
 30
0.0
 10
118.798960
 20
150.651187
 30
0.0
 10
118.693603
 20
150.905541
 30
0.0
 10
118.506067
 20
151.093078
 30
0.0
  0
SPLINE
  5
465
100
AcDbEntity
  8
0
 62
7
100
AcDbSpline
 70
8
 71
3
 72
8
 73
4
 74
0
 40
0
 40
0
 40
0
 40
0
 40
1
 40
1
 40
1
 40
1
 10
118.506067
 20
151.093078
 30
0.0
 10
118.318530
 20
151.280614
 30
0.0
 10
118.064176
 20
151.385971
 30
0.0
 10
117.798960
 20
151.385971
 30
0.0
  0
SPLINE
  5
466
100
AcDbEntity
  8
0
 62
7
100
AcDbSpline
 70
8
 71
3
 72
8
 73
4
 74
0
 40
0
 40
0
 40
0
 40
0
 40
1
 40
1
 40
1
 40
1
 10
117.798960
 20
151.385971
 30
0.0
 10
117.533744
 20
151.385971
 30
0.0
 10
117.279390
 20
151.280614
 30
0.0
 10
117.091853
 20
151.093078
 30
0.0
  0
SPLINE
  5
467
100
AcDbEntity
  8
0
 62
7
100
AcDbSpline
 70
8
 71
3
 72
8
 73
4
 74
0
 40
0
 40
0
 40
0
 40
0
 40
1
 40
1
 40
1
 40
1
 10
117.091853
 20
151.093078
 30
0.0
 10
116.904317
 20
150.905541
 30
0.0
 10
116.798960
 20
150.651187
 30
0.0
 10
116.798960
 20
150.385971
 30
0.0
  0
SPLINE
  5
468
100
AcDbEntity
  8
0
 62
7
100
AcDbSpline
 70
8
 71
3
 72
8
 73
4
 74
0
 40
0
 40
0
 40
0
 40
0
 40
1
 40
1
 40
1
 40
1
 10
116.798960
 20
150.385971
 30
0.0
 10
116.798960
 20
150.120755
 30
0.0
 10
116.904317
 20
149.866401
 30
0.0
 10
117.091853
 20
149.678864
 30
0.0
  0
SPLINE
  5
469
100
AcDbEntity
  8
0
 62
7
100
AcDbSpline
 70
8
 71
3
 72
8
 73
4
 74
0
 40
0
 40
0
 40
0
 40
0
 40
1
 40
1
 40
1
 40
1
 10
117.091853
 20
149.678864
 30
0.0
 10
117.279390
 20
149.491328
 30
0.0
 10
117.533744
 20
149.385971
 30
0.0
 10
117.798960
 20
149.385971
 30
0.0
  0
SPLINE
  5
46a
100
AcDbEntity
  8
0
 62
7
100
AcDbSpline
 70
8
 71
3
 72
8
 73
4
 74
0
 40
0
 40
0
 40
0
 40
0
 40
1
 40
1
 40
1
 40
1
 10
117.798960
 20
149.385971
 30
0.0
 10
118.064176
 20
149.385971
 30
0.0
 10
118.318530
 20
149.491328
 30
0.0
 10
118.506067
 20
149.678864
 30
0.0
  0
SPLINE
  5
46b
100
AcDbEntity
  8
0
 62
7
100
AcDbSpline
 70
8
 71
3
 72
8
 73
4
 74
0
 40
0
 40
0
 40
0
 40
0
 40
1
 40
1
 40
1
 40
1
 10
118.506067
 20
149.678864
 30
0.0
 10
118.693603
 20
149.866401
 30
0.0
 10
118.798960
 20
150.120755
 30
0.0
 10
118.798960
 20
150.385971
 30
0.0
  0
LINE
  5
46c
100
AcDbEntity
  8
0
 62
7
100
AcDbLine
 10
118.798960
 20
150.385971
 30
0.0
 11
118.798960
 21
150.385971
 31
0.0
  0
SPLINE
  5
46d
100
AcDbEntity
  8
0
 62
7
100
AcDbSpline
 70
8
 71
3
 72
8
 73
4
 74
0
 40
0
 40
0
 40
0
 40
0
 40
1
 40
1
 40
1
 40
1
 10
122.771470
 20
150.113551
 30
0.0
 10
122.771470
 20
150.378767
 30
0.0
 10
122.666113
 20
150.633121
 30
0.0
 10
122.478577
 20
150.820658
 30
0.0
  0
SPLINE
  5
46e
100
AcDbEntity
  8
0
 62
7
100
AcDbSpline
 70
8
 71
3
 72
8
 73
4
 74
0
 40
0
 40
0
 40
0
 40
0
 40
1
 40
1
 40
1
 40
1
 10
122.478577
 20
150.820658
 30
0.0
 10
122.291040
 20
151.008194
 30
0.0
 10
122.036686
 20
151.113551
 30
0.0
 10
121.771470
 20
151.113551
 30
0.0
  0
SPLINE
  5
46f
100
AcDbEntity
  8
0
 62
7
100
AcDbSpline
 70
8
 71
3
 72
8
 73
4
 74
0
 40
0
 40
0
 40
0
 40
0
 40
1
 40
1
 40
1
 40
1
 10
121.771470
 20
151.113551
 30
0.0
 10
121.506254
 20
151.113551
 30
0.0
 10
121.251900
 20
151.008194
 30
0.0
 10
121.064363
 20
150.820658
 30
0.0
  0
SPLINE
  5
470
100
AcDbEntity
  8
0
 62
7
100
AcDbSpline
 70
8
 71
3
 72
8
 73
4
 74
0
 40
0
 40
0
 40
0
 40
0
 40
1
 40
1
 40
1
 40
1
 10
121.064363
 20
150.820658
 30
0.0
 10
120.876827
 20
150.633121
 30
0.0
 10
120.771470
 20
150.378767
 30
0.0
 10
120.771470
 20
150.113551
 30
0.0
  0
SPLINE
  5
471
100
AcDbEntity
  8
0
 62
7
100
AcDbSpline
 70
8
 71
3
 72
8
 73
4
 74
0
 40
0
 40
0
 40
0
 40
0
 40
1
 40
1
 40
1
 40
1
 10
120.771470
 20
150.113551
 30
0.0
 10
120.771470
 20
149.848335
 30
0.0
 10
120.876827
 20
149.593981
 30
0.0
 10
121.064363
 20
149.406444
 30
0.0
  0
SPLINE
  5
472
100
AcDbEntity
  8
0
 62
7
100
AcDbSpline
 70
8
 71
3
 72
8
 73
4
 74
0
 40
0
 40
0
 40
0
 40
0
 40
1
 40
1
 40
1
 40
1
 10
121.064363
 20
149.406444
 30
0.0
 10
121.251900
 20
149.218908
 30
0.0
 10
121.506254
 20
149.113551
 30
0.0
 10
121.771470
 20
149.113551
 30
0.0
  0
SPLINE
  5
473
100
AcDbEntity
  8
0
 62
7
100
AcDbSpline
 70
8
 71
3
 72
8
 73
4
 74
0
 40
0
 40
0
 40
0
 40
0
 40
1
 40
1
 40
1
 40
1
 10
121.771470
 20
149.113551
 30
0.0
 10
122.036686
 20
149.113551
 30
0.0
 10
122.291040
 20
149.218908
 30
0.0
 10
122.478577
 20
149.406444
 30
0.0
  0
SPLINE
  5
474
100
AcDbEntity
  8
0
 62
7
100
AcDbSpline
 70
8
 71
3
 72
8
 73
4
 74
0
 40
0
 40
0
 40
0
 40
0
 40
1
 40
1
 40
1
 40
1
 10
122.478577
 20
149.406444
 30
0.0
 10
122.666113
 20
149.593981
 30
0.0
 10
122.771470
 20
149.848335
 30
0.0
 10
122.771470
 20
150.113551
 30
0.0
  0
LINE
  5
475
100
AcDbEntity
  8
0
 62
7
100
AcDbLine
 10
122.771470
 20
150.113551
 30
0.0
 11
122.771470
 21
150.113551
 31
0.0
  0
SPLINE
  5
476
100
AcDbEntity
  8
0
 62
7
100
AcDbSpline
 70
8
 71
3
 72
8
 73
4
 74
0
 40
0
 40
0
 40
0
 40
0
 40
1
 40
1
 40
1
 40
1
 10
126.501800
 20
148.716461
 30
0.0
 10
126.501800
 20
148.981677
 30
0.0
 10
126.396443
 20
149.236031
 30
0.0
 10
126.208907
 20
149.423568
 30
0.0
  0
SPLINE
  5
477
100
AcDbEntity
  8
0
 62
7
100
AcDbSpline
 70
8
 71
3
 72
8
 73
4
 74
0
 40
0
 40
0
 40
0
 40
0
 40
1
 40
1
 40
1
 40
1
 10
126.208907
 20
149.423568
 30
0.0
 10
126.021370
 20
149.611104
 30
0.0
 10
125.767016
 20
149.716461
 30
0.0
 10
125.501800
 20
149.716461
 30
0.0
  0
SPLINE
  5
478
100
AcDbEntity
  8
0
 62
7
100
AcDbSpline
 70
8
 71
3
 72
8
 73
4
 74
0
 40
0
 40
0
 40
0
 40
0
 40
1
 40
1
 40
1
 40
1
 10
125.501800
 20
149.716461
 30
0.0
 10
125.236584
 20
149.716461
 30
0.0
 10
124.982230
 20
149.611104
 30
0.0
 10
124.794693
 20
149.423568
 30
0.0
  0
SPLINE
  5
479
100
AcDbEntity
  8
0
 62
7
100
AcDbSpline
 70
8
 71
3
 72
8
 73
4
 74
0
 40
0
 40
0
 40
0
 40
0
 40
1
 40
1
 40
1
 40
1
 10
124.794693
 20
149.423568
 30
0.0
 10
124.607157
 20
149.236031
 30
0.0
 10
124.501800
 20
148.981677
 30
0.0
 10
124.501800
 20
148.716461
 30
0.0
  0
SPLINE
  5
47a
100
AcDbEntity
  8
0
 62
7
100
AcDbSpline
 70
8
 71
3
 72
8
 73
4
 74
0
 40
0
 40
0
 40
0
 40
0
 40
1
 40
1
 40
1
 40
1
 10
124.501800
 20
148.716461
 30
0.0
 10
124.501797
 20
148.451243
 30
0.0
 10
124.607153
 20
148.196886
 30
0.0
 10
124.794690
 20
148.009348
 30
0.0
  0
SPLINE
  5
47b
100
AcDbEntity
  8
0
 62
7
100
AcDbSpline
 70
8
 71
3
 72
8
 73
4
 74
0
 40
0
 40
0
 40
0
 40
0
 40
1
 40
1
 40
1
 40
1
 10
124.794690
 20
148.009348
 30
0.0
 10
124.982226
 20
147.821809
 30
0.0
 10
125.236582
 20
147.716451
 30
0.0
 10
125.501800
 20
147.716451
 30
0.0
  0
SPLINE
  5
47c
100
AcDbEntity
  8
0
 62
7
100
AcDbSpline
 70
8
 71
3
 72
8
 73
4
 74
0
 40
0
 40
0
 40
0
 40
0
 40
1
 40
1
 40
1
 40
1
 10
125.501800
 20
147.716451
 30
0.0
 10
125.767018
 20
147.716451
 30
0.0
 10
126.021374
 20
147.821809
 30
0.0
 10
126.208910
 20
148.009348
 30
0.0
  0
SPLINE
  5
47d
100
AcDbEntity
  8
0
 62
7
100
AcDbSpline
 70
8
 71
3
 72
8
 73
4
 74
0
 40
0
 40
0
 40
0
 40
0
 40
1
 40
1
 40
1
 40
1
 10
126.208910
 20
148.009348
 30
0.0
 10
126.396447
 20
148.196886
 30
0.0
 10
126.501803
 20
148.451243
 30
0.0
 10
126.501800
 20
148.716461
 30
0.0
  0
LINE
  5
47e
100
AcDbEntity
  8
0
 62
7
100
AcDbLine
 10
126.501800
 20
148.716461
 30
0.0
 11
126.501800
 21
148.716461
 31
0.0
  0
SPLINE
  5
47f
100
AcDbEntity
  8
0
 62
7
100
AcDbSpline
 70
8
 71
3
 72
8
 73
4
 74
0
 40
0
 40
0
 40
0
 40
0
 40
1
 40
1
 40
1
 40
1
 10
129.643100
 20
146.265791
 30
0.0
 10
129.643103
 20
146.531009
 30
0.0
 10
129.537747
 20
146.785366
 30
0.0
 10
129.350210
 20
146.972904
 30
0.0
  0
SPLINE
  5
480
100
AcDbEntity
  8
0
 62
7
100
AcDbSpline
 70
8
 71
3
 72
8
 73
4
 74
0
 40
0
 40
0
 40
0
 40
0
 40
1
 40
1
 40
1
 40
1
 10
129.350210
 20
146.972904
 30
0.0
 10
129.162674
 20
147.160443
 30
0.0
 10
128.908318
 20
147.265801
 30
0.0
 10
128.643100
 20
147.265801
 30
0.0
  0
SPLINE
  5
481
100
AcDbEntity
  8
0
 62
7
100
AcDbSpline
 70
8
 71
3
 72
8
 73
4
 74
0
 40
0
 40
0
 40
0
 40
0
 40
1
 40
1
 40
1
 40
1
 10
128.643100
 20
147.265801
 30
0.0
 10
128.377882
 20
147.265801
 30
0.0
 10
128.123526
 20
147.160443
 30
0.0
 10
127.935990
 20
146.972904
 30
0.0
  0
SPLINE
  5
482
100
AcDbEntity
  8
0
 62
7
100
AcDbSpline
 70
8
 71
3
 72
8
 73
4
 74
0
 40
0
 40
0
 40
0
 40
0
 40
1
 40
1
 40
1
 40
1
 10
127.935990
 20
146.972904
 30
0.0
 10
127.748453
 20
146.785366
 30
0.0
 10
127.643097
 20
146.531009
 30
0.0
 10
127.643100
 20
146.265791
 30
0.0
  0
SPLINE
  5
483
100
AcDbEntity
  8
0
 62
7
100
AcDbSpline
 70
8
 71
3
 72
8
 73
4
 74
0
 40
0
 40
0
 40
0
 40
0
 40
1
 40
1
 40
1
 40
1
 10
127.643100
 20
146.265791
 30
0.0
 10
127.643100
 20
146.000575
 30
0.0
 10
127.748457
 20
145.746221
 30
0.0
 10
127.935993
 20
145.558684
 30
0.0
  0
SPLINE
  5
484
100
AcDbEntity
  8
0
 62
7
100
AcDbSpline
 70
8
 71
3
 72
8
 73
4
 74
0
 40
0
 40
0
 40
0
 40
0
 40
1
 40
1
 40
1
 40
1
 10
127.935993
 20
145.558684
 30
0.0
 10
128.123530
 20
145.371148
 30
0.0
 10
128.377884
 20
145.265791
 30
0.0
 10
128.643100
 20
145.265791
 30
0.0
  0
SPLINE
  5
485
100
AcDbEntity
  8
0
 62
7
100
AcDbSpline
 70
8
 71
3
 72
8
 73
4
 74
0
 40
0
 40
0
 40
0
 40
0
 40
1
 40
1
 40
1
 40
1
 10
128.643100
 20
145.265791
 30
0.0
 10
128.908316
 20
145.265791
 30
0.0
 10
129.162670
 20
145.371148
 30
0.0
 10
129.350207
 20
145.558684
 30
0.0
  0
SPLINE
  5
486
100
AcDbEntity
  8
0
 62
7
100
AcDbSpline
 70
8
 71
3
 72
8
 73
4
 74
0
 40
0
 40
0
 40
0
 40
0
 40
1
 40
1
 40
1
 40
1
 10
129.350207
 20
145.558684
 30
0.0
 10
129.537743
 20
145.746221
 30
0.0
 10
129.643100
 20
146.000575
 30
0.0
 10
129.643100
 20
146.265791
 30
0.0
  0
LINE
  5
487
100
AcDbEntity
  8
0
 62
7
100
AcDbLine
 10
129.643100
 20
146.265791
 30
0.0
 11
129.643100
 21
146.265791
 31
0.0
  0
SPLINE
  5
488
100
AcDbEntity
  8
0
 62
7
100
AcDbSpline
 70
8
 71
3
 72
8
 73
4
 74
0
 40
0
 40
0
 40
0
 40
0
 40
1
 40
1
 40
1
 40
1
 10
131.907840
 20
142.987621
 30
0.0
 10
131.907840
 20
143.252837
 30
0.0
 10
131.802483
 20
143.507191
 30
0.0
 10
131.614947
 20
143.694728
 30
0.0
  0
SPLINE
  5
489
100
AcDbEntity
  8
0
 62
7
100
AcDbSpline
 70
8
 71
3
 72
8
 73
4
 74
0
 40
0
 40
0
 40
0
 40
0
 40
1
 40
1
 40
1
 40
1
 10
131.614947
 20
143.694728
 30
0.0
 10
131.427410
 20
143.882264
 30
0.0
 10
131.173056
 20
143.987621
 30
0.0
 10
130.907840
 20
143.987621
 30
0.0
  0
SPLINE
  5
48a
100
AcDbEntity
  8
0
 62
7
100
AcDbSpline
 70
8
 71
3
 72
8
 73
4
 74
0
 40
0
 40
0
 40
0
 40
0
 40
1
 40
1
 40
1
 40
1
 10
130.907840
 20
143.987621
 30
0.0
 10
130.642624
 20
143.987621
 30
0.0
 10
130.388270
 20
143.882264
 30
0.0
 10
130.200733
 20
143.694728
 30
0.0
  0
SPLINE
  5
48b
100
AcDbEntity
  8
0
 62
7
100
AcDbSpline
 70
8
 71
3
 72
8
 73
4
 74
0
 40
0
 40
0
 40
0
 40
0
 40
1
 40
1
 40
1
 40
1
 10
130.200733
 20
143.694728
 30
0.0
 10
130.013197
 20
143.507191
 30
0.0
 10
129.907840
 20
143.252837
 30
0.0
 10
129.907840
 20
142.987621
 30
0.0
  0
SPLINE
  5
48c
100
AcDbEntity
  8
0
 62
7
100
AcDbSpline
 70
8
 71
3
 72
8
 73
4
 74
0
 40
0
 40
0
 40
0
 40
0
 40
1
 40
1
 40
1
 40
1
 10
129.907840
 20
142.987621
 30
0.0
 10
129.907840
 20
142.722405
 30
0.0
 10
130.013197
 20
142.468051
 30
0.0
 10
130.200733
 20
142.280514
 30
0.0
  0
SPLINE
  5
48d
100
AcDbEntity
  8
0
 62
7
100
AcDbSpline
 70
8
 71
3
 72
8
 73
4
 74
0
 40
0
 40
0
 40
0
 40
0
 40
1
 40
1
 40
1
 40
1
 10
130.200733
 20
142.280514
 30
0.0
 10
130.388270
 20
142.092978
 30
0.0
 10
130.642624
 20
141.987621
 30
0.0
 10
130.907840
 20
141.987621
 30
0.0
  0
SPLINE
  5
48e
100
AcDbEntity
  8
0
 62
7
100
AcDbSpline
 70
8
 71
3
 72
8
 73
4
 74
0
 40
0
 40
0
 40
0
 40
0
 40
1
 40
1
 40
1
 40
1
 10
130.907840
 20
141.987621
 30
0.0
 10
131.173056
 20
141.987621
 30
0.0
 10
131.427410
 20
142.092978
 30
0.0
 10
131.614947
 20
142.280514
 30
0.0
  0
SPLINE
  5
48f
100
AcDbEntity
  8
0
 62
7
100
AcDbSpline
 70
8
 71
3
 72
8
 73
4
 74
0
 40
0
 40
0
 40
0
 40
0
 40
1
 40
1
 40
1
 40
1
 10
131.614947
 20
142.280514
 30
0.0
 10
131.802483
 20
142.468051
 30
0.0
 10
131.907840
 20
142.722405
 30
0.0
 10
131.907840
 20
142.987621
 30
0.0
  0
LINE
  5
490
100
AcDbEntity
  8
0
 62
7
100
AcDbLine
 10
131.907840
 20
142.987621
 30
0.0
 11
131.907840
 21
142.987621
 31
0.0
  0
SPLINE
  5
491
100
AcDbEntity
  8
0
 62
7
100
AcDbSpline
 70
8
 71
3
 72
8
 73
4
 74
0
 40
0
 40
0
 40
0
 40
0
 40
1
 40
1
 40
1
 40
1
 10
133.103310
 20
139.186081
 30
0.0
 10
133.103310
 20
139.451297
 30
0.0
 10
132.997953
 20
139.705651
 30
0.0
 10
132.810417
 20
139.893188
 30
0.0
  0
SPLINE
  5
492
100
AcDbEntity
  8
0
 62
7
100
AcDbSpline
 70
8
 71
3
 72
8
 73
4
 74
0
 40
0
 40
0
 40
0
 40
0
 40
1
 40
1
 40
1
 40
1
 10
132.810417
 20
139.893188
 30
0.0
 10
132.622880
 20
140.080724
 30
0.0
 10
132.368526
 20
140.186081
 30
0.0
 10
132.103310
 20
140.186081
 30
0.0
  0
SPLINE
  5
493
100
AcDbEntity
  8
0
 62
7
100
AcDbSpline
 70
8
 71
3
 72
8
 73
4
 74
0
 40
0
 40
0
 40
0
 40
0
 40
1
 40
1
 40
1
 40
1
 10
132.103310
 20
140.186081
 30
0.0
 10
131.838094
 20
140.186081
 30
0.0
 10
131.583740
 20
140.080724
 30
0.0
 10
131.396203
 20
139.893188
 30
0.0
  0
SPLINE
  5
494
100
AcDbEntity
  8
0
 62
7
100
AcDbSpline
 70
8
 71
3
 72
8
 73
4
 74
0
 40
0
 40
0
 40
0
 40
0
 40
1
 40
1
 40
1
 40
1
 10
131.396203
 20
139.893188
 30
0.0
 10
131.208667
 20
139.705651
 30
0.0
 10
131.103310
 20
139.451297
 30
0.0
 10
131.103310
 20
139.186081
 30
0.0
  0
SPLINE
  5
495
100
AcDbEntity
  8
0
 62
7
100
AcDbSpline
 70
8
 71
3
 72
8
 73
4
 74
0
 40
0
 40
0
 40
0
 40
0
 40
1
 40
1
 40
1
 40
1
 10
131.103310
 20
139.186081
 30
0.0
 10
131.103310
 20
138.920865
 30
0.0
 10
131.208667
 20
138.666511
 30
0.0
 10
131.396203
 20
138.478974
 30
0.0
  0
SPLINE
  5
496
100
AcDbEntity
  8
0
 62
7
100
AcDbSpline
 70
8
 71
3
 72
8
 73
4
 74
0
 40
0
 40
0
 40
0
 40
0
 40
1
 40
1
 40
1
 40
1
 10
131.396203
 20
138.478974
 30
0.0
 10
131.583740
 20
138.291438
 30
0.0
 10
131.838094
 20
138.186081
 30
0.0
 10
132.103310
 20
138.186081
 30
0.0
  0
SPLINE
  5
497
100
AcDbEntity
  8
0
 62
7
100
AcDbSpline
 70
8
 71
3
 72
8
 73
4
 74
0
 40
0
 40
0
 40
0
 40
0
 40
1
 40
1
 40
1
 40
1
 10
132.103310
 20
138.186081
 30
0.0
 10
132.368526
 20
138.186081
 30
0.0
 10
132.622880
 20
138.291438
 30
0.0
 10
132.810417
 20
138.478974
 30
0.0
  0
SPLINE
  5
498
100
AcDbEntity
  8
0
 62
7
100
AcDbSpline
 70
8
 71
3
 72
8
 73
4
 74
0
 40
0
 40
0
 40
0
 40
0
 40
1
 40
1
 40
1
 40
1
 10
132.810417
 20
138.478974
 30
0.0
 10
132.997953
 20
138.666511
 30
0.0
 10
133.103310
 20
138.920865
 30
0.0
 10
133.103310
 20
139.186081
 30
0.0
  0
LINE
  5
499
100
AcDbEntity
  8
0
 62
7
100
AcDbLine
 10
133.103310
 20
139.186081
 30
0.0
 11
133.103310
 21
139.186081
 31
0.0
  0
SPLINE
  5
49a
100
AcDbEntity
  8
0
 62
7
100
AcDbSpline
 70
8
 71
3
 72
8
 73
4
 74
0
 40
0
 40
0
 40
0
 40
0
 40
1
 40
1
 40
1
 40
1
 10
133.153160
 20
135.202231
 30
0.0
 10
133.153160
 20
135.467447
 30
0.0
 10
133.047803
 20
135.721801
 30
0.0
 10
132.860267
 20
135.909338
 30
0.0
  0
SPLINE
  5
49b
100
AcDbEntity
  8
0
 62
7
100
AcDbSpline
 70
8
 71
3
 72
8
 73
4
 74
0
 40
0
 40
0
 40
0
 40
0
 40
1
 40
1
 40
1
 40
1
 10
132.860267
 20
135.909338
 30
0.0
 10
132.672730
 20
136.096874
 30
0.0
 10
132.418376
 20
136.202231
 30
0.0
 10
132.153160
 20
136.202231
 30
0.0
  0
SPLINE
  5
49c
100
AcDbEntity
  8
0
 62
7
100
AcDbSpline
 70
8
 71
3
 72
8
 73
4
 74
0
 40
0
 40
0
 40
0
 40
0
 40
1
 40
1
 40
1
 40
1
 10
132.153160
 20
136.202231
 30
0.0
 10
131.887944
 20
136.202231
 30
0.0
 10
131.633590
 20
136.096874
 30
0.0
 10
131.446053
 20
135.909338
 30
0.0
  0
SPLINE
  5
49d
100
AcDbEntity
  8
0
 62
7
100
AcDbSpline
 70
8
 71
3
 72
8
 73
4
 74
0
 40
0
 40
0
 40
0
 40
0
 40
1
 40
1
 40
1
 40
1
 10
131.446053
 20
135.909338
 30
0.0
 10
131.258517
 20
135.721801
 30
0.0
 10
131.153160
 20
135.467447
 30
0.0
 10
131.153160
 20
135.202231
 30
0.0
  0
SPLINE
  5
49e
100
AcDbEntity
  8
0
 62
7
100
AcDbSpline
 70
8
 71
3
 72
8
 73
4
 74
0
 40
0
 40
0
 40
0
 40
0
 40
1
 40
1
 40
1
 40
1
 10
131.153160
 20
135.202231
 30
0.0
 10
131.153160
 20
134.937015
 30
0.0
 10
131.258517
 20
134.682661
 30
0.0
 10
131.446053
 20
134.495124
 30
0.0
  0
SPLINE
  5
49f
100
AcDbEntity
  8
0
 62
7
100
AcDbSpline
 70
8
 71
3
 72
8
 73
4
 74
0
 40
0
 40
0
 40
0
 40
0
 40
1
 40
1
 40
1
 40
1
 10
131.446053
 20
134.495124
 30
0.0
 10
131.633590
 20
134.307588
 30
0.0
 10
131.887944
 20
134.202231
 30
0.0
 10
132.153160
 20
134.202231
 30
0.0
  0
SPLINE
  5
4a0
100
AcDbEntity
  8
0
 62
7
100
AcDbSpline
 70
8
 71
3
 72
8
 73
4
 74
0
 40
0
 40
0
 40
0
 40
0
 40
1
 40
1
 40
1
 40
1
 10
132.153160
 20
134.202231
 30
0.0
 10
132.418376
 20
134.202231
 30
0.0
 10
132.672730
 20
134.307588
 30
0.0
 10
132.860267
 20
134.495124
 30
0.0
  0
SPLINE
  5
4a1
100
AcDbEntity
  8
0
 62
7
100
AcDbSpline
 70
8
 71
3
 72
8
 73
4
 74
0
 40
0
 40
0
 40
0
 40
0
 40
1
 40
1
 40
1
 40
1
 10
132.860267
 20
134.495124
 30
0.0
 10
133.047803
 20
134.682661
 30
0.0
 10
133.153160
 20
134.937015
 30
0.0
 10
133.153160
 20
135.202231
 30
0.0
  0
LINE
  5
4a2
100
AcDbEntity
  8
0
 62
7
100
AcDbLine
 10
133.153160
 20
135.202231
 30
0.0
 11
133.153160
 21
135.202231
 31
0.0
  0
SPLINE
  5
4a3
100
AcDbEntity
  8
0
 62
7
100
AcDbSpline
 70
8
 71
3
 72
8
 73
4
 74
0
 40
0
 40
0
 40
0
 40
0
 40
1
 40
1
 40
1
 40
1
 10
132.120060
 20
131.353991
 30
0.0
 10
132.120060
 20
131.619207
 30
0.0
 10
132.014703
 20
131.873561
 30
0.0
 10
131.827167
 20
132.061098
 30
0.0
  0
SPLINE
  5
4a4
100
AcDbEntity
  8
0
 62
7
100
AcDbSpline
 70
8
 71
3
 72
8
 73
4
 74
0
 40
0
 40
0
 40
0
 40
0
 40
1
 40
1
 40
1
 40
1
 10
131.827167
 20
132.061098
 30
0.0
 10
131.639630
 20
132.248634
 30
0.0
 10
131.385276
 20
132.353991
 30
0.0
 10
131.120060
 20
132.353991
 30
0.0
  0
SPLINE
  5
4a5
100
AcDbEntity
  8
0
 62
7
100
AcDbSpline
 70
8
 71
3
 72
8
 73
4
 74
0
 40
0
 40
0
 40
0
 40
0
 40
1
 40
1
 40
1
 40
1
 10
131.120060
 20
132.353991
 30
0.0
 10
130.854844
 20
132.353991
 30
0.0
 10
130.600490
 20
132.248634
 30
0.0
 10
130.412953
 20
132.061098
 30
0.0
  0
SPLINE
  5
4a6
100
AcDbEntity
  8
0
 62
7
100
AcDbSpline
 70
8
 71
3
 72
8
 73
4
 74
0
 40
0
 40
0
 40
0
 40
0
 40
1
 40
1
 40
1
 40
1
 10
130.412953
 20
132.061098
 30
0.0
 10
130.225417
 20
131.873561
 30
0.0
 10
130.120060
 20
131.619207
 30
0.0
 10
130.120060
 20
131.353991
 30
0.0
  0
SPLINE
  5
4a7
100
AcDbEntity
  8
0
 62
7
100
AcDbSpline
 70
8
 71
3
 72
8
 73
4
 74
0
 40
0
 40
0
 40
0
 40
0
 40
1
 40
1
 40
1
 40
1
 10
130.120060
 20
131.353991
 30
0.0
 10
130.120060
 20
131.088775
 30
0.0
 10
130.225417
 20
130.834421
 30
0.0
 10
130.412953
 20
130.646884
 30
0.0
  0
SPLINE
  5
4a8
100
AcDbEntity
  8
0
 62
7
100
AcDbSpline
 70
8
 71
3
 72
8
 73
4
 74
0
 40
0
 40
0
 40
0
 40
0
 40
1
 40
1
 40
1
 40
1
 10
130.412953
 20
130.646884
 30
0.0
 10
130.600490
 20
130.459348
 30
0.0
 10
130.854844
 20
130.353991
 30
0.0
 10
131.120060
 20
130.353991
 30
0.0
  0
SPLINE
  5
4a9
100
AcDbEntity
  8
0
 62
7
100
AcDbSpline
 70
8
 71
3
 72
8
 73
4
 74
0
 40
0
 40
0
 40
0
 40
0
 40
1
 40
1
 40
1
 40
1
 10
131.120060
 20
130.353991
 30
0.0
 10
131.385276
 20
130.353991
 30
0.0
 10
131.639630
 20
130.459348
 30
0.0
 10
131.827167
 20
130.646884
 30
0.0
  0
SPLINE
  5
4aa
100
AcDbEntity
  8
0
 62
7
100
AcDbSpline
 70
8
 71
3
 72
8
 73
4
 74
0
 40
0
 40
0
 40
0
 40
0
 40
1
 40
1
 40
1
 40
1
 10
131.827167
 20
130.646884
 30
0.0
 10
132.014703
 20
130.834421
 30
0.0
 10
132.120060
 20
131.088775
 30
0.0
 10
132.120060
 20
131.353991
 30
0.0
  0
LINE
  5
4ab
100
AcDbEntity
  8
0
 62
7
100
AcDbLine
 10
132.120060
 20
131.353991
 30
0.0
 11
132.120060
 21
131.353991
 31
0.0
  0
SPLINE
  5
4ac
100
AcDbEntity
  8
0
 62
7
100
AcDbSpline
 70
8
 71
3
 72
8
 73
4
 74
0
 40
0
 40
0
 40
0
 40
0
 40
1
 40
1
 40
1
 40
1
 10
130.034570
 20
127.957841
 30
0.0
 10
130.034573
 20
128.223059
 30
0.0
 10
129.929217
 20
128.477416
 30
0.0
 10
129.741680
 20
128.664954
 30
0.0
  0
SPLINE
  5
4ad
100
AcDbEntity
  8
0
 62
7
100
AcDbSpline
 70
8
 71
3
 72
8
 73
4
 74
0
 40
0
 40
0
 40
0
 40
0
 40
1
 40
1
 40
1
 40
1
 10
129.741680
 20
128.664954
 30
0.0
 10
129.554144
 20
128.852493
 30
0.0
 10
129.299788
 20
128.957851
 30
0.0
 10
129.034570
 20
128.957851
 30
0.0
  0
SPLINE
  5
4ae
100
AcDbEntity
  8
0
 62
7
100
AcDbSpline
 70
8
 71
3
 72
8
 73
4
 74
0
 40
0
 40
0
 40
0
 40
0
 40
1
 40
1
 40
1
 40
1
 10
129.034570
 20
128.957851
 30
0.0
 10
128.769352
 20
128.957851
 30
0.0
 10
128.514996
 20
128.852493
 30
0.0
 10
128.327460
 20
128.664954
 30
0.0
  0
SPLINE
  5
4af
100
AcDbEntity
  8
0
 62
7
100
AcDbSpline
 70
8
 71
3
 72
8
 73
4
 74
0
 40
0
 40
0
 40
0
 40
0
 40
1
 40
1
 40
1
 40
1
 10
128.327460
 20
128.664954
 30
0.0
 10
128.139923
 20
128.477416
 30
0.0
 10
128.034567
 20
128.223059
 30
0.0
 10
128.034570
 20
127.957841
 30
0.0
  0
SPLINE
  5
4b0
100
AcDbEntity
  8
0
 62
7
100
AcDbSpline
 70
8
 71
3
 72
8
 73
4
 74
0
 40
0
 40
0
 40
0
 40
0
 40
1
 40
1
 40
1
 40
1
 10
128.034570
 20
127.957841
 30
0.0
 10
128.034570
 20
127.692625
 30
0.0
 10
128.139927
 20
127.438271
 30
0.0
 10
128.327463
 20
127.250734
 30
0.0
  0
SPLINE
  5
4b1
100
AcDbEntity
  8
0
 62
7
100
AcDbSpline
 70
8
 71
3
 72
8
 73
4
 74
0
 40
0
 40
0
 40
0
 40
0
 40
1
 40
1
 40
1
 40
1
 10
128.327463
 20
127.250734
 30
0.0
 10
128.515000
 20
127.063198
 30
0.0
 10
128.769354
 20
126.957841
 30
0.0
 10
129.034570
 20
126.957841
 30
0.0
  0
SPLINE
  5
4b2
100
AcDbEntity
  8
0
 62
7
100
AcDbSpline
 70
8
 71
3
 72
8
 73
4
 74
0
 40
0
 40
0
 40
0
 40
0
 40
1
 40
1
 40
1
 40
1
 10
129.034570
 20
126.957841
 30
0.0
 10
129.299786
 20
126.957841
 30
0.0
 10
129.554140
 20
127.063198
 30
0.0
 10
129.741677
 20
127.250734
 30
0.0
  0
SPLINE
  5
4b3
100
AcDbEntity
  8
0
 62
7
100
AcDbSpline
 70
8
 71
3
 72
8
 73
4
 74
0
 40
0
 40
0
 40
0
 40
0
 40
1
 40
1
 40
1
 40
1
 10
129.741677
 20
127.250734
 30
0.0
 10
129.929213
 20
127.438271
 30
0.0
 10
130.034570
 20
127.692625
 30
0.0
 10
130.034570
 20
127.957841
 30
0.0
  0
LINE
  5
4b4
100
AcDbEntity
  8
0
 62
7
100
AcDbLine
 10
130.034570
 20
127.957841
 30
0.0
 11
130.034570
 21
127.957841
 31
0.0
  0
SPLINE
  5
4b5
100
AcDbEntity
  8
0
 62
7
100
AcDbSpline
 70
8
 71
3
 72
8
 73
4
 74
0
 40
0
 40
0
 40
0
 40
0
 40
1
 40
1
 40
1
 40
1
 10
127.061320
 20
125.305021
 30
0.0
 10
127.061320
 20
125.570237
 30
0.0
 10
126.955963
 20
125.824591
 30
0.0
 10
126.768427
 20
126.012128
 30
0.0
  0
SPLINE
  5
4b6
100
AcDbEntity
  8
0
 62
7
100
AcDbSpline
 70
8
 71
3
 72
8
 73
4
 74
0
 40
0
 40
0
 40
0
 40
0
 40
1
 40
1
 40
1
 40
1
 10
126.768427
 20
126.012128
 30
0.0
 10
126.580890
 20
126.199664
 30
0.0
 10
126.326536
 20
126.305021
 30
0.0
 10
126.061320
 20
126.305021
 30
0.0
  0
SPLINE
  5
4b7
100
AcDbEntity
  8
0
 62
7
100
AcDbSpline
 70
8
 71
3
 72
8
 73
4
 74
0
 40
0
 40
0
 40
0
 40
0
 40
1
 40
1
 40
1
 40
1
 10
126.061320
 20
126.305021
 30
0.0
 10
125.796104
 20
126.305021
 30
0.0
 10
125.541750
 20
126.199664
 30
0.0
 10
125.354213
 20
126.012128
 30
0.0
  0
SPLINE
  5
4b8
100
AcDbEntity
  8
0
 62
7
100
AcDbSpline
 70
8
 71
3
 72
8
 73
4
 74
0
 40
0
 40
0
 40
0
 40
0
 40
1
 40
1
 40
1
 40
1
 10
125.354213
 20
126.012128
 30
0.0
 10
125.166677
 20
125.824591
 30
0.0
 10
125.061320
 20
125.570237
 30
0.0
 10
125.061320
 20
125.305021
 30
0.0
  0
SPLINE
  5
4b9
100
AcDbEntity
  8
0
 62
7
100
AcDbSpline
 70
8
 71
3
 72
8
 73
4
 74
0
 40
0
 40
0
 40
0
 40
0
 40
1
 40
1
 40
1
 40
1
 10
125.061320
 20
125.305021
 30
0.0
 10
125.061320
 20
125.039805
 30
0.0
 10
125.166677
 20
124.785451
 30
0.0
 10
125.354213
 20
124.597914
 30
0.0
  0
SPLINE
  5
4ba
100
AcDbEntity
  8
0
 62
7
100
AcDbSpline
 70
8
 71
3
 72
8
 73
4
 74
0
 40
0
 40
0
 40
0
 40
0
 40
1
 40
1
 40
1
 40
1
 10
125.354213
 20
124.597914
 30
0.0
 10
125.541750
 20
124.410378
 30
0.0
 10
125.796104
 20
124.305021
 30
0.0
 10
126.061320
 20
124.305021
 30
0.0
  0
SPLINE
  5
4bb
100
AcDbEntity
  8
0
 62
7
100
AcDbSpline
 70
8
 71
3
 72
8
 73
4
 74
0
 40
0
 40
0
 40
0
 40
0
 40
1
 40
1
 40
1
 40
1
 10
126.061320
 20
124.305021
 30
0.0
 10
126.326536
 20
124.305021
 30
0.0
 10
126.580890
 20
124.410378
 30
0.0
 10
126.768427
 20
124.597914
 30
0.0
  0
SPLINE
  5
4bc
100
AcDbEntity
  8
0
 62
7
100
AcDbSpline
 70
8
 71
3
 72
8
 73
4
 74
0
 40
0
 40
0
 40
0
 40
0
 40
1
 40
1
 40
1
 40
1
 10
126.768427
 20
124.597914
 30
0.0
 10
126.955963
 20
124.785451
 30
0.0
 10
127.061320
 20
125.039805
 30
0.0
 10
127.061320
 20
125.305021
 30
0.0
  0
LINE
  5
4bd
100
AcDbEntity
  8
0
 62
7
100
AcDbLine
 10
127.061320
 20
125.305021
 30
0.0
 11
127.061320
 21
125.305021
 31
0.0
  0
SPLINE
  5
4be
100
AcDbEntity
  8
0
 62
7
100
AcDbSpline
 70
8
 71
3
 72
8
 73
4
 74
0
 40
0
 40
0
 40
0
 40
0
 40
1
 40
1
 40
1
 40
1
 10
123.455830
 20
123.606611
 30
0.0
 10
123.455824
 20
124.158892
 30
0.0
 10
123.008111
 20
124.606601
 30
0.0
 10
122.455830
 20
124.606601
 30
0.0
  0
SPLINE
  5
4bf
100
AcDbEntity
  8
0
 62
7
100
AcDbSpline
 70
8
 71
3
 72
8
 73
4
 74
0
 40
0
 40
0
 40
0
 40
0
 40
1
 40
1
 40
1
 40
1
 10
122.455830
 20
124.606601
 30
0.0
 10
121.903549
 20
124.606601
 30
0.0
 10
121.455836
 20
124.158892
 30
0.0
 10
121.455830
 20
123.606611
 30
0.0
  0
SPLINE
  5
4c0
100
AcDbEntity
  8
0
 62
7
100
AcDbSpline
 70
8
 71
3
 72
8
 73
4
 74
0
 40
0
 40
0
 40
0
 40
0
 40
1
 40
1
 40
1
 40
1
 10
121.455830
 20
123.606611
 30
0.0
 10
121.455827
 20
123.341393
 30
0.0
 10
121.561183
 20
123.087036
 30
0.0
 10
121.748720
 20
122.899498
 30
0.0
  0
SPLINE
  5
4c1
100
AcDbEntity
  8
0
 62
7
100
AcDbSpline
 70
8
 71
3
 72
8
 73
4
 74
0
 40
0
 40
0
 40
0
 40
0
 40
1
 40
1
 40
1
 40
1
 10
121.748720
 20
122.899498
 30
0.0
 10
121.936256
 20
122.711959
 30
0.0
 10
122.190612
 20
122.606601
 30
0.0
 10
122.455830
 20
122.606601
 30
0.0
  0
SPLINE
  5
4c2
100
AcDbEntity
  8
0
 62
7
100
AcDbSpline
 70
8
 71
3
 72
8
 73
4
 74
0
 40
0
 40
0
 40
0
 40
0
 40
1
 40
1
 40
1
 40
1
 10
122.455830
 20
122.606601
 30
0.0
 10
122.721048
 20
122.606601
 30
0.0
 10
122.975404
 20
122.711959
 30
0.0
 10
123.162940
 20
122.899498
 30
0.0
  0
SPLINE
  5
4c3
100
AcDbEntity
  8
0
 62
7
100
AcDbSpline
 70
8
 71
3
 72
8
 73
4
 74
0
 40
0
 40
0
 40
0
 40
0
 40
1
 40
1
 40
1
 40
1
 10
123.162940
 20
122.899498
 30
0.0
 10
123.350477
 20
123.087036
 30
0.0
 10
123.455833
 20
123.341393
 30
0.0
 10
123.455830
 20
123.606611
 30
0.0
  0
LINE
  5
4c4
100
AcDbEntity
  8
0
 62
7
100
AcDbLine
 10
123.455830
 20
123.606611
 30
0.0
 11
123.455830
 21
123.606611
 31
0.0
  0
SPLINE
  5
4c5
100
AcDbEntity
  8
0
 62
7
100
AcDbSpline
 70
8
 71
3
 72
8
 73
4
 74
0
 40
0
 40
0
 40
0
 40
0
 40
1
 40
1
 40
1
 40
1
 10
119.517610
 20
122.986011
 30
0.0
 10
119.517610
 20
123.251227
 30
0.0
 10
119.412253
 20
123.505581
 30
0.0
 10
119.224717
 20
123.693118
 30
0.0
  0
SPLINE
  5
4c6
100
AcDbEntity
  8
0
 62
7
100
AcDbSpline
 70
8
 71
3
 72
8
 73
4
 74
0
 40
0
 40
0
 40
0
 40
0
 40
1
 40
1
 40
1
 40
1
 10
119.224717
 20
123.693118
 30
0.0
 10
119.037180
 20
123.880654
 30
0.0
 10
118.782826
 20
123.986011
 30
0.0
 10
118.517610
 20
123.986011
 30
0.0
  0
SPLINE
  5
4c7
100
AcDbEntity
  8
0
 62
7
100
AcDbSpline
 70
8
 71
3
 72
8
 73
4
 74
0
 40
0
 40
0
 40
0
 40
0
 40
1
 40
1
 40
1
 40
1
 10
118.517610
 20
123.986011
 30
0.0
 10
118.252394
 20
123.986011
 30
0.0
 10
117.998040
 20
123.880654
 30
0.0
 10
117.810503
 20
123.693118
 30
0.0
  0
SPLINE
  5
4c8
100
AcDbEntity
  8
0
 62
7
100
AcDbSpline
 70
8
 71
3
 72
8
 73
4
 74
0
 40
0
 40
0
 40
0
 40
0
 40
1
 40
1
 40
1
 40
1
 10
117.810503
 20
123.693118
 30
0.0
 10
117.622967
 20
123.505581
 30
0.0
 10
117.517610
 20
123.251227
 30
0.0
 10
117.517610
 20
122.986011
 30
0.0
  0
SPLINE
  5
4c9
100
AcDbEntity
  8
0
 62
7
100
AcDbSpline
 70
8
 71
3
 72
8
 73
4
 74
0
 40
0
 40
0
 40
0
 40
0
 40
1
 40
1
 40
1
 40
1
 10
117.517610
 20
122.986011
 30
0.0
 10
117.517610
 20
122.720795
 30
0.0
 10
117.622967
 20
122.466441
 30
0.0
 10
117.810503
 20
122.278904
 30
0.0
  0
SPLINE
  5
4ca
100
AcDbEntity
  8
0
 62
7
100
AcDbSpline
 70
8
 71
3
 72
8
 73
4
 74
0
 40
0
 40
0
 40
0
 40
0
 40
1
 40
1
 40
1
 40
1
 10
117.810503
 20
122.278904
 30
0.0
 10
117.998040
 20
122.091368
 30
0.0
 10
118.252394
 20
121.986011
 30
0.0
 10
118.517610
 20
121.986011
 30
0.0
  0
SPLINE
  5
4cb
100
AcDbEntity
  8
0
 62
7
100
AcDbSpline
 70
8
 71
3
 72
8
 73
4
 74
0
 40
0
 40
0
 40
0
 40
0
 40
1
 40
1
 40
1
 40
1
 10
118.517610
 20
121.986011
 30
0.0
 10
118.782826
 20
121.986011
 30
0.0
 10
119.037180
 20
122.091368
 30
0.0
 10
119.224717
 20
122.278904
 30
0.0
  0
SPLINE
  5
4cc
100
AcDbEntity
  8
0
 62
7
100
AcDbSpline
 70
8
 71
3
 72
8
 73
4
 74
0
 40
0
 40
0
 40
0
 40
0
 40
1
 40
1
 40
1
 40
1
 10
119.224717
 20
122.278904
 30
0.0
 10
119.412253
 20
122.466441
 30
0.0
 10
119.517610
 20
122.720795
 30
0.0
 10
119.517610
 20
122.986011
 30
0.0
  0
LINE
  5
4cd
100
AcDbEntity
  8
0
 62
7
100
AcDbLine
 10
119.517610
 20
122.986011
 30
0.0
 11
119.517610
 21
122.986011
 31
0.0
  0
SPLINE
  5
4ce
100
AcDbEntity
  8
0
 62
7
100
AcDbSpline
 70
8
 71
3
 72
8
 73
4
 74
0
 40
0
 40
0
 40
0
 40
0
 40
1
 40
1
 40
1
 40
1
 10
115.557380
 20
123.446911
 30
0.0
 10
115.557380
 20
123.712127
 30
0.0
 10
115.452023
 20
123.966481
 30
0.0
 10
115.264487
 20
124.154018
 30
0.0
  0
SPLINE
  5
4cf
100
AcDbEntity
  8
0
 62
7
100
AcDbSpline
 70
8
 71
3
 72
8
 73
4
 74
0
 40
0
 40
0
 40
0
 40
0
 40
1
 40
1
 40
1
 40
1
 10
115.264487
 20
124.154018
 30
0.0
 10
115.076950
 20
124.341554
 30
0.0
 10
114.822596
 20
124.446911
 30
0.0
 10
114.557380
 20
124.446911
 30
0.0
  0
SPLINE
  5
4d0
100
AcDbEntity
  8
0
 62
7
100
AcDbSpline
 70
8
 71
3
 72
8
 73
4
 74
0
 40
0
 40
0
 40
0
 40
0
 40
1
 40
1
 40
1
 40
1
 10
114.557380
 20
124.446911
 30
0.0
 10
114.292164
 20
124.446911
 30
0.0
 10
114.037810
 20
124.341554
 30
0.0
 10
113.850273
 20
124.154018
 30
0.0
  0
SPLINE
  5
4d1
100
AcDbEntity
  8
0
 62
7
100
AcDbSpline
 70
8
 71
3
 72
8
 73
4
 74
0
 40
0
 40
0
 40
0
 40
0
 40
1
 40
1
 40
1
 40
1
 10
113.850273
 20
124.154018
 30
0.0
 10
113.662737
 20
123.966481
 30
0.0
 10
113.557380
 20
123.712127
 30
0.0
 10
113.557380
 20
123.446911
 30
0.0
  0
SPLINE
  5
4d2
100
AcDbEntity
  8
0
 62
7
100
AcDbSpline
 70
8
 71
3
 72
8
 73
4
 74
0
 40
0
 40
0
 40
0
 40
0
 40
1
 40
1
 40
1
 40
1
 10
113.557380
 20
123.446911
 30
0.0
 10
113.557377
 20
123.181693
 30
0.0
 10
113.662733
 20
122.927336
 30
0.0
 10
113.850270
 20
122.739798
 30
0.0
  0
SPLINE
  5
4d3
100
AcDbEntity
  8
0
 62
7
100
AcDbSpline
 70
8
 71
3
 72
8
 73
4
 74
0
 40
0
 40
0
 40
0
 40
0
 40
1
 40
1
 40
1
 40
1
 10
113.850270
 20
122.739798
 30
0.0
 10
114.037806
 20
122.552259
 30
0.0
 10
114.292162
 20
122.446901
 30
0.0
 10
114.557380
 20
122.446901
 30
0.0
  0
SPLINE
  5
4d4
100
AcDbEntity
  8
0
 62
7
100
AcDbSpline
 70
8
 71
3
 72
8
 73
4
 74
0
 40
0
 40
0
 40
0
 40
0
 40
1
 40
1
 40
1
 40
1
 10
114.557380
 20
122.446901
 30
0.0
 10
114.822598
 20
122.446901
 30
0.0
 10
115.076954
 20
122.552259
 30
0.0
 10
115.264490
 20
122.739798
 30
0.0
  0
SPLINE
  5
4d5
100
AcDbEntity
  8
0
 62
7
100
AcDbSpline
 70
8
 71
3
 72
8
 73
4
 74
0
 40
0
 40
0
 40
0
 40
0
 40
1
 40
1
 40
1
 40
1
 10
115.264490
 20
122.739798
 30
0.0
 10
115.452027
 20
122.927336
 30
0.0
 10
115.557383
 20
123.181693
 30
0.0
 10
115.557380
 20
123.446911
 30
0.0
  0
LINE
  5
4d6
100
AcDbEntity
  8
0
 62
7
100
AcDbLine
 10
115.557380
 20
123.446911
 30
0.0
 11
115.557380
 21
123.446911
 31
0.0
  0
SPLINE
  5
4d7
100
AcDbEntity
  8
0
 62
7
100
AcDbSpline
 70
8
 71
3
 72
8
 73
4
 74
0
 40
0
 40
0
 40
0
 40
0
 40
1
 40
1
 40
1
 40
1
 10
111.863410
 20
124.946201
 30
0.0
 10
111.863410
 20
125.211417
 30
0.0
 10
111.758053
 20
125.465771
 30
0.0
 10
111.570517
 20
125.653308
 30
0.0
  0
SPLINE
  5
4d8
100
AcDbEntity
  8
0
 62
7
100
AcDbSpline
 70
8
 71
3
 72
8
 73
4
 74
0
 40
0
 40
0
 40
0
 40
0
 40
1
 40
1
 40
1
 40
1
 10
111.570517
 20
125.653308
 30
0.0
 10
111.382980
 20
125.840844
 30
0.0
 10
111.128626
 20
125.946201
 30
0.0
 10
110.863410
 20
125.946201
 30
0.0
  0
SPLINE
  5
4d9
100
AcDbEntity
  8
0
 62
7
100
AcDbSpline
 70
8
 71
3
 72
8
 73
4
 74
0
 40
0
 40
0
 40
0
 40
0
 40
1
 40
1
 40
1
 40
1
 10
110.863410
 20
125.946201
 30
0.0
 10
110.598194
 20
125.946201
 30
0.0
 10
110.343840
 20
125.840844
 30
0.0
 10
110.156303
 20
125.653308
 30
0.0
  0
SPLINE
  5
4da
100
AcDbEntity
  8
0
 62
7
100
AcDbSpline
 70
8
 71
3
 72
8
 73
4
 74
0
 40
0
 40
0
 40
0
 40
0
 40
1
 40
1
 40
1
 40
1
 10
110.156303
 20
125.653308
 30
0.0
 10
109.968767
 20
125.465771
 30
0.0
 10
109.863410
 20
125.211417
 30
0.0
 10
109.863410
 20
124.946201
 30
0.0
  0
SPLINE
  5
4db
100
AcDbEntity
  8
0
 62
7
100
AcDbSpline
 70
8
 71
3
 72
8
 73
4
 74
0
 40
0
 40
0
 40
0
 40
0
 40
1
 40
1
 40
1
 40
1
 10
109.863410
 20
124.946201
 30
0.0
 10
109.863410
 20
124.680985
 30
0.0
 10
109.968767
 20
124.426631
 30
0.0
 10
110.156303
 20
124.239094
 30
0.0
  0
SPLINE
  5
4dc
100
AcDbEntity
  8
0
 62
7
100
AcDbSpline
 70
8
 71
3
 72
8
 73
4
 74
0
 40
0
 40
0
 40
0
 40
0
 40
1
 40
1
 40
1
 40
1
 10
110.156303
 20
124.239094
 30
0.0
 10
110.343840
 20
124.051558
 30
0.0
 10
110.598194
 20
123.946201
 30
0.0
 10
110.863410
 20
123.946201
 30
0.0
  0
SPLINE
  5
4dd
100
AcDbEntity
  8
0
 62
7
100
AcDbSpline
 70
8
 71
3
 72
8
 73
4
 74
0
 40
0
 40
0
 40
0
 40
0
 40
1
 40
1
 40
1
 40
1
 10
110.863410
 20
123.946201
 30
0.0
 10
111.128626
 20
123.946201
 30
0.0
 10
111.382980
 20
124.051558
 30
0.0
 10
111.570517
 20
124.239094
 30
0.0
  0
SPLINE
  5
4de
100
AcDbEntity
  8
0
 62
7
100
AcDbSpline
 70
8
 71
3
 72
8
 73
4
 74
0
 40
0
 40
0
 40
0
 40
0
 40
1
 40
1
 40
1
 40
1
 10
111.570517
 20
124.239094
 30
0.0
 10
111.758053
 20
124.426631
 30
0.0
 10
111.863410
 20
124.680985
 30
0.0
 10
111.863410
 20
124.946201
 30
0.0
  0
LINE
  5
4df
100
AcDbEntity
  8
0
 62
7
100
AcDbLine
 10
111.863410
 20
124.946201
 30
0.0
 11
111.863410
 21
124.946201
 31
0.0
  0
SPLINE
  5
4e0
100
AcDbEntity
  8
0
 62
7
100
AcDbSpline
 70
8
 71
3
 72
8
 73
4
 74
0
 40
0
 40
0
 40
0
 40
0
 40
1
 40
1
 40
1
 40
1
 10
108.719400
 20
127.396691
 30
0.0
 10
108.719400
 20
127.661907
 30
0.0
 10
108.614043
 20
127.916261
 30
0.0
 10
108.426507
 20
128.103798
 30
0.0
  0
SPLINE
  5
4e1
100
AcDbEntity
  8
0
 62
7
100
AcDbSpline
 70
8
 71
3
 72
8
 73
4
 74
0
 40
0
 40
0
 40
0
 40
0
 40
1
 40
1
 40
1
 40
1
 10
108.426507
 20
128.103798
 30
0.0
 10
108.238970
 20
128.291334
 30
0.0
 10
107.984616
 20
128.396691
 30
0.0
 10
107.719400
 20
128.396691
 30
0.0
  0
SPLINE
  5
4e2
100
AcDbEntity
  8
0
 62
7
100
AcDbSpline
 70
8
 71
3
 72
8
 73
4
 74
0
 40
0
 40
0
 40
0
 40
0
 40
1
 40
1
 40
1
 40
1
 10
107.719400
 20
128.396691
 30
0.0
 10
107.454184
 20
128.396691
 30
0.0
 10
107.199830
 20
128.291334
 30
0.0
 10
107.012293
 20
128.103798
 30
0.0
  0
SPLINE
  5
4e3
100
AcDbEntity
  8
0
 62
7
100
AcDbSpline
 70
8
 71
3
 72
8
 73
4
 74
0
 40
0
 40
0
 40
0
 40
0
 40
1
 40
1
 40
1
 40
1
 10
107.012293
 20
128.103798
 30
0.0
 10
106.824757
 20
127.916261
 30
0.0
 10
106.719400
 20
127.661907
 30
0.0
 10
106.719400
 20
127.396691
 30
0.0
  0
SPLINE
  5
4e4
100
AcDbEntity
  8
0
 62
7
100
AcDbSpline
 70
8
 71
3
 72
8
 73
4
 74
0
 40
0
 40
0
 40
0
 40
0
 40
1
 40
1
 40
1
 40
1
 10
106.719400
 20
127.396691
 30
0.0
 10
106.719400
 20
127.131475
 30
0.0
 10
106.824757
 20
126.877121
 30
0.0
 10
107.012293
 20
126.689584
 30
0.0
  0
SPLINE
  5
4e5
100
AcDbEntity
  8
0
 62
7
100
AcDbSpline
 70
8
 71
3
 72
8
 73
4
 74
0
 40
0
 40
0
 40
0
 40
0
 40
1
 40
1
 40
1
 40
1
 10
107.012293
 20
126.689584
 30
0.0
 10
107.199830
 20
126.502048
 30
0.0
 10
107.454184
 20
126.396691
 30
0.0
 10
107.719400
 20
126.396691
 30
0.0
  0
SPLINE
  5
4e6
100
AcDbEntity
  8
0
 62
7
100
AcDbSpline
 70
8
 71
3
 72
8
 73
4
 74
0
 40
0
 40
0
 40
0
 40
0
 40
1
 40
1
 40
1
 40
1
 10
107.719400
 20
126.396691
 30
0.0
 10
107.984616
 20
126.396691
 30
0.0
 10
108.238970
 20
126.502048
 30
0.0
 10
108.426507
 20
126.689584
 30
0.0
  0
SPLINE
  5
4e7
100
AcDbEntity
  8
0
 62
7
100
AcDbSpline
 70
8
 71
3
 72
8
 73
4
 74
0
 40
0
 40
0
 40
0
 40
0
 40
1
 40
1
 40
1
 40
1
 10
108.426507
 20
126.689584
 30
0.0
 10
108.614043
 20
126.877121
 30
0.0
 10
108.719400
 20
127.131475
 30
0.0
 10
108.719400
 20
127.396691
 30
0.0
  0
LINE
  5
4e8
100
AcDbEntity
  8
0
 62
7
100
AcDbLine
 10
108.719400
 20
127.396691
 30
0.0
 11
108.719400
 21
127.396691
 31
0.0
  0
SPLINE
  5
4e9
100
AcDbEntity
  8
0
 62
7
100
AcDbSpline
 70
8
 71
3
 72
8
 73
4
 74
0
 40
0
 40
0
 40
0
 40
0
 40
1
 40
1
 40
1
 40
1
 10
106.376270
 20
130.621661
 30
0.0
 10
106.376270
 20
130.886877
 30
0.0
 10
106.270913
 20
131.141231
 30
0.0
 10
106.083377
 20
131.328768
 30
0.0
  0
SPLINE
  5
4ea
100
AcDbEntity
  8
0
 62
7
100
AcDbSpline
 70
8
 71
3
 72
8
 73
4
 74
0
 40
0
 40
0
 40
0
 40
0
 40
1
 40
1
 40
1
 40
1
 10
106.083377
 20
131.328768
 30
0.0
 10
105.895840
 20
131.516304
 30
0.0
 10
105.641486
 20
131.621661
 30
0.0
 10
105.376270
 20
131.621661
 30
0.0
  0
SPLINE
  5
4eb
100
AcDbEntity
  8
0
 62
7
100
AcDbSpline
 70
8
 71
3
 72
8
 73
4
 74
0
 40
0
 40
0
 40
0
 40
0
 40
1
 40
1
 40
1
 40
1
 10
105.376270
 20
131.621661
 30
0.0
 10
105.111054
 20
131.621661
 30
0.0
 10
104.856700
 20
131.516304
 30
0.0
 10
104.669163
 20
131.328768
 30
0.0
  0
SPLINE
  5
4ec
100
AcDbEntity
  8
0
 62
7
100
AcDbSpline
 70
8
 71
3
 72
8
 73
4
 74
0
 40
0
 40
0
 40
0
 40
0
 40
1
 40
1
 40
1
 40
1
 10
104.669163
 20
131.328768
 30
0.0
 10
104.481627
 20
131.141231
 30
0.0
 10
104.376270
 20
130.886877
 30
0.0
 10
104.376270
 20
130.621661
 30
0.0
  0
SPLINE
  5
4ed
100
AcDbEntity
  8
0
 62
7
100
AcDbSpline
 70
8
 71
3
 72
8
 73
4
 74
0
 40
0
 40
0
 40
0
 40
0
 40
1
 40
1
 40
1
 40
1
 10
104.376270
 20
130.621661
 30
0.0
 10
104.376270
 20
130.356445
 30
0.0
 10
104.481627
 20
130.102091
 30
0.0
 10
104.669163
 20
129.914554
 30
0.0
  0
SPLINE
  5
4ee
100
AcDbEntity
  8
0
 62
7
100
AcDbSpline
 70
8
 71
3
 72
8
 73
4
 74
0
 40
0
 40
0
 40
0
 40
0
 40
1
 40
1
 40
1
 40
1
 10
104.669163
 20
129.914554
 30
0.0
 10
104.856700
 20
129.727018
 30
0.0
 10
105.111054
 20
129.621661
 30
0.0
 10
105.376270
 20
129.621661
 30
0.0
  0
SPLINE
  5
4ef
100
AcDbEntity
  8
0
 62
7
100
AcDbSpline
 70
8
 71
3
 72
8
 73
4
 74
0
 40
0
 40
0
 40
0
 40
0
 40
1
 40
1
 40
1
 40
1
 10
105.376270
 20
129.621661
 30
0.0
 10
105.641486
 20
129.621661
 30
0.0
 10
105.895840
 20
129.727018
 30
0.0
 10
106.083377
 20
129.914554
 30
0.0
  0
SPLINE
  5
4f0
100
AcDbEntity
  8
0
 62
7
100
AcDbSpline
 70
8
 71
3
 72
8
 73
4
 74
0
 40
0
 40
0
 40
0
 40
0
 40
1
 40
1
 40
1
 40
1
 10
106.083377
 20
129.914554
 30
0.0
 10
106.270913
 20
130.102091
 30
0.0
 10
106.376270
 20
130.356445
 30
0.0
 10
106.376270
 20
130.621661
 30
0.0
  0
LINE
  5
4f1
100
AcDbEntity
  8
0
 62
7
100
AcDbLine
 10
106.376270
 20
130.621661
 30
0.0
 11
106.376270
 21
130.621661
 31
0.0
  0
SPLINE
  5
4f2
100
AcDbEntity
  8
0
 62
7
100
AcDbSpline
 70
8
 71
3
 72
8
 73
4
 74
0
 40
0
 40
0
 40
0
 40
0
 40
1
 40
1
 40
1
 40
1
 10
105.003120
 20
134.364361
 30
0.0
 10
105.003120
 20
134.629577
 30
0.0
 10
104.897763
 20
134.883931
 30
0.0
 10
104.710227
 20
135.071468
 30
0.0
  0
SPLINE
  5
4f3
100
AcDbEntity
  8
0
 62
7
100
AcDbSpline
 70
8
 71
3
 72
8
 73
4
 74
0
 40
0
 40
0
 40
0
 40
0
 40
1
 40
1
 40
1
 40
1
 10
104.710227
 20
135.071468
 30
0.0
 10
104.522690
 20
135.259004
 30
0.0
 10
104.268336
 20
135.364361
 30
0.0
 10
104.003120
 20
135.364361
 30
0.0
  0
SPLINE
  5
4f4
100
AcDbEntity
  8
0
 62
7
100
AcDbSpline
 70
8
 71
3
 72
8
 73
4
 74
0
 40
0
 40
0
 40
0
 40
0
 40
1
 40
1
 40
1
 40
1
 10
104.003120
 20
135.364361
 30
0.0
 10
103.737904
 20
135.364361
 30
0.0
 10
103.483550
 20
135.259004
 30
0.0
 10
103.296013
 20
135.071468
 30
0.0
  0
SPLINE
  5
4f5
100
AcDbEntity
  8
0
 62
7
100
AcDbSpline
 70
8
 71
3
 72
8
 73
4
 74
0
 40
0
 40
0
 40
0
 40
0
 40
1
 40
1
 40
1
 40
1
 10
103.296013
 20
135.071468
 30
0.0
 10
103.108477
 20
134.883931
 30
0.0
 10
103.003120
 20
134.629577
 30
0.0
 10
103.003120
 20
134.364361
 30
0.0
  0
SPLINE
  5
4f6
100
AcDbEntity
  8
0
 62
7
100
AcDbSpline
 70
8
 71
3
 72
8
 73
4
 74
0
 40
0
 40
0
 40
0
 40
0
 40
1
 40
1
 40
1
 40
1
 10
103.003120
 20
134.364361
 30
0.0
 10
103.003120
 20
134.099145
 30
0.0
 10
103.108477
 20
133.844791
 30
0.0
 10
103.296013
 20
133.657254
 30
0.0
  0
SPLINE
  5
4f7
100
AcDbEntity
  8
0
 62
7
100
AcDbSpline
 70
8
 71
3
 72
8
 73
4
 74
0
 40
0
 40
0
 40
0
 40
0
 40
1
 40
1
 40
1
 40
1
 10
103.296013
 20
133.657254
 30
0.0
 10
103.483550
 20
133.469718
 30
0.0
 10
103.737904
 20
133.364361
 30
0.0
 10
104.003120
 20
133.364361
 30
0.0
  0
SPLINE
  5
4f8
100
AcDbEntity
  8
0
 62
7
100
AcDbSpline
 70
8
 71
3
 72
8
 73
4
 74
0
 40
0
 40
0
 40
0
 40
0
 40
1
 40
1
 40
1
 40
1
 10
104.003120
 20
133.364361
 30
0.0
 10
104.268336
 20
133.364361
 30
0.0
 10
104.522690
 20
133.469718
 30
0.0
 10
104.710227
 20
133.657254
 30
0.0
  0
SPLINE
  5
4f9
100
AcDbEntity
  8
0
 62
7
100
AcDbSpline
 70
8
 71
3
 72
8
 73
4
 74
0
 40
0
 40
0
 40
0
 40
0
 40
1
 40
1
 40
1
 40
1
 10
104.710227
 20
133.657254
 30
0.0
 10
104.897763
 20
133.844791
 30
0.0
 10
105.003120
 20
134.099145
 30
0.0
 10
105.003120
 20
134.364361
 30
0.0
  0
LINE
  5
4fa
100
AcDbEntity
  8
0
 62
7
100
AcDbLine
 10
105.003120
 20
134.364361
 30
0.0
 11
105.003120
 21
134.364361
 31
0.0
  0
SPLINE
  5
4fb
100
AcDbEntity
  8
0
 62
7
100
AcDbSpline
 70
8
 71
3
 72
8
 73
4
 74
0
 40
0
 40
0
 40
0
 40
0
 40
1
 40
1
 40
1
 40
1
 10
104.668340
 20
138.337861
 30
0.0
 10
104.668340
 20
138.603077
 30
0.0
 10
104.562983
 20
138.857431
 30
0.0
 10
104.375447
 20
139.044968
 30
0.0
  0
SPLINE
  5
4fc
100
AcDbEntity
  8
0
 62
7
100
AcDbSpline
 70
8
 71
3
 72
8
 73
4
 74
0
 40
0
 40
0
 40
0
 40
0
 40
1
 40
1
 40
1
 40
1
 10
104.375447
 20
139.044968
 30
0.0
 10
104.187910
 20
139.232504
 30
0.0
 10
103.933556
 20
139.337861
 30
0.0
 10
103.668340
 20
139.337861
 30
0.0
  0
SPLINE
  5
4fd
100
AcDbEntity
  8
0
 62
7
100
AcDbSpline
 70
8
 71
3
 72
8
 73
4
 74
0
 40
0
 40
0
 40
0
 40
0
 40
1
 40
1
 40
1
 40
1
 10
103.668340
 20
139.337861
 30
0.0
 10
103.403124
 20
139.337861
 30
0.0
 10
103.148770
 20
139.232504
 30
0.0
 10
102.961233
 20
139.044968
 30
0.0
  0
SPLINE
  5
4fe
100
AcDbEntity
  8
0
 62
7
100
AcDbSpline
 70
8
 71
3
 72
8
 73
4
 74
0
 40
0
 40
0
 40
0
 40
0
 40
1
 40
1
 40
1
 40
1
 10
102.961233
 20
139.044968
 30
0.0
 10
102.773697
 20
138.857431
 30
0.0
 10
102.668340
 20
138.603077
 30
0.0
 10
102.668340
 20
138.337861
 30
0.0
  0
SPLINE
  5
4ff
100
AcDbEntity
  8
0
 62
7
100
AcDbSpline
 70
8
 71
3
 72
8
 73
4
 74
0
 40
0
 40
0
 40
0
 40
0
 40
1
 40
1
 40
1
 40
1
 10
102.668340
 20
138.337861
 30
0.0
 10
102.668340
 20
138.072645
 30
0.0
 10
102.773697
 20
137.818291
 30
0.0
 10
102.961233
 20
137.630754
 30
0.0
  0
SPLINE
  5
500
100
AcDbEntity
  8
0
 62
7
100
AcDbSpline
 70
8
 71
3
 72
8
 73
4
 74
0
 40
0
 40
0
 40
0
 40
0
 40
1
 40
1
 40
1
 40
1
 10
102.961233
 20
137.630754
 30
0.0
 10
103.148770
 20
137.443218
 30
0.0
 10
103.403124
 20
137.337861
 30
0.0
 10
103.668340
 20
137.337861
 30
0.0
  0
SPLINE
  5
501
100
AcDbEntity
  8
0
 62
7
100
AcDbSpline
 70
8
 71
3
 72
8
 73
4
 74
0
 40
0
 40
0
 40
0
 40
0
 40
1
 40
1
 40
1
 40
1
 10
103.668340
 20
137.337861
 30
0.0
 10
103.933556
 20
137.337861
 30
0.0
 10
104.187910
 20
137.443218
 30
0.0
 10
104.375447
 20
137.630754
 30
0.0
  0
SPLINE
  5
502
100
AcDbEntity
  8
0
 62
7
100
AcDbSpline
 70
8
 71
3
 72
8
 73
4
 74
0
 40
0
 40
0
 40
0
 40
0
 40
1
 40
1
 40
1
 40
1
 10
104.375447
 20
137.630754
 30
0.0
 10
104.562983
 20
137.818291
 30
0.0
 10
104.668340
 20
138.072645
 30
0.0
 10
104.668340
 20
138.337861
 30
0.0
  0
LINE
  5
503
100
AcDbEntity
  8
0
 62
7
100
AcDbLine
 10
104.668340
 20
138.337861
 30
0.0
 11
104.668340
 21
138.337861
 31
0.0
  0
SPLINE
  5
504
100
AcDbEntity
  8
0
 62
7
100
AcDbSpline
 70
8
 71
3
 72
8
 73
4
 74
0
 40
0
 40
0
 40
0
 40
0
 40
1
 40
1
 40
1
 40
1
 10
105.369840
 20
142.263811
 30
0.0
 10
105.369840
 20
142.529027
 30
0.0
 10
105.264483
 20
142.783381
 30
0.0
 10
105.076947
 20
142.970918
 30
0.0
  0
SPLINE
  5
505
100
AcDbEntity
  8
0
 62
7
100
AcDbSpline
 70
8
 71
3
 72
8
 73
4
 74
0
 40
0
 40
0
 40
0
 40
0
 40
1
 40
1
 40
1
 40
1
 10
105.076947
 20
142.970918
 30
0.0
 10
104.889410
 20
143.158454
 30
0.0
 10
104.635056
 20
143.263811
 30
0.0
 10
104.369840
 20
143.263811
 30
0.0
  0
SPLINE
  5
506
100
AcDbEntity
  8
0
 62
7
100
AcDbSpline
 70
8
 71
3
 72
8
 73
4
 74
0
 40
0
 40
0
 40
0
 40
0
 40
1
 40
1
 40
1
 40
1
 10
104.369840
 20
143.263811
 30
0.0
 10
104.104624
 20
143.263811
 30
0.0
 10
103.850270
 20
143.158454
 30
0.0
 10
103.662733
 20
142.970918
 30
0.0
  0
SPLINE
  5
507
100
AcDbEntity
  8
0
 62
7
100
AcDbSpline
 70
8
 71
3
 72
8
 73
4
 74
0
 40
0
 40
0
 40
0
 40
0
 40
1
 40
1
 40
1
 40
1
 10
103.662733
 20
142.970918
 30
0.0
 10
103.475197
 20
142.783381
 30
0.0
 10
103.369840
 20
142.529027
 30
0.0
 10
103.369840
 20
142.263811
 30
0.0
  0
SPLINE
  5
508
100
AcDbEntity
  8
0
 62
7
100
AcDbSpline
 70
8
 71
3
 72
8
 73
4
 74
0
 40
0
 40
0
 40
0
 40
0
 40
1
 40
1
 40
1
 40
1
 10
103.369840
 20
142.263811
 30
0.0
 10
103.369837
 20
141.998593
 30
0.0
 10
103.475193
 20
141.744236
 30
0.0
 10
103.662730
 20
141.556698
 30
0.0
  0
SPLINE
  5
509
100
AcDbEntity
  8
0
 62
7
100
AcDbSpline
 70
8
 71
3
 72
8
 73
4
 74
0
 40
0
 40
0
 40
0
 40
0
 40
1
 40
1
 40
1
 40
1
 10
103.662730
 20
141.556698
 30
0.0
 10
103.850266
 20
141.369159
 30
0.0
 10
104.104622
 20
141.263801
 30
0.0
 10
104.369840
 20
141.263801
 30
0.0
  0
SPLINE
  5
50a
100
AcDbEntity
  8
0
 62
7
100
AcDbSpline
 70
8
 71
3
 72
8
 73
4
 74
0
 40
0
 40
0
 40
0
 40
0
 40
1
 40
1
 40
1
 40
1
 10
104.369840
 20
141.263801
 30
0.0
 10
104.635058
 20
141.263801
 30
0.0
 10
104.889414
 20
141.369159
 30
0.0
 10
105.076950
 20
141.556698
 30
0.0
  0
SPLINE
  5
50b
100
AcDbEntity
  8
0
 62
7
100
AcDbSpline
 70
8
 71
3
 72
8
 73
4
 74
0
 40
0
 40
0
 40
0
 40
0
 40
1
 40
1
 40
1
 40
1
 10
105.076950
 20
141.556698
 30
0.0
 10
105.264487
 20
141.744236
 30
0.0
 10
105.369843
 20
141.998593
 30
0.0
 10
105.369840
 20
142.263811
 30
0.0
  0
LINE
  5
50c
100
AcDbEntity
  8
0
 62
7
100
AcDbLine
 10
105.369840
 20
142.263811
 30
0.0
 11
105.369840
 21
142.263811
 31
0.0
  0
SPLINE
  5
50d
100
AcDbEntity
  8
0
 62
7
100
AcDbSpline
 70
8
 71
3
 72
8
 73
4
 74
0
 40
0
 40
0
 40
0
 40
0
 40
1
 40
1
 40
1
 40
1
 10
107.056580
 20
145.877081
 30
0.0
 10
107.056583
 20
146.142299
 30
0.0
 10
106.951227
 20
146.396656
 30
0.0
 10
106.763690
 20
146.584194
 30
0.0
  0
SPLINE
  5
50e
100
AcDbEntity
  8
0
 62
7
100
AcDbSpline
 70
8
 71
3
 72
8
 73
4
 74
0
 40
0
 40
0
 40
0
 40
0
 40
1
 40
1
 40
1
 40
1
 10
106.763690
 20
146.584194
 30
0.0
 10
106.576154
 20
146.771733
 30
0.0
 10
106.321798
 20
146.877091
 30
0.0
 10
106.056580
 20
146.877091
 30
0.0
  0
SPLINE
  5
50f
100
AcDbEntity
  8
0
 62
7
100
AcDbSpline
 70
8
 71
3
 72
8
 73
4
 74
0
 40
0
 40
0
 40
0
 40
0
 40
1
 40
1
 40
1
 40
1
 10
106.056580
 20
146.877091
 30
0.0
 10
105.791362
 20
146.877091
 30
0.0
 10
105.537006
 20
146.771733
 30
0.0
 10
105.349470
 20
146.584194
 30
0.0
  0
SPLINE
  5
510
100
AcDbEntity
  8
0
 62
7
100
AcDbSpline
 70
8
 71
3
 72
8
 73
4
 74
0
 40
0
 40
0
 40
0
 40
0
 40
1
 40
1
 40
1
 40
1
 10
105.349470
 20
146.584194
 30
0.0
 10
105.161933
 20
146.396656
 30
0.0
 10
105.056577
 20
146.142299
 30
0.0
 10
105.056580
 20
145.877081
 30
0.0
  0
SPLINE
  5
511
100
AcDbEntity
  8
0
 62
7
100
AcDbSpline
 70
8
 71
3
 72
8
 73
4
 74
0
 40
0
 40
0
 40
0
 40
0
 40
1
 40
1
 40
1
 40
1
 10
105.056580
 20
145.877081
 30
0.0
 10
105.056580
 20
145.611865
 30
0.0
 10
105.161937
 20
145.357511
 30
0.0
 10
105.349473
 20
145.169974
 30
0.0
  0
SPLINE
  5
512
100
AcDbEntity
  8
0
 62
7
100
AcDbSpline
 70
8
 71
3
 72
8
 73
4
 74
0
 40
0
 40
0
 40
0
 40
0
 40
1
 40
1
 40
1
 40
1
 10
105.349473
 20
145.169974
 30
0.0
 10
105.537010
 20
144.982438
 30
0.0
 10
105.791364
 20
144.877081
 30
0.0
 10
106.056580
 20
144.877081
 30
0.0
  0
SPLINE
  5
513
100
AcDbEntity
  8
0
 62
7
100
AcDbSpline
 70
8
 71
3
 72
8
 73
4
 74
0
 40
0
 40
0
 40
0
 40
0
 40
1
 40
1
 40
1
 40
1
 10
106.056580
 20
144.877081
 30
0.0
 10
106.321796
 20
144.877081
 30
0.0
 10
106.576150
 20
144.982438
 30
0.0
 10
106.763687
 20
145.169974
 30
0.0
  0
SPLINE
  5
514
100
AcDbEntity
  8
0
 62
7
100
AcDbSpline
 70
8
 71
3
 72
8
 73
4
 74
0
 40
0
 40
0
 40
0
 40
0
 40
1
 40
1
 40
1
 40
1
 10
106.763687
 20
145.169974
 30
0.0
 10
106.951223
 20
145.357511
 30
0.0
 10
107.056580
 20
145.611865
 30
0.0
 10
107.056580
 20
145.877081
 30
0.0
  0
LINE
  5
515
100
AcDbEntity
  8
0
 62
7
100
AcDbLine
 10
107.056580
 20
145.877081
 30
0.0
 11
107.056580
 21
145.877081
 31
0.0
  0
SPLINE
  5
516
100
AcDbEntity
  8
0
 62
7
100
AcDbSpline
 70
8
 71
3
 72
8
 73
4
 74
0
 40
0
 40
0
 40
0
 40
0
 40
1
 40
1
 40
1
 40
1
 10
109.638700
 20
148.914811
 30
0.0
 10
109.638700
 20
149.180027
 30
0.0
 10
109.533343
 20
149.434381
 30
0.0
 10
109.345807
 20
149.621918
 30
0.0
  0
SPLINE
  5
517
100
AcDbEntity
  8
0
 62
7
100
AcDbSpline
 70
8
 71
3
 72
8
 73
4
 74
0
 40
0
 40
0
 40
0
 40
0
 40
1
 40
1
 40
1
 40
1
 10
109.345807
 20
149.621918
 30
0.0
 10
109.158270
 20
149.809454
 30
0.0
 10
108.903916
 20
149.914811
 30
0.0
 10
108.638700
 20
149.914811
 30
0.0
  0
SPLINE
  5
518
100
AcDbEntity
  8
0
 62
7
100
AcDbSpline
 70
8
 71
3
 72
8
 73
4
 74
0
 40
0
 40
0
 40
0
 40
0
 40
1
 40
1
 40
1
 40
1
 10
108.638700
 20
149.914811
 30
0.0
 10
108.373484
 20
149.914811
 30
0.0
 10
108.119130
 20
149.809454
 30
0.0
 10
107.931593
 20
149.621918
 30
0.0
  0
SPLINE
  5
519
100
AcDbEntity
  8
0
 62
7
100
AcDbSpline
 70
8
 71
3
 72
8
 73
4
 74
0
 40
0
 40
0
 40
0
 40
0
 40
1
 40
1
 40
1
 40
1
 10
107.931593
 20
149.621918
 30
0.0
 10
107.744057
 20
149.434381
 30
0.0
 10
107.638700
 20
149.180027
 30
0.0
 10
107.638700
 20
148.914811
 30
0.0
  0
SPLINE
  5
51a
100
AcDbEntity
  8
0
 62
7
100
AcDbSpline
 70
8
 71
3
 72
8
 73
4
 74
0
 40
0
 40
0
 40
0
 40
0
 40
1
 40
1
 40
1
 40
1
 10
107.638700
 20
148.914811
 30
0.0
 10
107.638700
 20
148.649595
 30
0.0
 10
107.744057
 20
148.395241
 30
0.0
 10
107.931593
 20
148.207704
 30
0.0
  0
SPLINE
  5
51b
100
AcDbEntity
  8
0
 62
7
100
AcDbSpline
 70
8
 71
3
 72
8
 73
4
 74
0
 40
0
 40
0
 40
0
 40
0
 40
1
 40
1
 40
1
 40
1
 10
107.931593
 20
148.207704
 30
0.0
 10
108.119130
 20
148.020168
 30
0.0
 10
108.373484
 20
147.914811
 30
0.0
 10
108.638700
 20
147.914811
 30
0.0
  0
SPLINE
  5
51c
100
AcDbEntity
  8
0
 62
7
100
AcDbSpline
 70
8
 71
3
 72
8
 73
4
 74
0
 40
0
 40
0
 40
0
 40
0
 40
1
 40
1
 40
1
 40
1
 10
108.638700
 20
147.914811
 30
0.0
 10
108.903916
 20
147.914811
 30
0.0
 10
109.158270
 20
148.020168
 30
0.0
 10
109.345807
 20
148.207704
 30
0.0
  0
SPLINE
  5
51d
100
AcDbEntity
  8
0
 62
7
100
AcDbSpline
 70
8
 71
3
 72
8
 73
4
 74
0
 40
0
 40
0
 40
0
 40
0
 40
1
 40
1
 40
1
 40
1
 10
109.345807
 20
148.207704
 30
0.0
 10
109.533343
 20
148.395241
 30
0.0
 10
109.638700
 20
148.649595
 30
0.0
 10
109.638700
 20
148.914811
 30
0.0
  0
LINE
  5
51e
100
AcDbEntity
  8
0
 62
7
100
AcDbLine
 10
109.638700
 20
148.914811
 30
0.0
 11
109.638700
 21
148.914811
 31
0.0
  0
SPLINE
  5
51f
100
AcDbEntity
  8
0
 62
7
100
AcDbSpline
 70
8
 71
3
 72
8
 73
4
 74
0
 40
0
 40
0
 40
0
 40
0
 40
1
 40
1
 40
1
 40
1
 10
112.933930
 20
151.159081
 30
0.0
 10
112.933930
 20
151.424297
 30
0.0
 10
112.828573
 20
151.678651
 30
0.0
 10
112.641037
 20
151.866188
 30
0.0
  0
SPLINE
  5
520
100
AcDbEntity
  8
0
 62
7
100
AcDbSpline
 70
8
 71
3
 72
8
 73
4
 74
0
 40
0
 40
0
 40
0
 40
0
 40
1
 40
1
 40
1
 40
1
 10
112.641037
 20
151.866188
 30
0.0
 10
112.453500
 20
152.053724
 30
0.0
 10
112.199146
 20
152.159081
 30
0.0
 10
111.933930
 20
152.159081
 30
0.0
  0
SPLINE
  5
521
100
AcDbEntity
  8
0
 62
7
100
AcDbSpline
 70
8
 71
3
 72
8
 73
4
 74
0
 40
0
 40
0
 40
0
 40
0
 40
1
 40
1
 40
1
 40
1
 10
111.933930
 20
152.159081
 30
0.0
 10
111.668714
 20
152.159081
 30
0.0
 10
111.414360
 20
152.053724
 30
0.0
 10
111.226823
 20
151.866188
 30
0.0
  0
SPLINE
  5
522
100
AcDbEntity
  8
0
 62
7
100
AcDbSpline
 70
8
 71
3
 72
8
 73
4
 74
0
 40
0
 40
0
 40
0
 40
0
 40
1
 40
1
 40
1
 40
1
 10
111.226823
 20
151.866188
 30
0.0
 10
111.039287
 20
151.678651
 30
0.0
 10
110.933930
 20
151.424297
 30
0.0
 10
110.933930
 20
151.159081
 30
0.0
  0
SPLINE
  5
523
100
AcDbEntity
  8
0
 62
7
100
AcDbSpline
 70
8
 71
3
 72
8
 73
4
 74
0
 40
0
 40
0
 40
0
 40
0
 40
1
 40
1
 40
1
 40
1
 10
110.933930
 20
151.159081
 30
0.0
 10
110.933930
 20
150.893865
 30
0.0
 10
111.039287
 20
150.639511
 30
0.0
 10
111.226823
 20
150.451974
 30
0.0
  0
SPLINE
  5
524
100
AcDbEntity
  8
0
 62
7
100
AcDbSpline
 70
8
 71
3
 72
8
 73
4
 74
0
 40
0
 40
0
 40
0
 40
0
 40
1
 40
1
 40
1
 40
1
 10
111.226823
 20
150.451974
 30
0.0
 10
111.414360
 20
150.264438
 30
0.0
 10
111.668714
 20
150.159081
 30
0.0
 10
111.933930
 20
150.159081
 30
0.0
  0
SPLINE
  5
525
100
AcDbEntity
  8
0
 62
7
100
AcDbSpline
 70
8
 71
3
 72
8
 73
4
 74
0
 40
0
 40
0
 40
0
 40
0
 40
1
 40
1
 40
1
 40
1
 10
111.933930
 20
150.159081
 30
0.0
 10
112.199146
 20
150.159081
 30
0.0
 10
112.453500
 20
150.264438
 30
0.0
 10
112.641037
 20
150.451974
 30
0.0
  0
SPLINE
  5
526
100
AcDbEntity
  8
0
 62
7
100
AcDbSpline
 70
8
 71
3
 72
8
 73
4
 74
0
 40
0
 40
0
 40
0
 40
0
 40
1
 40
1
 40
1
 40
1
 10
112.641037
 20
150.451974
 30
0.0
 10
112.828573
 20
150.639511
 30
0.0
 10
112.933930
 20
150.893865
 30
0.0
 10
112.933930
 20
151.159081
 30
0.0
  0
LINE
  5
527
100
AcDbEntity
  8
0
 62
7
100
AcDbLine
 10
112.933930
 20
151.159081
 30
0.0
 11
112.933930
 21
151.159081
 31
0.0
  0
SPLINE
  5
528
100
AcDbEntity
  8
0
 62
7
100
AcDbSpline
 70
8
 71
3
 72
8
 73
4
 74
0
 40
0
 40
0
 40
0
 40
0
 40
1
 40
1
 40
1
 40
1
 10
116.702670
 20
152.462601
 30
0.0
 10
116.702670
 20
152.727817
 30
0.0
 10
116.597313
 20
152.982171
 30
0.0
 10
116.409777
 20
153.169708
 30
0.0
  0
SPLINE
  5
529
100
AcDbEntity
  8
0
 62
7
100
AcDbSpline
 70
8
 71
3
 72
8
 73
4
 74
0
 40
0
 40
0
 40
0
 40
0
 40
1
 40
1
 40
1
 40
1
 10
116.409777
 20
153.169708
 30
0.0
 10
116.222240
 20
153.357244
 30
0.0
 10
115.967886
 20
153.462601
 30
0.0
 10
115.702670
 20
153.462601
 30
0.0
  0
SPLINE
  5
52a
100
AcDbEntity
  8
0
 62
7
100
AcDbSpline
 70
8
 71
3
 72
8
 73
4
 74
0
 40
0
 40
0
 40
0
 40
0
 40
1
 40
1
 40
1
 40
1
 10
115.702670
 20
153.462601
 30
0.0
 10
115.437454
 20
153.462601
 30
0.0
 10
115.183100
 20
153.357244
 30
0.0
 10
114.995563
 20
153.169708
 30
0.0
  0
SPLINE
  5
52b
100
AcDbEntity
  8
0
 62
7
100
AcDbSpline
 70
8
 71
3
 72
8
 73
4
 74
0
 40
0
 40
0
 40
0
 40
0
 40
1
 40
1
 40
1
 40
1
 10
114.995563
 20
153.169708
 30
0.0
 10
114.808027
 20
152.982171
 30
0.0
 10
114.702670
 20
152.727817
 30
0.0
 10
114.702670
 20
152.462601
 30
0.0
  0
SPLINE
  5
52c
100
AcDbEntity
  8
0
 62
7
100
AcDbSpline
 70
8
 71
3
 72
8
 73
4
 74
0
 40
0
 40
0
 40
0
 40
0
 40
1
 40
1
 40
1
 40
1
 10
114.702670
 20
152.462601
 30
0.0
 10
114.702670
 20
152.197385
 30
0.0
 10
114.808027
 20
151.943031
 30
0.0
 10
114.995563
 20
151.755494
 30
0.0
  0
SPLINE
  5
52d
100
AcDbEntity
  8
0
 62
7
100
AcDbSpline
 70
8
 71
3
 72
8
 73
4
 74
0
 40
0
 40
0
 40
0
 40
0
 40
1
 40
1
 40
1
 40
1
 10
114.995563
 20
151.755494
 30
0.0
 10
115.183100
 20
151.567958
 30
0.0
 10
115.437454
 20
151.462601
 30
0.0
 10
115.702670
 20
151.462601
 30
0.0
  0
SPLINE
  5
52e
100
AcDbEntity
  8
0
 62
7
100
AcDbSpline
 70
8
 71
3
 72
8
 73
4
 74
0
 40
0
 40
0
 40
0
 40
0
 40
1
 40
1
 40
1
 40
1
 10
115.702670
 20
151.462601
 30
0.0
 10
115.967886
 20
151.462601
 30
0.0
 10
116.222240
 20
151.567958
 30
0.0
 10
116.409777
 20
151.755494
 30
0.0
  0
SPLINE
  5
52f
100
AcDbEntity
  8
0
 62
7
100
AcDbSpline
 70
8
 71
3
 72
8
 73
4
 74
0
 40
0
 40
0
 40
0
 40
0
 40
1
 40
1
 40
1
 40
1
 10
116.409777
 20
151.755494
 30
0.0
 10
116.597313
 20
151.943031
 30
0.0
 10
116.702670
 20
152.197385
 30
0.0
 10
116.702670
 20
152.462601
 30
0.0
  0
LINE
  5
530
100
AcDbEntity
  8
0
 62
7
100
AcDbLine
 10
116.702670
 20
152.462601
 30
0.0
 11
116.702670
 21
152.462601
 31
0.0
  0
SPLINE
  5
531
100
AcDbEntity
  8
0
 62
7
100
AcDbSpline
 70
8
 71
3
 72
8
 73
4
 74
0
 40
0
 40
0
 40
0
 40
0
 40
1
 40
1
 40
1
 40
1
 10
120.680450
 20
152.758271
 30
0.0
 10
120.680450
 20
153.023487
 30
0.0
 10
120.575093
 20
153.277841
 30
0.0
 10
120.387557
 20
153.465378
 30
0.0
  0
SPLINE
  5
532
100
AcDbEntity
  8
0
 62
7
100
AcDbSpline
 70
8
 71
3
 72
8
 73
4
 74
0
 40
0
 40
0
 40
0
 40
0
 40
1
 40
1
 40
1
 40
1
 10
120.387557
 20
153.465378
 30
0.0
 10
120.200020
 20
153.652914
 30
0.0
 10
119.945666
 20
153.758271
 30
0.0
 10
119.680450
 20
153.758271
 30
0.0
  0
SPLINE
  5
533
100
AcDbEntity
  8
0
 62
7
100
AcDbSpline
 70
8
 71
3
 72
8
 73
4
 74
0
 40
0
 40
0
 40
0
 40
0
 40
1
 40
1
 40
1
 40
1
 10
119.680450
 20
153.758271
 30
0.0
 10
119.415234
 20
153.758271
 30
0.0
 10
119.160880
 20
153.652914
 30
0.0
 10
118.973343
 20
153.465378
 30
0.0
  0
SPLINE
  5
534
100
AcDbEntity
  8
0
 62
7
100
AcDbSpline
 70
8
 71
3
 72
8
 73
4
 74
0
 40
0
 40
0
 40
0
 40
0
 40
1
 40
1
 40
1
 40
1
 10
118.973343
 20
153.465378
 30
0.0
 10
118.785807
 20
153.277841
 30
0.0
 10
118.680450
 20
153.023487
 30
0.0
 10
118.680450
 20
152.758271
 30
0.0
  0
SPLINE
  5
535
100
AcDbEntity
  8
0
 62
7
100
AcDbSpline
 70
8
 71
3
 72
8
 73
4
 74
0
 40
0
 40
0
 40
0
 40
0
 40
1
 40
1
 40
1
 40
1
 10
118.680450
 20
152.758271
 30
0.0
 10
118.680450
 20
152.493055
 30
0.0
 10
118.785807
 20
152.238701
 30
0.0
 10
118.973343
 20
152.051164
 30
0.0
  0
SPLINE
  5
536
100
AcDbEntity
  8
0
 62
7
100
AcDbSpline
 70
8
 71
3
 72
8
 73
4
 74
0
 40
0
 40
0
 40
0
 40
0
 40
1
 40
1
 40
1
 40
1
 10
118.973343
 20
152.051164
 30
0.0
 10
119.160880
 20
151.863628
 30
0.0
 10
119.415234
 20
151.758271
 30
0.0
 10
119.680450
 20
151.758271
 30
0.0
  0
SPLINE
  5
537
100
AcDbEntity
  8
0
 62
7
100
AcDbSpline
 70
8
 71
3
 72
8
 73
4
 74
0
 40
0
 40
0
 40
0
 40
0
 40
1
 40
1
 40
1
 40
1
 10
119.680450
 20
151.758271
 30
0.0
 10
119.945666
 20
151.758271
 30
0.0
 10
120.200020
 20
151.863628
 30
0.0
 10
120.387557
 20
152.051164
 30
0.0
  0
SPLINE
  5
538
100
AcDbEntity
  8
0
 62
7
100
AcDbSpline
 70
8
 71
3
 72
8
 73
4
 74
0
 40
0
 40
0
 40
0
 40
0
 40
1
 40
1
 40
1
 40
1
 10
120.387557
 20
152.051164
 30
0.0
 10
120.575093
 20
152.238701
 30
0.0
 10
120.680450
 20
152.493055
 30
0.0
 10
120.680450
 20
152.758271
 30
0.0
  0
LINE
  5
539
100
AcDbEntity
  8
0
 62
7
100
AcDbLine
 10
120.680450
 20
152.758271
 30
0.0
 11
120.680450
 21
152.758271
 31
0.0
  0
SPLINE
  5
53a
100
AcDbEntity
  8
0
 62
7
100
AcDbSpline
 70
8
 71
3
 72
8
 73
4
 74
0
 40
0
 40
0
 40
0
 40
0
 40
1
 40
1
 40
1
 40
1
 10
124.607730
 20
152.060541
 30
0.0
 10
124.607730
 20
152.325757
 30
0.0
 10
124.502373
 20
152.580111
 30
0.0
 10
124.314837
 20
152.767648
 30
0.0
  0
SPLINE
  5
53b
100
AcDbEntity
  8
0
 62
7
100
AcDbSpline
 70
8
 71
3
 72
8
 73
4
 74
0
 40
0
 40
0
 40
0
 40
0
 40
1
 40
1
 40
1
 40
1
 10
124.314837
 20
152.767648
 30
0.0
 10
124.127300
 20
152.955184
 30
0.0
 10
123.872946
 20
153.060541
 30
0.0
 10
123.607730
 20
153.060541
 30
0.0
  0
SPLINE
  5
53c
100
AcDbEntity
  8
0
 62
7
100
AcDbSpline
 70
8
 71
3
 72
8
 73
4
 74
0
 40
0
 40
0
 40
0
 40
0
 40
1
 40
1
 40
1
 40
1
 10
123.607730
 20
153.060541
 30
0.0
 10
123.342514
 20
153.060541
 30
0.0
 10
123.088160
 20
152.955184
 30
0.0
 10
122.900623
 20
152.767648
 30
0.0
  0
SPLINE
  5
53d
100
AcDbEntity
  8
0
 62
7
100
AcDbSpline
 70
8
 71
3
 72
8
 73
4
 74
0
 40
0
 40
0
 40
0
 40
0
 40
1
 40
1
 40
1
 40
1
 10
122.900623
 20
152.767648
 30
0.0
 10
122.713087
 20
152.580111
 30
0.0
 10
122.607730
 20
152.325757
 30
0.0
 10
122.607730
 20
152.060541
 30
0.0
  0
SPLINE
  5
53e
100
AcDbEntity
  8
0
 62
7
100
AcDbSpline
 70
8
 71
3
 72
8
 73
4
 74
0
 40
0
 40
0
 40
0
 40
0
 40
1
 40
1
 40
1
 40
1
 10
122.607730
 20
152.060541
 30
0.0
 10
122.607730
 20
151.795325
 30
0.0
 10
122.713087
 20
151.540971
 30
0.0
 10
122.900623
 20
151.353434
 30
0.0
  0
SPLINE
  5
53f
100
AcDbEntity
  8
0
 62
7
100
AcDbSpline
 70
8
 71
3
 72
8
 73
4
 74
0
 40
0
 40
0
 40
0
 40
0
 40
1
 40
1
 40
1
 40
1
 10
122.900623
 20
151.353434
 30
0.0
 10
123.088160
 20
151.165898
 30
0.0
 10
123.342514
 20
151.060541
 30
0.0
 10
123.607730
 20
151.060541
 30
0.0
  0
SPLINE
  5
540
100
AcDbEntity
  8
0
 62
7
100
AcDbSpline
 70
8
 71
3
 72
8
 73
4
 74
0
 40
0
 40
0
 40
0
 40
0
 40
1
 40
1
 40
1
 40
1
 10
123.607730
 20
151.060541
 30
0.0
 10
123.872946
 20
151.060541
 30
0.0
 10
124.127300
 20
151.165898
 30
0.0
 10
124.314837
 20
151.353434
 30
0.0
  0
SPLINE
  5
541
100
AcDbEntity
  8
0
 62
7
100
AcDbSpline
 70
8
 71
3
 72
8
 73
4
 74
0
 40
0
 40
0
 40
0
 40
0
 40
1
 40
1
 40
1
 40
1
 10
124.314837
 20
151.353434
 30
0.0
 10
124.502373
 20
151.540971
 30
0.0
 10
124.607730
 20
151.795325
 30
0.0
 10
124.607730
 20
152.060541
 30
0.0
  0
LINE
  5
542
100
AcDbEntity
  8
0
 62
7
100
AcDbLine
 10
124.607730
 20
152.060541
 30
0.0
 11
124.607730
 21
152.060541
 31
0.0
  0
SPLINE
  5
543
100
AcDbEntity
  8
0
 62
7
100
AcDbSpline
 70
8
 71
3
 72
8
 73
4
 74
0
 40
0
 40
0
 40
0
 40
0
 40
1
 40
1
 40
1
 40
1
 10
128.240330
 20
150.413681
 30
0.0
 10
128.240324
 20
150.965962
 30
0.0
 10
127.792611
 20
151.413671
 30
0.0
 10
127.240330
 20
151.413671
 30
0.0
  0
SPLINE
  5
544
100
AcDbEntity
  8
0
 62
7
100
AcDbSpline
 70
8
 71
3
 72
8
 73
4
 74
0
 40
0
 40
0
 40
0
 40
0
 40
1
 40
1
 40
1
 40
1
 10
127.240330
 20
151.413671
 30
0.0
 10
126.688049
 20
151.413671
 30
0.0
 10
126.240336
 20
150.965962
 30
0.0
 10
126.240330
 20
150.413681
 30
0.0
  0
SPLINE
  5
545
100
AcDbEntity
  8
0
 62
7
100
AcDbSpline
 70
8
 71
3
 72
8
 73
4
 74
0
 40
0
 40
0
 40
0
 40
0
 40
1
 40
1
 40
1
 40
1
 10
126.240330
 20
150.413681
 30
0.0
 10
126.240327
 20
150.148463
 30
0.0
 10
126.345683
 20
149.894106
 30
0.0
 10
126.533220
 20
149.706568
 30
0.0
  0
SPLINE
  5
546
100
AcDbEntity
  8
0
 62
7
100
AcDbSpline
 70
8
 71
3
 72
8
 73
4
 74
0
 40
0
 40
0
 40
0
 40
0
 40
1
 40
1
 40
1
 40
1
 10
126.533220
 20
149.706568
 30
0.0
 10
126.720756
 20
149.519029
 30
0.0
 10
126.975112
 20
149.413671
 30
0.0
 10
127.240330
 20
149.413671
 30
0.0
  0
SPLINE
  5
547
100
AcDbEntity
  8
0
 62
7
100
AcDbSpline
 70
8
 71
3
 72
8
 73
4
 74
0
 40
0
 40
0
 40
0
 40
0
 40
1
 40
1
 40
1
 40
1
 10
127.240330
 20
149.413671
 30
0.0
 10
127.505548
 20
149.413671
 30
0.0
 10
127.759904
 20
149.519029
 30
0.0
 10
127.947440
 20
149.706568
 30
0.0
  0
SPLINE
  5
548
100
AcDbEntity
  8
0
 62
7
100
AcDbSpline
 70
8
 71
3
 72
8
 73
4
 74
0
 40
0
 40
0
 40
0
 40
0
 40
1
 40
1
 40
1
 40
1
 10
127.947440
 20
149.706568
 30
0.0
 10
128.134977
 20
149.894106
 30
0.0
 10
128.240333
 20
150.148463
 30
0.0
 10
128.240330
 20
150.413681
 30
0.0
  0
LINE
  5
549
100
AcDbEntity
  8
0
 62
7
100
AcDbLine
 10
128.240330
 20
150.413681
 30
0.0
 11
128.240330
 21
150.413681
 31
0.0
  0
SPLINE
  5
54a
100
AcDbEntity
  8
0
 62
7
100
AcDbSpline
 70
8
 71
3
 72
8
 73
4
 74
0
 40
0
 40
0
 40
0
 40
0
 40
1
 40
1
 40
1
 40
1
 10
131.336200
 20
147.899171
 30
0.0
 10
131.336200
 20
148.164387
 30
0.0
 10
131.230843
 20
148.418741
 30
0.0
 10
131.043307
 20
148.606278
 30
0.0
  0
SPLINE
  5
54b
100
AcDbEntity
  8
0
 62
7
100
AcDbSpline
 70
8
 71
3
 72
8
 73
4
 74
0
 40
0
 40
0
 40
0
 40
0
 40
1
 40
1
 40
1
 40
1
 10
131.043307
 20
148.606278
 30
0.0
 10
130.855770
 20
148.793814
 30
0.0
 10
130.601416
 20
148.899171
 30
0.0
 10
130.336200
 20
148.899171
 30
0.0
  0
SPLINE
  5
54c
100
AcDbEntity
  8
0
 62
7
100
AcDbSpline
 70
8
 71
3
 72
8
 73
4
 74
0
 40
0
 40
0
 40
0
 40
0
 40
1
 40
1
 40
1
 40
1
 10
130.336200
 20
148.899171
 30
0.0
 10
130.070984
 20
148.899171
 30
0.0
 10
129.816630
 20
148.793814
 30
0.0
 10
129.629093
 20
148.606278
 30
0.0
  0
SPLINE
  5
54d
100
AcDbEntity
  8
0
 62
7
100
AcDbSpline
 70
8
 71
3
 72
8
 73
4
 74
0
 40
0
 40
0
 40
0
 40
0
 40
1
 40
1
 40
1
 40
1
 10
129.629093
 20
148.606278
 30
0.0
 10
129.441557
 20
148.418741
 30
0.0
 10
129.336200
 20
148.164387
 30
0.0
 10
129.336200
 20
147.899171
 30
0.0
  0
SPLINE
  5
54e
100
AcDbEntity
  8
0
 62
7
100
AcDbSpline
 70
8
 71
3
 72
8
 73
4
 74
0
 40
0
 40
0
 40
0
 40
0
 40
1
 40
1
 40
1
 40
1
 10
129.336200
 20
147.899171
 30
0.0
 10
129.336197
 20
147.633953
 30
0.0
 10
129.441553
 20
147.379596
 30
0.0
 10
129.629090
 20
147.192058
 30
0.0
  0
SPLINE
  5
54f
100
AcDbEntity
  8
0
 62
7
100
AcDbSpline
 70
8
 71
3
 72
8
 73
4
 74
0
 40
0
 40
0
 40
0
 40
0
 40
1
 40
1
 40
1
 40
1
 10
129.629090
 20
147.192058
 30
0.0
 10
129.816626
 20
147.004519
 30
0.0
 10
130.070982
 20
146.899161
 30
0.0
 10
130.336200
 20
146.899161
 30
0.0
  0
SPLINE
  5
550
100
AcDbEntity
  8
0
 62
7
100
AcDbSpline
 70
8
 71
3
 72
8
 73
4
 74
0
 40
0
 40
0
 40
0
 40
0
 40
1
 40
1
 40
1
 40
1
 10
130.336200
 20
146.899161
 30
0.0
 10
130.601418
 20
146.899161
 30
0.0
 10
130.855774
 20
147.004519
 30
0.0
 10
131.043310
 20
147.192058
 30
0.0
  0
SPLINE
  5
551
100
AcDbEntity
  8
0
 62
7
100
AcDbSpline
 70
8
 71
3
 72
8
 73
4
 74
0
 40
0
 40
0
 40
0
 40
0
 40
1
 40
1
 40
1
 40
1
 10
131.043310
 20
147.192058
 30
0.0
 10
131.230847
 20
147.379596
 30
0.0
 10
131.336203
 20
147.633953
 30
0.0
 10
131.336200
 20
147.899171
 30
0.0
  0
LINE
  5
552
100
AcDbEntity
  8
0
 62
7
100
AcDbLine
 10
131.336200
 20
147.899171
 30
0.0
 11
131.336200
 21
147.899171
 31
0.0
  0
SPLINE
  5
553
100
AcDbEntity
  8
0
 62
7
100
AcDbSpline
 70
8
 71
3
 72
8
 73
4
 74
0
 40
0
 40
0
 40
0
 40
0
 40
1
 40
1
 40
1
 40
1
 10
133.681540
 20
144.672681
 30
0.0
 10
133.681540
 20
144.937897
 30
0.0
 10
133.576183
 20
145.192251
 30
0.0
 10
133.388647
 20
145.379788
 30
0.0
  0
SPLINE
  5
554
100
AcDbEntity
  8
0
 62
7
100
AcDbSpline
 70
8
 71
3
 72
8
 73
4
 74
0
 40
0
 40
0
 40
0
 40
0
 40
1
 40
1
 40
1
 40
1
 10
133.388647
 20
145.379788
 30
0.0
 10
133.201110
 20
145.567324
 30
0.0
 10
132.946756
 20
145.672681
 30
0.0
 10
132.681540
 20
145.672681
 30
0.0
  0
SPLINE
  5
555
100
AcDbEntity
  8
0
 62
7
100
AcDbSpline
 70
8
 71
3
 72
8
 73
4
 74
0
 40
0
 40
0
 40
0
 40
0
 40
1
 40
1
 40
1
 40
1
 10
132.681540
 20
145.672681
 30
0.0
 10
132.416324
 20
145.672681
 30
0.0
 10
132.161970
 20
145.567324
 30
0.0
 10
131.974433
 20
145.379788
 30
0.0
  0
SPLINE
  5
556
100
AcDbEntity
  8
0
 62
7
100
AcDbSpline
 70
8
 71
3
 72
8
 73
4
 74
0
 40
0
 40
0
 40
0
 40
0
 40
1
 40
1
 40
1
 40
1
 10
131.974433
 20
145.379788
 30
0.0
 10
131.786897
 20
145.192251
 30
0.0
 10
131.681540
 20
144.937897
 30
0.0
 10
131.681540
 20
144.672681
 30
0.0
  0
SPLINE
  5
557
100
AcDbEntity
  8
0
 62
7
100
AcDbSpline
 70
8
 71
3
 72
8
 73
4
 74
0
 40
0
 40
0
 40
0
 40
0
 40
1
 40
1
 40
1
 40
1
 10
131.681540
 20
144.672681
 30
0.0
 10
131.681540
 20
144.407465
 30
0.0
 10
131.786897
 20
144.153111
 30
0.0
 10
131.974433
 20
143.965574
 30
0.0
  0
SPLINE
  5
558
100
AcDbEntity
  8
0
 62
7
100
AcDbSpline
 70
8
 71
3
 72
8
 73
4
 74
0
 40
0
 40
0
 40
0
 40
0
 40
1
 40
1
 40
1
 40
1
 10
131.974433
 20
143.965574
 30
0.0
 10
132.161970
 20
143.778038
 30
0.0
 10
132.416324
 20
143.672681
 30
0.0
 10
132.681540
 20
143.672681
 30
0.0
  0
SPLINE
  5
559
100
AcDbEntity
  8
0
 62
7
100
AcDbSpline
 70
8
 71
3
 72
8
 73
4
 74
0
 40
0
 40
0
 40
0
 40
0
 40
1
 40
1
 40
1
 40
1
 10
132.681540
 20
143.672681
 30
0.0
 10
132.946756
 20
143.672681
 30
0.0
 10
133.201110
 20
143.778038
 30
0.0
 10
133.388647
 20
143.965574
 30
0.0
  0
SPLINE
  5
55a
100
AcDbEntity
  8
0
 62
7
100
AcDbSpline
 70
8
 71
3
 72
8
 73
4
 74
0
 40
0
 40
0
 40
0
 40
0
 40
1
 40
1
 40
1
 40
1
 10
133.388647
 20
143.965574
 30
0.0
 10
133.576183
 20
144.153111
 30
0.0
 10
133.681540
 20
144.407465
 30
0.0
 10
133.681540
 20
144.672681
 30
0.0
  0
LINE
  5
55b
100
AcDbEntity
  8
0
 62
7
100
AcDbLine
 10
133.681540
 20
144.672681
 30
0.0
 11
133.681540
 21
144.672681
 31
0.0
  0
SPLINE
  5
55c
100
AcDbEntity
  8
0
 62
7
100
AcDbSpline
 70
8
 71
3
 72
8
 73
4
 74
0
 40
0
 40
0
 40
0
 40
0
 40
1
 40
1
 40
1
 40
1
 10
135.133150
 20
140.957081
 30
0.0
 10
135.133150
 20
141.222297
 30
0.0
 10
135.027793
 20
141.476651
 30
0.0
 10
134.840257
 20
141.664188
 30
0.0
  0
SPLINE
  5
55d
100
AcDbEntity
  8
0
 62
7
100
AcDbSpline
 70
8
 71
3
 72
8
 73
4
 74
0
 40
0
 40
0
 40
0
 40
0
 40
1
 40
1
 40
1
 40
1
 10
134.840257
 20
141.664188
 30
0.0
 10
134.652720
 20
141.851724
 30
0.0
 10
134.398366
 20
141.957081
 30
0.0
 10
134.133150
 20
141.957081
 30
0.0
  0
SPLINE
  5
55e
100
AcDbEntity
  8
0
 62
7
100
AcDbSpline
 70
8
 71
3
 72
8
 73
4
 74
0
 40
0
 40
0
 40
0
 40
0
 40
1
 40
1
 40
1
 40
1
 10
134.133150
 20
141.957081
 30
0.0
 10
133.867934
 20
141.957081
 30
0.0
 10
133.613580
 20
141.851724
 30
0.0
 10
133.426043
 20
141.664188
 30
0.0
  0
SPLINE
  5
55f
100
AcDbEntity
  8
0
 62
7
100
AcDbSpline
 70
8
 71
3
 72
8
 73
4
 74
0
 40
0
 40
0
 40
0
 40
0
 40
1
 40
1
 40
1
 40
1
 10
133.426043
 20
141.664188
 30
0.0
 10
133.238507
 20
141.476651
 30
0.0
 10
133.133150
 20
141.222297
 30
0.0
 10
133.133150
 20
140.957081
 30
0.0
  0
SPLINE
  5
560
100
AcDbEntity
  8
0
 62
7
100
AcDbSpline
 70
8
 71
3
 72
8
 73
4
 74
0
 40
0
 40
0
 40
0
 40
0
 40
1
 40
1
 40
1
 40
1
 10
133.133150
 20
140.957081
 30
0.0
 10
133.133150
 20
140.691865
 30
0.0
 10
133.238507
 20
140.437511
 30
0.0
 10
133.426043
 20
140.249974
 30
0.0
  0
SPLINE
  5
561
100
AcDbEntity
  8
0
 62
7
100
AcDbSpline
 70
8
 71
3
 72
8
 73
4
 74
0
 40
0
 40
0
 40
0
 40
0
 40
1
 40
1
 40
1
 40
1
 10
133.426043
 20
140.249974
 30
0.0
 10
133.613580
 20
140.062438
 30
0.0
 10
133.867934
 20
139.957081
 30
0.0
 10
134.133150
 20
139.957081
 30
0.0
  0
SPLINE
  5
562
100
AcDbEntity
  8
0
 62
7
100
AcDbSpline
 70
8
 71
3
 72
8
 73
4
 74
0
 40
0
 40
0
 40
0
 40
0
 40
1
 40
1
 40
1
 40
1
 10
134.133150
 20
139.957081
 30
0.0
 10
134.398366
 20
139.957081
 30
0.0
 10
134.652720
 20
140.062438
 30
0.0
 10
134.840257
 20
140.249974
 30
0.0
  0
SPLINE
  5
563
100
AcDbEntity
  8
0
 62
7
100
AcDbSpline
 70
8
 71
3
 72
8
 73
4
 74
0
 40
0
 40
0
 40
0
 40
0
 40
1
 40
1
 40
1
 40
1
 10
134.840257
 20
140.249974
 30
0.0
 10
135.027793
 20
140.437511
 30
0.0
 10
135.133150
 20
140.691865
 30
0.0
 10
135.133150
 20
140.957081
 30
0.0
  0
LINE
  5
564
100
AcDbEntity
  8
0
 62
7
100
AcDbLine
 10
135.133150
 20
140.957081
 30
0.0
 11
135.133150
 21
140.957081
 31
0.0
  0
SPLINE
  5
565
100
AcDbEntity
  8
0
 62
7
100
AcDbSpline
 70
8
 71
3
 72
8
 73
4
 74
0
 40
0
 40
0
 40
0
 40
0
 40
1
 40
1
 40
1
 40
1
 10
135.619620
 20
136.997161
 30
0.0
 10
135.619620
 20
137.262377
 30
0.0
 10
135.514263
 20
137.516731
 30
0.0
 10
135.326727
 20
137.704268
 30
0.0
  0
SPLINE
  5
566
100
AcDbEntity
  8
0
 62
7
100
AcDbSpline
 70
8
 71
3
 72
8
 73
4
 74
0
 40
0
 40
0
 40
0
 40
0
 40
1
 40
1
 40
1
 40
1
 10
135.326727
 20
137.704268
 30
0.0
 10
135.139190
 20
137.891804
 30
0.0
 10
134.884836
 20
137.997161
 30
0.0
 10
134.619620
 20
137.997161
 30
0.0
  0
SPLINE
  5
567
100
AcDbEntity
  8
0
 62
7
100
AcDbSpline
 70
8
 71
3
 72
8
 73
4
 74
0
 40
0
 40
0
 40
0
 40
0
 40
1
 40
1
 40
1
 40
1
 10
134.619620
 20
137.997161
 30
0.0
 10
134.354404
 20
137.997161
 30
0.0
 10
134.100050
 20
137.891804
 30
0.0
 10
133.912513
 20
137.704268
 30
0.0
  0
SPLINE
  5
568
100
AcDbEntity
  8
0
 62
7
100
AcDbSpline
 70
8
 71
3
 72
8
 73
4
 74
0
 40
0
 40
0
 40
0
 40
0
 40
1
 40
1
 40
1
 40
1
 10
133.912513
 20
137.704268
 30
0.0
 10
133.724977
 20
137.516731
 30
0.0
 10
133.619620
 20
137.262377
 30
0.0
 10
133.619620
 20
136.997161
 30
0.0
  0
SPLINE
  5
569
100
AcDbEntity
  8
0
 62
7
100
AcDbSpline
 70
8
 71
3
 72
8
 73
4
 74
0
 40
0
 40
0
 40
0
 40
0
 40
1
 40
1
 40
1
 40
1
 10
133.619620
 20
136.997161
 30
0.0
 10
133.619620
 20
136.731945
 30
0.0
 10
133.724977
 20
136.477591
 30
0.0
 10
133.912513
 20
136.290054
 30
0.0
  0
SPLINE
  5
56a
100
AcDbEntity
  8
0
 62
7
100
AcDbSpline
 70
8
 71
3
 72
8
 73
4
 74
0
 40
0
 40
0
 40
0
 40
0
 40
1
 40
1
 40
1
 40
1
 10
133.912513
 20
136.290054
 30
0.0
 10
134.100050
 20
136.102518
 30
0.0
 10
134.354404
 20
135.997161
 30
0.0
 10
134.619620
 20
135.997161
 30
0.0
  0
SPLINE
  5
56b
100
AcDbEntity
  8
0
 62
7
100
AcDbSpline
 70
8
 71
3
 72
8
 73
4
 74
0
 40
0
 40
0
 40
0
 40
0
 40
1
 40
1
 40
1
 40
1
 10
134.619620
 20
135.997161
 30
0.0
 10
134.884836
 20
135.997161
 30
0.0
 10
135.139190
 20
136.102518
 30
0.0
 10
135.326727
 20
136.290054
 30
0.0
  0
SPLINE
  5
56c
100
AcDbEntity
  8
0
 62
7
100
AcDbSpline
 70
8
 71
3
 72
8
 73
4
 74
0
 40
0
 40
0
 40
0
 40
0
 40
1
 40
1
 40
1
 40
1
 10
135.326727
 20
136.290054
 30
0.0
 10
135.514263
 20
136.477591
 30
0.0
 10
135.619620
 20
136.731945
 30
0.0
 10
135.619620
 20
136.997161
 30
0.0
  0
LINE
  5
56d
100
AcDbEntity
  8
0
 62
7
100
AcDbLine
 10
135.619620
 20
136.997161
 30
0.0
 11
135.619620
 21
136.997161
 31
0.0
  0
SPLINE
  5
56e
100
AcDbEntity
  8
0
 62
7
100
AcDbSpline
 70
8
 71
3
 72
8
 73
4
 74
0
 40
0
 40
0
 40
0
 40
0
 40
1
 40
1
 40
1
 40
1
 10
135.143170
 20
133.035971
 30
0.0
 10
135.143170
 20
133.301187
 30
0.0
 10
135.037813
 20
133.555541
 30
0.0
 10
134.850277
 20
133.743078
 30
0.0
  0
SPLINE
  5
56f
100
AcDbEntity
  8
0
 62
7
100
AcDbSpline
 70
8
 71
3
 72
8
 73
4
 74
0
 40
0
 40
0
 40
0
 40
0
 40
1
 40
1
 40
1
 40
1
 10
134.850277
 20
133.743078
 30
0.0
 10
134.662740
 20
133.930614
 30
0.0
 10
134.408386
 20
134.035971
 30
0.0
 10
134.143170
 20
134.035971
 30
0.0
  0
SPLINE
  5
570
100
AcDbEntity
  8
0
 62
7
100
AcDbSpline
 70
8
 71
3
 72
8
 73
4
 74
0
 40
0
 40
0
 40
0
 40
0
 40
1
 40
1
 40
1
 40
1
 10
134.143170
 20
134.035971
 30
0.0
 10
133.877954
 20
134.035971
 30
0.0
 10
133.623600
 20
133.930614
 30
0.0
 10
133.436063
 20
133.743078
 30
0.0
  0
SPLINE
  5
571
100
AcDbEntity
  8
0
 62
7
100
AcDbSpline
 70
8
 71
3
 72
8
 73
4
 74
0
 40
0
 40
0
 40
0
 40
0
 40
1
 40
1
 40
1
 40
1
 10
133.436063
 20
133.743078
 30
0.0
 10
133.248527
 20
133.555541
 30
0.0
 10
133.143170
 20
133.301187
 30
0.0
 10
133.143170
 20
133.035971
 30
0.0
  0
SPLINE
  5
572
100
AcDbEntity
  8
0
 62
7
100
AcDbSpline
 70
8
 71
3
 72
8
 73
4
 74
0
 40
0
 40
0
 40
0
 40
0
 40
1
 40
1
 40
1
 40
1
 10
133.143170
 20
133.035971
 30
0.0
 10
133.143170
 20
132.770755
 30
0.0
 10
133.248527
 20
132.516401
 30
0.0
 10
133.436063
 20
132.328864
 30
0.0
  0
SPLINE
  5
573
100
AcDbEntity
  8
0
 62
7
100
AcDbSpline
 70
8
 71
3
 72
8
 73
4
 74
0
 40
0
 40
0
 40
0
 40
0
 40
1
 40
1
 40
1
 40
1
 10
133.436063
 20
132.328864
 30
0.0
 10
133.623600
 20
132.141328
 30
0.0
 10
133.877954
 20
132.035971
 30
0.0
 10
134.143170
 20
132.035971
 30
0.0
  0
SPLINE
  5
574
100
AcDbEntity
  8
0
 62
7
100
AcDbSpline
 70
8
 71
3
 72
8
 73
4
 74
0
 40
0
 40
0
 40
0
 40
0
 40
1
 40
1
 40
1
 40
1
 10
134.143170
 20
132.035971
 30
0.0
 10
134.408386
 20
132.035971
 30
0.0
 10
134.662740
 20
132.141328
 30
0.0
 10
134.850277
 20
132.328864
 30
0.0
  0
SPLINE
  5
575
100
AcDbEntity
  8
0
 62
7
100
AcDbSpline
 70
8
 71
3
 72
8
 73
4
 74
0
 40
0
 40
0
 40
0
 40
0
 40
1
 40
1
 40
1
 40
1
 10
134.850277
 20
132.328864
 30
0.0
 10
135.037813
 20
132.516401
 30
0.0
 10
135.143170
 20
132.770755
 30
0.0
 10
135.143170
 20
133.035971
 30
0.0
  0
LINE
  5
576
100
AcDbEntity
  8
0
 62
7
100
AcDbLine
 10
135.143170
 20
133.035971
 30
0.0
 11
135.143170
 21
133.035971
 31
0.0
  0
SPLINE
  5
577
100
AcDbEntity
  8
0
 62
7
100
AcDbSpline
 70
8
 71
3
 72
8
 73
4
 74
0
 40
0
 40
0
 40
0
 40
0
 40
1
 40
1
 40
1
 40
1
 10
133.736980
 20
129.302751
 30
0.0
 10
133.736980
 20
129.567967
 30
0.0
 10
133.631623
 20
129.822321
 30
0.0
 10
133.444087
 20
130.009858
 30
0.0
  0
SPLINE
  5
578
100
AcDbEntity
  8
0
 62
7
100
AcDbSpline
 70
8
 71
3
 72
8
 73
4
 74
0
 40
0
 40
0
 40
0
 40
0
 40
1
 40
1
 40
1
 40
1
 10
133.444087
 20
130.009858
 30
0.0
 10
133.256550
 20
130.197394
 30
0.0
 10
133.002196
 20
130.302751
 30
0.0
 10
132.736980
 20
130.302751
 30
0.0
  0
SPLINE
  5
579
100
AcDbEntity
  8
0
 62
7
100
AcDbSpline
 70
8
 71
3
 72
8
 73
4
 74
0
 40
0
 40
0
 40
0
 40
0
 40
1
 40
1
 40
1
 40
1
 10
132.736980
 20
130.302751
 30
0.0
 10
132.471764
 20
130.302751
 30
0.0
 10
132.217410
 20
130.197394
 30
0.0
 10
132.029873
 20
130.009858
 30
0.0
  0
SPLINE
  5
57a
100
AcDbEntity
  8
0
 62
7
100
AcDbSpline
 70
8
 71
3
 72
8
 73
4
 74
0
 40
0
 40
0
 40
0
 40
0
 40
1
 40
1
 40
1
 40
1
 10
132.029873
 20
130.009858
 30
0.0
 10
131.842337
 20
129.822321
 30
0.0
 10
131.736980
 20
129.567967
 30
0.0
 10
131.736980
 20
129.302751
 30
0.0
  0
SPLINE
  5
57b
100
AcDbEntity
  8
0
 62
7
100
AcDbSpline
 70
8
 71
3
 72
8
 73
4
 74
0
 40
0
 40
0
 40
0
 40
0
 40
1
 40
1
 40
1
 40
1
 10
131.736980
 20
129.302751
 30
0.0
 10
131.736980
 20
129.037535
 30
0.0
 10
131.842337
 20
128.783181
 30
0.0
 10
132.029873
 20
128.595644
 30
0.0
  0
SPLINE
  5
57c
100
AcDbEntity
  8
0
 62
7
100
AcDbSpline
 70
8
 71
3
 72
8
 73
4
 74
0
 40
0
 40
0
 40
0
 40
0
 40
1
 40
1
 40
1
 40
1
 10
132.029873
 20
128.595644
 30
0.0
 10
132.217410
 20
128.408108
 30
0.0
 10
132.471764
 20
128.302751
 30
0.0
 10
132.736980
 20
128.302751
 30
0.0
  0
SPLINE
  5
57d
100
AcDbEntity
  8
0
 62
7
100
AcDbSpline
 70
8
 71
3
 72
8
 73
4
 74
0
 40
0
 40
0
 40
0
 40
0
 40
1
 40
1
 40
1
 40
1
 10
132.736980
 20
128.302751
 30
0.0
 10
133.002196
 20
128.302751
 30
0.0
 10
133.256550
 20
128.408108
 30
0.0
 10
133.444087
 20
128.595644
 30
0.0
  0
SPLINE
  5
57e
100
AcDbEntity
  8
0
 62
7
100
AcDbSpline
 70
8
 71
3
 72
8
 73
4
 74
0
 40
0
 40
0
 40
0
 40
0
 40
1
 40
1
 40
1
 40
1
 10
133.444087
 20
128.595644
 30
0.0
 10
133.631623
 20
128.783181
 30
0.0
 10
133.736980
 20
129.037535
 30
0.0
 10
133.736980
 20
129.302751
 30
0.0
  0
LINE
  5
57f
100
AcDbEntity
  8
0
 62
7
100
AcDbLine
 10
133.736980
 20
129.302751
 30
0.0
 11
133.736980
 21
129.302751
 31
0.0
  0
SPLINE
  5
580
100
AcDbEntity
  8
0
 62
7
100
AcDbSpline
 70
8
 71
3
 72
8
 73
4
 74
0
 40
0
 40
0
 40
0
 40
0
 40
1
 40
1
 40
1
 40
1
 10
131.466130
 20
126.023771
 30
0.0
 10
131.466130
 20
126.288987
 30
0.0
 10
131.360773
 20
126.543341
 30
0.0
 10
131.173237
 20
126.730878
 30
0.0
  0
SPLINE
  5
581
100
AcDbEntity
  8
0
 62
7
100
AcDbSpline
 70
8
 71
3
 72
8
 73
4
 74
0
 40
0
 40
0
 40
0
 40
0
 40
1
 40
1
 40
1
 40
1
 10
131.173237
 20
126.730878
 30
0.0
 10
130.985700
 20
126.918414
 30
0.0
 10
130.731346
 20
127.023771
 30
0.0
 10
130.466130
 20
127.023771
 30
0.0
  0
SPLINE
  5
582
100
AcDbEntity
  8
0
 62
7
100
AcDbSpline
 70
8
 71
3
 72
8
 73
4
 74
0
 40
0
 40
0
 40
0
 40
0
 40
1
 40
1
 40
1
 40
1
 10
130.466130
 20
127.023771
 30
0.0
 10
130.200914
 20
127.023771
 30
0.0
 10
129.946560
 20
126.918414
 30
0.0
 10
129.759023
 20
126.730878
 30
0.0
  0
SPLINE
  5
583
100
AcDbEntity
  8
0
 62
7
100
AcDbSpline
 70
8
 71
3
 72
8
 73
4
 74
0
 40
0
 40
0
 40
0
 40
0
 40
1
 40
1
 40
1
 40
1
 10
129.759023
 20
126.730878
 30
0.0
 10
129.571487
 20
126.543341
 30
0.0
 10
129.466130
 20
126.288987
 30
0.0
 10
129.466130
 20
126.023771
 30
0.0
  0
SPLINE
  5
584
100
AcDbEntity
  8
0
 62
7
100
AcDbSpline
 70
8
 71
3
 72
8
 73
4
 74
0
 40
0
 40
0
 40
0
 40
0
 40
1
 40
1
 40
1
 40
1
 10
129.466130
 20
126.023771
 30
0.0
 10
129.466130
 20
125.758555
 30
0.0
 10
129.571487
 20
125.504201
 30
0.0
 10
129.759023
 20
125.316664
 30
0.0
  0
SPLINE
  5
585
100
AcDbEntity
  8
0
 62
7
100
AcDbSpline
 70
8
 71
3
 72
8
 73
4
 74
0
 40
0
 40
0
 40
0
 40
0
 40
1
 40
1
 40
1
 40
1
 10
129.759023
 20
125.316664
 30
0.0
 10
129.946560
 20
125.129128
 30
0.0
 10
130.200914
 20
125.023771
 30
0.0
 10
130.466130
 20
125.023771
 30
0.0
  0
SPLINE
  5
586
100
AcDbEntity
  8
0
 62
7
100
AcDbSpline
 70
8
 71
3
 72
8
 73
4
 74
0
 40
0
 40
0
 40
0
 40
0
 40
1
 40
1
 40
1
 40
1
 10
130.466130
 20
125.023771
 30
0.0
 10
130.731346
 20
125.023771
 30
0.0
 10
130.985700
 20
125.129128
 30
0.0
 10
131.173237
 20
125.316664
 30
0.0
  0
SPLINE
  5
587
100
AcDbEntity
  8
0
 62
7
100
AcDbSpline
 70
8
 71
3
 72
8
 73
4
 74
0
 40
0
 40
0
 40
0
 40
0
 40
1
 40
1
 40
1
 40
1
 10
131.173237
 20
125.316664
 30
0.0
 10
131.360773
 20
125.504201
 30
0.0
 10
131.466130
 20
125.758555
 30
0.0
 10
131.466130
 20
126.023771
 30
0.0
  0
LINE
  5
588
100
AcDbEntity
  8
0
 62
7
100
AcDbLine
 10
131.466130
 20
126.023771
 30
0.0
 11
131.466130
 21
126.023771
 31
0.0
  0
SPLINE
  5
589
100
AcDbEntity
  8
0
 62
7
100
AcDbSpline
 70
8
 71
3
 72
8
 73
4
 74
0
 40
0
 40
0
 40
0
 40
0
 40
1
 40
1
 40
1
 40
1
 10
128.449520
 20
123.416341
 30
0.0
 10
128.449520
 20
123.681557
 30
0.0
 10
128.344163
 20
123.935911
 30
0.0
 10
128.156627
 20
124.123448
 30
0.0
  0
SPLINE
  5
58a
100
AcDbEntity
  8
0
 62
7
100
AcDbSpline
 70
8
 71
3
 72
8
 73
4
 74
0
 40
0
 40
0
 40
0
 40
0
 40
1
 40
1
 40
1
 40
1
 10
128.156627
 20
124.123448
 30
0.0
 10
127.969090
 20
124.310984
 30
0.0
 10
127.714736
 20
124.416341
 30
0.0
 10
127.449520
 20
124.416341
 30
0.0
  0
SPLINE
  5
58b
100
AcDbEntity
  8
0
 62
7
100
AcDbSpline
 70
8
 71
3
 72
8
 73
4
 74
0
 40
0
 40
0
 40
0
 40
0
 40
1
 40
1
 40
1
 40
1
 10
127.449520
 20
124.416341
 30
0.0
 10
127.184304
 20
124.416341
 30
0.0
 10
126.929950
 20
124.310984
 30
0.0
 10
126.742413
 20
124.123448
 30
0.0
  0
SPLINE
  5
58c
100
AcDbEntity
  8
0
 62
7
100
AcDbSpline
 70
8
 71
3
 72
8
 73
4
 74
0
 40
0
 40
0
 40
0
 40
0
 40
1
 40
1
 40
1
 40
1
 10
126.742413
 20
124.123448
 30
0.0
 10
126.554877
 20
123.935911
 30
0.0
 10
126.449520
 20
123.681557
 30
0.0
 10
126.449520
 20
123.416341
 30
0.0
  0
SPLINE
  5
58d
100
AcDbEntity
  8
0
 62
7
100
AcDbSpline
 70
8
 71
3
 72
8
 73
4
 74
0
 40
0
 40
0
 40
0
 40
0
 40
1
 40
1
 40
1
 40
1
 10
126.449520
 20
123.416341
 30
0.0
 10
126.449517
 20
123.151123
 30
0.0
 10
126.554873
 20
122.896766
 30
0.0
 10
126.742410
 20
122.709228
 30
0.0
  0
SPLINE
  5
58e
100
AcDbEntity
  8
0
 62
7
100
AcDbSpline
 70
8
 71
3
 72
8
 73
4
 74
0
 40
0
 40
0
 40
0
 40
0
 40
1
 40
1
 40
1
 40
1
 10
126.742410
 20
122.709228
 30
0.0
 10
126.929946
 20
122.521689
 30
0.0
 10
127.184302
 20
122.416331
 30
0.0
 10
127.449520
 20
122.416331
 30
0.0
  0
SPLINE
  5
58f
100
AcDbEntity
  8
0
 62
7
100
AcDbSpline
 70
8
 71
3
 72
8
 73
4
 74
0
 40
0
 40
0
 40
0
 40
0
 40
1
 40
1
 40
1
 40
1
 10
127.449520
 20
122.416331
 30
0.0
 10
127.714738
 20
122.416331
 30
0.0
 10
127.969094
 20
122.521689
 30
0.0
 10
128.156630
 20
122.709228
 30
0.0
  0
SPLINE
  5
590
100
AcDbEntity
  8
0
 62
7
100
AcDbSpline
 70
8
 71
3
 72
8
 73
4
 74
0
 40
0
 40
0
 40
0
 40
0
 40
1
 40
1
 40
1
 40
1
 10
128.156630
 20
122.709228
 30
0.0
 10
128.344167
 20
122.896766
 30
0.0
 10
128.449523
 20
123.151123
 30
0.0
 10
128.449520
 20
123.416341
 30
0.0
  0
LINE
  5
591
100
AcDbEntity
  8
0
 62
7
100
AcDbLine
 10
128.449520
 20
123.416341
 30
0.0
 11
128.449520
 21
123.416341
 31
0.0
  0
SPLINE
  5
592
100
AcDbEntity
  8
0
 62
7
100
AcDbSpline
 70
8
 71
3
 72
8
 73
4
 74
0
 40
0
 40
0
 40
0
 40
0
 40
1
 40
1
 40
1
 40
1
 10
124.890190
 20
121.619931
 30
0.0
 10
124.890190
 20
121.885147
 30
0.0
 10
124.784833
 20
122.139501
 30
0.0
 10
124.597297
 20
122.327038
 30
0.0
  0
SPLINE
  5
593
100
AcDbEntity
  8
0
 62
7
100
AcDbSpline
 70
8
 71
3
 72
8
 73
4
 74
0
 40
0
 40
0
 40
0
 40
0
 40
1
 40
1
 40
1
 40
1
 10
124.597297
 20
122.327038
 30
0.0
 10
124.409760
 20
122.514574
 30
0.0
 10
124.155406
 20
122.619931
 30
0.0
 10
123.890190
 20
122.619931
 30
0.0
  0
SPLINE
  5
594
100
AcDbEntity
  8
0
 62
7
100
AcDbSpline
 70
8
 71
3
 72
8
 73
4
 74
0
 40
0
 40
0
 40
0
 40
0
 40
1
 40
1
 40
1
 40
1
 10
123.890190
 20
122.619931
 30
0.0
 10
123.624974
 20
122.619931
 30
0.0
 10
123.370620
 20
122.514574
 30
0.0
 10
123.183083
 20
122.327038
 30
0.0
  0
SPLINE
  5
595
100
AcDbEntity
  8
0
 62
7
100
AcDbSpline
 70
8
 71
3
 72
8
 73
4
 74
0
 40
0
 40
0
 40
0
 40
0
 40
1
 40
1
 40
1
 40
1
 10
123.183083
 20
122.327038
 30
0.0
 10
122.995547
 20
122.139501
 30
0.0
 10
122.890190
 20
121.885147
 30
0.0
 10
122.890190
 20
121.619931
 30
0.0
  0
SPLINE
  5
596
100
AcDbEntity
  8
0
 62
7
100
AcDbSpline
 70
8
 71
3
 72
8
 73
4
 74
0
 40
0
 40
0
 40
0
 40
0
 40
1
 40
1
 40
1
 40
1
 10
122.890190
 20
121.619931
 30
0.0
 10
122.890190
 20
121.354715
 30
0.0
 10
122.995547
 20
121.100361
 30
0.0
 10
123.183083
 20
120.912824
 30
0.0
  0
SPLINE
  5
597
100
AcDbEntity
  8
0
 62
7
100
AcDbSpline
 70
8
 71
3
 72
8
 73
4
 74
0
 40
0
 40
0
 40
0
 40
0
 40
1
 40
1
 40
1
 40
1
 10
123.183083
 20
120.912824
 30
0.0
 10
123.370620
 20
120.725288
 30
0.0
 10
123.624974
 20
120.619931
 30
0.0
 10
123.890190
 20
120.619931
 30
0.0
  0
SPLINE
  5
598
100
AcDbEntity
  8
0
 62
7
100
AcDbSpline
 70
8
 71
3
 72
8
 73
4
 74
0
 40
0
 40
0
 40
0
 40
0
 40
1
 40
1
 40
1
 40
1
 10
123.890190
 20
120.619931
 30
0.0
 10
124.155406
 20
120.619931
 30
0.0
 10
124.409760
 20
120.725288
 30
0.0
 10
124.597297
 20
120.912824
 30
0.0
  0
SPLINE
  5
599
100
AcDbEntity
  8
0
 62
7
100
AcDbSpline
 70
8
 71
3
 72
8
 73
4
 74
0
 40
0
 40
0
 40
0
 40
0
 40
1
 40
1
 40
1
 40
1
 10
124.597297
 20
120.912824
 30
0.0
 10
124.784833
 20
121.100361
 30
0.0
 10
124.890190
 20
121.354715
 30
0.0
 10
124.890190
 20
121.619931
 30
0.0
  0
LINE
  5
59a
100
AcDbEntity
  8
0
 62
7
100
AcDbLine
 10
124.890190
 20
121.619931
 30
0.0
 11
124.890190
 21
121.619931
 31
0.0
  0
SPLINE
  5
59b
100
AcDbEntity
  8
0
 62
7
100
AcDbSpline
 70
8
 71
3
 72
8
 73
4
 74
0
 40
0
 40
0
 40
0
 40
0
 40
1
 40
1
 40
1
 40
1
 10
121.004610
 20
120.723011
 30
0.0
 10
121.004610
 20
120.988227
 30
0.0
 10
120.899253
 20
121.242581
 30
0.0
 10
120.711717
 20
121.430118
 30
0.0
  0
SPLINE
  5
59c
100
AcDbEntity
  8
0
 62
7
100
AcDbSpline
 70
8
 71
3
 72
8
 73
4
 74
0
 40
0
 40
0
 40
0
 40
0
 40
1
 40
1
 40
1
 40
1
 10
120.711717
 20
121.430118
 30
0.0
 10
120.524180
 20
121.617654
 30
0.0
 10
120.269826
 20
121.723011
 30
0.0
 10
120.004610
 20
121.723011
 30
0.0
  0
SPLINE
  5
59d
100
AcDbEntity
  8
0
 62
7
100
AcDbSpline
 70
8
 71
3
 72
8
 73
4
 74
0
 40
0
 40
0
 40
0
 40
0
 40
1
 40
1
 40
1
 40
1
 10
120.004610
 20
121.723011
 30
0.0
 10
119.739394
 20
121.723011
 30
0.0
 10
119.485040
 20
121.617654
 30
0.0
 10
119.297503
 20
121.430118
 30
0.0
  0
SPLINE
  5
59e
100
AcDbEntity
  8
0
 62
7
100
AcDbSpline
 70
8
 71
3
 72
8
 73
4
 74
0
 40
0
 40
0
 40
0
 40
0
 40
1
 40
1
 40
1
 40
1
 10
119.297503
 20
121.430118
 30
0.0
 10
119.109967
 20
121.242581
 30
0.0
 10
119.004610
 20
120.988227
 30
0.0
 10
119.004610
 20
120.723011
 30
0.0
  0
SPLINE
  5
59f
100
AcDbEntity
  8
0
 62
7
100
AcDbSpline
 70
8
 71
3
 72
8
 73
4
 74
0
 40
0
 40
0
 40
0
 40
0
 40
1
 40
1
 40
1
 40
1
 10
119.004610
 20
120.723011
 30
0.0
 10
119.004607
 20
120.457793
 30
0.0
 10
119.109963
 20
120.203436
 30
0.0
 10
119.297500
 20
120.015898
 30
0.0
  0
SPLINE
  5
5a0
100
AcDbEntity
  8
0
 62
7
100
AcDbSpline
 70
8
 71
3
 72
8
 73
4
 74
0
 40
0
 40
0
 40
0
 40
0
 40
1
 40
1
 40
1
 40
1
 10
119.297500
 20
120.015898
 30
0.0
 10
119.485036
 20
119.828359
 30
0.0
 10
119.739392
 20
119.723001
 30
0.0
 10
120.004610
 20
119.723001
 30
0.0
  0
SPLINE
  5
5a1
100
AcDbEntity
  8
0
 62
7
100
AcDbSpline
 70
8
 71
3
 72
8
 73
4
 74
0
 40
0
 40
0
 40
0
 40
0
 40
1
 40
1
 40
1
 40
1
 10
120.004610
 20
119.723001
 30
0.0
 10
120.269828
 20
119.723001
 30
0.0
 10
120.524184
 20
119.828359
 30
0.0
 10
120.711720
 20
120.015898
 30
0.0
  0
SPLINE
  5
5a2
100
AcDbEntity
  8
0
 62
7
100
AcDbSpline
 70
8
 71
3
 72
8
 73
4
 74
0
 40
0
 40
0
 40
0
 40
0
 40
1
 40
1
 40
1
 40
1
 10
120.711720
 20
120.015898
 30
0.0
 10
120.899257
 20
120.203436
 30
0.0
 10
121.004613
 20
120.457793
 30
0.0
 10
121.004610
 20
120.723011
 30
0.0
  0
LINE
  5
5a3
100
AcDbEntity
  8
0
 62
7
100
AcDbLine
 10
121.004610
 20
120.723011
 30
0.0
 11
121.004610
 21
120.723011
 31
0.0
  0
SPLINE
  5
5a4
100
AcDbEntity
  8
0
 62
7
100
AcDbSpline
 70
8
 71
3
 72
8
 73
4
 74
0
 40
0
 40
0
 40
0
 40
0
 40
1
 40
1
 40
1
 40
1
 10
117.016650
 20
120.755521
 30
0.0
 10
117.016650
 20
121.020737
 30
0.0
 10
116.911293
 20
121.275091
 30
0.0
 10
116.723757
 20
121.462628
 30
0.0
  0
SPLINE
  5
5a5
100
AcDbEntity
  8
0
 62
7
100
AcDbSpline
 70
8
 71
3
 72
8
 73
4
 74
0
 40
0
 40
0
 40
0
 40
0
 40
1
 40
1
 40
1
 40
1
 10
116.723757
 20
121.462628
 30
0.0
 10
116.536220
 20
121.650164
 30
0.0
 10
116.281866
 20
121.755521
 30
0.0
 10
116.016650
 20
121.755521
 30
0.0
  0
SPLINE
  5
5a6
100
AcDbEntity
  8
0
 62
7
100
AcDbSpline
 70
8
 71
3
 72
8
 73
4
 74
0
 40
0
 40
0
 40
0
 40
0
 40
1
 40
1
 40
1
 40
1
 10
116.016650
 20
121.755521
 30
0.0
 10
115.751434
 20
121.755521
 30
0.0
 10
115.497080
 20
121.650164
 30
0.0
 10
115.309543
 20
121.462628
 30
0.0
  0
SPLINE
  5
5a7
100
AcDbEntity
  8
0
 62
7
100
AcDbSpline
 70
8
 71
3
 72
8
 73
4
 74
0
 40
0
 40
0
 40
0
 40
0
 40
1
 40
1
 40
1
 40
1
 10
115.309543
 20
121.462628
 30
0.0
 10
115.122007
 20
121.275091
 30
0.0
 10
115.016650
 20
121.020737
 30
0.0
 10
115.016650
 20
120.755521
 30
0.0
  0
SPLINE
  5
5a8
100
AcDbEntity
  8
0
 62
7
100
AcDbSpline
 70
8
 71
3
 72
8
 73
4
 74
0
 40
0
 40
0
 40
0
 40
0
 40
1
 40
1
 40
1
 40
1
 10
115.016650
 20
120.755521
 30
0.0
 10
115.016650
 20
120.490305
 30
0.0
 10
115.122007
 20
120.235951
 30
0.0
 10
115.309543
 20
120.048414
 30
0.0
  0
SPLINE
  5
5a9
100
AcDbEntity
  8
0
 62
7
100
AcDbSpline
 70
8
 71
3
 72
8
 73
4
 74
0
 40
0
 40
0
 40
0
 40
0
 40
1
 40
1
 40
1
 40
1
 10
115.309543
 20
120.048414
 30
0.0
 10
115.497080
 20
119.860878
 30
0.0
 10
115.751434
 20
119.755521
 30
0.0
 10
116.016650
 20
119.755521
 30
0.0
  0
SPLINE
  5
5aa
100
AcDbEntity
  8
0
 62
7
100
AcDbSpline
 70
8
 71
3
 72
8
 73
4
 74
0
 40
0
 40
0
 40
0
 40
0
 40
1
 40
1
 40
1
 40
1
 10
116.016650
 20
119.755521
 30
0.0
 10
116.281866
 20
119.755521
 30
0.0
 10
116.536220
 20
119.860878
 30
0.0
 10
116.723757
 20
120.048414
 30
0.0
  0
SPLINE
  5
5ab
100
AcDbEntity
  8
0
 62
7
100
AcDbSpline
 70
8
 71
3
 72
8
 73
4
 74
0
 40
0
 40
0
 40
0
 40
0
 40
1
 40
1
 40
1
 40
1
 10
116.723757
 20
120.048414
 30
0.0
 10
116.911293
 20
120.235951
 30
0.0
 10
117.016650
 20
120.490305
 30
0.0
 10
117.016650
 20
120.755521
 30
0.0
  0
LINE
  5
5ac
100
AcDbEntity
  8
0
 62
7
100
AcDbLine
 10
117.016650
 20
120.755521
 30
0.0
 11
117.016650
 21
120.755521
 31
0.0
  0
SPLINE
  5
5ad
100
AcDbEntity
  8
0
 62
7
100
AcDbSpline
 70
8
 71
3
 72
8
 73
4
 74
0
 40
0
 40
0
 40
0
 40
0
 40
1
 40
1
 40
1
 40
1
 10
113.146600
 20
121.717621
 30
0.0
 10
113.146600
 20
121.982837
 30
0.0
 10
113.041243
 20
122.237191
 30
0.0
 10
112.853707
 20
122.424728
 30
0.0
  0
SPLINE
  5
5ae
100
AcDbEntity
  8
0
 62
7
100
AcDbSpline
 70
8
 71
3
 72
8
 73
4
 74
0
 40
0
 40
0
 40
0
 40
0
 40
1
 40
1
 40
1
 40
1
 10
112.853707
 20
122.424728
 30
0.0
 10
112.666170
 20
122.612264
 30
0.0
 10
112.411816
 20
122.717621
 30
0.0
 10
112.146600
 20
122.717621
 30
0.0
  0
SPLINE
  5
5af
100
AcDbEntity
  8
0
 62
7
100
AcDbSpline
 70
8
 71
3
 72
8
 73
4
 74
0
 40
0
 40
0
 40
0
 40
0
 40
1
 40
1
 40
1
 40
1
 10
112.146600
 20
122.717621
 30
0.0
 10
111.881384
 20
122.717621
 30
0.0
 10
111.627030
 20
122.612264
 30
0.0
 10
111.439493
 20
122.424728
 30
0.0
  0
SPLINE
  5
5b0
100
AcDbEntity
  8
0
 62
7
100
AcDbSpline
 70
8
 71
3
 72
8
 73
4
 74
0
 40
0
 40
0
 40
0
 40
0
 40
1
 40
1
 40
1
 40
1
 10
111.439493
 20
122.424728
 30
0.0
 10
111.251957
 20
122.237191
 30
0.0
 10
111.146600
 20
121.982837
 30
0.0
 10
111.146600
 20
121.717621
 30
0.0
  0
SPLINE
  5
5b1
100
AcDbEntity
  8
0
 62
7
100
AcDbSpline
 70
8
 71
3
 72
8
 73
4
 74
0
 40
0
 40
0
 40
0
 40
0
 40
1
 40
1
 40
1
 40
1
 10
111.146600
 20
121.717621
 30
0.0
 10
111.146600
 20
121.452405
 30
0.0
 10
111.251957
 20
121.198051
 30
0.0
 10
111.439493
 20
121.010514
 30
0.0
  0
SPLINE
  5
5b2
100
AcDbEntity
  8
0
 62
7
100
AcDbSpline
 70
8
 71
3
 72
8
 73
4
 74
0
 40
0
 40
0
 40
0
 40
0
 40
1
 40
1
 40
1
 40
1
 10
111.439493
 20
121.010514
 30
0.0
 10
111.627030
 20
120.822978
 30
0.0
 10
111.881384
 20
120.717621
 30
0.0
 10
112.146600
 20
120.717621
 30
0.0
  0
SPLINE
  5
5b3
100
AcDbEntity
  8
0
 62
7
100
AcDbSpline
 70
8
 71
3
 72
8
 73
4
 74
0
 40
0
 40
0
 40
0
 40
0
 40
1
 40
1
 40
1
 40
1
 10
112.146600
 20
120.717621
 30
0.0
 10
112.411816
 20
120.717621
 30
0.0
 10
112.666170
 20
120.822978
 30
0.0
 10
112.853707
 20
121.010514
 30
0.0
  0
SPLINE
  5
5b4
100
AcDbEntity
  8
0
 62
7
100
AcDbSpline
 70
8
 71
3
 72
8
 73
4
 74
0
 40
0
 40
0
 40
0
 40
0
 40
1
 40
1
 40
1
 40
1
 10
112.853707
 20
121.010514
 30
0.0
 10
113.041243
 20
121.198051
 30
0.0
 10
113.146600
 20
121.452405
 30
0.0
 10
113.146600
 20
121.717621
 30
0.0
  0
LINE
  5
5b5
100
AcDbEntity
  8
0
 62
7
100
AcDbLine
 10
113.146600
 20
121.717621
 30
0.0
 11
113.146600
 21
121.717621
 31
0.0
  0
LINE
  5
5b6
100
AcDbEntity
  8
0
 62
7
100
AcDbLine
 10
13.101600
 20
62.699200
 30
0.0
 11
22.101600
 21
62.699200
 31
0.0
  0
SPLINE
  5
5b7
100
AcDbEntity
  8
0
 62
7
100
AcDbSpline
 70
8
 71
3
 72
8
 73
4
 74
0
 40
0
 40
0
 40
0
 40
0
 40
1
 40
1
 40
1
 40
1
 10
22.101600
 20
62.699200
 30
0.0
 10
22.156290
 20
62.699200
 30
0.0
 10
22.203162
 20
62.742200
 30
0.0
 10
22.203162
 20
62.800760
 30
0.0
  0
LINE
  5
5b8
100
AcDbEntity
  8
0
 62
7
100
AcDbLine
 10
22.203162
 20
62.800760
 30
0.0
 11
22.203162
 21
65.800760
 31
0.0
  0
SPLINE
  5
5b9
100
AcDbEntity
  8
0
 62
7
100
AcDbSpline
 70
8
 71
3
 72
8
 73
4
 74
0
 40
0
 40
0
 40
0
 40
0
 40
1
 40
1
 40
1
 40
1
 10
22.203162
 20
65.800760
 30
0.0
 10
22.203162
 20
65.746060
 30
0.0
 10
22.160192
 20
65.699200
 30
0.0
 10
22.101600
 20
65.699200
 30
0.0
  0
LINE
  5
5ba
100
AcDbEntity
  8
0
 62
7
100
AcDbLine
 10
22.101600
 20
65.699200
 30
0.0
 11
37.101600
 21
65.699200
 31
0.0
  0
SPLINE
  5
5bb
100
AcDbEntity
  8
0
 62
7
100
AcDbSpline
 70
8
 71
3
 72
8
 73
4
 74
0
 40
0
 40
0
 40
0
 40
0
 40
1
 40
1
 40
1
 40
1
 10
37.101600
 20
65.699200
 30
0.0
 10
37.046910
 20
65.699200
 30
0.0
 10
37.000038
 20
65.742200
 30
0.0
 10
37.000038
 20
65.800760
 30
0.0
  0
LINE
  5
5bc
100
AcDbEntity
  8
0
 62
7
100
AcDbLine
 10
37.000038
 20
65.800760
 30
0.0
 11
37.000038
 21
62.800760
 31
0.0
  0
SPLINE
  5
5bd
100
AcDbEntity
  8
0
 62
7
100
AcDbSpline
 70
8
 71
3
 72
8
 73
4
 74
0
 40
0
 40
0
 40
0
 40
0
 40
1
 40
1
 40
1
 40
1
 10
37.000038
 20
62.800760
 30
0.0
 10
37.000038
 20
62.746060
 30
0.0
 10
37.043008
 20
62.699200
 30
0.0
 10
37.101600
 20
62.699200
 30
0.0
  0
LINE
  5
5be
100
AcDbEntity
  8
0
 62
7
100
AcDbLine
 10
37.101600
 20
62.699200
 30
0.0
 11
46.101600
 21
62.699200
 31
0.0
  0
SPLINE
  5
5bf
100
AcDbEntity
  8
0
 62
7
100
AcDbSpline
 70
8
 71
3
 72
8
 73
4
 74
0
 40
0
 40
0
 40
0
 40
0
 40
1
 40
1
 40
1
 40
1
 10
46.101600
 20
62.699200
 30
0.0
 10
46.156290
 20
62.699200
 30
0.0
 10
46.203162
 20
62.742200
 30
0.0
 10
46.203162
 20
62.800760
 30
0.0
  0
LINE
  5
5c0
100
AcDbEntity
  8
0
 62
7
100
AcDbLine
 10
46.203162
 20
62.800760
 30
0.0
 11
46.203162
 21
65.800760
 31
0.0
  0
SPLINE
  5
5c1
100
AcDbEntity
  8
0
 62
7
100
AcDbSpline
 70
8
 71
3
 72
8
 73
4
 74
0
 40
0
 40
0
 40
0
 40
0
 40
1
 40
1
 40
1
 40
1
 10
46.203162
 20
65.800760
 30
0.0
 10
46.203162
 20
65.746060
 30
0.0
 10
46.160192
 20
65.699200
 30
0.0
 10
46.101600
 20
65.699200
 30
0.0
  0
LINE
  5
5c2
100
AcDbEntity
  8
0
 62
7
100
AcDbLine
 10
46.101600
 20
65.699200
 30
0.0
 11
61.101600
 21
65.699200
 31
0.0
  0
SPLINE
  5
5c3
100
AcDbEntity
  8
0
 62
7
100
AcDbSpline
 70
8
 71
3
 72
8
 73
4
 74
0
 40
0
 40
0
 40
0
 40
0
 40
1
 40
1
 40
1
 40
1
 10
61.101600
 20
65.699200
 30
0.0
 10
61.046910
 20
65.699200
 30
0.0
 10
61.000038
 20
65.742200
 30
0.0
 10
61.000038
 20
65.800760
 30
0.0
  0
LINE
  5
5c4
100
AcDbEntity
  8
0
 62
7
100
AcDbLine
 10
61.000038
 20
65.800760
 30
0.0
 11
61.000038
 21
62.800760
 31
0.0
  0
SPLINE
  5
5c5
100
AcDbEntity
  8
0
 62
7
100
AcDbSpline
 70
8
 71
3
 72
8
 73
4
 74
0
 40
0
 40
0
 40
0
 40
0
 40
1
 40
1
 40
1
 40
1
 10
61.000038
 20
62.800760
 30
0.0
 10
61.000038
 20
62.746060
 30
0.0
 10
61.043008
 20
62.699200
 30
0.0
 10
61.101600
 20
62.699200
 30
0.0
  0
LINE
  5
5c6
100
AcDbEntity
  8
0
 62
7
100
AcDbLine
 10
61.101600
 20
62.699200
 30
0.0
 11
70.101600
 21
62.699200
 31
0.0
  0
LINE
  5
5c7
100
AcDbEntity
  8
0
 62
7
100
AcDbLine
 10
70.101600
 20
62.699200
 30
0.0
 11
73.101600
 21
62.699200
 31
0.0
  0
SPLINE
  5
5c8
100
AcDbEntity
  8
0
 62
7
100
AcDbSpline
 70
8
 71
3
 72
8
 73
4
 74
0
 40
0
 40
0
 40
0
 40
0
 40
1
 40
1
 40
1
 40
1
 10
73.101600
 20
62.699200
 30
0.0
 10
73.156290
 20
62.699200
 30
0.0
 10
73.203162
 20
62.742200
 30
0.0
 10
73.203162
 20
62.800760
 30
0.0
  0
LINE
  5
5c9
100
AcDbEntity
  8
0
 62
7
100
AcDbLine
 10
73.203162
 20
62.800760
 30
0.0
 11
73.203162
 21
62.800760
 31
0.0
  0
LINE
  5
5ca
100
AcDbEntity
  8
0
 62
7
100
AcDbLine
 10
73.203162
 20
62.800760
 30
0.0
 11
73.203162
 21
73.800760
 31
0.0
  0
SPLINE
  5
5cb
100
AcDbEntity
  8
0
 62
7
100
AcDbSpline
 70
8
 71
3
 72
8
 73
4
 74
0
 40
0
 40
0
 40
0
 40
0
 40
1
 40
1
 40
1
 40
1
 10
73.203162
 20
73.800760
 30
0.0
 10
73.203162
 20
73.855460
 30
0.0
 10
73.160192
 20
73.902330
 30
0.0
 10
73.101600
 20
73.902330
 30
0.0
  0
LINE
  5
5cc
100
AcDbEntity
  8
0
 62
7
100
AcDbLine
 10
73.101600
 20
73.902330
 30
0.0
 11
70.101600
 21
73.902330
 31
0.0
  0
SPLINE
  5
5cd
100
AcDbEntity
  8
0
 62
7
100
AcDbSpline
 70
8
 71
3
 72
8
 73
4
 74
0
 40
0
 40
0
 40
0
 40
0
 40
1
 40
1
 40
1
 40
1
 10
70.101600
 20
73.902330
 30
0.0
 10
70.156290
 20
73.902330
 30
0.0
 10
70.203162
 20
73.859330
 30
0.0
 10
70.203162
 20
73.800760
 30
0.0
  0
LINE
  5
5ce
100
AcDbEntity
  8
0
 62
7
100
AcDbLine
 10
70.203162
 20
73.800760
 30
0.0
 11
70.203162
 21
88.800760
 31
0.0
  0
SPLINE
  5
5cf
100
AcDbEntity
  8
0
 62
7
100
AcDbSpline
 70
8
 71
3
 72
8
 73
4
 74
0
 40
0
 40
0
 40
0
 40
0
 40
1
 40
1
 40
1
 40
1
 10
70.203162
 20
88.800760
 30
0.0
 10
70.203162
 20
88.746060
 30
0.0
 10
70.160192
 20
88.699200
 30
0.0
 10
70.101600
 20
88.699200
 30
0.0
  0
LINE
  5
5d0
100
AcDbEntity
  8
0
 62
7
100
AcDbLine
 10
70.101600
 20
88.699200
 30
0.0
 11
73.101600
 21
88.699200
 31
0.0
  0
SPLINE
  5
5d1
100
AcDbEntity
  8
0
 62
7
100
AcDbSpline
 70
8
 71
3
 72
8
 73
4
 74
0
 40
0
 40
0
 40
0
 40
0
 40
1
 40
1
 40
1
 40
1
 10
73.101600
 20
88.699200
 30
0.0
 10
73.156290
 20
88.699200
 30
0.0
 10
73.203162
 20
88.742200
 30
0.0
 10
73.203162
 20
88.800760
 30
0.0
  0
LINE
  5
5d2
100
AcDbEntity
  8
0
 62
7
100
AcDbLine
 10
73.203162
 20
88.800760
 30
0.0
 11
73.203162
 21
99.800760
 31
0.0
  0
LINE
  5
5d3
100
AcDbEntity
  8
0
 62
7
100
AcDbLine
 10
73.203162
 20
99.800760
 30
0.0
 11
73.203162
 21
102.800760
 31
0.0
  0
SPLINE
  5
5d4
100
AcDbEntity
  8
0
 62
7
100
AcDbSpline
 70
8
 71
3
 72
8
 73
4
 74
0
 40
0
 40
0
 40
0
 40
0
 40
1
 40
1
 40
1
 40
1
 10
73.203162
 20
102.800760
 30
0.0
 10
73.203162
 20
102.855460
 30
0.0
 10
73.160192
 20
102.902330
 30
0.0
 10
73.101600
 20
102.902330
 30
0.0
  0
LINE
  5
5d5
100
AcDbEntity
  8
0
 62
7
100
AcDbLine
 10
73.101600
 20
102.902330
 30
0.0
 11
70.101600
 21
102.902330
 31
0.0
  0
LINE
  5
5d6
100
AcDbEntity
  8
0
 62
7
100
AcDbLine
 10
70.101600
 20
102.902330
 30
0.0
 11
61.101600
 21
102.902330
 31
0.0
  0
SPLINE
  5
5d7
100
AcDbEntity
  8
0
 62
7
100
AcDbSpline
 70
8
 71
3
 72
8
 73
4
 74
0
 40
0
 40
0
 40
0
 40
0
 40
1
 40
1
 40
1
 40
1
 10
61.101600
 20
102.902330
 30
0.0
 10
61.046910
 20
102.902330
 30
0.0
 10
61.000037
 20
102.859330
 30
0.0
 10
61.000037
 20
102.800760
 30
0.0
  0
LINE
  5
5d8
100
AcDbEntity
  8
0
 62
7
100
AcDbLine
 10
61.000037
 20
102.800760
 30
0.0
 11
61.000037
 21
99.800760
 31
0.0
  0
SPLINE
  5
5d9
100
AcDbEntity
  8
0
 62
7
100
AcDbSpline
 70
8
 71
3
 72
8
 73
4
 74
0
 40
0
 40
0
 40
0
 40
0
 40
1
 40
1
 40
1
 40
1
 10
61.000037
 20
99.800760
 30
0.0
 10
61.000037
 20
99.855460
 30
0.0
 10
61.043007
 20
99.902330
 30
0.0
 10
61.101600
 20
99.902330
 30
0.0
  0
LINE
  5
5da
100
AcDbEntity
  8
0
 62
7
100
AcDbLine
 10
61.101600
 20
99.902330
 30
0.0
 11
46.101600
 21
99.902330
 31
0.0
  0
SPLINE
  5
5db
100
AcDbEntity
  8
0
 62
7
100
AcDbSpline
 70
8
 71
3
 72
8
 73
4
 74
0
 40
0
 40
0
 40
0
 40
0
 40
1
 40
1
 40
1
 40
1
 10
46.101600
 20
99.902330
 30
0.0
 10
46.156290
 20
99.902330
 30
0.0
 10
46.203162
 20
99.859330
 30
0.0
 10
46.203162
 20
99.800760
 30
0.0
  0
LINE
  5
5dc
100
AcDbEntity
  8
0
 62
7
100
AcDbLine
 10
46.203162
 20
99.800760
 30
0.0
 11
46.203162
 21
102.800760
 31
0.0
  0
SPLINE
  5
5dd
100
AcDbEntity
  8
0
 62
7
100
AcDbSpline
 70
8
 71
3
 72
8
 73
4
 74
0
 40
0
 40
0
 40
0
 40
0
 40
1
 40
1
 40
1
 40
1
 10
46.203162
 20
102.800760
 30
0.0
 10
46.203162
 20
102.855460
 30
0.0
 10
46.160192
 20
102.902330
 30
0.0
 10
46.101600
 20
102.902330
 30
0.0
  0
LINE
  5
5de
100
AcDbEntity
  8
0
 62
7
100
AcDbLine
 10
46.101600
 20
102.902330
 30
0.0
 11
37.101600
 21
102.902330
 31
0.0
  0
SPLINE
  5
5df
100
AcDbEntity
  8
0
 62
7
100
AcDbSpline
 70
8
 71
3
 72
8
 73
4
 74
0
 40
0
 40
0
 40
0
 40
0
 40
1
 40
1
 40
1
 40
1
 10
37.101600
 20
102.902330
 30
0.0
 10
37.046910
 20
102.902330
 30
0.0
 10
37.000037
 20
102.859330
 30
0.0
 10
37.000037
 20
102.800760
 30
0.0
  0
LINE
  5
5e0
100
AcDbEntity
  8
0
 62
7
100
AcDbLine
 10
37.000037
 20
102.800760
 30
0.0
 11
37.000037
 21
99.800760
 31
0.0
  0
SPLINE
  5
5e1
100
AcDbEntity
  8
0
 62
7
100
AcDbSpline
 70
8
 71
3
 72
8
 73
4
 74
0
 40
0
 40
0
 40
0
 40
0
 40
1
 40
1
 40
1
 40
1
 10
37.000037
 20
99.800760
 30
0.0
 10
37.000037
 20
99.855460
 30
0.0
 10
37.043007
 20
99.902330
 30
0.0
 10
37.101600
 20
99.902330
 30
0.0
  0
LINE
  5
5e2
100
AcDbEntity
  8
0
 62
7
100
AcDbLine
 10
37.101600
 20
99.902330
 30
0.0
 11
22.101600
 21
99.902330
 31
0.0
  0
SPLINE
  5
5e3
100
AcDbEntity
  8
0
 62
7
100
AcDbSpline
 70
8
 71
3
 72
8
 73
4
 74
0
 40
0
 40
0
 40
0
 40
0
 40
1
 40
1
 40
1
 40
1
 10
22.101600
 20
99.902330
 30
0.0
 10
22.156290
 20
99.902330
 30
0.0
 10
22.203162
 20
99.859330
 30
0.0
 10
22.203162
 20
99.800760
 30
0.0
  0
LINE
  5
5e4
100
AcDbEntity
  8
0
 62
7
100
AcDbLine
 10
22.203162
 20
99.800760
 30
0.0
 11
22.203162
 21
102.800760
 31
0.0
  0
SPLINE
  5
5e5
100
AcDbEntity
  8
0
 62
7
100
AcDbSpline
 70
8
 71
3
 72
8
 73
4
 74
0
 40
0
 40
0
 40
0
 40
0
 40
1
 40
1
 40
1
 40
1
 10
22.203162
 20
102.800760
 30
0.0
 10
22.203162
 20
102.855460
 30
0.0
 10
22.160192
 20
102.902330
 30
0.0
 10
22.101600
 20
102.902330
 30
0.0
  0
LINE
  5
5e6
100
AcDbEntity
  8
0
 62
7
100
AcDbLine
 10
22.101600
 20
102.902330
 30
0.0
 11
13.101600
 21
102.902330
 31
0.0
  0
LINE
  5
5e7
100
AcDbEntity
  8
0
 62
7
100
AcDbLine
 10
13.101600
 20
102.902330
 30
0.0
 11
10.101600
 21
102.902330
 31
0.0
  0
SPLINE
  5
5e8
100
AcDbEntity
  8
0
 62
7
100
AcDbSpline
 70
8
 71
3
 72
8
 73
4
 74
0
 40
0
 40
0
 40
0
 40
0
 40
1
 40
1
 40
1
 40
1
 10
10.101600
 20
102.902330
 30
0.0
 10
10.046910
 20
102.902330
 30
0.0
 10
10.000037
 20
102.859330
 30
0.0
 10
10.000037
 20
102.800760
 30
0.0
  0
LINE
  5
5e9
100
AcDbEntity
  8
0
 62
7
100
AcDbLine
 10
10.000037
 20
102.800760
 30
0.0
 11
10.000037
 21
99.800760
 31
0.0
  0
LINE
  5
5ea
100
AcDbEntity
  8
0
 62
7
100
AcDbLine
 10
10.000037
 20
99.800760
 30
0.0
 11
10.000037
 21
88.800760
 31
0.0
  0
SPLINE
  5
5eb
100
AcDbEntity
  8
0
 62
7
100
AcDbSpline
 70
8
 71
3
 72
8
 73
4
 74
0
 40
0
 40
0
 40
0
 40
0
 40
1
 40
1
 40
1
 40
1
 10
10.000037
 20
88.800760
 30
0.0
 10
10.000037
 20
88.746060
 30
0.0
 10
10.043007
 20
88.699200
 30
0.0
 10
10.101600
 20
88.699200
 30
0.0
  0
LINE
  5
5ec
100
AcDbEntity
  8
0
 62
7
100
AcDbLine
 10
10.101600
 20
88.699200
 30
0.0
 11
13.101600
 21
88.699200
 31
0.0
  0
SPLINE
  5
5ed
100
AcDbEntity
  8
0
 62
7
100
AcDbSpline
 70
8
 71
3
 72
8
 73
4
 74
0
 40
0
 40
0
 40
0
 40
0
 40
1
 40
1
 40
1
 40
1
 10
13.101600
 20
88.699200
 30
0.0
 10
13.046910
 20
88.699200
 30
0.0
 10
13.000037
 20
88.742200
 30
0.0
 10
13.000037
 20
88.800760
 30
0.0
  0
LINE
  5
5ee
100
AcDbEntity
  8
0
 62
7
100
AcDbLine
 10
13.000037
 20
88.800760
 30
0.0
 11
13.000037
 21
73.800760
 31
0.0
  0
SPLINE
  5
5ef
100
AcDbEntity
  8
0
 62
7
100
AcDbSpline
 70
8
 71
3
 72
8
 73
4
 74
0
 40
0
 40
0
 40
0
 40
0
 40
1
 40
1
 40
1
 40
1
 10
13.000037
 20
73.800760
 30
0.0
 10
13.000037
 20
73.855460
 30
0.0
 10
13.043007
 20
73.902330
 30
0.0
 10
13.101600
 20
73.902330
 30
0.0
  0
LINE
  5
5f0
100
AcDbEntity
  8
0
 62
7
100
AcDbLine
 10
13.101600
 20
73.902330
 30
0.0
 11
10.101600
 21
73.902330
 31
0.0
  0
SPLINE
  5
5f1
100
AcDbEntity
  8
0
 62
7
100
AcDbSpline
 70
8
 71
3
 72
8
 73
4
 74
0
 40
0
 40
0
 40
0
 40
0
 40
1
 40
1
 40
1
 40
1
 10
10.101600
 20
73.902330
 30
0.0
 10
10.046910
 20
73.902330
 30
0.0
 10
10.000037
 20
73.859330
 30
0.0
 10
10.000037
 20
73.800760
 30
0.0
  0
LINE
  5
5f2
100
AcDbEntity
  8
0
 62
7
100
AcDbLine
 10
10.000037
 20
73.800760
 30
0.0
 11
10.000038
 21
62.800760
 31
0.0
  0
SPLINE
  5
5f3
100
AcDbEntity
  8
0
 62
7
100
AcDbSpline
 70
8
 71
3
 72
8
 73
4
 74
0
 40
0
 40
0
 40
0
 40
0
 40
1
 40
1
 40
1
 40
1
 10
10.000038
 20
62.800760
 30
0.0
 10
10.000038
 20
62.746060
 30
0.0
 10
10.043008
 20
62.699200
 30
0.0
 10
10.101600
 20
62.699200
 30
0.0
  0
LINE
  5
5f4
100
AcDbEntity
  8
0
 62
7
100
AcDbLine
 10
10.101600
 20
62.699200
 30
0.0
 11
13.101600
 21
62.699200
 31
0.0
  0
LINE
  5
5f5
100
AcDbEntity
  8
0
 62
7
100
AcDbLine
 10
68.791713
 20
76.442600
 30
0.0
 11
68.791713
 21
94.820800
 31
0.0
  0
LINE
  5
5f6
100
AcDbEntity
  8
0
 62
7
100
AcDbLine
 10
68.791713
 20
94.820800
 30
0.0
 11
34.683003
 21
94.820800
 31
0.0
  0
LINE
  5
5f7
100
AcDbEntity
  8
0
 62
7
100
AcDbLine
 10
34.683003
 20
94.820800
 30
0.0
 11
34.683003
 21
90.510920
 31
0.0
  0
LINE
  5
5f8
100
AcDbEntity
  8
0
 62
7
100
AcDbLine
 10
34.683003
 20
90.510920
 30
0.0
 11
16.599003
 21
90.510920
 31
0.0
  0
LINE
  5
5f9
100
AcDbEntity
  8
0
 62
7
100
AcDbLine
 10
16.599003
 20
90.510920
 30
0.0
 11
16.599003
 21
76.442600
 31
0.0
  0
LINE
  5
5fa
100
AcDbEntity
  8
0
 62
7
100
AcDbLine
 10
16.599003
 20
76.442600
 30
0.0
 11
68.791713
 21
76.442600
 31
0.0
  0
LINE
  5
5fb
100
AcDbEntity
  8
0
 62
7
100
AcDbLine
 10
77.800800
 20
62.699200
 30
0.0
 11
89.300800
 21
62.699200
 31
0.0
  0
SPLINE
  5
5fc
100
AcDbEntity
  8
0
 62
7
100
AcDbSpline
 70
8
 71
3
 72
8
 73
4
 74
0
 40
0
 40
0
 40
0
 40
0
 40
1
 40
1
 40
1
 40
1
 10
89.300800
 20
62.699200
 30
0.0
 10
89.355490
 20
62.699200
 30
0.0
 10
89.402362
 20
62.742200
 30
0.0
 10
89.402362
 20
62.800760
 30
0.0
  0
LINE
  5
5fd
100
AcDbEntity
  8
0
 62
7
100
AcDbLine
 10
89.402362
 20
62.800760
 30
0.0
 11
89.402362
 21
65.800760
 31
0.0
  0
SPLINE
  5
5fe
100
AcDbEntity
  8
0
 62
7
100
AcDbSpline
 70
8
 71
3
 72
8
 73
4
 74
0
 40
0
 40
0
 40
0
 40
0
 40
1
 40
1
 40
1
 40
1
 10
89.402362
 20
65.800760
 30
0.0
 10
89.402362
 20
65.746060
 30
0.0
 10
89.359392
 20
65.699200
 30
0.0
 10
89.300800
 20
65.699200
 30
0.0
  0
LINE
  5
5ff
100
AcDbEntity
  8
0
 62
7
100
AcDbLine
 10
89.300800
 20
65.699200
 30
0.0
 11
104.300800
 21
65.699200
 31
0.0
  0
SPLINE
  5
600
100
AcDbEntity
  8
0
 62
7
100
AcDbSpline
 70
8
 71
3
 72
8
 73
4
 74
0
 40
0
 40
0
 40
0
 40
0
 40
1
 40
1
 40
1
 40
1
 10
104.300800
 20
65.699200
 30
0.0
 10
104.246100
 20
65.699200
 30
0.0
 10
104.199240
 20
65.742200
 30
0.0
 10
104.199240
 20
65.800760
 30
0.0
  0
LINE
  5
601
100
AcDbEntity
  8
0
 62
7
100
AcDbLine
 10
104.199240
 20
65.800760
 30
0.0
 11
104.199240
 21
62.800760
 31
0.0
  0
SPLINE
  5
602
100
AcDbEntity
  8
0
 62
7
100
AcDbSpline
 70
8
 71
3
 72
8
 73
4
 74
0
 40
0
 40
0
 40
0
 40
0
 40
1
 40
1
 40
1
 40
1
 10
104.199240
 20
62.800760
 30
0.0
 10
104.199240
 20
62.746060
 30
0.0
 10
104.242240
 20
62.699200
 30
0.0
 10
104.300800
 20
62.699200
 30
0.0
  0
LINE
  5
603
100
AcDbEntity
  8
0
 62
7
100
AcDbLine
 10
104.300800
 20
62.699200
 30
0.0
 11
113.300800
 21
62.699200
 31
0.0
  0
SPLINE
  5
604
100
AcDbEntity
  8
0
 62
7
100
AcDbSpline
 70
8
 71
3
 72
8
 73
4
 74
0
 40
0
 40
0
 40
0
 40
0
 40
1
 40
1
 40
1
 40
1
 10
113.300800
 20
62.699200
 30
0.0
 10
113.355500
 20
62.699200
 30
0.0
 10
113.402360
 20
62.742200
 30
0.0
 10
113.402360
 20
62.800760
 30
0.0
  0
LINE
  5
605
100
AcDbEntity
  8
0
 62
7
100
AcDbLine
 10
113.402360
 20
62.800760
 30
0.0
 11
113.402360
 21
65.800760
 31
0.0
  0
SPLINE
  5
606
100
AcDbEntity
  8
0
 62
7
100
AcDbSpline
 70
8
 71
3
 72
8
 73
4
 74
0
 40
0
 40
0
 40
0
 40
0
 40
1
 40
1
 40
1
 40
1
 10
113.402360
 20
65.800760
 30
0.0
 10
113.402360
 20
65.746060
 30
0.0
 10
113.359360
 20
65.699200
 30
0.0
 10
113.300800
 20
65.699200
 30
0.0
  0
LINE
  5
607
100
AcDbEntity
  8
0
 62
7
100
AcDbLine
 10
113.300800
 20
65.699200
 30
0.0
 11
128.300800
 21
65.699200
 31
0.0
  0
SPLINE
  5
608
100
AcDbEntity
  8
0
 62
7
100
AcDbSpline
 70
8
 71
3
 72
8
 73
4
 74
0
 40
0
 40
0
 40
0
 40
0
 40
1
 40
1
 40
1
 40
1
 10
128.300800
 20
65.699200
 30
0.0
 10
128.246100
 20
65.699200
 30
0.0
 10
128.199240
 20
65.742200
 30
0.0
 10
128.199240
 20
65.800760
 30
0.0
  0
LINE
  5
609
100
AcDbEntity
  8
0
 62
7
100
AcDbLine
 10
128.199240
 20
65.800760
 30
0.0
 11
128.199240
 21
62.800760
 31
0.0
  0
SPLINE
  5
60a
100
AcDbEntity
  8
0
 62
7
100
AcDbSpline
 70
8
 71
3
 72
8
 73
4
 74
0
 40
0
 40
0
 40
0
 40
0
 40
1
 40
1
 40
1
 40
1
 10
128.199240
 20
62.800760
 30
0.0
 10
128.199240
 20
62.746060
 30
0.0
 10
128.242240
 20
62.699200
 30
0.0
 10
128.300800
 20
62.699200
 30
0.0
  0
LINE
  5
60b
100
AcDbEntity
  8
0
 62
7
100
AcDbLine
 10
128.300800
 20
62.699200
 30
0.0
 11
137.300800
 21
62.699200
 31
0.0
  0
SPLINE
  5
60c
100
AcDbEntity
  8
0
 62
7
100
AcDbSpline
 70
8
 71
3
 72
8
 73
4
 74
0
 40
0
 40
0
 40
0
 40
0
 40
1
 40
1
 40
1
 40
1
 10
137.300800
 20
62.699200
 30
0.0
 10
137.355500
 20
62.699200
 30
0.0
 10
137.402360
 20
62.742200
 30
0.0
 10
137.402360
 20
62.800760
 30
0.0
  0
LINE
  5
60d
100
AcDbEntity
  8
0
 62
7
100
AcDbLine
 10
137.402360
 20
62.800760
 30
0.0
 11
137.402360
 21
65.800760
 31
0.0
  0
SPLINE
  5
60e
100
AcDbEntity
  8
0
 62
7
100
AcDbSpline
 70
8
 71
3
 72
8
 73
4
 74
0
 40
0
 40
0
 40
0
 40
0
 40
1
 40
1
 40
1
 40
1
 10
137.402360
 20
65.800760
 30
0.0
 10
137.402360
 20
65.746060
 30
0.0
 10
137.359360
 20
65.699200
 30
0.0
 10
137.300800
 20
65.699200
 30
0.0
  0
LINE
  5
60f
100
AcDbEntity
  8
0
 62
7
100
AcDbLine
 10
137.300800
 20
65.699200
 30
0.0
 11
152.300800
 21
65.699200
 31
0.0
  0
SPLINE
  5
610
100
AcDbEntity
  8
0
 62
7
100
AcDbSpline
 70
8
 71
3
 72
8
 73
4
 74
0
 40
0
 40
0
 40
0
 40
0
 40
1
 40
1
 40
1
 40
1
 10
152.300800
 20
65.699200
 30
0.0
 10
152.246100
 20
65.699200
 30
0.0
 10
152.199240
 20
65.742200
 30
0.0
 10
152.199240
 20
65.800760
 30
0.0
  0
LINE
  5
611
100
AcDbEntity
  8
0
 62
7
100
AcDbLine
 10
152.199240
 20
65.800760
 30
0.0
 11
152.199240
 21
62.800760
 31
0.0
  0
SPLINE
  5
612
100
AcDbEntity
  8
0
 62
7
100
AcDbSpline
 70
8
 71
3
 72
8
 73
4
 74
0
 40
0
 40
0
 40
0
 40
0
 40
1
 40
1
 40
1
 40
1
 10
152.199240
 20
62.800760
 30
0.0
 10
152.199240
 20
62.746060
 30
0.0
 10
152.242240
 20
62.699200
 30
0.0
 10
152.300800
 20
62.699200
 30
0.0
  0
LINE
  5
613
100
AcDbEntity
  8
0
 62
7
100
AcDbLine
 10
152.300800
 20
62.699200
 30
0.0
 11
163.800800
 21
62.699200
 31
0.0
  0
SPLINE
  5
614
100
AcDbEntity
  8
0
 62
7
100
AcDbSpline
 70
8
 71
3
 72
8
 73
4
 74
0
 40
0
 40
0
 40
0
 40
0
 40
1
 40
1
 40
1
 40
1
 10
163.800800
 20
62.699200
 30
0.0
 10
163.855500
 20
62.699200
 30
0.0
 10
163.902360
 20
62.742200
 30
0.0
 10
163.902360
 20
62.800760
 30
0.0
  0
LINE
  5
615
100
AcDbEntity
  8
0
 62
7
100
AcDbLine
 10
163.902360
 20
62.800760
 30
0.0
 11
163.902360
 21
62.800760
 31
0.0
  0
LINE
  5
616
100
AcDbEntity
  8
0
 62
7
100
AcDbLine
 10
163.902360
 20
62.800760
 30
0.0
 11
163.902360
 21
73.800760
 31
0.0
  0
SPLINE
  5
617
100
AcDbEntity
  8
0
 62
7
100
AcDbSpline
 70
8
 71
3
 72
8
 73
4
 74
0
 40
0
 40
0
 40
0
 40
0
 40
1
 40
1
 40
1
 40
1
 10
163.902360
 20
73.800760
 30
0.0
 10
163.902360
 20
73.746060
 30
0.0
 10
163.859360
 20
73.699200
 30
0.0
 10
163.800800
 20
73.699200
 30
0.0
  0
LINE
  5
618
100
AcDbEntity
  8
0
 62
7
100
AcDbLine
 10
163.800800
 20
73.699200
 30
0.0
 11
166.800800
 21
73.699200
 31
0.0
  0
SPLINE
  5
619
100
AcDbEntity
  8
0
 62
7
100
AcDbSpline
 70
8
 71
3
 72
8
 73
4
 74
0
 40
0
 40
0
 40
0
 40
0
 40
1
 40
1
 40
1
 40
1
 10
166.800800
 20
73.699200
 30
0.0
 10
166.855500
 20
73.699200
 30
0.0
 10
166.902360
 20
73.742200
 30
0.0
 10
166.902360
 20
73.800760
 30
0.0
  0
LINE
  5
61a
100
AcDbEntity
  8
0
 62
7
100
AcDbLine
 10
166.902360
 20
73.800760
 30
0.0
 11
166.902360
 21
88.800760
 31
0.0
  0
SPLINE
  5
61b
100
AcDbEntity
  8
0
 62
7
100
AcDbSpline
 70
8
 71
3
 72
8
 73
4
 74
0
 40
0
 40
0
 40
0
 40
0
 40
1
 40
1
 40
1
 40
1
 10
166.902360
 20
88.800760
 30
0.0
 10
166.902360
 20
88.855460
 30
0.0
 10
166.859360
 20
88.902330
 30
0.0
 10
166.800800
 20
88.902330
 30
0.0
  0
LINE
  5
61c
100
AcDbEntity
  8
0
 62
7
100
AcDbLine
 10
166.800800
 20
88.902330
 30
0.0
 11
163.800800
 21
88.902330
 31
0.0
  0
SPLINE
  5
61d
100
AcDbEntity
  8
0
 62
7
100
AcDbSpline
 70
8
 71
3
 72
8
 73
4
 74
0
 40
0
 40
0
 40
0
 40
0
 40
1
 40
1
 40
1
 40
1
 10
163.800800
 20
88.902330
 30
0.0
 10
163.855500
 20
88.902330
 30
0.0
 10
163.902360
 20
88.859330
 30
0.0
 10
163.902360
 20
88.800760
 30
0.0
  0
LINE
  5
61e
100
AcDbEntity
  8
0
 62
7
100
AcDbLine
 10
163.902360
 20
88.800760
 30
0.0
 11
163.902360
 21
99.800760
 31
0.0
  0
LINE
  5
61f
100
AcDbEntity
  8
0
 62
7
100
AcDbLine
 10
163.902360
 20
99.800760
 30
0.0
 11
163.902360
 21
102.800760
 31
0.0
  0
SPLINE
  5
620
100
AcDbEntity
  8
0
 62
7
100
AcDbSpline
 70
8
 71
3
 72
8
 73
4
 74
0
 40
0
 40
0
 40
0
 40
0
 40
1
 40
1
 40
1
 40
1
 10
163.902360
 20
102.800760
 30
0.0
 10
163.902360
 20
102.855460
 30
0.0
 10
163.859360
 20
102.902330
 30
0.0
 10
163.800800
 20
102.902330
 30
0.0
  0
LINE
  5
621
100
AcDbEntity
  8
0
 62
7
100
AcDbLine
 10
163.800800
 20
102.902330
 30
0.0
 11
163.800800
 21
102.902330
 31
0.0
  0
LINE
  5
622
100
AcDbEntity
  8
0
 62
7
100
AcDbLine
 10
163.800800
 20
102.902330
 30
0.0
 11
152.300800
 21
102.902330
 31
0.0
  0
SPLINE
  5
623
100
AcDbEntity
  8
0
 62
7
100
AcDbSpline
 70
8
 71
3
 72
8
 73
4
 74
0
 40
0
 40
0
 40
0
 40
0
 40
1
 40
1
 40
1
 40
1
 10
152.300800
 20
102.902330
 30
0.0
 10
152.246100
 20
102.902330
 30
0.0
 10
152.199240
 20
102.859330
 30
0.0
 10
152.199240
 20
102.800760
 30
0.0
  0
LINE
  5
624
100
AcDbEntity
  8
0
 62
7
100
AcDbLine
 10
152.199240
 20
102.800760
 30
0.0
 11
152.199240
 21
99.800760
 31
0.0
  0
SPLINE
  5
625
100
AcDbEntity
  8
0
 62
7
100
AcDbSpline
 70
8
 71
3
 72
8
 73
4
 74
0
 40
0
 40
0
 40
0
 40
0
 40
1
 40
1
 40
1
 40
1
 10
152.199240
 20
99.800760
 30
0.0
 10
152.199240
 20
99.855460
 30
0.0
 10
152.242240
 20
99.902330
 30
0.0
 10
152.300800
 20
99.902330
 30
0.0
  0
LINE
  5
626
100
AcDbEntity
  8
0
 62
7
100
AcDbLine
 10
152.300800
 20
99.902330
 30
0.0
 11
137.300800
 21
99.902330
 31
0.0
  0
SPLINE
  5
627
100
AcDbEntity
  8
0
 62
7
100
AcDbSpline
 70
8
 71
3
 72
8
 73
4
 74
0
 40
0
 40
0
 40
0
 40
0
 40
1
 40
1
 40
1
 40
1
 10
137.300800
 20
99.902330
 30
0.0
 10
137.355500
 20
99.902330
 30
0.0
 10
137.402360
 20
99.859330
 30
0.0
 10
137.402360
 20
99.800760
 30
0.0
  0
LINE
  5
628
100
AcDbEntity
  8
0
 62
7
100
AcDbLine
 10
137.402360
 20
99.800760
 30
0.0
 11
137.402360
 21
102.800760
 31
0.0
  0
SPLINE
  5
629
100
AcDbEntity
  8
0
 62
7
100
AcDbSpline
 70
8
 71
3
 72
8
 73
4
 74
0
 40
0
 40
0
 40
0
 40
0
 40
1
 40
1
 40
1
 40
1
 10
137.402360
 20
102.800760
 30
0.0
 10
137.402360
 20
102.855460
 30
0.0
 10
137.359360
 20
102.902330
 30
0.0
 10
137.300800
 20
102.902330
 30
0.0
  0
LINE
  5
62a
100
AcDbEntity
  8
0
 62
7
100
AcDbLine
 10
137.300800
 20
102.902330
 30
0.0
 11
128.300800
 21
102.902330
 31
0.0
  0
SPLINE
  5
62b
100
AcDbEntity
  8
0
 62
7
100
AcDbSpline
 70
8
 71
3
 72
8
 73
4
 74
0
 40
0
 40
0
 40
0
 40
0
 40
1
 40
1
 40
1
 40
1
 10
128.300800
 20
102.902330
 30
0.0
 10
128.246100
 20
102.902330
 30
0.0
 10
128.199240
 20
102.859330
 30
0.0
 10
128.199240
 20
102.800760
 30
0.0
  0
LINE
  5
62c
100
AcDbEntity
  8
0
 62
7
100
AcDbLine
 10
128.199240
 20
102.800760
 30
0.0
 11
128.199240
 21
99.800760
 31
0.0
  0
SPLINE
  5
62d
100
AcDbEntity
  8
0
 62
7
100
AcDbSpline
 70
8
 71
3
 72
8
 73
4
 74
0
 40
0
 40
0
 40
0
 40
0
 40
1
 40
1
 40
1
 40
1
 10
128.199240
 20
99.800760
 30
0.0
 10
128.199240
 20
99.855460
 30
0.0
 10
128.242240
 20
99.902330
 30
0.0
 10
128.300800
 20
99.902330
 30
0.0
  0
LINE
  5
62e
100
AcDbEntity
  8
0
 62
7
100
AcDbLine
 10
128.300800
 20
99.902330
 30
0.0
 11
113.300800
 21
99.902330
 31
0.0
  0
SPLINE
  5
62f
100
AcDbEntity
  8
0
 62
7
100
AcDbSpline
 70
8
 71
3
 72
8
 73
4
 74
0
 40
0
 40
0
 40
0
 40
0
 40
1
 40
1
 40
1
 40
1
 10
113.300800
 20
99.902330
 30
0.0
 10
113.355500
 20
99.902330
 30
0.0
 10
113.402360
 20
99.859330
 30
0.0
 10
113.402360
 20
99.800760
 30
0.0
  0
LINE
  5
630
100
AcDbEntity
  8
0
 62
7
100
AcDbLine
 10
113.402360
 20
99.800760
 30
0.0
 11
113.402360
 21
102.800760
 31
0.0
  0
SPLINE
  5
631
100
AcDbEntity
  8
0
 62
7
100
AcDbSpline
 70
8
 71
3
 72
8
 73
4
 74
0
 40
0
 40
0
 40
0
 40
0
 40
1
 40
1
 40
1
 40
1
 10
113.402360
 20
102.800760
 30
0.0
 10
113.402360
 20
102.855460
 30
0.0
 10
113.359360
 20
102.902330
 30
0.0
 10
113.300800
 20
102.902330
 30
0.0
  0
LINE
  5
632
100
AcDbEntity
  8
0
 62
7
100
AcDbLine
 10
113.300800
 20
102.902330
 30
0.0
 11
104.300800
 21
102.902330
 31
0.0
  0
SPLINE
  5
633
100
AcDbEntity
  8
0
 62
7
100
AcDbSpline
 70
8
 71
3
 72
8
 73
4
 74
0
 40
0
 40
0
 40
0
 40
0
 40
1
 40
1
 40
1
 40
1
 10
104.300800
 20
102.902330
 30
0.0
 10
104.246100
 20
102.902330
 30
0.0
 10
104.199240
 20
102.859330
 30
0.0
 10
104.199240
 20
102.800760
 30
0.0
  0
LINE
  5
634
100
AcDbEntity
  8
0
 62
7
100
AcDbLine
 10
104.199240
 20
102.800760
 30
0.0
 11
104.199240
 21
99.800760
 31
0.0
  0
SPLINE
  5
635
100
AcDbEntity
  8
0
 62
7
100
AcDbSpline
 70
8
 71
3
 72
8
 73
4
 74
0
 40
0
 40
0
 40
0
 40
0
 40
1
 40
1
 40
1
 40
1
 10
104.199240
 20
99.800760
 30
0.0
 10
104.199240
 20
99.855460
 30
0.0
 10
104.242240
 20
99.902330
 30
0.0
 10
104.300800
 20
99.902330
 30
0.0
  0
LINE
  5
636
100
AcDbEntity
  8
0
 62
7
100
AcDbLine
 10
104.300800
 20
99.902330
 30
0.0
 11
89.300800
 21
99.902330
 31
0.0
  0
SPLINE
  5
637
100
AcDbEntity
  8
0
 62
7
100
AcDbSpline
 70
8
 71
3
 72
8
 73
4
 74
0
 40
0
 40
0
 40
0
 40
0
 40
1
 40
1
 40
1
 40
1
 10
89.300800
 20
99.902330
 30
0.0
 10
89.355490
 20
99.902330
 30
0.0
 10
89.402362
 20
99.859330
 30
0.0
 10
89.402362
 20
99.800760
 30
0.0
  0
LINE
  5
638
100
AcDbEntity
  8
0
 62
7
100
AcDbLine
 10
89.402362
 20
99.800760
 30
0.0
 11
89.402362
 21
102.800760
 31
0.0
  0
SPLINE
  5
639
100
AcDbEntity
  8
0
 62
7
100
AcDbSpline
 70
8
 71
3
 72
8
 73
4
 74
0
 40
0
 40
0
 40
0
 40
0
 40
1
 40
1
 40
1
 40
1
 10
89.402362
 20
102.800760
 30
0.0
 10
89.402362
 20
102.855460
 30
0.0
 10
89.359392
 20
102.902330
 30
0.0
 10
89.300800
 20
102.902330
 30
0.0
  0
LINE
  5
63a
100
AcDbEntity
  8
0
 62
7
100
AcDbLine
 10
89.300800
 20
102.902330
 30
0.0
 11
77.800800
 21
102.902330
 31
0.0
  0
SPLINE
  5
63b
100
AcDbEntity
  8
0
 62
7
100
AcDbSpline
 70
8
 71
3
 72
8
 73
4
 74
0
 40
0
 40
0
 40
0
 40
0
 40
1
 40
1
 40
1
 40
1
 10
77.800800
 20
102.902330
 30
0.0
 10
77.746110
 20
102.902330
 30
0.0
 10
77.699237
 20
102.859330
 30
0.0
 10
77.699237
 20
102.800760
 30
0.0
  0
LINE
  5
63c
100
AcDbEntity
  8
0
 62
7
100
AcDbLine
 10
77.699237
 20
102.800760
 30
0.0
 11
77.699237
 21
99.800760
 31
0.0
  0
LINE
  5
63d
100
AcDbEntity
  8
0
 62
7
100
AcDbLine
 10
77.699237
 20
99.800760
 30
0.0
 11
77.699237
 21
88.800760
 31
0.0
  0
SPLINE
  5
63e
100
AcDbEntity
  8
0
 62
7
100
AcDbSpline
 70
8
 71
3
 72
8
 73
4
 74
0
 40
0
 40
0
 40
0
 40
0
 40
1
 40
1
 40
1
 40
1
 10
77.699237
 20
88.800760
 30
0.0
 10
77.699237
 20
88.855460
 30
0.0
 10
77.742207
 20
88.902330
 30
0.0
 10
77.800800
 20
88.902330
 30
0.0
  0
LINE
  5
63f
100
AcDbEntity
  8
0
 62
7
100
AcDbLine
 10
77.800800
 20
88.902330
 30
0.0
 11
74.800800
 21
88.902330
 31
0.0
  0
SPLINE
  5
640
100
AcDbEntity
  8
0
 62
7
100
AcDbSpline
 70
8
 71
3
 72
8
 73
4
 74
0
 40
0
 40
0
 40
0
 40
0
 40
1
 40
1
 40
1
 40
1
 10
74.800800
 20
88.902330
 30
0.0
 10
74.746110
 20
88.902330
 30
0.0
 10
74.699237
 20
88.859330
 30
0.0
 10
74.699237
 20
88.800760
 30
0.0
  0
LINE
  5
641
100
AcDbEntity
  8
0
 62
7
100
AcDbLine
 10
74.699237
 20
88.800760
 30
0.0
 11
74.699237
 21
73.800760
 31
0.0
  0
SPLINE
  5
642
100
AcDbEntity
  8
0
 62
7
100
AcDbSpline
 70
8
 71
3
 72
8
 73
4
 74
0
 40
0
 40
0
 40
0
 40
0
 40
1
 40
1
 40
1
 40
1
 10
74.699237
 20
73.800760
 30
0.0
 10
74.699237
 20
73.746060
 30
0.0
 10
74.742207
 20
73.699200
 30
0.0
 10
74.800800
 20
73.699200
 30
0.0
  0
LINE
  5
643
100
AcDbEntity
  8
0
 62
7
100
AcDbLine
 10
74.800800
 20
73.699200
 30
0.0
 11
77.800800
 21
73.699200
 31
0.0
  0
SPLINE
  5
644
100
AcDbEntity
  8
0
 62
7
100
AcDbSpline
 70
8
 71
3
 72
8
 73
4
 74
0
 40
0
 40
0
 40
0
 40
0
 40
1
 40
1
 40
1
 40
1
 10
77.800800
 20
73.699200
 30
0.0
 10
77.746110
 20
73.699200
 30
0.0
 10
77.699237
 20
73.742200
 30
0.0
 10
77.699237
 20
73.800760
 30
0.0
  0
LINE
  5
645
100
AcDbEntity
  8
0
 62
7
100
AcDbLine
 10
77.699237
 20
73.800760
 30
0.0
 11
77.699238
 21
62.800760
 31
0.0
  0
SPLINE
  5
646
100
AcDbEntity
  8
0
 62
7
100
AcDbSpline
 70
8
 71
3
 72
8
 73
4
 74
0
 40
0
 40
0
 40
0
 40
0
 40
1
 40
1
 40
1
 40
1
 10
77.699238
 20
62.800760
 30
0.0
 10
77.699238
 20
62.746060
 30
0.0
 10
77.742208
 20
62.699200
 30
0.0
 10
77.800800
 20
62.699200
 30
0.0
  0
LINE
  5
647
100
AcDbEntity
  8
0
 62
7
100
AcDbLine
 10
77.800800
 20
62.699200
 30
0.0
 11
77.800800
 21
62.699200
 31
0.0
  0
SPLINE
  5
648
100
AcDbEntity
  8
0
 62
7
100
AcDbSpline
 70
8
 71
3
 72
8
 73
4
 74
0
 40
0
 40
0
 40
0
 40
0
 40
1
 40
1
 40
1
 40
1
 10
123.209650
 20
82.093750
 30
0.0
 10
123.209649
 20
81.047436
 30
0.0
 10
123.625295
 20
80.043976
 30
0.0
 10
124.365151
 20
79.304121
 30
0.0
  0
SPLINE
  5
649
100
AcDbEntity
  8
0
 62
7
100
AcDbSpline
 70
8
 71
3
 72
8
 73
4
 74
0
 40
0
 40
0
 40
0
 40
0
 40
1
 40
1
 40
1
 40
1
 10
124.365151
 20
79.304121
 30
0.0
 10
125.105006
 20
78.564265
 30
0.0
 10
126.108466
 20
78.148619
 30
0.0
 10
127.154780
 20
78.148620
 30
0.0
  0
SPLINE
  5
64a
100
AcDbEntity
  8
0
 62
7
100
AcDbSpline
 70
8
 71
3
 72
8
 73
4
 74
0
 40
0
 40
0
 40
0
 40
0
 40
1
 40
1
 40
1
 40
1
 10
127.154780
 20
78.148620
 30
0.0
 10
129.333612
 20
78.148623
 30
0.0
 10
131.099902
 20
79.914918
 30
0.0
 10
131.099900
 20
82.093750
 30
0.0
  0
SPLINE
  5
64b
100
AcDbEntity
  8
0
 62
7
100
AcDbSpline
 70
8
 71
3
 72
8
 73
4
 74
0
 40
0
 40
0
 40
0
 40
0
 40
1
 40
1
 40
1
 40
1
 10
131.099900
 20
82.093750
 30
0.0
 10
131.099902
 20
84.272582
 30
0.0
 10
129.333612
 20
86.038877
 30
0.0
 10
127.154780
 20
86.038880
 30
0.0
  0
SPLINE
  5
64c
100
AcDbEntity
  8
0
 62
7
100
AcDbSpline
 70
8
 71
3
 72
8
 73
4
 74
0
 40
0
 40
0
 40
0
 40
0
 40
1
 40
1
 40
1
 40
1
 10
127.154780
 20
86.038880
 30
0.0
 10
126.108466
 20
86.038881
 30
0.0
 10
125.105006
 20
85.623235
 30
0.0
 10
124.365151
 20
84.883379
 30
0.0
  0
SPLINE
  5
64d
100
AcDbEntity
  8
0
 62
7
100
AcDbSpline
 70
8
 71
3
 72
8
 73
4
 74
0
 40
0
 40
0
 40
0
 40
0
 40
1
 40
1
 40
1
 40
1
 10
124.365151
 20
84.883379
 30
0.0
 10
123.625295
 20
84.143524
 30
0.0
 10
123.209649
 20
83.140064
 30
0.0
 10
123.209650
 20
82.093750
 30
0.0
  0
LINE
  5
64e
100
AcDbEntity
  8
0
 62
7
100
AcDbLine
 10
123.209650
 20
82.093750
 30
0.0
 11
123.209650
 21
82.093750
 31
0.0
  0
LINE
  5
64f
100
AcDbEntity
  8
0
 62
7
100
AcDbLine
 10
93.510400
 20
86.133360
 30
0.0
 11
85.506230
 21
86.133360
 31
0.0
  0
SPLINE
  5
650
100
AcDbEntity
  8
0
 62
7
100
AcDbSpline
 70
8
 71
3
 72
8
 73
4
 74
0
 40
0
 40
0
 40
0
 40
0
 40
1
 40
1
 40
1
 40
1
 10
85.506230
 20
86.133360
 30
0.0
 10
84.150520
 20
86.133360
 30
0.0
 10
83.059100
 20
85.041940
 30
0.0
 10
83.059100
 20
83.686230
 30
0.0
  0
LINE
  5
651
100
AcDbEntity
  8
0
 62
7
100
AcDbLine
 10
83.059100
 20
83.686230
 30
0.0
 11
83.059100
 21
80.576320
 31
0.0
  0
SPLINE
  5
652
100
AcDbEntity
  8
0
 62
7
100
AcDbSpline
 70
8
 71
3
 72
8
 73
4
 74
0
 40
0
 40
0
 40
0
 40
0
 40
1
 40
1
 40
1
 40
1
 10
83.059100
 20
80.576320
 30
0.0
 10
83.059100
 20
79.220610
 30
0.0
 10
84.150520
 20
78.129190
 30
0.0
 10
85.506230
 20
78.129190
 30
0.0
  0
LINE
  5
653
100
AcDbEntity
  8
0
 62
7
100
AcDbLine
 10
85.506230
 20
78.129190
 30
0.0
 11
93.510400
 21
78.129190
 31
0.0
  0
SPLINE
  5
654
100
AcDbEntity
  8
0
 62
7
100
AcDbSpline
 70
8
 71
3
 72
8
 73
4
 74
0
 40
0
 40
0
 40
0
 40
0
 40
1
 40
1
 40
1
 40
1
 10
93.510400
 20
78.129190
 30
0.0
 10
94.866120
 20
78.129190
 30
0.0
 10
95.957540
 20
79.220610
 30
0.0
 10
95.957540
 20
80.576320
 30
0.0
  0
LINE
  5
655
100
AcDbEntity
  8
0
 62
7
100
AcDbLine
 10
95.957540
 20
80.576320
 30
0.0
 11
95.957540
 21
83.686230
 31
0.0
  0
SPLINE
  5
656
100
AcDbEntity
  8
0
 62
7
100
AcDbSpline
 70
8
 71
3
 72
8
 73
4
 74
0
 40
0
 40
0
 40
0
 40
0
 40
1
 40
1
 40
1
 40
1
 10
95.957540
 20
83.686230
 30
0.0
 10
95.957540
 20
85.041940
 30
0.0
 10
94.866120
 20
86.133360
 30
0.0
 10
93.510400
 20
86.133360
 30
0.0
  0
LINE
  5
657
100
AcDbEntity
  8
0
 62
7
100
AcDbLine
 10
93.510400
 20
86.133360
 30
0.0
 11
93.510400
 21
86.133360
 31
0.0
  0
SPLINE
  5
658
100
AcDbEntity
  8
0
 62
7
100
AcDbSpline
 70
8
 71
3
 72
8
 73
4
 74
0
 40
0
 40
0
 40
0
 40
0
 40
1
 40
1
 40
1
 40
1
 10
66.185661
 20
191.293779
 30
0.0
 10
65.649763
 20
191.293779
 30
0.0
 10
65.154572
 20
191.007880
 30
0.0
 10
64.886623
 20
190.543779
 30
0.0
  0
SPLINE
  5
659
100
AcDbEntity
  8
0
 62
7
100
AcDbSpline
 70
8
 71
3
 72
8
 73
4
 74
0
 40
0
 40
0
 40
0
 40
0
 40
1
 40
1
 40
1
 40
1
 10
64.886623
 20
190.543779
 30
0.0
 10
64.618674
 20
190.079677
 30
0.0
 10
64.618674
 20
189.507880
 30
0.0
 10
64.886623
 20
189.043779
 30
0.0
  0
SPLINE
  5
65a
100
AcDbEntity
  8
0
 62
7
100
AcDbSpline
 70
8
 71
3
 72
8
 73
4
 74
0
 40
0
 40
0
 40
0
 40
0
 40
1
 40
1
 40
1
 40
1
 10
64.886623
 20
189.043779
 30
0.0
 10
65.154572
 20
188.579677
 30
0.0
 10
65.649763
 20
188.293779
 30
0.0
 10
66.185661
 20
188.293779
 30
0.0
  0
SPLINE
  5
65b
100
AcDbEntity
  8
0
 62
7
100
AcDbSpline
 70
8
 71
3
 72
8
 73
4
 74
0
 40
0
 40
0
 40
0
 40
0
 40
1
 40
1
 40
1
 40
1
 10
66.185661
 20
188.293779
 30
0.0
 10
66.721559
 20
188.293779
 30
0.0
 10
67.216750
 20
188.579677
 30
0.0
 10
67.484699
 20
189.043779
 30
0.0
  0
SPLINE
  5
65c
100
AcDbEntity
  8
0
 62
7
100
AcDbSpline
 70
8
 71
3
 72
8
 73
4
 74
0
 40
0
 40
0
 40
0
 40
0
 40
1
 40
1
 40
1
 40
1
 10
67.484699
 20
189.043779
 30
0.0
 10
67.752648
 20
189.507880
 30
0.0
 10
67.752648
 20
190.079677
 30
0.0
 10
67.484699
 20
190.543779
 30
0.0
  0
SPLINE
  5
65d
100
AcDbEntity
  8
0
 62
7
100
AcDbSpline
 70
8
 71
3
 72
8
 73
4
 74
0
 40
0
 40
0
 40
0
 40
0
 40
1
 40
1
 40
1
 40
1
 10
67.484699
 20
190.543779
 30
0.0
 10
67.216750
 20
191.007880
 30
0.0
 10
66.721559
 20
191.293779
 30
0.0
 10
66.185661
 20
191.293779
 30
0.0
  0
LINE
  5
65e
100
AcDbEntity
  8
0
 62
7
100
AcDbLine
 10
66.185661
 20
191.293779
 30
0.0
 11
66.185661
 21
191.293779
 31
0.0
  0
SPLINE
  5
65f
100
AcDbEntity
  8
0
 62
7
100
AcDbSpline
 70
8
 71
3
 72
8
 73
4
 74
0
 40
0
 40
0
 40
0
 40
0
 40
1
 40
1
 40
1
 40
1
 10
17.398403
 20
191.274533
 30
0.0
 10
16.862504
 20
191.274533
 30
0.0
 10
16.367314
 20
190.988635
 30
0.0
 10
16.099365
 20
190.524533
 30
0.0
  0
SPLINE
  5
660
100
AcDbEntity
  8
0
 62
7
100
AcDbSpline
 70
8
 71
3
 72
8
 73
4
 74
0
 40
0
 40
0
 40
0
 40
0
 40
1
 40
1
 40
1
 40
1
 10
16.099365
 20
190.524533
 30
0.0
 10
15.831415
 20
190.060432
 30
0.0
 10
15.831415
 20
189.488635
 30
0.0
 10
16.099365
 20
189.024533
 30
0.0
  0
SPLINE
  5
661
100
AcDbEntity
  8
0
 62
7
100
AcDbSpline
 70
8
 71
3
 72
8
 73
4
 74
0
 40
0
 40
0
 40
0
 40
0
 40
1
 40
1
 40
1
 40
1
 10
16.099365
 20
189.024533
 30
0.0
 10
16.367314
 20
188.560432
 30
0.0
 10
16.862504
 20
188.274533
 30
0.0
 10
17.398403
 20
188.274533
 30
0.0
  0
SPLINE
  5
662
100
AcDbEntity
  8
0
 62
7
100
AcDbSpline
 70
8
 71
3
 72
8
 73
4
 74
0
 40
0
 40
0
 40
0
 40
0
 40
1
 40
1
 40
1
 40
1
 10
17.398403
 20
188.274533
 30
0.0
 10
17.934301
 20
188.274533
 30
0.0
 10
18.429492
 20
188.560432
 30
0.0
 10
18.697441
 20
189.024533
 30
0.0
  0
SPLINE
  5
663
100
AcDbEntity
  8
0
 62
7
100
AcDbSpline
 70
8
 71
3
 72
8
 73
4
 74
0
 40
0
 40
0
 40
0
 40
0
 40
1
 40
1
 40
1
 40
1
 10
18.697441
 20
189.024533
 30
0.0
 10
18.965390
 20
189.488635
 30
0.0
 10
18.965390
 20
190.060432
 30
0.0
 10
18.697441
 20
190.524533
 30
0.0
  0
SPLINE
  5
664
100
AcDbEntity
  8
0
 62
7
100
AcDbSpline
 70
8
 71
3
 72
8
 73
4
 74
0
 40
0
 40
0
 40
0
 40
0
 40
1
 40
1
 40
1
 40
1
 10
18.697441
 20
190.524533
 30
0.0
 10
18.429492
 20
190.988635
 30
0.0
 10
17.934301
 20
191.274533
 30
0.0
 10
17.398403
 20
191.274533
 30
0.0
  0
LINE
  5
665
100
AcDbEntity
  8
0
 62
7
100
AcDbLine
 10
17.398403
 20
191.274533
 30
0.0
 11
17.398403
 21
191.274533
 31
0.0
  0
SPLINE
  5
666
100
AcDbEntity
  8
0
 62
7
100
AcDbSpline
 70
8
 71
3
 72
8
 73
4
 74
0
 40
0
 40
0
 40
0
 40
0
 40
1
 40
1
 40
1
 40
1
 10
66.204904
 20
133.540531
 30
0.0
 10
65.669006
 20
133.540531
 30
0.0
 10
65.173815
 20
133.254633
 30
0.0
 10
64.905866
 20
132.790531
 30
0.0
  0
SPLINE
  5
667
100
AcDbEntity
  8
0
 62
7
100
AcDbSpline
 70
8
 71
3
 72
8
 73
4
 74
0
 40
0
 40
0
 40
0
 40
0
 40
1
 40
1
 40
1
 40
1
 10
64.905866
 20
132.790531
 30
0.0
 10
64.637917
 20
132.326430
 30
0.0
 10
64.637917
 20
131.754633
 30
0.0
 10
64.905866
 20
131.290531
 30
0.0
  0
SPLINE
  5
668
100
AcDbEntity
  8
0
 62
7
100
AcDbSpline
 70
8
 71
3
 72
8
 73
4
 74
0
 40
0
 40
0
 40
0
 40
0
 40
1
 40
1
 40
1
 40
1
 10
64.905866
 20
131.290531
 30
0.0
 10
65.173815
 20
130.826430
 30
0.0
 10
65.669006
 20
130.540531
 30
0.0
 10
66.204904
 20
130.540531
 30
0.0
  0
SPLINE
  5
669
100
AcDbEntity
  8
0
 62
7
100
AcDbSpline
 70
8
 71
3
 72
8
 73
4
 74
0
 40
0
 40
0
 40
0
 40
0
 40
1
 40
1
 40
1
 40
1
 10
66.204904
 20
130.540531
 30
0.0
 10
66.740803
 20
130.540531
 30
0.0
 10
67.235993
 20
130.826430
 30
0.0
 10
67.503942
 20
131.290531
 30
0.0
  0
SPLINE
  5
66a
100
AcDbEntity
  8
0
 62
7
100
AcDbSpline
 70
8
 71
3
 72
8
 73
4
 74
0
 40
0
 40
0
 40
0
 40
0
 40
1
 40
1
 40
1
 40
1
 10
67.503942
 20
131.290531
 30
0.0
 10
67.771892
 20
131.754633
 30
0.0
 10
67.771892
 20
132.326430
 30
0.0
 10
67.503942
 20
132.790531
 30
0.0
  0
SPLINE
  5
66b
100
AcDbEntity
  8
0
 62
7
100
AcDbSpline
 70
8
 71
3
 72
8
 73
4
 74
0
 40
0
 40
0
 40
0
 40
0
 40
1
 40
1
 40
1
 40
1
 10
67.503942
 20
132.790531
 30
0.0
 10
67.235993
 20
133.254633
 30
0.0
 10
66.740803
 20
133.540531
 30
0.0
 10
66.204904
 20
133.540531
 30
0.0
  0
LINE
  5
66c
100
AcDbEntity
  8
0
 62
7
100
AcDbLine
 10
66.204904
 20
133.540531
 30
0.0
 11
66.204904
 21
133.540531
 31
0.0
  0
SPLINE
  5
66d
100
AcDbEntity
  8
0
 62
7
100
AcDbSpline
 70
8
 71
3
 72
8
 73
4
 74
0
 40
0
 40
0
 40
0
 40
0
 40
1
 40
1
 40
1
 40
1
 10
17.398403
 20
133.521298
 30
0.0
 10
16.862504
 20
133.521298
 30
0.0
 10
16.367314
 20
133.235400
 30
0.0
 10
16.099365
 20
132.771298
 30
0.0
  0
SPLINE
  5
66e
100
AcDbEntity
  8
0
 62
7
100
AcDbSpline
 70
8
 71
3
 72
8
 73
4
 74
0
 40
0
 40
0
 40
0
 40
0
 40
1
 40
1
 40
1
 40
1
 10
16.099365
 20
132.771298
 30
0.0
 10
15.831415
 20
132.307197
 30
0.0
 10
15.831415
 20
131.735400
 30
0.0
 10
16.099365
 20
131.271298
 30
0.0
  0
SPLINE
  5
66f
100
AcDbEntity
  8
0
 62
7
100
AcDbSpline
 70
8
 71
3
 72
8
 73
4
 74
0
 40
0
 40
0
 40
0
 40
0
 40
1
 40
1
 40
1
 40
1
 10
16.099365
 20
131.271298
 30
0.0
 10
16.367314
 20
130.807197
 30
0.0
 10
16.862504
 20
130.521298
 30
0.0
 10
17.398403
 20
130.521298
 30
0.0
  0
SPLINE
  5
670
100
AcDbEntity
  8
0
 62
7
100
AcDbSpline
 70
8
 71
3
 72
8
 73
4
 74
0
 40
0
 40
0
 40
0
 40
0
 40
1
 40
1
 40
1
 40
1
 10
17.398403
 20
130.521298
 30
0.0
 10
18.226830
 20
130.521298
 30
0.0
 10
18.898403
 20
131.192871
 30
0.0
 10
18.898403
 20
132.021298
 30
0.0
  0
SPLINE
  5
671
100
AcDbEntity
  8
0
 62
7
100
AcDbSpline
 70
8
 71
3
 72
8
 73
4
 74
0
 40
0
 40
0
 40
0
 40
0
 40
1
 40
1
 40
1
 40
1
 10
18.898403
 20
132.021298
 30
0.0
 10
18.898403
 20
132.849725
 30
0.0
 10
18.226830
 20
133.521298
 30
0.0
 10
17.398403
 20
133.521298
 30
0.0
  0
LINE
  5
672
100
AcDbEntity
  8
0
 62
7
100
AcDbLine
 10
17.398403
 20
133.521298
 30
0.0
 11
17.398403
 21
133.521298
 31
0.0
  0
ENDSEC
  0
SECTION
  2
OBJECTS
  0
DICTIONARY
  5
C
330
0
100
AcDbDictionary
  3
ACAD_GROUP
350
D
  3
ACAD_MLINESTYLE
350
17
  0
DICTIONARY
  5
D
330
C
100
AcDbDictionary
  0
DICTIONARY
  5
1A
330
C
100
AcDbDictionary
  0
DICTIONARY
  5
17
330
C
100
AcDbDictionary
  3
STANDARD
350
18
  0
DICTIONARY
  5
19
330
C
100
AcDbDictionary
  0
ENDSEC
  0
EOF
