  0
SECTION
  2
HEADER
  9
$ACADVER
  1
AC1014
  9
$HANDSEED
  5
FFFF
  9
$MEASUREMENT
 70
     1
  0
ENDSEC
  0
SECTION
  2
TABLES
  0
TABLE
  2
VPORT
  5
8
330
0
100
AcDbSymbolTable
 70
     4
  0
VPORT
  5
2E
330
8
100
AcDbSymbolTableRecord
100
AcDbViewportTableRecord
  2
*ACTIVE
 70
     0
 10
0.0
 20
0.0
 11
1.0
 21
1.0
 12
210.0
 22
148.5
 13
0.0
 23
0.0
 14
10.0
 24
10.0
 15
10.0
 25
10.0
 16
0.0
 26
0.0
 36
1.0
 17
0.0
 27
0.0
 37
0.0
 40
341.0
 41
1.24
 42
50.0
 43
0.0
 44
0.0
 50
0.0
 51
0.0
 71
     0
 72
   100
 73
     1
 74
     3
 75
     0
 76
     0
 77
     0
 78
     0
  0
ENDTAB
  0
TABLE
  2
LTYPE
  5
5
330
0
100
AcDbSymbolTable
 70
     1
  0
LTYPE
  5
14
330
5
100
AcDbSymbolTableRecord
100
AcDbLinetypeTableRecord
  2
BYBLOCK
 70
     0
  3

 72
    65
 73
     0
 40
0.0
  0
LTYPE
  5
15
330
5
100
AcDbSymbolTableRecord
100
AcDbLinetypeTableRecord
  2
BYLAYER
 70
     0
  3

 72
    65
 73
     0
 40
0.0
  0
LTYPE
  5
16
330
5
100
AcDbSymbolTableRecord
100
AcDbLinetypeTableRecord
  2
CONTINUOUS
 70
     0
  3
Solid line
 72
    65
 73
     0
 40
0.0
  0
ENDTAB
  0
TABLE
  2
LAYER
  5
2
100
AcDbSymbolTable
 70
2
  0
LAYER
  5
50
100
AcDbSymbolTableRecord
100
AcDbLayerTableRecord
  2
0
 70
0
  6
CONTINUOUS
  0
LAYER
  5
51
100
AcDbSymbolTableRecord
100
AcDbLayerTableRecord
  2
Ebene_1
 70
0
  6
CONTINUOUS
  0
ENDTAB
  0
TABLE
  2
STYLE
  5
3
330
0
100
AcDbSymbolTable
 70
     1
  0
STYLE
  5
11
330
3
100
AcDbSymbolTableRecord
100
AcDbTextStyleTableRecord
  2
STANDARD
 70
     0
 40
0.0
 41
1.0
 50
0.0
 71
     0
 42
2.5
  3
txt
  4

  0
ENDTAB
  0
TABLE
  2
VIEW
  5
6
330
0
100
AcDbSymbolTable
 70
     0
  0
ENDTAB
  0
TABLE
  2
UCS
  5
7
330
0
100
AcDbSymbolTable
 70
     0
  0
ENDTAB
  0
TABLE
  2
APPID
  5
9
330
0
100
AcDbSymbolTable
 70
     2
  0
APPID
  5
12
330
9
100
AcDbSymbolTableRecord
100
AcDbRegAppTableRecord
  2
ACAD
 70
     0
  0
ENDTAB
  0
TABLE
  2
DIMSTYLE
  5
A
330
0
100
AcDbSymbolTable
 70
     1
  0
DIMSTYLE
105
27
330
A
100
AcDbSymbolTableRecord
100
AcDbDimStyleTableRecord
  2
ISO-25
 70
     0
  3

  4

  5

  6

  7

 40
1.0
 41
2.5
 42
0.625
 43
3.75
 44
1.25
 45
0.0
 46
0.0
 47
0.0
 48
0.0
140
2.5
141
2.5
142
0.0
143
0.03937007874016
144
1.0
145
0.0
146
1.0
147
0.625
 71
     0
 72
     0
 73
     0
 74
     0
 75
     0
 76
     0
 77
     1
 78
     8
170
     0
171
     3
172
     1
173
     0
174
     0
175
     0
176
     0
177
     0
178
     0
270
     2
271
     2
272
     2
273
     2
274
     3
340
11
275
     0
280
     0
281
     0
282
     0
283
     0
284
     8
285
     0
286
     0
287
     3
288
     0
  0
ENDTAB
  0
TABLE
  2
BLOCK_RECORD
  5
1
330
0
100
AcDbSymbolTable
 70
     1
  0
BLOCK_RECORD
  5
1F
330
1
100
AcDbSymbolTableRecord
100
AcDbBlockTableRecord
  2
*MODEL_SPACE
  0
BLOCK_RECORD
  5
1B
330
1
100
AcDbSymbolTableRecord
100
AcDbBlockTableRecord
  2
*PAPER_SPACE
  0
ENDTAB
  0
ENDSEC
  0
SECTION
  2
BLOCKS
  0
BLOCK
  5
20
330
1F
100
AcDbEntity
  8
0
100
AcDbBlockBegin
  2
*MODEL_SPACE
 70
     0
 10
0.0
 20
0.0
 30
0.0
  3
*MODEL_SPACE
  1

  0
ENDBLK
  5
21
330
1F
100
AcDbEntity
  8
0
100
AcDbBlockEnd
  0
BLOCK
  5
1C
330
1B
100
AcDbEntity
 67
     1
  8
0
100
AcDbBlockBegin
  2
*PAPER_SPACE
  1

  0
ENDBLK
  5
1D
330
1B
100
AcDbEntity
 67
     1
  8
0
100
AcDbBlockEnd
  0
ENDSEC
  0
SECTION
  2
ENTITIES
  0
LINE
  5
100
100
AcDbEntity
  8
Ebene_1
 62
7
100
AcDbLine
 10
28.576750
 20
81.665260
 30
0.0
 11
46.076750
 21
81.665260
 31
0.0
  0
SPLINE
  5
101
100
AcDbEntity
  8
Ebene_1
 62
7
100
AcDbSpline
 70
8
 71
3
 72
8
 73
4
 74
0
 40
0
 40
0
 40
0
 40
0
 40
1
 40
1
 40
1
 40
1
 10
46.076750
 20
81.665260
 30
0.0
 10
46.131450
 20
81.665260
 30
0.0
 10
46.178320
 20
81.708260
 30
0.0
 10
46.178320
 20
81.766820
 30
0.0
  0
LINE
  5
102
100
AcDbEntity
  8
Ebene_1
 62
7
100
AcDbLine
 10
46.178320
 20
81.766820
 30
0.0
 11
46.178320
 21
86.165260
 31
0.0
  0
SPLINE
  5
103
100
AcDbEntity
  8
Ebene_1
 62
7
100
AcDbSpline
 70
8
 71
3
 72
8
 73
4
 74
0
 40
0
 40
0
 40
0
 40
0
 40
1
 40
1
 40
1
 40
1
 10
46.178320
 20
86.165260
 30
0.0
 10
46.178320
 20
86.110560
 30
0.0
 10
46.135320
 20
86.063700
 30
0.0
 10
46.076750
 20
86.063700
 30
0.0
  0
LINE
  5
104
100
AcDbEntity
  8
Ebene_1
 62
7
100
AcDbLine
 10
46.076750
 20
86.063700
 30
0.0
 11
68.076750
 21
86.063700
 31
0.0
  0
SPLINE
  5
105
100
AcDbEntity
  8
Ebene_1
 62
7
100
AcDbSpline
 70
8
 71
3
 72
8
 73
4
 74
0
 40
0
 40
0
 40
0
 40
0
 40
1
 40
1
 40
1
 40
1
 10
68.076750
 20
86.063700
 30
0.0
 10
68.022050
 20
86.063700
 30
0.0
 10
67.975190
 20
86.106700
 30
0.0
 10
67.975190
 20
86.165260
 30
0.0
  0
LINE
  5
106
100
AcDbEntity
  8
Ebene_1
 62
7
100
AcDbLine
 10
67.975190
 20
86.165260
 30
0.0
 11
67.975190
 21
81.766820
 31
0.0
  0
SPLINE
  5
107
100
AcDbEntity
  8
Ebene_1
 62
7
100
AcDbSpline
 70
8
 71
3
 72
8
 73
4
 74
0
 40
0
 40
0
 40
0
 40
0
 40
1
 40
1
 40
1
 40
1
 10
67.975190
 20
81.766820
 30
0.0
 10
67.975190
 20
81.712120
 30
0.0
 10
68.018190
 20
81.665260
 30
0.0
 10
68.076750
 20
81.665260
 30
0.0
  0
LINE
  5
108
100
AcDbEntity
  8
Ebene_1
 62
7
100
AcDbLine
 10
68.076750
 20
81.665260
 30
0.0
 11
85.576750
 21
81.665260
 31
0.0
  0
LINE
  5
109
100
AcDbEntity
  8
Ebene_1
 62
7
100
AcDbLine
 10
85.576750
 20
81.665260
 30
0.0
 11
89.975190
 21
81.665260
 31
0.0
  0
SPLINE
  5
10a
100
AcDbEntity
  8
Ebene_1
 62
7
100
AcDbSpline
 70
8
 71
3
 72
8
 73
4
 74
0
 40
0
 40
0
 40
0
 40
0
 40
1
 40
1
 40
1
 40
1
 10
89.975190
 20
81.665260
 30
0.0
 10
90.029890
 20
81.665260
 30
0.0
 10
90.076750
 20
81.708260
 30
0.0
 10
90.076750
 20
81.766820
 30
0.0
  0
LINE
  5
10b
100
AcDbEntity
  8
Ebene_1
 62
7
100
AcDbLine
 10
90.076750
 20
81.766820
 30
0.0
 11
90.076750
 21
81.766820
 31
0.0
  0
LINE
  5
10c
100
AcDbEntity
  8
Ebene_1
 62
7
100
AcDbLine
 10
90.076750
 20
81.766820
 30
0.0
 11
90.076750
 21
89.966040
 31
0.0
  0
SPLINE
  5
10d
100
AcDbEntity
  8
Ebene_1
 62
7
100
AcDbSpline
 70
8
 71
3
 72
8
 73
4
 74
0
 40
0
 40
0
 40
0
 40
0
 40
1
 40
1
 40
1
 40
1
 10
90.076750
 20
89.966040
 30
0.0
 10
90.076750
 20
90.020740
 30
0.0
 10
90.033750
 20
90.067600
 30
0.0
 10
89.975190
 20
90.067600
 30
0.0
  0
LINE
  5
10e
100
AcDbEntity
  8
Ebene_1
 62
7
100
AcDbLine
 10
89.975190
 20
90.067600
 30
0.0
 11
85.576750
 21
90.067600
 31
0.0
  0
SPLINE
  5
10f
100
AcDbEntity
  8
Ebene_1
 62
7
100
AcDbSpline
 70
8
 71
3
 72
8
 73
4
 74
0
 40
0
 40
0
 40
0
 40
0
 40
1
 40
1
 40
1
 40
1
 10
85.576750
 20
90.067600
 30
0.0
 10
85.631450
 20
90.067600
 30
0.0
 10
85.678320
 20
90.024600
 30
0.0
 10
85.678320
 20
89.966040
 30
0.0
  0
LINE
  5
110
100
AcDbEntity
  8
Ebene_1
 62
7
100
AcDbLine
 10
85.678320
 20
89.966040
 30
0.0
 11
85.678320
 21
111.966040
 31
0.0
  0
SPLINE
  5
111
100
AcDbEntity
  8
Ebene_1
 62
7
100
AcDbSpline
 70
8
 71
3
 72
8
 73
4
 74
0
 40
0
 40
0
 40
0
 40
0
 40
1
 40
1
 40
1
 40
1
 10
85.678320
 20
111.966040
 30
0.0
 10
85.678320
 20
111.911340
 30
0.0
 10
85.635320
 20
111.864480
 30
0.0
 10
85.576750
 20
111.864480
 30
0.0
  0
LINE
  5
112
100
AcDbEntity
  8
Ebene_1
 62
7
100
AcDbLine
 10
85.576750
 20
111.864480
 30
0.0
 11
89.975190
 21
111.864480
 31
0.0
  0
SPLINE
  5
113
100
AcDbEntity
  8
Ebene_1
 62
7
100
AcDbSpline
 70
8
 71
3
 72
8
 73
4
 74
0
 40
0
 40
0
 40
0
 40
0
 40
1
 40
1
 40
1
 40
1
 10
89.975190
 20
111.864480
 30
0.0
 10
90.029890
 20
111.864480
 30
0.0
 10
90.076750
 20
111.907480
 30
0.0
 10
90.076750
 20
111.966040
 30
0.0
  0
LINE
  5
114
100
AcDbEntity
  8
Ebene_1
 62
7
100
AcDbLine
 10
90.076750
 20
111.966040
 30
0.0
 11
90.076750
 21
120.165260
 31
0.0
  0
LINE
  5
115
100
AcDbEntity
  8
Ebene_1
 62
7
100
AcDbLine
 10
90.076750
 20
120.165260
 30
0.0
 11
90.076750
 21
124.563700
 31
0.0
  0
SPLINE
  5
116
100
AcDbEntity
  8
Ebene_1
 62
7
100
AcDbSpline
 70
8
 71
3
 72
8
 73
4
 74
0
 40
0
 40
0
 40
0
 40
0
 40
1
 40
1
 40
1
 40
1
 10
90.076750
 20
124.563700
 30
0.0
 10
90.076750
 20
124.618400
 30
0.0
 10
90.033750
 20
124.665260
 30
0.0
 10
89.975190
 20
124.665260
 30
0.0
  0
LINE
  5
117
100
AcDbEntity
  8
Ebene_1
 62
7
100
AcDbLine
 10
89.975190
 20
124.665260
 30
0.0
 11
85.576750
 21
124.665260
 31
0.0
  0
LINE
  5
118
100
AcDbEntity
  8
Ebene_1
 62
7
100
AcDbLine
 10
85.576750
 20
124.665260
 30
0.0
 11
68.076750
 21
124.665260
 31
0.0
  0
SPLINE
  5
119
100
AcDbEntity
  8
Ebene_1
 62
7
100
AcDbSpline
 70
8
 71
3
 72
8
 73
4
 74
0
 40
0
 40
0
 40
0
 40
0
 40
1
 40
1
 40
1
 40
1
 10
68.076750
 20
124.665260
 30
0.0
 10
68.022050
 20
124.665260
 30
0.0
 10
67.975190
 20
124.622260
 30
0.0
 10
67.975190
 20
124.563700
 30
0.0
  0
LINE
  5
11a
100
AcDbEntity
  8
Ebene_1
 62
7
100
AcDbLine
 10
67.975190
 20
124.563700
 30
0.0
 11
67.975190
 21
120.165260
 31
0.0
  0
SPLINE
  5
11b
100
AcDbEntity
  8
Ebene_1
 62
7
100
AcDbSpline
 70
8
 71
3
 72
8
 73
4
 74
0
 40
0
 40
0
 40
0
 40
0
 40
1
 40
1
 40
1
 40
1
 10
67.975190
 20
120.165260
 30
0.0
 10
67.975190
 20
120.219960
 30
0.0
 10
68.018190
 20
120.266820
 30
0.0
 10
68.076750
 20
120.266820
 30
0.0
  0
LINE
  5
11c
100
AcDbEntity
  8
Ebene_1
 62
7
100
AcDbLine
 10
68.076750
 20
120.266820
 30
0.0
 11
46.076750
 21
120.266820
 31
0.0
  0
SPLINE
  5
11d
100
AcDbEntity
  8
Ebene_1
 62
7
100
AcDbSpline
 70
8
 71
3
 72
8
 73
4
 74
0
 40
0
 40
0
 40
0
 40
0
 40
1
 40
1
 40
1
 40
1
 10
46.076750
 20
120.266820
 30
0.0
 10
46.131450
 20
120.266820
 30
0.0
 10
46.178320
 20
120.223820
 30
0.0
 10
46.178320
 20
120.165260
 30
0.0
  0
LINE
  5
11e
100
AcDbEntity
  8
Ebene_1
 62
7
100
AcDbLine
 10
46.178320
 20
120.165260
 30
0.0
 11
46.178320
 21
124.563700
 31
0.0
  0
SPLINE
  5
11f
100
AcDbEntity
  8
Ebene_1
 62
7
100
AcDbSpline
 70
8
 71
3
 72
8
 73
4
 74
0
 40
0
 40
0
 40
0
 40
0
 40
1
 40
1
 40
1
 40
1
 10
46.178320
 20
124.563700
 30
0.0
 10
46.178320
 20
124.618400
 30
0.0
 10
46.135320
 20
124.665260
 30
0.0
 10
46.076750
 20
124.665260
 30
0.0
  0
LINE
  5
120
100
AcDbEntity
  8
Ebene_1
 62
7
100
AcDbLine
 10
46.076750
 20
124.665260
 30
0.0
 11
28.576750
 21
124.665260
 31
0.0
  0
LINE
  5
121
100
AcDbEntity
  8
Ebene_1
 62
7
100
AcDbLine
 10
28.576750
 20
124.665260
 30
0.0
 11
24.178320
 21
124.665260
 31
0.0
  0
SPLINE
  5
122
100
AcDbEntity
  8
Ebene_1
 62
7
100
AcDbSpline
 70
8
 71
3
 72
8
 73
4
 74
0
 40
0
 40
0
 40
0
 40
0
 40
1
 40
1
 40
1
 40
1
 10
24.178320
 20
124.665260
 30
0.0
 10
24.123620
 20
124.665260
 30
0.0
 10
24.076750
 20
124.622260
 30
0.0
 10
24.076750
 20
124.563700
 30
0.0
  0
LINE
  5
123
100
AcDbEntity
  8
Ebene_1
 62
7
100
AcDbLine
 10
24.076750
 20
124.563700
 30
0.0
 11
24.076750
 21
120.165260
 31
0.0
  0
LINE
  5
124
100
AcDbEntity
  8
Ebene_1
 62
7
100
AcDbLine
 10
24.076750
 20
120.165260
 30
0.0
 11
24.076750
 21
111.966040
 31
0.0
  0
SPLINE
  5
125
100
AcDbEntity
  8
Ebene_1
 62
7
100
AcDbSpline
 70
8
 71
3
 72
8
 73
4
 74
0
 40
0
 40
0
 40
0
 40
0
 40
1
 40
1
 40
1
 40
1
 10
24.076750
 20
111.966040
 30
0.0
 10
24.076750
 20
111.911340
 30
0.0
 10
24.119750
 20
111.864480
 30
0.0
 10
24.178320
 20
111.864480
 30
0.0
  0
LINE
  5
126
100
AcDbEntity
  8
Ebene_1
 62
7
100
AcDbLine
 10
24.178320
 20
111.864480
 30
0.0
 11
28.576750
 21
111.864480
 31
0.0
  0
SPLINE
  5
127
100
AcDbEntity
  8
Ebene_1
 62
7
100
AcDbSpline
 70
8
 71
3
 72
8
 73
4
 74
0
 40
0
 40
0
 40
0
 40
0
 40
1
 40
1
 40
1
 40
1
 10
28.576750
 20
111.864480
 30
0.0
 10
28.522050
 20
111.864480
 30
0.0
 10
28.475190
 20
111.907480
 30
0.0
 10
28.475190
 20
111.966040
 30
0.0
  0
LINE
  5
128
100
AcDbEntity
  8
Ebene_1
 62
7
100
AcDbLine
 10
28.475190
 20
111.966040
 30
0.0
 11
28.475190
 21
89.966040
 31
0.0
  0
SPLINE
  5
129
100
AcDbEntity
  8
Ebene_1
 62
7
100
AcDbSpline
 70
8
 71
3
 72
8
 73
4
 74
0
 40
0
 40
0
 40
0
 40
0
 40
1
 40
1
 40
1
 40
1
 10
28.475190
 20
89.966040
 30
0.0
 10
28.475190
 20
90.020740
 30
0.0
 10
28.518190
 20
90.067600
 30
0.0
 10
28.576750
 20
90.067600
 30
0.0
  0
LINE
  5
12a
100
AcDbEntity
  8
Ebene_1
 62
7
100
AcDbLine
 10
28.576750
 20
90.067600
 30
0.0
 11
24.178320
 21
90.067600
 31
0.0
  0
SPLINE
  5
12b
100
AcDbEntity
  8
Ebene_1
 62
7
100
AcDbSpline
 70
8
 71
3
 72
8
 73
4
 74
0
 40
0
 40
0
 40
0
 40
0
 40
1
 40
1
 40
1
 40
1
 10
24.178320
 20
90.067600
 30
0.0
 10
24.123620
 20
90.067600
 30
0.0
 10
24.076750
 20
90.024600
 30
0.0
 10
24.076750
 20
89.966040
 30
0.0
  0
LINE
  5
12c
100
AcDbEntity
  8
Ebene_1
 62
7
100
AcDbLine
 10
24.076750
 20
89.966040
 30
0.0
 11
24.076750
 21
81.766820
 31
0.0
  0
SPLINE
  5
12d
100
AcDbEntity
  8
Ebene_1
 62
7
100
AcDbSpline
 70
8
 71
3
 72
8
 73
4
 74
0
 40
0
 40
0
 40
0
 40
0
 40
1
 40
1
 40
1
 40
1
 10
24.076750
 20
81.766820
 30
0.0
 10
24.076750
 20
81.712120
 30
0.0
 10
24.119750
 20
81.665260
 30
0.0
 10
24.178320
 20
81.665260
 30
0.0
  0
LINE
  5
12e
100
AcDbEntity
  8
Ebene_1
 62
7
100
AcDbLine
 10
24.178320
 20
81.665260
 30
0.0
 11
28.576750
 21
81.665260
 31
0.0
  0
LINE
  5
12f
100
AcDbEntity
  8
Ebene_1
 62
7
100
AcDbLine
 10
28.576750
 20
176.466060
 30
0.0
 11
46.076750
 21
176.466060
 31
0.0
  0
SPLINE
  5
130
100
AcDbEntity
  8
Ebene_1
 62
7
100
AcDbSpline
 70
8
 71
3
 72
8
 73
4
 74
0
 40
0
 40
0
 40
0
 40
0
 40
1
 40
1
 40
1
 40
1
 10
46.076750
 20
176.466060
 30
0.0
 10
46.022050
 20
176.466060
 30
0.0
 10
45.975190
 20
176.509060
 30
0.0
 10
45.975190
 20
176.567620
 30
0.0
  0
LINE
  5
131
100
AcDbEntity
  8
Ebene_1
 62
7
100
AcDbLine
 10
45.975190
 20
176.567620
 30
0.0
 11
45.975190
 21
172.169190
 31
0.0
  0
SPLINE
  5
132
100
AcDbEntity
  8
Ebene_1
 62
7
100
AcDbSpline
 70
8
 71
3
 72
8
 73
4
 74
0
 40
0
 40
0
 40
0
 40
0
 40
1
 40
1
 40
1
 40
1
 10
45.975190
 20
172.169190
 30
0.0
 10
45.975190
 20
172.114490
 30
0.0
 10
46.018190
 20
172.067620
 30
0.0
 10
46.076750
 20
172.067620
 30
0.0
  0
LINE
  5
133
100
AcDbEntity
  8
Ebene_1
 62
7
100
AcDbLine
 10
46.076750
 20
172.067620
 30
0.0
 11
68.076750
 21
172.067620
 31
0.0
  0
SPLINE
  5
134
100
AcDbEntity
  8
Ebene_1
 62
7
100
AcDbSpline
 70
8
 71
3
 72
8
 73
4
 74
0
 40
0
 40
0
 40
0
 40
0
 40
1
 40
1
 40
1
 40
1
 10
68.076750
 20
172.067620
 30
0.0
 10
68.131450
 20
172.067620
 30
0.0
 10
68.178320
 20
172.110620
 30
0.0
 10
68.178320
 20
172.169190
 30
0.0
  0
LINE
  5
135
100
AcDbEntity
  8
Ebene_1
 62
7
100
AcDbLine
 10
68.178320
 20
172.169190
 30
0.0
 11
68.178320
 21
176.567620
 31
0.0
  0
SPLINE
  5
136
100
AcDbEntity
  8
Ebene_1
 62
7
100
AcDbSpline
 70
8
 71
3
 72
8
 73
4
 74
0
 40
0
 40
0
 40
0
 40
0
 40
1
 40
1
 40
1
 40
1
 10
68.178320
 20
176.567620
 30
0.0
 10
68.178320
 20
176.512920
 30
0.0
 10
68.135320
 20
176.466060
 30
0.0
 10
68.076750
 20
176.466060
 30
0.0
  0
LINE
  5
137
100
AcDbEntity
  8
Ebene_1
 62
7
100
AcDbLine
 10
68.076750
 20
176.466060
 30
0.0
 11
85.576750
 21
176.466060
 31
0.0
  0
SPLINE
  5
138
100
AcDbEntity
  8
Ebene_1
 62
7
100
AcDbSpline
 70
8
 71
3
 72
8
 73
4
 74
0
 40
0
 40
0
 40
0
 40
0
 40
1
 40
1
 40
1
 40
1
 10
85.576750
 20
176.466060
 30
0.0
 10
85.631450
 20
176.466060
 30
0.0
 10
85.678320
 20
176.509060
 30
0.0
 10
85.678320
 20
176.567620
 30
0.0
  0
LINE
  5
139
100
AcDbEntity
  8
Ebene_1
 62
7
100
AcDbLine
 10
85.678320
 20
176.567620
 30
0.0
 11
85.678320
 21
176.567620
 31
0.0
  0
LINE
  5
13a
100
AcDbEntity
  8
Ebene_1
 62
7
100
AcDbLine
 10
85.678320
 20
176.567620
 30
0.0
 11
85.678320
 21
190.966060
 31
0.0
  0
SPLINE
  5
13b
100
AcDbEntity
  8
Ebene_1
 62
7
100
AcDbSpline
 70
8
 71
3
 72
8
 73
4
 74
0
 40
0
 40
0
 40
0
 40
0
 40
1
 40
1
 40
1
 40
1
 10
85.678320
 20
190.966060
 30
0.0
 10
85.678320
 20
190.911360
 30
0.0
 10
85.635320
 20
190.864500
 30
0.0
 10
85.576750
 20
190.864500
 30
0.0
  0
LINE
  5
13c
100
AcDbEntity
  8
Ebene_1
 62
7
100
AcDbLine
 10
85.576750
 20
190.864500
 30
0.0
 11
89.975190
 21
190.864500
 31
0.0
  0
SPLINE
  5
13d
100
AcDbEntity
  8
Ebene_1
 62
7
100
AcDbSpline
 70
8
 71
3
 72
8
 73
4
 74
0
 40
0
 40
0
 40
0
 40
0
 40
1
 40
1
 40
1
 40
1
 10
89.975190
 20
190.864500
 30
0.0
 10
90.029890
 20
190.864500
 30
0.0
 10
90.076750
 20
190.907500
 30
0.0
 10
90.076750
 20
190.966060
 30
0.0
  0
LINE
  5
13e
100
AcDbEntity
  8
Ebene_1
 62
7
100
AcDbLine
 10
90.076750
 20
190.966060
 30
0.0
 11
90.076750
 21
212.966055
 31
0.0
  0
SPLINE
  5
13f
100
AcDbEntity
  8
Ebene_1
 62
7
100
AcDbSpline
 70
8
 71
3
 72
8
 73
4
 74
0
 40
0
 40
0
 40
0
 40
0
 40
1
 40
1
 40
1
 40
1
 10
90.076750
 20
212.966055
 30
0.0
 10
90.076750
 20
213.020755
 30
0.0
 10
90.033750
 20
213.067615
 30
0.0
 10
89.975190
 20
213.067615
 30
0.0
  0
LINE
  5
140
100
AcDbEntity
  8
Ebene_1
 62
7
100
AcDbLine
 10
89.975190
 20
213.067615
 30
0.0
 11
85.576750
 21
213.067615
 31
0.0
  0
SPLINE
  5
141
100
AcDbEntity
  8
Ebene_1
 62
7
100
AcDbSpline
 70
8
 71
3
 72
8
 73
4
 74
0
 40
0
 40
0
 40
0
 40
0
 40
1
 40
1
 40
1
 40
1
 10
85.576750
 20
213.067615
 30
0.0
 10
85.631450
 20
213.067615
 30
0.0
 10
85.678320
 20
213.024615
 30
0.0
 10
85.678320
 20
212.966055
 30
0.0
  0
LINE
  5
142
100
AcDbEntity
  8
Ebene_1
 62
7
100
AcDbLine
 10
85.678320
 20
212.966055
 30
0.0
 11
85.678320
 21
226.165275
 31
0.0
  0
SPLINE
  5
143
100
AcDbEntity
  8
Ebene_1
 62
7
100
AcDbSpline
 70
8
 71
3
 72
8
 73
4
 74
0
 40
0
 40
0
 40
0
 40
0
 40
1
 40
1
 40
1
 40
1
 10
85.678320
 20
226.165275
 30
0.0
 10
85.678320
 20
226.110575
 30
0.0
 10
85.635320
 20
226.063715
 30
0.0
 10
85.576750
 20
226.063715
 30
0.0
  0
LINE
  5
144
100
AcDbEntity
  8
Ebene_1
 62
7
100
AcDbLine
 10
85.576750
 20
226.063715
 30
0.0
 11
89.975190
 21
226.063715
 31
0.0
  0
SPLINE
  5
145
100
AcDbEntity
  8
Ebene_1
 62
7
100
AcDbSpline
 70
8
 71
3
 72
8
 73
4
 74
0
 40
0
 40
0
 40
0
 40
0
 40
1
 40
1
 40
1
 40
1
 10
89.975190
 20
226.063715
 30
0.0
 10
90.029890
 20
226.063715
 30
0.0
 10
90.076750
 20
226.106715
 30
0.0
 10
90.076750
 20
226.165275
 30
0.0
  0
LINE
  5
146
100
AcDbEntity
  8
Ebene_1
 62
7
100
AcDbLine
 10
90.076750
 20
226.165275
 30
0.0
 11
90.076750
 21
248.165275
 31
0.0
  0
SPLINE
  5
147
100
AcDbEntity
  8
Ebene_1
 62
7
100
AcDbSpline
 70
8
 71
3
 72
8
 73
4
 74
0
 40
0
 40
0
 40
0
 40
0
 40
1
 40
1
 40
1
 40
1
 10
90.076750
 20
248.165275
 30
0.0
 10
90.076750
 20
248.219975
 30
0.0
 10
90.033750
 20
248.266835
 30
0.0
 10
89.975190
 20
248.266835
 30
0.0
  0
LINE
  5
148
100
AcDbEntity
  8
Ebene_1
 62
7
100
AcDbLine
 10
89.975190
 20
248.266835
 30
0.0
 11
85.576750
 21
248.266835
 31
0.0
  0
SPLINE
  5
149
100
AcDbEntity
  8
Ebene_1
 62
7
100
AcDbSpline
 70
8
 71
3
 72
8
 73
4
 74
0
 40
0
 40
0
 40
0
 40
0
 40
1
 40
1
 40
1
 40
1
 10
85.576750
 20
248.266835
 30
0.0
 10
85.631450
 20
248.266835
 30
0.0
 10
85.678320
 20
248.223835
 30
0.0
 10
85.678320
 20
248.165275
 30
0.0
  0
LINE
  5
14a
100
AcDbEntity
  8
Ebene_1
 62
7
100
AcDbLine
 10
85.678320
 20
248.165275
 30
0.0
 11
85.678320
 21
262.563711
 31
0.0
  0
SPLINE
  5
14b
100
AcDbEntity
  8
Ebene_1
 62
7
100
AcDbSpline
 70
8
 71
3
 72
8
 73
4
 74
0
 40
0
 40
0
 40
0
 40
0
 40
1
 40
1
 40
1
 40
1
 10
85.678320
 20
262.563711
 30
0.0
 10
85.678320
 20
262.618411
 30
0.0
 10
85.635320
 20
262.665271
 30
0.0
 10
85.576750
 20
262.665271
 30
0.0
  0
LINE
  5
14c
100
AcDbEntity
  8
Ebene_1
 62
7
100
AcDbLine
 10
85.576750
 20
262.665271
 30
0.0
 11
85.576750
 21
262.665271
 31
0.0
  0
LINE
  5
14d
100
AcDbEntity
  8
Ebene_1
 62
7
100
AcDbLine
 10
85.576750
 20
262.665271
 30
0.0
 11
68.076750
 21
262.665271
 31
0.0
  0
SPLINE
  5
14e
100
AcDbEntity
  8
Ebene_1
 62
7
100
AcDbSpline
 70
8
 71
3
 72
8
 73
4
 74
0
 40
0
 40
0
 40
0
 40
0
 40
1
 40
1
 40
1
 40
1
 10
68.076750
 20
262.665271
 30
0.0
 10
68.131450
 20
262.665271
 30
0.0
 10
68.178320
 20
262.622271
 30
0.0
 10
68.178320
 20
262.563711
 30
0.0
  0
LINE
  5
14f
100
AcDbEntity
  8
Ebene_1
 62
7
100
AcDbLine
 10
68.178320
 20
262.563711
 30
0.0
 11
68.178320
 21
266.962141
 31
0.0
  0
SPLINE
  5
150
100
AcDbEntity
  8
Ebene_1
 62
7
100
AcDbSpline
 70
8
 71
3
 72
8
 73
4
 74
0
 40
0
 40
0
 40
0
 40
0
 40
1
 40
1
 40
1
 40
1
 10
68.178320
 20
266.962141
 30
0.0
 10
68.178320
 20
267.016841
 30
0.0
 10
68.135320
 20
267.063711
 30
0.0
 10
68.076750
 20
267.063711
 30
0.0
  0
LINE
  5
151
100
AcDbEntity
  8
Ebene_1
 62
7
100
AcDbLine
 10
68.076750
 20
267.063711
 30
0.0
 11
46.076750
 21
267.063711
 31
0.0
  0
SPLINE
  5
152
100
AcDbEntity
  8
Ebene_1
 62
7
100
AcDbSpline
 70
8
 71
3
 72
8
 73
4
 74
0
 40
0
 40
0
 40
0
 40
0
 40
1
 40
1
 40
1
 40
1
 10
46.076750
 20
267.063711
 30
0.0
 10
46.022050
 20
267.063711
 30
0.0
 10
45.975190
 20
267.020711
 30
0.0
 10
45.975190
 20
266.962141
 30
0.0
  0
LINE
  5
153
100
AcDbEntity
  8
Ebene_1
 62
7
100
AcDbLine
 10
45.975190
 20
266.962141
 30
0.0
 11
45.975190
 21
262.563711
 31
0.0
  0
SPLINE
  5
154
100
AcDbEntity
  8
Ebene_1
 62
7
100
AcDbSpline
 70
8
 71
3
 72
8
 73
4
 74
0
 40
0
 40
0
 40
0
 40
0
 40
1
 40
1
 40
1
 40
1
 10
45.975190
 20
262.563711
 30
0.0
 10
45.975190
 20
262.618411
 30
0.0
 10
46.018190
 20
262.665271
 30
0.0
 10
46.076750
 20
262.665271
 30
0.0
  0
LINE
  5
155
100
AcDbEntity
  8
Ebene_1
 62
7
100
AcDbLine
 10
46.076750
 20
262.665271
 30
0.0
 11
28.576750
 21
262.665271
 31
0.0
  0
SPLINE
  5
156
100
AcDbEntity
  8
Ebene_1
 62
7
100
AcDbSpline
 70
8
 71
3
 72
8
 73
4
 74
0
 40
0
 40
0
 40
0
 40
0
 40
1
 40
1
 40
1
 40
1
 10
28.576750
 20
262.665271
 30
0.0
 10
28.522050
 20
262.665271
 30
0.0
 10
28.475190
 20
262.622271
 30
0.0
 10
28.475190
 20
262.563711
 30
0.0
  0
LINE
  5
157
100
AcDbEntity
  8
Ebene_1
 62
7
100
AcDbLine
 10
28.475190
 20
262.563711
 30
0.0
 11
28.475190
 21
262.563711
 31
0.0
  0
LINE
  5
158
100
AcDbEntity
  8
Ebene_1
 62
7
100
AcDbLine
 10
28.475190
 20
262.563711
 30
0.0
 11
28.475190
 21
248.165275
 31
0.0
  0
SPLINE
  5
159
100
AcDbEntity
  8
Ebene_1
 62
7
100
AcDbSpline
 70
8
 71
3
 72
8
 73
4
 74
0
 40
0
 40
0
 40
0
 40
0
 40
1
 40
1
 40
1
 40
1
 10
28.475190
 20
248.165275
 30
0.0
 10
28.475190
 20
248.219975
 30
0.0
 10
28.518190
 20
248.266835
 30
0.0
 10
28.576750
 20
248.266835
 30
0.0
  0
LINE
  5
15a
100
AcDbEntity
  8
Ebene_1
 62
7
100
AcDbLine
 10
28.576750
 20
248.266835
 30
0.0
 11
24.178320
 21
248.266835
 31
0.0
  0
SPLINE
  5
15b
100
AcDbEntity
  8
Ebene_1
 62
7
100
AcDbSpline
 70
8
 71
3
 72
8
 73
4
 74
0
 40
0
 40
0
 40
0
 40
0
 40
1
 40
1
 40
1
 40
1
 10
24.178320
 20
248.266835
 30
0.0
 10
24.123620
 20
248.266835
 30
0.0
 10
24.076750
 20
248.223835
 30
0.0
 10
24.076750
 20
248.165275
 30
0.0
  0
LINE
  5
15c
100
AcDbEntity
  8
Ebene_1
 62
7
100
AcDbLine
 10
24.076750
 20
248.165275
 30
0.0
 11
24.076750
 21
226.165275
 31
0.0
  0
SPLINE
  5
15d
100
AcDbEntity
  8
Ebene_1
 62
7
100
AcDbSpline
 70
8
 71
3
 72
8
 73
4
 74
0
 40
0
 40
0
 40
0
 40
0
 40
1
 40
1
 40
1
 40
1
 10
24.076750
 20
226.165275
 30
0.0
 10
24.076750
 20
226.110575
 30
0.0
 10
24.119750
 20
226.063715
 30
0.0
 10
24.178320
 20
226.063715
 30
0.0
  0
LINE
  5
15e
100
AcDbEntity
  8
Ebene_1
 62
7
100
AcDbLine
 10
24.178320
 20
226.063715
 30
0.0
 11
28.576750
 21
226.063715
 31
0.0
  0
SPLINE
  5
15f
100
AcDbEntity
  8
Ebene_1
 62
7
100
AcDbSpline
 70
8
 71
3
 72
8
 73
4
 74
0
 40
0
 40
0
 40
0
 40
0
 40
1
 40
1
 40
1
 40
1
 10
28.576750
 20
226.063715
 30
0.0
 10
28.522050
 20
226.063715
 30
0.0
 10
28.475190
 20
226.106715
 30
0.0
 10
28.475190
 20
226.165275
 30
0.0
  0
LINE
  5
160
100
AcDbEntity
  8
Ebene_1
 62
7
100
AcDbLine
 10
28.475190
 20
226.165275
 30
0.0
 11
28.475190
 21
212.966055
 31
0.0
  0
SPLINE
  5
161
100
AcDbEntity
  8
Ebene_1
 62
7
100
AcDbSpline
 70
8
 71
3
 72
8
 73
4
 74
0
 40
0
 40
0
 40
0
 40
0
 40
1
 40
1
 40
1
 40
1
 10
28.475190
 20
212.966055
 30
0.0
 10
28.475190
 20
213.020755
 30
0.0
 10
28.518190
 20
213.067615
 30
0.0
 10
28.576750
 20
213.067615
 30
0.0
  0
LINE
  5
162
100
AcDbEntity
  8
Ebene_1
 62
7
100
AcDbLine
 10
28.576750
 20
213.067615
 30
0.0
 11
24.178320
 21
213.067615
 31
0.0
  0
SPLINE
  5
163
100
AcDbEntity
  8
Ebene_1
 62
7
100
AcDbSpline
 70
8
 71
3
 72
8
 73
4
 74
0
 40
0
 40
0
 40
0
 40
0
 40
1
 40
1
 40
1
 40
1
 10
24.178320
 20
213.067615
 30
0.0
 10
24.123620
 20
213.067615
 30
0.0
 10
24.076750
 20
213.024615
 30
0.0
 10
24.076750
 20
212.966055
 30
0.0
  0
LINE
  5
164
100
AcDbEntity
  8
Ebene_1
 62
7
100
AcDbLine
 10
24.076750
 20
212.966055
 30
0.0
 11
24.076750
 21
190.966060
 31
0.0
  0
SPLINE
  5
165
100
AcDbEntity
  8
Ebene_1
 62
7
100
AcDbSpline
 70
8
 71
3
 72
8
 73
4
 74
0
 40
0
 40
0
 40
0
 40
0
 40
1
 40
1
 40
1
 40
1
 10
24.076750
 20
190.966060
 30
0.0
 10
24.076750
 20
190.911360
 30
0.0
 10
24.119750
 20
190.864500
 30
0.0
 10
24.178320
 20
190.864500
 30
0.0
  0
LINE
  5
166
100
AcDbEntity
  8
Ebene_1
 62
7
100
AcDbLine
 10
24.178320
 20
190.864500
 30
0.0
 11
28.576750
 21
190.864500
 31
0.0
  0
SPLINE
  5
167
100
AcDbEntity
  8
Ebene_1
 62
7
100
AcDbSpline
 70
8
 71
3
 72
8
 73
4
 74
0
 40
0
 40
0
 40
0
 40
0
 40
1
 40
1
 40
1
 40
1
 10
28.576750
 20
190.864500
 30
0.0
 10
28.522050
 20
190.864500
 30
0.0
 10
28.475190
 20
190.907500
 30
0.0
 10
28.475190
 20
190.966060
 30
0.0
  0
LINE
  5
168
100
AcDbEntity
  8
Ebene_1
 62
7
100
AcDbLine
 10
28.475190
 20
190.966060
 30
0.0
 11
28.475190
 21
176.567620
 31
0.0
  0
SPLINE
  5
169
100
AcDbEntity
  8
Ebene_1
 62
7
100
AcDbSpline
 70
8
 71
3
 72
8
 73
4
 74
0
 40
0
 40
0
 40
0
 40
0
 40
1
 40
1
 40
1
 40
1
 10
28.475190
 20
176.567620
 30
0.0
 10
28.475190
 20
176.512920
 30
0.0
 10
28.518190
 20
176.466060
 30
0.0
 10
28.576750
 20
176.466060
 30
0.0
  0
LINE
  5
16a
100
AcDbEntity
  8
Ebene_1
 62
7
100
AcDbLine
 10
28.576750
 20
176.466060
 30
0.0
 11
28.576750
 21
176.466060
 31
0.0
  0
LINE
  5
16b
100
AcDbEntity
  8
Ebene_1
 62
7
100
AcDbLine
 10
114.279930
 20
176.927640
 30
0.0
 11
131.779940
 21
176.927640
 31
0.0
  0
SPLINE
  5
16c
100
AcDbEntity
  8
Ebene_1
 62
7
100
AcDbSpline
 70
8
 71
3
 72
8
 73
4
 74
0
 40
0
 40
0
 40
0
 40
0
 40
1
 40
1
 40
1
 40
1
 10
131.779940
 20
176.927640
 30
0.0
 10
131.725240
 20
176.927640
 30
0.0
 10
131.678380
 20
176.970640
 30
0.0
 10
131.678380
 20
177.029200
 30
0.0
  0
LINE
  5
16d
100
AcDbEntity
  8
Ebene_1
 62
7
100
AcDbLine
 10
131.678380
 20
177.029200
 30
0.0
 11
131.678380
 21
172.630760
 31
0.0
  0
SPLINE
  5
16e
100
AcDbEntity
  8
Ebene_1
 62
7
100
AcDbSpline
 70
8
 71
3
 72
8
 73
4
 74
0
 40
0
 40
0
 40
0
 40
0
 40
1
 40
1
 40
1
 40
1
 10
131.678380
 20
172.630760
 30
0.0
 10
131.678380
 20
172.576060
 30
0.0
 10
131.721380
 20
172.529200
 30
0.0
 10
131.779940
 20
172.529200
 30
0.0
  0
LINE
  5
16f
100
AcDbEntity
  8
Ebene_1
 62
7
100
AcDbLine
 10
131.779940
 20
172.529200
 30
0.0
 11
153.779930
 21
172.529200
 31
0.0
  0
SPLINE
  5
170
100
AcDbEntity
  8
Ebene_1
 62
7
100
AcDbSpline
 70
8
 71
3
 72
8
 73
4
 74
0
 40
0
 40
0
 40
0
 40
0
 40
1
 40
1
 40
1
 40
1
 10
153.779930
 20
172.529200
 30
0.0
 10
153.834630
 20
172.529200
 30
0.0
 10
153.881490
 20
172.572200
 30
0.0
 10
153.881490
 20
172.630760
 30
0.0
  0
LINE
  5
171
100
AcDbEntity
  8
Ebene_1
 62
7
100
AcDbLine
 10
153.881490
 20
172.630760
 30
0.0
 11
153.881490
 21
177.029200
 31
0.0
  0
SPLINE
  5
172
100
AcDbEntity
  8
Ebene_1
 62
7
100
AcDbSpline
 70
8
 71
3
 72
8
 73
4
 74
0
 40
0
 40
0
 40
0
 40
0
 40
1
 40
1
 40
1
 40
1
 10
153.881490
 20
177.029200
 30
0.0
 10
153.881490
 20
176.974500
 30
0.0
 10
153.838490
 20
176.927640
 30
0.0
 10
153.779930
 20
176.927640
 30
0.0
  0
LINE
  5
173
100
AcDbEntity
  8
Ebene_1
 62
7
100
AcDbLine
 10
153.779930
 20
176.927640
 30
0.0
 11
171.279930
 21
176.927640
 31
0.0
  0
SPLINE
  5
174
100
AcDbEntity
  8
Ebene_1
 62
7
100
AcDbSpline
 70
8
 71
3
 72
8
 73
4
 74
0
 40
0
 40
0
 40
0
 40
0
 40
1
 40
1
 40
1
 40
1
 10
171.279930
 20
176.927640
 30
0.0
 10
171.334630
 20
176.927640
 30
0.0
 10
171.381490
 20
176.970640
 30
0.0
 10
171.381490
 20
177.029200
 30
0.0
  0
LINE
  5
175
100
AcDbEntity
  8
Ebene_1
 62
7
100
AcDbLine
 10
171.381490
 20
177.029200
 30
0.0
 11
171.381490
 21
177.029200
 31
0.0
  0
LINE
  5
176
100
AcDbEntity
  8
Ebene_1
 62
7
100
AcDbLine
 10
171.381490
 20
177.029200
 30
0.0
 11
171.381490
 21
191.427640
 31
0.0
  0
SPLINE
  5
177
100
AcDbEntity
  8
Ebene_1
 62
7
100
AcDbSpline
 70
8
 71
3
 72
8
 73
4
 74
0
 40
0
 40
0
 40
0
 40
0
 40
1
 40
1
 40
1
 40
1
 10
171.381490
 20
191.427640
 30
0.0
 10
171.381490
 20
191.372940
 30
0.0
 10
171.338490
 20
191.326080
 30
0.0
 10
171.279930
 20
191.326080
 30
0.0
  0
LINE
  5
178
100
AcDbEntity
  8
Ebene_1
 62
7
100
AcDbLine
 10
171.279930
 20
191.326080
 30
0.0
 11
175.678370
 21
191.326080
 31
0.0
  0
SPLINE
  5
179
100
AcDbEntity
  8
Ebene_1
 62
7
100
AcDbSpline
 70
8
 71
3
 72
8
 73
4
 74
0
 40
0
 40
0
 40
0
 40
0
 40
1
 40
1
 40
1
 40
1
 10
175.678370
 20
191.326080
 30
0.0
 10
175.733070
 20
191.326080
 30
0.0
 10
175.779930
 20
191.369080
 30
0.0
 10
175.779930
 20
191.427640
 30
0.0
  0
LINE
  5
17a
100
AcDbEntity
  8
Ebene_1
 62
7
100
AcDbLine
 10
175.779930
 20
191.427640
 30
0.0
 11
175.779930
 21
213.427635
 31
0.0
  0
SPLINE
  5
17b
100
AcDbEntity
  8
Ebene_1
 62
7
100
AcDbSpline
 70
8
 71
3
 72
8
 73
4
 74
0
 40
0
 40
0
 40
0
 40
0
 40
1
 40
1
 40
1
 40
1
 10
175.779930
 20
213.427635
 30
0.0
 10
175.779930
 20
213.482335
 30
0.0
 10
175.736930
 20
213.529195
 30
0.0
 10
175.678370
 20
213.529195
 30
0.0
  0
LINE
  5
17c
100
AcDbEntity
  8
Ebene_1
 62
7
100
AcDbLine
 10
175.678370
 20
213.529195
 30
0.0
 11
171.279930
 21
213.529195
 31
0.0
  0
SPLINE
  5
17d
100
AcDbEntity
  8
Ebene_1
 62
7
100
AcDbSpline
 70
8
 71
3
 72
8
 73
4
 74
0
 40
0
 40
0
 40
0
 40
0
 40
1
 40
1
 40
1
 40
1
 10
171.279930
 20
213.529195
 30
0.0
 10
171.334630
 20
213.529195
 30
0.0
 10
171.381490
 20
213.486195
 30
0.0
 10
171.381490
 20
213.427635
 30
0.0
  0
LINE
  5
17e
100
AcDbEntity
  8
Ebene_1
 62
7
100
AcDbLine
 10
171.381490
 20
213.427635
 30
0.0
 11
171.381490
 21
226.626855
 31
0.0
  0
SPLINE
  5
17f
100
AcDbEntity
  8
Ebene_1
 62
7
100
AcDbSpline
 70
8
 71
3
 72
8
 73
4
 74
0
 40
0
 40
0
 40
0
 40
0
 40
1
 40
1
 40
1
 40
1
 10
171.381490
 20
226.626855
 30
0.0
 10
171.381490
 20
226.572155
 30
0.0
 10
171.338490
 20
226.525295
 30
0.0
 10
171.279930
 20
226.525295
 30
0.0
  0
LINE
  5
180
100
AcDbEntity
  8
Ebene_1
 62
7
100
AcDbLine
 10
171.279930
 20
226.525295
 30
0.0
 11
175.678370
 21
226.525295
 31
0.0
  0
SPLINE
  5
181
100
AcDbEntity
  8
Ebene_1
 62
7
100
AcDbSpline
 70
8
 71
3
 72
8
 73
4
 74
0
 40
0
 40
0
 40
0
 40
0
 40
1
 40
1
 40
1
 40
1
 10
175.678370
 20
226.525295
 30
0.0
 10
175.733070
 20
226.525295
 30
0.0
 10
175.779930
 20
226.568295
 30
0.0
 10
175.779930
 20
226.626855
 30
0.0
  0
LINE
  5
182
100
AcDbEntity
  8
Ebene_1
 62
7
100
AcDbLine
 10
175.779930
 20
226.626855
 30
0.0
 11
175.779930
 21
248.626855
 31
0.0
  0
SPLINE
  5
183
100
AcDbEntity
  8
Ebene_1
 62
7
100
AcDbSpline
 70
8
 71
3
 72
8
 73
4
 74
0
 40
0
 40
0
 40
0
 40
0
 40
1
 40
1
 40
1
 40
1
 10
175.779930
 20
248.626855
 30
0.0
 10
175.779930
 20
248.681555
 30
0.0
 10
175.736930
 20
248.728415
 30
0.0
 10
175.678370
 20
248.728415
 30
0.0
  0
LINE
  5
184
100
AcDbEntity
  8
Ebene_1
 62
7
100
AcDbLine
 10
175.678370
 20
248.728415
 30
0.0
 11
171.279930
 21
248.728415
 31
0.0
  0
SPLINE
  5
185
100
AcDbEntity
  8
Ebene_1
 62
7
100
AcDbSpline
 70
8
 71
3
 72
8
 73
4
 74
0
 40
0
 40
0
 40
0
 40
0
 40
1
 40
1
 40
1
 40
1
 10
171.279930
 20
248.728415
 30
0.0
 10
171.334630
 20
248.728415
 30
0.0
 10
171.381490
 20
248.685415
 30
0.0
 10
171.381490
 20
248.626855
 30
0.0
  0
LINE
  5
186
100
AcDbEntity
  8
Ebene_1
 62
7
100
AcDbLine
 10
171.381490
 20
248.626855
 30
0.0
 11
171.381490
 21
263.025296
 31
0.0
  0
SPLINE
  5
187
100
AcDbEntity
  8
Ebene_1
 62
7
100
AcDbSpline
 70
8
 71
3
 72
8
 73
4
 74
0
 40
0
 40
0
 40
0
 40
0
 40
1
 40
1
 40
1
 40
1
 10
171.381490
 20
263.025296
 30
0.0
 10
171.381490
 20
263.079996
 30
0.0
 10
171.338490
 20
263.126856
 30
0.0
 10
171.279930
 20
263.126856
 30
0.0
  0
LINE
  5
188
100
AcDbEntity
  8
Ebene_1
 62
7
100
AcDbLine
 10
171.279930
 20
263.126856
 30
0.0
 11
171.279930
 21
263.126856
 31
0.0
  0
LINE
  5
189
100
AcDbEntity
  8
Ebene_1
 62
7
100
AcDbLine
 10
171.279930
 20
263.126856
 30
0.0
 11
153.779930
 21
263.126856
 31
0.0
  0
SPLINE
  5
18a
100
AcDbEntity
  8
Ebene_1
 62
7
100
AcDbSpline
 70
8
 71
3
 72
8
 73
4
 74
0
 40
0
 40
0
 40
0
 40
0
 40
1
 40
1
 40
1
 40
1
 10
153.779930
 20
263.126856
 30
0.0
 10
153.834630
 20
263.126856
 30
0.0
 10
153.881490
 20
263.083856
 30
0.0
 10
153.881490
 20
263.025296
 30
0.0
  0
LINE
  5
18b
100
AcDbEntity
  8
Ebene_1
 62
7
100
AcDbLine
 10
153.881490
 20
263.025296
 30
0.0
 11
153.881490
 21
267.423736
 31
0.0
  0
SPLINE
  5
18c
100
AcDbEntity
  8
Ebene_1
 62
7
100
AcDbSpline
 70
8
 71
3
 72
8
 73
4
 74
0
 40
0
 40
0
 40
0
 40
0
 40
1
 40
1
 40
1
 40
1
 10
153.881490
 20
267.423736
 30
0.0
 10
153.881490
 20
267.478436
 30
0.0
 10
153.838490
 20
267.525296
 30
0.0
 10
153.779930
 20
267.525296
 30
0.0
  0
LINE
  5
18d
100
AcDbEntity
  8
Ebene_1
 62
7
100
AcDbLine
 10
153.779930
 20
267.525296
 30
0.0
 11
131.779940
 21
267.525296
 31
0.0
  0
SPLINE
  5
18e
100
AcDbEntity
  8
Ebene_1
 62
7
100
AcDbSpline
 70
8
 71
3
 72
8
 73
4
 74
0
 40
0
 40
0
 40
0
 40
0
 40
1
 40
1
 40
1
 40
1
 10
131.779940
 20
267.525296
 30
0.0
 10
131.725240
 20
267.525296
 30
0.0
 10
131.678380
 20
267.482296
 30
0.0
 10
131.678380
 20
267.423736
 30
0.0
  0
LINE
  5
18f
100
AcDbEntity
  8
Ebene_1
 62
7
100
AcDbLine
 10
131.678380
 20
267.423736
 30
0.0
 11
131.678380
 21
263.025296
 31
0.0
  0
SPLINE
  5
190
100
AcDbEntity
  8
Ebene_1
 62
7
100
AcDbSpline
 70
8
 71
3
 72
8
 73
4
 74
0
 40
0
 40
0
 40
0
 40
0
 40
1
 40
1
 40
1
 40
1
 10
131.678380
 20
263.025296
 30
0.0
 10
131.678380
 20
263.079996
 30
0.0
 10
131.721380
 20
263.126856
 30
0.0
 10
131.779940
 20
263.126856
 30
0.0
  0
LINE
  5
191
100
AcDbEntity
  8
Ebene_1
 62
7
100
AcDbLine
 10
131.779940
 20
263.126856
 30
0.0
 11
114.279930
 21
263.126856
 31
0.0
  0
SPLINE
  5
192
100
AcDbEntity
  8
Ebene_1
 62
7
100
AcDbSpline
 70
8
 71
3
 72
8
 73
4
 74
0
 40
0
 40
0
 40
0
 40
0
 40
1
 40
1
 40
1
 40
1
 10
114.279930
 20
263.126856
 30
0.0
 10
114.225230
 20
263.126856
 30
0.0
 10
114.178370
 20
263.083856
 30
0.0
 10
114.178370
 20
263.025296
 30
0.0
  0
LINE
  5
193
100
AcDbEntity
  8
Ebene_1
 62
7
100
AcDbLine
 10
114.178370
 20
263.025296
 30
0.0
 11
114.178370
 21
263.025296
 31
0.0
  0
LINE
  5
194
100
AcDbEntity
  8
Ebene_1
 62
7
100
AcDbLine
 10
114.178370
 20
263.025296
 30
0.0
 11
114.178370
 21
248.626855
 31
0.0
  0
SPLINE
  5
195
100
AcDbEntity
  8
Ebene_1
 62
7
100
AcDbSpline
 70
8
 71
3
 72
8
 73
4
 74
0
 40
0
 40
0
 40
0
 40
0
 40
1
 40
1
 40
1
 40
1
 10
114.178370
 20
248.626855
 30
0.0
 10
114.178370
 20
248.681555
 30
0.0
 10
114.221370
 20
248.728415
 30
0.0
 10
114.279930
 20
248.728415
 30
0.0
  0
LINE
  5
196
100
AcDbEntity
  8
Ebene_1
 62
7
100
AcDbLine
 10
114.279930
 20
248.728415
 30
0.0
 11
109.881500
 21
248.728415
 31
0.0
  0
SPLINE
  5
197
100
AcDbEntity
  8
Ebene_1
 62
7
100
AcDbSpline
 70
8
 71
3
 72
8
 73
4
 74
0
 40
0
 40
0
 40
0
 40
0
 40
1
 40
1
 40
1
 40
1
 10
109.881500
 20
248.728415
 30
0.0
 10
109.826800
 20
248.728415
 30
0.0
 10
109.779930
 20
248.685415
 30
0.0
 10
109.779930
 20
248.626855
 30
0.0
  0
LINE
  5
198
100
AcDbEntity
  8
Ebene_1
 62
7
100
AcDbLine
 10
109.779930
 20
248.626855
 30
0.0
 11
109.779930
 21
226.626855
 31
0.0
  0
SPLINE
  5
199
100
AcDbEntity
  8
Ebene_1
 62
7
100
AcDbSpline
 70
8
 71
3
 72
8
 73
4
 74
0
 40
0
 40
0
 40
0
 40
0
 40
1
 40
1
 40
1
 40
1
 10
109.779930
 20
226.626855
 30
0.0
 10
109.779930
 20
226.572155
 30
0.0
 10
109.822930
 20
226.525295
 30
0.0
 10
109.881500
 20
226.525295
 30
0.0
  0
LINE
  5
19a
100
AcDbEntity
  8
Ebene_1
 62
7
100
AcDbLine
 10
109.881500
 20
226.525295
 30
0.0
 11
114.279930
 21
226.525295
 31
0.0
  0
SPLINE
  5
19b
100
AcDbEntity
  8
Ebene_1
 62
7
100
AcDbSpline
 70
8
 71
3
 72
8
 73
4
 74
0
 40
0
 40
0
 40
0
 40
0
 40
1
 40
1
 40
1
 40
1
 10
114.279930
 20
226.525295
 30
0.0
 10
114.225230
 20
226.525295
 30
0.0
 10
114.178370
 20
226.568295
 30
0.0
 10
114.178370
 20
226.626855
 30
0.0
  0
LINE
  5
19c
100
AcDbEntity
  8
Ebene_1
 62
7
100
AcDbLine
 10
114.178370
 20
226.626855
 30
0.0
 11
114.178370
 21
213.427635
 31
0.0
  0
SPLINE
  5
19d
100
AcDbEntity
  8
Ebene_1
 62
7
100
AcDbSpline
 70
8
 71
3
 72
8
 73
4
 74
0
 40
0
 40
0
 40
0
 40
0
 40
1
 40
1
 40
1
 40
1
 10
114.178370
 20
213.427635
 30
0.0
 10
114.178370
 20
213.482335
 30
0.0
 10
114.221370
 20
213.529195
 30
0.0
 10
114.279930
 20
213.529195
 30
0.0
  0
LINE
  5
19e
100
AcDbEntity
  8
Ebene_1
 62
7
100
AcDbLine
 10
114.279930
 20
213.529195
 30
0.0
 11
109.881500
 21
213.529195
 31
0.0
  0
SPLINE
  5
19f
100
AcDbEntity
  8
Ebene_1
 62
7
100
AcDbSpline
 70
8
 71
3
 72
8
 73
4
 74
0
 40
0
 40
0
 40
0
 40
0
 40
1
 40
1
 40
1
 40
1
 10
109.881500
 20
213.529195
 30
0.0
 10
109.826800
 20
213.529195
 30
0.0
 10
109.779930
 20
213.486195
 30
0.0
 10
109.779930
 20
213.427635
 30
0.0
  0
LINE
  5
1a0
100
AcDbEntity
  8
Ebene_1
 62
7
100
AcDbLine
 10
109.779930
 20
213.427635
 30
0.0
 11
109.779930
 21
191.427640
 31
0.0
  0
SPLINE
  5
1a1
100
AcDbEntity
  8
Ebene_1
 62
7
100
AcDbSpline
 70
8
 71
3
 72
8
 73
4
 74
0
 40
0
 40
0
 40
0
 40
0
 40
1
 40
1
 40
1
 40
1
 10
109.779930
 20
191.427640
 30
0.0
 10
109.779930
 20
191.372940
 30
0.0
 10
109.822930
 20
191.326080
 30
0.0
 10
109.881500
 20
191.326080
 30
0.0
  0
LINE
  5
1a2
100
AcDbEntity
  8
Ebene_1
 62
7
100
AcDbLine
 10
109.881500
 20
191.326080
 30
0.0
 11
114.279930
 21
191.326080
 31
0.0
  0
SPLINE
  5
1a3
100
AcDbEntity
  8
Ebene_1
 62
7
100
AcDbSpline
 70
8
 71
3
 72
8
 73
4
 74
0
 40
0
 40
0
 40
0
 40
0
 40
1
 40
1
 40
1
 40
1
 10
114.279930
 20
191.326080
 30
0.0
 10
114.225230
 20
191.326080
 30
0.0
 10
114.178370
 20
191.369080
 30
0.0
 10
114.178370
 20
191.427640
 30
0.0
  0
LINE
  5
1a4
100
AcDbEntity
  8
Ebene_1
 62
7
100
AcDbLine
 10
114.178370
 20
191.427640
 30
0.0
 11
114.178370
 21
177.029200
 31
0.0
  0
SPLINE
  5
1a5
100
AcDbEntity
  8
Ebene_1
 62
7
100
AcDbSpline
 70
8
 71
3
 72
8
 73
4
 74
0
 40
0
 40
0
 40
0
 40
0
 40
1
 40
1
 40
1
 40
1
 10
114.178370
 20
177.029200
 30
0.0
 10
114.178370
 20
176.974500
 30
0.0
 10
114.221370
 20
176.927640
 30
0.0
 10
114.279930
 20
176.927640
 30
0.0
  0
LINE
  5
1a6
100
AcDbEntity
  8
Ebene_1
 62
7
100
AcDbLine
 10
114.279930
 20
176.927640
 30
0.0
 11
114.279930
 21
176.927640
 31
0.0
  0
LINE
  5
1a7
100
AcDbEntity
  8
Ebene_1
 62
7
100
AcDbLine
 10
96.775960
 20
81.665260
 30
0.0
 11
111.174390
 21
81.665260
 31
0.0
  0
SPLINE
  5
1a8
100
AcDbEntity
  8
Ebene_1
 62
7
100
AcDbSpline
 70
8
 71
3
 72
8
 73
4
 74
0
 40
0
 40
0
 40
0
 40
0
 40
1
 40
1
 40
1
 40
1
 10
111.174390
 20
81.665260
 30
0.0
 10
111.229090
 20
81.665260
 30
0.0
 10
111.275960
 20
81.708260
 30
0.0
 10
111.275960
 20
81.766820
 30
0.0
  0
LINE
  5
1a9
100
AcDbEntity
  8
Ebene_1
 62
7
100
AcDbLine
 10
111.275960
 20
81.766820
 30
0.0
 11
111.275960
 21
86.165260
 31
0.0
  0
SPLINE
  5
1aa
100
AcDbEntity
  8
Ebene_1
 62
7
100
AcDbSpline
 70
8
 71
3
 72
8
 73
4
 74
0
 40
0
 40
0
 40
0
 40
0
 40
1
 40
1
 40
1
 40
1
 10
111.275960
 20
86.165260
 30
0.0
 10
111.275960
 20
86.110560
 30
0.0
 10
111.232960
 20
86.063700
 30
0.0
 10
111.174390
 20
86.063700
 30
0.0
  0
LINE
  5
1ab
100
AcDbEntity
  8
Ebene_1
 62
7
100
AcDbLine
 10
111.174390
 20
86.063700
 30
0.0
 11
133.174390
 21
86.063700
 31
0.0
  0
SPLINE
  5
1ac
100
AcDbEntity
  8
Ebene_1
 62
7
100
AcDbSpline
 70
8
 71
3
 72
8
 73
4
 74
0
 40
0
 40
0
 40
0
 40
0
 40
1
 40
1
 40
1
 40
1
 10
133.174390
 20
86.063700
 30
0.0
 10
133.119690
 20
86.063700
 30
0.0
 10
133.072830
 20
86.106700
 30
0.0
 10
133.072830
 20
86.165260
 30
0.0
  0
LINE
  5
1ad
100
AcDbEntity
  8
Ebene_1
 62
7
100
AcDbLine
 10
133.072830
 20
86.165260
 30
0.0
 11
133.072830
 21
81.766820
 31
0.0
  0
SPLINE
  5
1ae
100
AcDbEntity
  8
Ebene_1
 62
7
100
AcDbSpline
 70
8
 71
3
 72
8
 73
4
 74
0
 40
0
 40
0
 40
0
 40
0
 40
1
 40
1
 40
1
 40
1
 10
133.072830
 20
81.766820
 30
0.0
 10
133.072830
 20
81.712120
 30
0.0
 10
133.115830
 20
81.665260
 30
0.0
 10
133.174390
 20
81.665260
 30
0.0
  0
LINE
  5
1af
100
AcDbEntity
  8
Ebene_1
 62
7
100
AcDbLine
 10
133.174390
 20
81.665260
 30
0.0
 11
146.373610
 21
81.665260
 31
0.0
  0
SPLINE
  5
1b0
100
AcDbEntity
  8
Ebene_1
 62
7
100
AcDbSpline
 70
8
 71
3
 72
8
 73
4
 74
0
 40
0
 40
0
 40
0
 40
0
 40
1
 40
1
 40
1
 40
1
 10
146.373610
 20
81.665260
 30
0.0
 10
146.428310
 20
81.665260
 30
0.0
 10
146.475170
 20
81.708260
 30
0.0
 10
146.475170
 20
81.766820
 30
0.0
  0
LINE
  5
1b1
100
AcDbEntity
  8
Ebene_1
 62
7
100
AcDbLine
 10
146.475170
 20
81.766820
 30
0.0
 11
146.475170
 21
86.165260
 31
0.0
  0
SPLINE
  5
1b2
100
AcDbEntity
  8
Ebene_1
 62
7
100
AcDbSpline
 70
8
 71
3
 72
8
 73
4
 74
0
 40
0
 40
0
 40
0
 40
0
 40
1
 40
1
 40
1
 40
1
 10
146.475170
 20
86.165260
 30
0.0
 10
146.475170
 20
86.110560
 30
0.0
 10
146.432170
 20
86.063700
 30
0.0
 10
146.373610
 20
86.063700
 30
0.0
  0
LINE
  5
1b3
100
AcDbEntity
  8
Ebene_1
 62
7
100
AcDbLine
 10
146.373610
 20
86.063700
 30
0.0
 11
168.373610
 21
86.063700
 31
0.0
  0
SPLINE
  5
1b4
100
AcDbEntity
  8
Ebene_1
 62
7
100
AcDbSpline
 70
8
 71
3
 72
8
 73
4
 74
0
 40
0
 40
0
 40
0
 40
0
 40
1
 40
1
 40
1
 40
1
 10
168.373610
 20
86.063700
 30
0.0
 10
168.318910
 20
86.063700
 30
0.0
 10
168.272040
 20
86.106700
 30
0.0
 10
168.272040
 20
86.165260
 30
0.0
  0
LINE
  5
1b5
100
AcDbEntity
  8
Ebene_1
 62
7
100
AcDbLine
 10
168.272040
 20
86.165260
 30
0.0
 11
168.272040
 21
81.766820
 31
0.0
  0
SPLINE
  5
1b6
100
AcDbEntity
  8
Ebene_1
 62
7
100
AcDbSpline
 70
8
 71
3
 72
8
 73
4
 74
0
 40
0
 40
0
 40
0
 40
0
 40
1
 40
1
 40
1
 40
1
 10
168.272040
 20
81.766820
 30
0.0
 10
168.272040
 20
81.712120
 30
0.0
 10
168.315040
 20
81.665260
 30
0.0
 10
168.373610
 20
81.665260
 30
0.0
  0
LINE
  5
1b7
100
AcDbEntity
  8
Ebene_1
 62
7
100
AcDbLine
 10
168.373610
 20
81.665260
 30
0.0
 11
182.772040
 21
81.665260
 31
0.0
  0
SPLINE
  5
1b8
100
AcDbEntity
  8
Ebene_1
 62
7
100
AcDbSpline
 70
8
 71
3
 72
8
 73
4
 74
0
 40
0
 40
0
 40
0
 40
0
 40
1
 40
1
 40
1
 40
1
 10
182.772040
 20
81.665260
 30
0.0
 10
182.826740
 20
81.665260
 30
0.0
 10
182.873610
 20
81.708260
 30
0.0
 10
182.873610
 20
81.766820
 30
0.0
  0
LINE
  5
1b9
100
AcDbEntity
  8
Ebene_1
 62
7
100
AcDbLine
 10
182.873610
 20
81.766820
 30
0.0
 11
182.873610
 21
81.766820
 31
0.0
  0
LINE
  5
1ba
100
AcDbEntity
  8
Ebene_1
 62
7
100
AcDbLine
 10
182.873610
 20
81.766820
 30
0.0
 11
182.873610
 21
89.966040
 31
0.0
  0
SPLINE
  5
1bb
100
AcDbEntity
  8
Ebene_1
 62
7
100
AcDbSpline
 70
8
 71
3
 72
8
 73
4
 74
0
 40
0
 40
0
 40
0
 40
0
 40
1
 40
1
 40
1
 40
1
 10
182.873610
 20
89.966040
 30
0.0
 10
182.873610
 20
89.911340
 30
0.0
 10
182.830610
 20
89.864480
 30
0.0
 10
182.772040
 20
89.864480
 30
0.0
  0
LINE
  5
1bc
100
AcDbEntity
  8
Ebene_1
 62
7
100
AcDbLine
 10
182.772040
 20
89.864480
 30
0.0
 11
187.170480
 21
89.864480
 31
0.0
  0
SPLINE
  5
1bd
100
AcDbEntity
  8
Ebene_1
 62
7
100
AcDbSpline
 70
8
 71
3
 72
8
 73
4
 74
0
 40
0
 40
0
 40
0
 40
0
 40
1
 40
1
 40
1
 40
1
 10
187.170480
 20
89.864480
 30
0.0
 10
187.225180
 20
89.864480
 30
0.0
 10
187.272040
 20
89.907480
 30
0.0
 10
187.272040
 20
89.966040
 30
0.0
  0
LINE
  5
1be
100
AcDbEntity
  8
Ebene_1
 62
7
100
AcDbLine
 10
187.272040
 20
89.966040
 30
0.0
 11
187.272040
 21
111.966040
 31
0.0
  0
SPLINE
  5
1bf
100
AcDbEntity
  8
Ebene_1
 62
7
100
AcDbSpline
 70
8
 71
3
 72
8
 73
4
 74
0
 40
0
 40
0
 40
0
 40
0
 40
1
 40
1
 40
1
 40
1
 10
187.272040
 20
111.966040
 30
0.0
 10
187.272040
 20
112.020740
 30
0.0
 10
187.229040
 20
112.067600
 30
0.0
 10
187.170480
 20
112.067600
 30
0.0
  0
LINE
  5
1c0
100
AcDbEntity
  8
Ebene_1
 62
7
100
AcDbLine
 10
187.170480
 20
112.067600
 30
0.0
 11
182.772040
 21
112.067600
 31
0.0
  0
SPLINE
  5
1c1
100
AcDbEntity
  8
Ebene_1
 62
7
100
AcDbSpline
 70
8
 71
3
 72
8
 73
4
 74
0
 40
0
 40
0
 40
0
 40
0
 40
1
 40
1
 40
1
 40
1
 10
182.772040
 20
112.067600
 30
0.0
 10
182.826740
 20
112.067600
 30
0.0
 10
182.873610
 20
112.024600
 30
0.0
 10
182.873610
 20
111.966040
 30
0.0
  0
LINE
  5
1c2
100
AcDbEntity
  8
Ebene_1
 62
7
100
AcDbLine
 10
182.873610
 20
111.966040
 30
0.0
 11
182.873610
 21
120.165260
 31
0.0
  0
LINE
  5
1c3
100
AcDbEntity
  8
Ebene_1
 62
7
100
AcDbLine
 10
182.873610
 20
120.165260
 30
0.0
 11
182.873610
 21
124.563700
 31
0.0
  0
SPLINE
  5
1c4
100
AcDbEntity
  8
Ebene_1
 62
7
100
AcDbSpline
 70
8
 71
3
 72
8
 73
4
 74
0
 40
0
 40
0
 40
0
 40
0
 40
1
 40
1
 40
1
 40
1
 10
182.873610
 20
124.563700
 30
0.0
 10
182.873610
 20
124.618400
 30
0.0
 10
182.830610
 20
124.665260
 30
0.0
 10
182.772040
 20
124.665260
 30
0.0
  0
LINE
  5
1c5
100
AcDbEntity
  8
Ebene_1
 62
7
100
AcDbLine
 10
182.772040
 20
124.665260
 30
0.0
 11
182.772040
 21
124.665260
 31
0.0
  0
LINE
  5
1c6
100
AcDbEntity
  8
Ebene_1
 62
7
100
AcDbLine
 10
182.772040
 20
124.665260
 30
0.0
 11
168.373610
 21
124.665260
 31
0.0
  0
SPLINE
  5
1c7
100
AcDbEntity
  8
Ebene_1
 62
7
100
AcDbSpline
 70
8
 71
3
 72
8
 73
4
 74
0
 40
0
 40
0
 40
0
 40
0
 40
1
 40
1
 40
1
 40
1
 10
168.373610
 20
124.665260
 30
0.0
 10
168.318910
 20
124.665260
 30
0.0
 10
168.272040
 20
124.622260
 30
0.0
 10
168.272040
 20
124.563700
 30
0.0
  0
LINE
  5
1c8
100
AcDbEntity
  8
Ebene_1
 62
7
100
AcDbLine
 10
168.272040
 20
124.563700
 30
0.0
 11
168.272040
 21
120.165260
 31
0.0
  0
SPLINE
  5
1c9
100
AcDbEntity
  8
Ebene_1
 62
7
100
AcDbSpline
 70
8
 71
3
 72
8
 73
4
 74
0
 40
0
 40
0
 40
0
 40
0
 40
1
 40
1
 40
1
 40
1
 10
168.272040
 20
120.165260
 30
0.0
 10
168.272040
 20
120.219960
 30
0.0
 10
168.315040
 20
120.266820
 30
0.0
 10
168.373610
 20
120.266820
 30
0.0
  0
LINE
  5
1ca
100
AcDbEntity
  8
Ebene_1
 62
7
100
AcDbLine
 10
168.373610
 20
120.266820
 30
0.0
 11
146.373610
 21
120.266820
 31
0.0
  0
SPLINE
  5
1cb
100
AcDbEntity
  8
Ebene_1
 62
7
100
AcDbSpline
 70
8
 71
3
 72
8
 73
4
 74
0
 40
0
 40
0
 40
0
 40
0
 40
1
 40
1
 40
1
 40
1
 10
146.373610
 20
120.266820
 30
0.0
 10
146.428310
 20
120.266820
 30
0.0
 10
146.475170
 20
120.223820
 30
0.0
 10
146.475170
 20
120.165260
 30
0.0
  0
LINE
  5
1cc
100
AcDbEntity
  8
Ebene_1
 62
7
100
AcDbLine
 10
146.475170
 20
120.165260
 30
0.0
 11
146.475170
 21
124.563700
 31
0.0
  0
SPLINE
  5
1cd
100
AcDbEntity
  8
Ebene_1
 62
7
100
AcDbSpline
 70
8
 71
3
 72
8
 73
4
 74
0
 40
0
 40
0
 40
0
 40
0
 40
1
 40
1
 40
1
 40
1
 10
146.475170
 20
124.563700
 30
0.0
 10
146.475170
 20
124.618400
 30
0.0
 10
146.432170
 20
124.665260
 30
0.0
 10
146.373610
 20
124.665260
 30
0.0
  0
LINE
  5
1ce
100
AcDbEntity
  8
Ebene_1
 62
7
100
AcDbLine
 10
146.373610
 20
124.665260
 30
0.0
 11
133.174390
 21
124.665260
 31
0.0
  0
SPLINE
  5
1cf
100
AcDbEntity
  8
Ebene_1
 62
7
100
AcDbSpline
 70
8
 71
3
 72
8
 73
4
 74
0
 40
0
 40
0
 40
0
 40
0
 40
1
 40
1
 40
1
 40
1
 10
133.174390
 20
124.665260
 30
0.0
 10
133.119690
 20
124.665260
 30
0.0
 10
133.072830
 20
124.622260
 30
0.0
 10
133.072830
 20
124.563700
 30
0.0
  0
LINE
  5
1d0
100
AcDbEntity
  8
Ebene_1
 62
7
100
AcDbLine
 10
133.072830
 20
124.563700
 30
0.0
 11
133.072830
 21
120.165260
 31
0.0
  0
SPLINE
  5
1d1
100
AcDbEntity
  8
Ebene_1
 62
7
100
AcDbSpline
 70
8
 71
3
 72
8
 73
4
 74
0
 40
0
 40
0
 40
0
 40
0
 40
1
 40
1
 40
1
 40
1
 10
133.072830
 20
120.165260
 30
0.0
 10
133.072830
 20
120.219960
 30
0.0
 10
133.115830
 20
120.266820
 30
0.0
 10
133.174390
 20
120.266820
 30
0.0
  0
LINE
  5
1d2
100
AcDbEntity
  8
Ebene_1
 62
7
100
AcDbLine
 10
133.174390
 20
120.266820
 30
0.0
 11
111.174390
 21
120.266820
 31
0.0
  0
SPLINE
  5
1d3
100
AcDbEntity
  8
Ebene_1
 62
7
100
AcDbSpline
 70
8
 71
3
 72
8
 73
4
 74
0
 40
0
 40
0
 40
0
 40
0
 40
1
 40
1
 40
1
 40
1
 10
111.174390
 20
120.266820
 30
0.0
 10
111.229090
 20
120.266820
 30
0.0
 10
111.275960
 20
120.223820
 30
0.0
 10
111.275960
 20
120.165260
 30
0.0
  0
LINE
  5
1d4
100
AcDbEntity
  8
Ebene_1
 62
7
100
AcDbLine
 10
111.275960
 20
120.165260
 30
0.0
 11
111.275960
 21
124.563700
 31
0.0
  0
SPLINE
  5
1d5
100
AcDbEntity
  8
Ebene_1
 62
7
100
AcDbSpline
 70
8
 71
3
 72
8
 73
4
 74
0
 40
0
 40
0
 40
0
 40
0
 40
1
 40
1
 40
1
 40
1
 10
111.275960
 20
124.563700
 30
0.0
 10
111.275960
 20
124.618400
 30
0.0
 10
111.232960
 20
124.665260
 30
0.0
 10
111.174390
 20
124.665260
 30
0.0
  0
LINE
  5
1d6
100
AcDbEntity
  8
Ebene_1
 62
7
100
AcDbLine
 10
111.174390
 20
124.665260
 30
0.0
 11
96.775960
 21
124.665260
 31
0.0
  0
SPLINE
  5
1d7
100
AcDbEntity
  8
Ebene_1
 62
7
100
AcDbSpline
 70
8
 71
3
 72
8
 73
4
 74
0
 40
0
 40
0
 40
0
 40
0
 40
1
 40
1
 40
1
 40
1
 10
96.775960
 20
124.665260
 30
0.0
 10
96.721260
 20
124.665260
 30
0.0
 10
96.674390
 20
124.622260
 30
0.0
 10
96.674390
 20
124.563700
 30
0.0
  0
LINE
  5
1d8
100
AcDbEntity
  8
Ebene_1
 62
7
100
AcDbLine
 10
96.674390
 20
124.563700
 30
0.0
 11
96.674390
 21
120.165260
 31
0.0
  0
LINE
  5
1d9
100
AcDbEntity
  8
Ebene_1
 62
7
100
AcDbLine
 10
96.674390
 20
120.165260
 30
0.0
 11
96.674390
 21
111.966040
 31
0.0
  0
SPLINE
  5
1da
100
AcDbEntity
  8
Ebene_1
 62
7
100
AcDbSpline
 70
8
 71
3
 72
8
 73
4
 74
0
 40
0
 40
0
 40
0
 40
0
 40
1
 40
1
 40
1
 40
1
 10
96.674390
 20
111.966040
 30
0.0
 10
96.674390
 20
112.020740
 30
0.0
 10
96.717390
 20
112.067600
 30
0.0
 10
96.775960
 20
112.067600
 30
0.0
  0
LINE
  5
1db
100
AcDbEntity
  8
Ebene_1
 62
7
100
AcDbLine
 10
96.775960
 20
112.067600
 30
0.0
 11
92.377520
 21
112.067600
 31
0.0
  0
SPLINE
  5
1dc
100
AcDbEntity
  8
Ebene_1
 62
7
100
AcDbSpline
 70
8
 71
3
 72
8
 73
4
 74
0
 40
0
 40
0
 40
0
 40
0
 40
1
 40
1
 40
1
 40
1
 10
92.377520
 20
112.067600
 30
0.0
 10
92.322820
 20
112.067600
 30
0.0
 10
92.275950
 20
112.024600
 30
0.0
 10
92.275950
 20
111.966040
 30
0.0
  0
LINE
  5
1dd
100
AcDbEntity
  8
Ebene_1
 62
7
100
AcDbLine
 10
92.275950
 20
111.966040
 30
0.0
 11
92.275950
 21
89.966040
 31
0.0
  0
SPLINE
  5
1de
100
AcDbEntity
  8
Ebene_1
 62
7
100
AcDbSpline
 70
8
 71
3
 72
8
 73
4
 74
0
 40
0
 40
0
 40
0
 40
0
 40
1
 40
1
 40
1
 40
1
 10
92.275950
 20
89.966040
 30
0.0
 10
92.275950
 20
89.911340
 30
0.0
 10
92.318950
 20
89.864480
 30
0.0
 10
92.377520
 20
89.864480
 30
0.0
  0
LINE
  5
1df
100
AcDbEntity
  8
Ebene_1
 62
7
100
AcDbLine
 10
92.377520
 20
89.864480
 30
0.0
 11
96.775960
 21
89.864480
 31
0.0
  0
SPLINE
  5
1e0
100
AcDbEntity
  8
Ebene_1
 62
7
100
AcDbSpline
 70
8
 71
3
 72
8
 73
4
 74
0
 40
0
 40
0
 40
0
 40
0
 40
1
 40
1
 40
1
 40
1
 10
96.775960
 20
89.864480
 30
0.0
 10
96.721260
 20
89.864480
 30
0.0
 10
96.674390
 20
89.907480
 30
0.0
 10
96.674390
 20
89.966040
 30
0.0
  0
LINE
  5
1e1
100
AcDbEntity
  8
Ebene_1
 62
7
100
AcDbLine
 10
96.674390
 20
89.966040
 30
0.0
 11
96.674390
 21
81.766820
 31
0.0
  0
SPLINE
  5
1e2
100
AcDbEntity
  8
Ebene_1
 62
7
100
AcDbSpline
 70
8
 71
3
 72
8
 73
4
 74
0
 40
0
 40
0
 40
0
 40
0
 40
1
 40
1
 40
1
 40
1
 10
96.674390
 20
81.766820
 30
0.0
 10
96.674390
 20
81.712120
 30
0.0
 10
96.717390
 20
81.665260
 30
0.0
 10
96.775960
 20
81.665260
 30
0.0
  0
LINE
  5
1e3
100
AcDbEntity
  8
Ebene_1
 62
7
100
AcDbLine
 10
96.775960
 20
81.665260
 30
0.0
 11
96.775960
 21
81.665260
 31
0.0
  0
SPLINE
  5
1e4
100
AcDbEntity
  8
Ebene_1
 62
7
100
AcDbSpline
 70
8
 71
3
 72
8
 73
4
 74
0
 40
0
 40
0
 40
0
 40
0
 40
1
 40
1
 40
1
 40
1
 10
140.532010
 20
143.227530
 30
0.0
 10
140.532009
 20
142.181216
 30
0.0
 10
140.947655
 20
141.177756
 30
0.0
 10
141.687511
 20
140.437901
 30
0.0
  0
SPLINE
  5
1e5
100
AcDbEntity
  8
Ebene_1
 62
7
100
AcDbSpline
 70
8
 71
3
 72
8
 73
4
 74
0
 40
0
 40
0
 40
0
 40
0
 40
1
 40
1
 40
1
 40
1
 10
141.687511
 20
140.437901
 30
0.0
 10
142.427366
 20
139.698045
 30
0.0
 10
143.430826
 20
139.282399
 30
0.0
 10
144.477140
 20
139.282400
 30
0.0
  0
SPLINE
  5
1e6
100
AcDbEntity
  8
Ebene_1
 62
7
100
AcDbSpline
 70
8
 71
3
 72
8
 73
4
 74
0
 40
0
 40
0
 40
0
 40
0
 40
1
 40
1
 40
1
 40
1
 10
144.477140
 20
139.282400
 30
0.0
 10
146.655972
 20
139.282403
 30
0.0
 10
148.422262
 20
141.048698
 30
0.0
 10
148.422260
 20
143.227530
 30
0.0
  0
SPLINE
  5
1e7
100
AcDbEntity
  8
Ebene_1
 62
7
100
AcDbSpline
 70
8
 71
3
 72
8
 73
4
 74
0
 40
0
 40
0
 40
0
 40
0
 40
1
 40
1
 40
1
 40
1
 10
148.422260
 20
143.227530
 30
0.0
 10
148.422262
 20
145.406362
 30
0.0
 10
146.655972
 20
147.172657
 30
0.0
 10
144.477140
 20
147.172660
 30
0.0
  0
SPLINE
  5
1e8
100
AcDbEntity
  8
Ebene_1
 62
7
100
AcDbSpline
 70
8
 71
3
 72
8
 73
4
 74
0
 40
0
 40
0
 40
0
 40
0
 40
1
 40
1
 40
1
 40
1
 10
144.477140
 20
147.172660
 30
0.0
 10
143.430826
 20
147.172661
 30
0.0
 10
142.427366
 20
146.757015
 30
0.0
 10
141.687511
 20
146.017159
 30
0.0
  0
SPLINE
  5
1e9
100
AcDbEntity
  8
Ebene_1
 62
7
100
AcDbSpline
 70
8
 71
3
 72
8
 73
4
 74
0
 40
0
 40
0
 40
0
 40
0
 40
1
 40
1
 40
1
 40
1
 10
141.687511
 20
146.017159
 30
0.0
 10
140.947655
 20
145.277304
 30
0.0
 10
140.532009
 20
144.273844
 30
0.0
 10
140.532010
 20
143.227530
 30
0.0
  0
LINE
  5
1ea
100
AcDbEntity
  8
Ebene_1
 62
7
100
AcDbLine
 10
140.532010
 20
143.227530
 30
0.0
 11
140.532010
 21
143.227530
 31
0.0
  0
LINE
  5
1eb
100
AcDbEntity
  8
Ebene_1
 62
7
100
AcDbLine
 10
112.303590
 20
147.267140
 30
0.0
 11
104.299420
 21
147.267140
 31
0.0
  0
SPLINE
  5
1ec
100
AcDbEntity
  8
Ebene_1
 62
7
100
AcDbSpline
 70
8
 71
3
 72
8
 73
4
 74
0
 40
0
 40
0
 40
0
 40
0
 40
1
 40
1
 40
1
 40
1
 10
104.299420
 20
147.267140
 30
0.0
 10
102.943710
 20
147.267140
 30
0.0
 10
101.852290
 20
146.175720
 30
0.0
 10
101.852290
 20
144.820010
 30
0.0
  0
LINE
  5
1ed
100
AcDbEntity
  8
Ebene_1
 62
7
100
AcDbLine
 10
101.852290
 20
144.820010
 30
0.0
 11
101.852290
 21
141.710100
 31
0.0
  0
SPLINE
  5
1ee
100
AcDbEntity
  8
Ebene_1
 62
7
100
AcDbSpline
 70
8
 71
3
 72
8
 73
4
 74
0
 40
0
 40
0
 40
0
 40
0
 40
1
 40
1
 40
1
 40
1
 10
101.852290
 20
141.710100
 30
0.0
 10
101.852290
 20
140.354390
 30
0.0
 10
102.943710
 20
139.262970
 30
0.0
 10
104.299420
 20
139.262970
 30
0.0
  0
LINE
  5
1ef
100
AcDbEntity
  8
Ebene_1
 62
7
100
AcDbLine
 10
104.299420
 20
139.262970
 30
0.0
 11
112.303590
 21
139.262970
 31
0.0
  0
SPLINE
  5
1f0
100
AcDbEntity
  8
Ebene_1
 62
7
100
AcDbSpline
 70
8
 71
3
 72
8
 73
4
 74
0
 40
0
 40
0
 40
0
 40
0
 40
1
 40
1
 40
1
 40
1
 10
112.303590
 20
139.262970
 30
0.0
 10
113.659310
 20
139.262970
 30
0.0
 10
114.750730
 20
140.354390
 30
0.0
 10
114.750730
 20
141.710100
 30
0.0
  0
LINE
  5
1f1
100
AcDbEntity
  8
Ebene_1
 62
7
100
AcDbLine
 10
114.750730
 20
141.710100
 30
0.0
 11
114.750730
 21
144.820010
 31
0.0
  0
SPLINE
  5
1f2
100
AcDbEntity
  8
Ebene_1
 62
7
100
AcDbSpline
 70
8
 71
3
 72
8
 73
4
 74
0
 40
0
 40
0
 40
0
 40
0
 40
1
 40
1
 40
1
 40
1
 10
114.750730
 20
144.820010
 30
0.0
 10
114.750730
 20
146.175720
 30
0.0
 10
113.659310
 20
147.267140
 30
0.0
 10
112.303590
 20
147.267140
 30
0.0
  0
LINE
  5
1f3
100
AcDbEntity
  8
Ebene_1
 62
7
100
AcDbLine
 10
112.303590
 20
147.267140
 30
0.0
 11
112.303590
 21
147.267140
 31
0.0
  0
LINE
  5
1f4
100
AcDbEntity
  8
Ebene_1
 62
7
100
AcDbLine
 10
96.775960
 20
126.864550
 30
0.0
 11
111.174390
 21
126.864550
 31
0.0
  0
SPLINE
  5
1f5
100
AcDbEntity
  8
Ebene_1
 62
7
100
AcDbSpline
 70
8
 71
3
 72
8
 73
4
 74
0
 40
0
 40
0
 40
0
 40
0
 40
1
 40
1
 40
1
 40
1
 10
111.174390
 20
126.864550
 30
0.0
 10
111.229090
 20
126.864550
 30
0.0
 10
111.275960
 20
126.907550
 30
0.0
 10
111.275960
 20
126.966110
 30
0.0
  0
LINE
  5
1f6
100
AcDbEntity
  8
Ebene_1
 62
7
100
AcDbLine
 10
111.275960
 20
126.966110
 30
0.0
 11
111.275960
 21
131.364550
 31
0.0
  0
SPLINE
  5
1f7
100
AcDbEntity
  8
Ebene_1
 62
7
100
AcDbSpline
 70
8
 71
3
 72
8
 73
4
 74
0
 40
0
 40
0
 40
0
 40
0
 40
1
 40
1
 40
1
 40
1
 10
111.275960
 20
131.364550
 30
0.0
 10
111.275960
 20
131.309850
 30
0.0
 10
111.232960
 20
131.262990
 30
0.0
 10
111.174390
 20
131.262990
 30
0.0
  0
LINE
  5
1f8
100
AcDbEntity
  8
Ebene_1
 62
7
100
AcDbLine
 10
111.174390
 20
131.262990
 30
0.0
 11
133.174390
 21
131.262990
 31
0.0
  0
SPLINE
  5
1f9
100
AcDbEntity
  8
Ebene_1
 62
7
100
AcDbSpline
 70
8
 71
3
 72
8
 73
4
 74
0
 40
0
 40
0
 40
0
 40
0
 40
1
 40
1
 40
1
 40
1
 10
133.174390
 20
131.262990
 30
0.0
 10
133.119690
 20
131.262990
 30
0.0
 10
133.072830
 20
131.305990
 30
0.0
 10
133.072830
 20
131.364550
 30
0.0
  0
LINE
  5
1fa
100
AcDbEntity
  8
Ebene_1
 62
7
100
AcDbLine
 10
133.072830
 20
131.364550
 30
0.0
 11
133.072830
 21
126.966110
 31
0.0
  0
SPLINE
  5
1fb
100
AcDbEntity
  8
Ebene_1
 62
7
100
AcDbSpline
 70
8
 71
3
 72
8
 73
4
 74
0
 40
0
 40
0
 40
0
 40
0
 40
1
 40
1
 40
1
 40
1
 10
133.072830
 20
126.966110
 30
0.0
 10
133.072830
 20
126.911410
 30
0.0
 10
133.115830
 20
126.864550
 30
0.0
 10
133.174390
 20
126.864550
 30
0.0
  0
LINE
  5
1fc
100
AcDbEntity
  8
Ebene_1
 62
7
100
AcDbLine
 10
133.174390
 20
126.864550
 30
0.0
 11
146.373610
 21
126.864550
 31
0.0
  0
SPLINE
  5
1fd
100
AcDbEntity
  8
Ebene_1
 62
7
100
AcDbSpline
 70
8
 71
3
 72
8
 73
4
 74
0
 40
0
 40
0
 40
0
 40
0
 40
1
 40
1
 40
1
 40
1
 10
146.373610
 20
126.864550
 30
0.0
 10
146.428310
 20
126.864550
 30
0.0
 10
146.475170
 20
126.907550
 30
0.0
 10
146.475170
 20
126.966110
 30
0.0
  0
LINE
  5
1fe
100
AcDbEntity
  8
Ebene_1
 62
7
100
AcDbLine
 10
146.475170
 20
126.966110
 30
0.0
 11
146.475170
 21
131.364550
 31
0.0
  0
SPLINE
  5
1ff
100
AcDbEntity
  8
Ebene_1
 62
7
100
AcDbSpline
 70
8
 71
3
 72
8
 73
4
 74
0
 40
0
 40
0
 40
0
 40
0
 40
1
 40
1
 40
1
 40
1
 10
146.475170
 20
131.364550
 30
0.0
 10
146.475170
 20
131.309850
 30
0.0
 10
146.432170
 20
131.262990
 30
0.0
 10
146.373610
 20
131.262990
 30
0.0
  0
LINE
  5
200
100
AcDbEntity
  8
Ebene_1
 62
7
100
AcDbLine
 10
146.373610
 20
131.262990
 30
0.0
 11
168.373610
 21
131.262990
 31
0.0
  0
SPLINE
  5
201
100
AcDbEntity
  8
Ebene_1
 62
7
100
AcDbSpline
 70
8
 71
3
 72
8
 73
4
 74
0
 40
0
 40
0
 40
0
 40
0
 40
1
 40
1
 40
1
 40
1
 10
168.373610
 20
131.262990
 30
0.0
 10
168.318910
 20
131.262990
 30
0.0
 10
168.272040
 20
131.305990
 30
0.0
 10
168.272040
 20
131.364550
 30
0.0
  0
LINE
  5
202
100
AcDbEntity
  8
Ebene_1
 62
7
100
AcDbLine
 10
168.272040
 20
131.364550
 30
0.0
 11
168.272040
 21
126.966110
 31
0.0
  0
SPLINE
  5
203
100
AcDbEntity
  8
Ebene_1
 62
7
100
AcDbSpline
 70
8
 71
3
 72
8
 73
4
 74
0
 40
0
 40
0
 40
0
 40
0
 40
1
 40
1
 40
1
 40
1
 10
168.272040
 20
126.966110
 30
0.0
 10
168.272040
 20
126.911410
 30
0.0
 10
168.315040
 20
126.864550
 30
0.0
 10
168.373610
 20
126.864550
 30
0.0
  0
LINE
  5
204
100
AcDbEntity
  8
Ebene_1
 62
7
100
AcDbLine
 10
168.373610
 20
126.864550
 30
0.0
 11
182.772040
 21
126.864550
 31
0.0
  0
SPLINE
  5
205
100
AcDbEntity
  8
Ebene_1
 62
7
100
AcDbSpline
 70
8
 71
3
 72
8
 73
4
 74
0
 40
0
 40
0
 40
0
 40
0
 40
1
 40
1
 40
1
 40
1
 10
182.772040
 20
126.864550
 30
0.0
 10
182.826740
 20
126.864550
 30
0.0
 10
182.873610
 20
126.907550
 30
0.0
 10
182.873610
 20
126.966110
 30
0.0
  0
LINE
  5
206
100
AcDbEntity
  8
Ebene_1
 62
7
100
AcDbLine
 10
182.873610
 20
126.966110
 30
0.0
 11
182.873610
 21
126.966110
 31
0.0
  0
LINE
  5
207
100
AcDbEntity
  8
Ebene_1
 62
7
100
AcDbLine
 10
182.873610
 20
126.966110
 30
0.0
 11
182.873610
 21
135.165330
 31
0.0
  0
SPLINE
  5
208
100
AcDbEntity
  8
Ebene_1
 62
7
100
AcDbSpline
 70
8
 71
3
 72
8
 73
4
 74
0
 40
0
 40
0
 40
0
 40
0
 40
1
 40
1
 40
1
 40
1
 10
182.873610
 20
135.165330
 30
0.0
 10
182.873610
 20
135.110630
 30
0.0
 10
182.830610
 20
135.063770
 30
0.0
 10
182.772040
 20
135.063770
 30
0.0
  0
LINE
  5
209
100
AcDbEntity
  8
Ebene_1
 62
7
100
AcDbLine
 10
182.772040
 20
135.063770
 30
0.0
 11
187.170480
 21
135.063770
 31
0.0
  0
SPLINE
  5
20a
100
AcDbEntity
  8
Ebene_1
 62
7
100
AcDbSpline
 70
8
 71
3
 72
8
 73
4
 74
0
 40
0
 40
0
 40
0
 40
0
 40
1
 40
1
 40
1
 40
1
 10
187.170480
 20
135.063770
 30
0.0
 10
187.225180
 20
135.063770
 30
0.0
 10
187.272040
 20
135.106770
 30
0.0
 10
187.272040
 20
135.165330
 30
0.0
  0
LINE
  5
20b
100
AcDbEntity
  8
Ebene_1
 62
7
100
AcDbLine
 10
187.272040
 20
135.165330
 30
0.0
 11
187.272040
 21
157.165330
 31
0.0
  0
SPLINE
  5
20c
100
AcDbEntity
  8
Ebene_1
 62
7
100
AcDbSpline
 70
8
 71
3
 72
8
 73
4
 74
0
 40
0
 40
0
 40
0
 40
0
 40
1
 40
1
 40
1
 40
1
 10
187.272040
 20
157.165330
 30
0.0
 10
187.272040
 20
157.220030
 30
0.0
 10
187.229040
 20
157.266890
 30
0.0
 10
187.170480
 20
157.266890
 30
0.0
  0
LINE
  5
20d
100
AcDbEntity
  8
Ebene_1
 62
7
100
AcDbLine
 10
187.170480
 20
157.266890
 30
0.0
 11
182.772040
 21
157.266890
 31
0.0
  0
SPLINE
  5
20e
100
AcDbEntity
  8
Ebene_1
 62
7
100
AcDbSpline
 70
8
 71
3
 72
8
 73
4
 74
0
 40
0
 40
0
 40
0
 40
0
 40
1
 40
1
 40
1
 40
1
 10
182.772040
 20
157.266890
 30
0.0
 10
182.826740
 20
157.266890
 30
0.0
 10
182.873610
 20
157.223890
 30
0.0
 10
182.873610
 20
157.165330
 30
0.0
  0
LINE
  5
20f
100
AcDbEntity
  8
Ebene_1
 62
7
100
AcDbLine
 10
182.873610
 20
157.165330
 30
0.0
 11
182.873610
 21
165.364550
 31
0.0
  0
LINE
  5
210
100
AcDbEntity
  8
Ebene_1
 62
7
100
AcDbLine
 10
182.873610
 20
165.364550
 30
0.0
 11
182.873610
 21
169.762990
 31
0.0
  0
SPLINE
  5
211
100
AcDbEntity
  8
Ebene_1
 62
7
100
AcDbSpline
 70
8
 71
3
 72
8
 73
4
 74
0
 40
0
 40
0
 40
0
 40
0
 40
1
 40
1
 40
1
 40
1
 10
182.873610
 20
169.762990
 30
0.0
 10
182.873610
 20
169.817690
 30
0.0
 10
182.830610
 20
169.864550
 30
0.0
 10
182.772040
 20
169.864550
 30
0.0
  0
LINE
  5
212
100
AcDbEntity
  8
Ebene_1
 62
7
100
AcDbLine
 10
182.772040
 20
169.864550
 30
0.0
 11
182.772040
 21
169.864550
 31
0.0
  0
LINE
  5
213
100
AcDbEntity
  8
Ebene_1
 62
7
100
AcDbLine
 10
182.772040
 20
169.864550
 30
0.0
 11
168.373610
 21
169.864550
 31
0.0
  0
SPLINE
  5
214
100
AcDbEntity
  8
Ebene_1
 62
7
100
AcDbSpline
 70
8
 71
3
 72
8
 73
4
 74
0
 40
0
 40
0
 40
0
 40
0
 40
1
 40
1
 40
1
 40
1
 10
168.373610
 20
169.864550
 30
0.0
 10
168.318910
 20
169.864550
 30
0.0
 10
168.272040
 20
169.821550
 30
0.0
 10
168.272040
 20
169.762990
 30
0.0
  0
LINE
  5
215
100
AcDbEntity
  8
Ebene_1
 62
7
100
AcDbLine
 10
168.272040
 20
169.762990
 30
0.0
 11
168.272040
 21
165.364550
 31
0.0
  0
SPLINE
  5
216
100
AcDbEntity
  8
Ebene_1
 62
7
100
AcDbSpline
 70
8
 71
3
 72
8
 73
4
 74
0
 40
0
 40
0
 40
0
 40
0
 40
1
 40
1
 40
1
 40
1
 10
168.272040
 20
165.364550
 30
0.0
 10
168.272040
 20
165.419250
 30
0.0
 10
168.315040
 20
165.466110
 30
0.0
 10
168.373610
 20
165.466110
 30
0.0
  0
LINE
  5
217
100
AcDbEntity
  8
Ebene_1
 62
7
100
AcDbLine
 10
168.373610
 20
165.466110
 30
0.0
 11
146.373610
 21
165.466110
 31
0.0
  0
SPLINE
  5
218
100
AcDbEntity
  8
Ebene_1
 62
7
100
AcDbSpline
 70
8
 71
3
 72
8
 73
4
 74
0
 40
0
 40
0
 40
0
 40
0
 40
1
 40
1
 40
1
 40
1
 10
146.373610
 20
165.466110
 30
0.0
 10
146.428310
 20
165.466110
 30
0.0
 10
146.475170
 20
165.423110
 30
0.0
 10
146.475170
 20
165.364550
 30
0.0
  0
LINE
  5
219
100
AcDbEntity
  8
Ebene_1
 62
7
100
AcDbLine
 10
146.475170
 20
165.364550
 30
0.0
 11
146.475170
 21
169.762990
 31
0.0
  0
SPLINE
  5
21a
100
AcDbEntity
  8
Ebene_1
 62
7
100
AcDbSpline
 70
8
 71
3
 72
8
 73
4
 74
0
 40
0
 40
0
 40
0
 40
0
 40
1
 40
1
 40
1
 40
1
 10
146.475170
 20
169.762990
 30
0.0
 10
146.475170
 20
169.817690
 30
0.0
 10
146.432170
 20
169.864550
 30
0.0
 10
146.373610
 20
169.864550
 30
0.0
  0
LINE
  5
21b
100
AcDbEntity
  8
Ebene_1
 62
7
100
AcDbLine
 10
146.373610
 20
169.864550
 30
0.0
 11
133.174390
 21
169.864550
 31
0.0
  0
SPLINE
  5
21c
100
AcDbEntity
  8
Ebene_1
 62
7
100
AcDbSpline
 70
8
 71
3
 72
8
 73
4
 74
0
 40
0
 40
0
 40
0
 40
0
 40
1
 40
1
 40
1
 40
1
 10
133.174390
 20
169.864550
 30
0.0
 10
133.119690
 20
169.864550
 30
0.0
 10
133.072830
 20
169.821550
 30
0.0
 10
133.072830
 20
169.762990
 30
0.0
  0
LINE
  5
21d
100
AcDbEntity
  8
Ebene_1
 62
7
100
AcDbLine
 10
133.072830
 20
169.762990
 30
0.0
 11
133.072830
 21
165.364550
 31
0.0
  0
SPLINE
  5
21e
100
AcDbEntity
  8
Ebene_1
 62
7
100
AcDbSpline
 70
8
 71
3
 72
8
 73
4
 74
0
 40
0
 40
0
 40
0
 40
0
 40
1
 40
1
 40
1
 40
1
 10
133.072830
 20
165.364550
 30
0.0
 10
133.072830
 20
165.419250
 30
0.0
 10
133.115830
 20
165.466110
 30
0.0
 10
133.174390
 20
165.466110
 30
0.0
  0
LINE
  5
21f
100
AcDbEntity
  8
Ebene_1
 62
7
100
AcDbLine
 10
133.174390
 20
165.466110
 30
0.0
 11
111.174390
 21
165.466110
 31
0.0
  0
SPLINE
  5
220
100
AcDbEntity
  8
Ebene_1
 62
7
100
AcDbSpline
 70
8
 71
3
 72
8
 73
4
 74
0
 40
0
 40
0
 40
0
 40
0
 40
1
 40
1
 40
1
 40
1
 10
111.174390
 20
165.466110
 30
0.0
 10
111.229090
 20
165.466110
 30
0.0
 10
111.275960
 20
165.423110
 30
0.0
 10
111.275960
 20
165.364550
 30
0.0
  0
LINE
  5
221
100
AcDbEntity
  8
Ebene_1
 62
7
100
AcDbLine
 10
111.275960
 20
165.364550
 30
0.0
 11
111.275960
 21
169.762990
 31
0.0
  0
SPLINE
  5
222
100
AcDbEntity
  8
Ebene_1
 62
7
100
AcDbSpline
 70
8
 71
3
 72
8
 73
4
 74
0
 40
0
 40
0
 40
0
 40
0
 40
1
 40
1
 40
1
 40
1
 10
111.275960
 20
169.762990
 30
0.0
 10
111.275960
 20
169.817690
 30
0.0
 10
111.232960
 20
169.864550
 30
0.0
 10
111.174390
 20
169.864550
 30
0.0
  0
LINE
  5
223
100
AcDbEntity
  8
Ebene_1
 62
7
100
AcDbLine
 10
111.174390
 20
169.864550
 30
0.0
 11
96.775960
 21
169.864550
 31
0.0
  0
SPLINE
  5
224
100
AcDbEntity
  8
Ebene_1
 62
7
100
AcDbSpline
 70
8
 71
3
 72
8
 73
4
 74
0
 40
0
 40
0
 40
0
 40
0
 40
1
 40
1
 40
1
 40
1
 10
96.775960
 20
169.864550
 30
0.0
 10
96.721260
 20
169.864550
 30
0.0
 10
96.674390
 20
169.821550
 30
0.0
 10
96.674390
 20
169.762990
 30
0.0
  0
LINE
  5
225
100
AcDbEntity
  8
Ebene_1
 62
7
100
AcDbLine
 10
96.674390
 20
169.762990
 30
0.0
 11
96.674390
 21
165.364550
 31
0.0
  0
LINE
  5
226
100
AcDbEntity
  8
Ebene_1
 62
7
100
AcDbLine
 10
96.674390
 20
165.364550
 30
0.0
 11
96.674390
 21
157.165330
 31
0.0
  0
SPLINE
  5
227
100
AcDbEntity
  8
Ebene_1
 62
7
100
AcDbSpline
 70
8
 71
3
 72
8
 73
4
 74
0
 40
0
 40
0
 40
0
 40
0
 40
1
 40
1
 40
1
 40
1
 10
96.674390
 20
157.165330
 30
0.0
 10
96.674390
 20
157.220030
 30
0.0
 10
96.717390
 20
157.266890
 30
0.0
 10
96.775960
 20
157.266890
 30
0.0
  0
LINE
  5
228
100
AcDbEntity
  8
Ebene_1
 62
7
100
AcDbLine
 10
96.775960
 20
157.266890
 30
0.0
 11
92.377520
 21
157.266890
 31
0.0
  0
SPLINE
  5
229
100
AcDbEntity
  8
Ebene_1
 62
7
100
AcDbSpline
 70
8
 71
3
 72
8
 73
4
 74
0
 40
0
 40
0
 40
0
 40
0
 40
1
 40
1
 40
1
 40
1
 10
92.377520
 20
157.266890
 30
0.0
 10
92.322820
 20
157.266890
 30
0.0
 10
92.275950
 20
157.223890
 30
0.0
 10
92.275950
 20
157.165330
 30
0.0
  0
LINE
  5
22a
100
AcDbEntity
  8
Ebene_1
 62
7
100
AcDbLine
 10
92.275950
 20
157.165330
 30
0.0
 11
92.275950
 21
135.165330
 31
0.0
  0
SPLINE
  5
22b
100
AcDbEntity
  8
Ebene_1
 62
7
100
AcDbSpline
 70
8
 71
3
 72
8
 73
4
 74
0
 40
0
 40
0
 40
0
 40
0
 40
1
 40
1
 40
1
 40
1
 10
92.275950
 20
135.165330
 30
0.0
 10
92.275950
 20
135.110630
 30
0.0
 10
92.318950
 20
135.063770
 30
0.0
 10
92.377520
 20
135.063770
 30
0.0
  0
LINE
  5
22c
100
AcDbEntity
  8
Ebene_1
 62
7
100
AcDbLine
 10
92.377520
 20
135.063770
 30
0.0
 11
96.775960
 21
135.063770
 31
0.0
  0
SPLINE
  5
22d
100
AcDbEntity
  8
Ebene_1
 62
7
100
AcDbSpline
 70
8
 71
3
 72
8
 73
4
 74
0
 40
0
 40
0
 40
0
 40
0
 40
1
 40
1
 40
1
 40
1
 10
96.775960
 20
135.063770
 30
0.0
 10
96.721260
 20
135.063770
 30
0.0
 10
96.674390
 20
135.106770
 30
0.0
 10
96.674390
 20
135.165330
 30
0.0
  0
LINE
  5
22e
100
AcDbEntity
  8
Ebene_1
 62
7
100
AcDbLine
 10
96.674390
 20
135.165330
 30
0.0
 11
96.674390
 21
126.966110
 31
0.0
  0
SPLINE
  5
22f
100
AcDbEntity
  8
Ebene_1
 62
7
100
AcDbSpline
 70
8
 71
3
 72
8
 73
4
 74
0
 40
0
 40
0
 40
0
 40
0
 40
1
 40
1
 40
1
 40
1
 10
96.674390
 20
126.966110
 30
0.0
 10
96.674390
 20
126.911410
 30
0.0
 10
96.717390
 20
126.864550
 30
0.0
 10
96.775960
 20
126.864550
 30
0.0
  0
LINE
  5
230
100
AcDbEntity
  8
Ebene_1
 62
7
100
AcDbLine
 10
96.775960
 20
126.864550
 30
0.0
 11
96.775960
 21
126.864550
 31
0.0
  0
SPLINE
  5
231
100
AcDbEntity
  8
Ebene_1
 62
7
100
AcDbSpline
 70
8
 71
3
 72
8
 73
4
 74
0
 40
0
 40
0
 40
0
 40
0
 40
1
 40
1
 40
1
 40
1
 10
155.102310
 20
252.326027
 30
0.0
 10
150.593300
 20
249.077586
 30
0.0
 10
146.666650
 20
245.392786
 30
0.0
 10
144.194200
 20
240.496506
 30
0.0
  0
LINE
  5
232
100
AcDbEntity
  8
Ebene_1
 62
7
100
AcDbLine
 10
144.194200
 20
240.496506
 30
0.0
 11
145.939990
 21
247.429076
 31
0.0
  0
SPLINE
  5
233
100
AcDbEntity
  8
Ebene_1
 62
7
100
AcDbSpline
 70
8
 71
3
 72
8
 73
4
 74
0
 40
0
 40
0
 40
0
 40
0
 40
1
 40
1
 40
1
 40
1
 10
145.939990
 20
247.429076
 30
0.0
 10
143.326700
 20
242.772656
 30
0.0
 10
141.652580
 20
238.075106
 30
0.0
 10
141.080370
 20
233.366936
 30
0.0
  0
LINE
  5
234
100
AcDbEntity
  8
Ebene_1
 62
7
100
AcDbLine
 10
141.080370
 20
233.366936
 30
0.0
 11
137.456450
 21
235.600246
 31
0.0
  0
LINE
  5
235
100
AcDbEntity
  8
Ebene_1
 62
7
100
AcDbLine
 10
137.456450
 20
235.600246
 30
0.0
 11
136.826230
 21
235.114906
 31
0.0
  0
SPLINE
  5
236
100
AcDbEntity
  8
Ebene_1
 62
7
100
AcDbSpline
 70
8
 71
3
 72
8
 73
4
 74
0
 40
0
 40
0
 40
0
 40
0
 40
1
 40
1
 40
1
 40
1
 10
136.826230
 20
235.114906
 30
0.0
 10
139.977750
 20
229.442987
 30
0.0
 10
138.329310
 20
226.437617
 30
0.0
 10
136.777630
 20
225.370896
 30
0.0
  0
SPLINE
  5
237
100
AcDbEntity
  8
Ebene_1
 62
7
100
AcDbSpline
 70
8
 71
3
 72
8
 73
4
 74
0
 40
0
 40
0
 40
0
 40
0
 40
1
 40
1
 40
1
 40
1
 10
136.777630
 20
225.370896
 30
0.0
 10
133.626090
 20
223.189171
 30
0.0
 10
129.020010
 20
220.474141
 30
0.0
 10
126.741720
 20
218.098590
 30
0.0
  0
SPLINE
  5
238
100
AcDbEntity
  8
Ebene_1
 62
7
100
AcDbSpline
 70
8
 71
3
 72
8
 73
4
 74
0
 40
0
 40
0
 40
0
 40
0
 40
1
 40
1
 40
1
 40
1
 10
126.741720
 20
218.098590
 30
0.0
 10
122.329640
 20
213.589953
 30
0.0
 10
121.069200
 20
209.274810
 30
0.0
 10
121.457200
 20
203.602561
 30
0.0
  0
SPLINE
  5
239
100
AcDbEntity
  8
Ebene_1
 62
7
100
AcDbSpline
 70
8
 71
3
 72
8
 73
4
 74
0
 40
0
 40
0
 40
0
 40
0
 40
1
 40
1
 40
1
 40
1
 10
121.457200
 20
203.602561
 30
0.0
 10
121.893470
 20
196.330060
 30
0.0
 10
127.177990
 20
190.270150
 30
0.0
 10
134.256000
 20
187.894610
 30
0.0
  0
SPLINE
  5
23a
100
AcDbEntity
  8
Ebene_1
 62
7
100
AcDbSpline
 70
8
 71
3
 72
8
 73
4
 74
0
 40
0
 40
0
 40
0
 40
0
 40
1
 40
1
 40
1
 40
1
 10
134.256000
 20
187.894610
 30
0.0
 10
137.358540
 20
186.876160
 30
0.0
 10
140.219170
 20
186.731200
 30
0.0
 10
143.418990
 20
186.731200
 30
0.0
  0
SPLINE
  5
23b
100
AcDbEntity
  8
Ebene_1
 62
7
100
AcDbSpline
 70
8
 71
3
 72
8
 73
4
 74
0
 40
0
 40
0
 40
0
 40
0
 40
1
 40
1
 40
1
 40
1
 10
143.418990
 20
186.731200
 30
0.0
 10
148.558090
 20
186.731200
 30
0.0
 10
153.842490
 20
188.088610
 30
0.0
 10
157.672400
 20
191.288430
 30
0.0
  0
SPLINE
  5
23c
100
AcDbEntity
  8
Ebene_1
 62
7
100
AcDbSpline
 70
8
 71
3
 72
8
 73
4
 74
0
 40
0
 40
0
 40
0
 40
0
 40
1
 40
1
 40
1
 40
1
 10
157.672400
 20
191.288430
 30
0.0
 10
161.744770
 20
194.682060
 30
0.0
 10
164.168880
 20
199.772222
 30
0.0
 10
164.168880
 20
205.056452
 30
0.0
  0
SPLINE
  5
23d
100
AcDbEntity
  8
Ebene_1
 62
7
100
AcDbSpline
 70
8
 71
3
 72
8
 73
4
 74
0
 40
0
 40
0
 40
0
 40
0
 40
1
 40
1
 40
1
 40
1
 10
164.168880
 20
205.056452
 30
0.0
 10
164.168880
 20
210.389341
 30
0.0
 10
161.938620
 20
215.431871
 30
0.0
 10
158.011440
 20
219.019340
 30
0.0
  0
SPLINE
  5
23e
100
AcDbEntity
  8
Ebene_1
 62
7
100
AcDbSpline
 70
8
 71
3
 72
8
 73
4
 74
0
 40
0
 40
0
 40
0
 40
0
 40
1
 40
1
 40
1
 40
1
 10
158.011440
 20
219.019340
 30
0.0
 10
155.926610
 20
220.909971
 30
0.0
 10
153.308450
 20
222.461141
 30
0.0
 10
150.593520
 20
223.964141
 30
0.0
  0
SPLINE
  5
23f
100
AcDbEntity
  8
Ebene_1
 62
7
100
AcDbSpline
 70
8
 71
3
 72
8
 73
4
 74
0
 40
0
 40
0
 40
0
 40
0
 40
1
 40
1
 40
1
 40
1
 10
150.593520
 20
223.964141
 30
0.0
 10
149.381620
 20
224.643218
 30
0.0
 10
145.648640
 20
227.551797
 30
0.0
 10
146.909190
 20
231.721066
 30
0.0
  0
LINE
  5
240
100
AcDbEntity
  8
Ebene_1
 62
7
100
AcDbLine
 10
146.909190
 20
231.721066
 30
0.0
 11
144.212150
 21
232.088536
 31
0.0
  0
SPLINE
  5
241
100
AcDbEntity
  8
Ebene_1
 62
7
100
AcDbSpline
 70
8
 71
3
 72
8
 73
4
 74
0
 40
0
 40
0
 40
0
 40
0
 40
1
 40
1
 40
1
 40
1
 10
144.212150
 20
232.088536
 30
0.0
 10
147.958230
 20
237.953366
 30
0.0
 10
152.829170
 20
243.782046
 30
0.0
 10
158.932170
 20
249.222716
 30
0.0
  0
SPLINE
  5
242
100
AcDbEntity
  8
Ebene_1
 62
7
100
AcDbSpline
 70
8
 71
3
 72
8
 73
4
 74
0
 40
0
 40
0
 40
0
 40
0
 40
1
 40
1
 40
1
 40
1
 10
158.932170
 20
249.222716
 30
0.0
 10
154.229700
 20
247.622806
 30
0.0
 10
150.060630
 20
245.198996
 30
0.0
 10
146.957710
 20
240.835546
 30
0.0
  0
SPLINE
  5
243
100
AcDbEntity
  8
Ebene_1
 62
7
100
AcDbSpline
 70
8
 71
3
 72
8
 73
4
 74
0
 40
0
 40
0
 40
0
 40
0
 40
1
 40
1
 40
1
 40
1
 10
146.957710
 20
240.835546
 30
0.0
 10
148.800100
 20
244.665456
 30
0.0
 10
151.805500
 20
248.496116
 30
0.0
 10
155.102240
 20
252.326027
 30
0.0
  0
LINE
  5
244
100
AcDbEntity
  8
Ebene_1
 62
7
100
AcDbLine
 10
155.102240
 20
252.326027
 30
0.0
 11
155.102310
 21
252.326027
 31
0.0
  0
LINE
  5
245
100
AcDbEntity
  8
Ebene_1
 62
7
100
AcDbLine
 10
138.183740
 20
234.097106
 30
0.0
 11
140.927930
 21
232.966286
 31
0.0
  0
SPLINE
  5
246
100
AcDbEntity
  8
Ebene_1
 62
7
100
AcDbSpline
 70
8
 71
3
 72
8
 73
4
 74
0
 40
0
 40
0
 40
0
 40
0
 40
1
 40
1
 40
1
 40
1
 10
140.927930
 20
232.966286
 30
0.0
 10
140.927790
 20
232.965286
 30
0.0
 10
140.927210
 20
232.963286
 30
0.0
 10
140.927210
 20
232.962286
 30
0.0
  0
LINE
  5
247
100
AcDbEntity
  8
Ebene_1
 62
7
100
AcDbLine
 10
140.927210
 20
232.962286
 30
0.0
 11
143.932790
 21
231.653287
 31
0.0
  0
SPLINE
  5
248
100
AcDbEntity
  8
Ebene_1
 62
7
100
AcDbSpline
 70
8
 71
3
 72
8
 73
4
 74
0
 40
0
 40
0
 40
0
 40
0
 40
1
 40
1
 40
1
 40
1
 10
143.932790
 20
231.653287
 30
0.0
 10
143.933510
 20
231.654287
 30
0.0
 10
143.933790
 20
231.656287
 30
0.0
 10
143.935790
 20
231.657287
 30
0.0
  0
LINE
  5
249
100
AcDbEntity
  8
Ebene_1
 62
7
100
AcDbLine
 10
143.935790
 20
231.657287
 30
0.0
 11
145.262130
 21
230.994477
 31
0.0
  0
SPLINE
  5
24a
100
AcDbEntity
  8
Ebene_1
 62
7
100
AcDbSpline
 70
8
 71
3
 72
8
 73
4
 74
0
 40
0
 40
0
 40
0
 40
0
 40
1
 40
1
 40
1
 40
1
 10
145.262130
 20
230.994477
 30
0.0
 10
144.389570
 20
227.746378
 30
0.0
 10
147.056030
 20
224.352392
 30
0.0
 10
149.189120
 20
223.140462
 30
0.0
  0
SPLINE
  5
24b
100
AcDbEntity
  8
Ebene_1
 62
7
100
AcDbSpline
 70
8
 71
3
 72
8
 73
4
 74
0
 40
0
 40
0
 40
0
 40
0
 40
1
 40
1
 40
1
 40
1
 10
149.189120
 20
223.140462
 30
0.0
 10
151.322210
 20
221.928202
 30
0.0
 10
154.764180
 20
219.649513
 30
0.0
 10
156.849000
 20
217.758864
 30
0.0
  0
SPLINE
  5
24c
100
AcDbEntity
  8
Ebene_1
 62
7
100
AcDbSpline
 70
8
 71
3
 72
8
 73
4
 74
0
 40
0
 40
0
 40
0
 40
0
 40
1
 40
1
 40
1
 40
1
 10
156.849000
 20
217.758864
 30
0.0
 10
160.485100
 20
214.510413
 30
0.0
 10
162.424730
 20
209.904792
 30
0.0
 10
162.424730
 20
205.056452
 30
0.0
  0
SPLINE
  5
24d
100
AcDbEntity
  8
Ebene_1
 62
7
100
AcDbSpline
 70
8
 71
3
 72
8
 73
4
 74
0
 40
0
 40
0
 40
0
 40
0
 40
1
 40
1
 40
1
 40
1
 10
162.424730
 20
205.056452
 30
0.0
 10
162.424730
 20
200.257109
 30
0.0
 10
160.340040
 20
195.554390
 30
0.0
 10
156.607030
 20
192.451830
 30
0.0
  0
SPLINE
  5
24e
100
AcDbEntity
  8
Ebene_1
 62
7
100
AcDbSpline
 70
8
 71
3
 72
8
 73
4
 74
0
 40
0
 40
0
 40
0
 40
0
 40
1
 40
1
 40
1
 40
1
 10
156.607030
 20
192.451830
 30
0.0
 10
153.761430
 20
190.080550
 30
0.0
 10
148.983320
 20
188.322420
 30
0.0
 10
145.502020
 20
187.832200
 30
0.0
  0
SPLINE
  5
24f
100
AcDbEntity
  8
Ebene_1
 62
7
100
AcDbSpline
 70
8
 71
3
 72
8
 73
4
 74
0
 40
0
 40
0
 40
0
 40
0
 40
1
 40
1
 40
1
 40
1
 10
145.502020
 20
187.832200
 30
0.0
 10
140.946120
 20
187.607100
 30
0.0
 10
136.643430
 20
188.209750
 30
0.0
 10
132.753530
 20
190.077060
 30
0.0
  0
SPLINE
  5
250
100
AcDbEntity
  8
Ebene_1
 62
7
100
AcDbSpline
 70
8
 71
3
 72
8
 73
4
 74
0
 40
0
 40
0
 40
0
 40
0
 40
1
 40
1
 40
1
 40
1
 10
132.753530
 20
190.077060
 30
0.0
 10
127.081610
 20
192.840580
 30
0.0
 10
123.300500
 20
198.755128
 30
0.0
 10
123.058050
 20
203.603101
 30
0.0
  0
SPLINE
  5
251
100
AcDbEntity
  8
Ebene_1
 62
7
100
AcDbSpline
 70
8
 71
3
 72
8
 73
4
 74
0
 40
0
 40
0
 40
0
 40
0
 40
1
 40
1
 40
1
 40
1
 10
123.058050
 20
203.603101
 30
0.0
 10
122.524860
 20
213.444623
 30
0.0
 10
127.275890
 20
216.305322
 30
0.0
 10
131.639350
 20
219.892773
 30
0.0
  0
SPLINE
  5
252
100
AcDbEntity
  8
Ebene_1
 62
7
100
AcDbSpline
 70
8
 71
3
 72
8
 73
4
 74
0
 40
0
 40
0
 40
0
 40
0
 40
1
 40
1
 40
1
 40
1
 10
131.639350
 20
219.892773
 30
0.0
 10
134.111800
 20
221.928954
 30
0.0
 10
137.505110
 20
222.898503
 30
0.0
 10
139.492650
 20
226.486309
 30
0.0
  0
SPLINE
  5
253
100
AcDbEntity
  8
Ebene_1
 62
7
100
AcDbSpline
 70
8
 71
3
 72
8
 73
4
 74
0
 40
0
 40
0
 40
0
 40
0
 40
1
 40
1
 40
1
 40
1
 10
139.492650
 20
226.486309
 30
0.0
 10
139.880650
 20
227.261599
 30
0.0
 10
140.074540
 20
229.007159
 30
0.0
 10
139.638250
 20
230.800878
 30
0.0
  0
SPLINE
  5
254
100
AcDbEntity
  8
Ebene_1
 62
7
100
AcDbSpline
 70
8
 71
3
 72
8
 73
4
 74
0
 40
0
 40
0
 40
0
 40
0
 40
1
 40
1
 40
1
 40
1
 10
139.638250
 20
230.800878
 30
0.0
 10
139.444090
 20
231.430978
 30
0.0
 10
138.523020
 20
233.612748
 30
0.0
 10
138.183660
 20
234.097648
 30
0.0
  0
LINE
  5
255
100
AcDbEntity
  8
Ebene_1
 62
7
100
AcDbLine
 10
138.183660
 20
234.097648
 30
0.0
 11
138.183740
 21
234.097106
 31
0.0
  0
LINE
  5
256
100
AcDbEntity
  8
Ebene_1
 62
7
100
AcDbLine
 10
28.576751
 20
126.864560
 30
0.0
 11
46.076751
 21
126.864560
 31
0.0
  0
SPLINE
  5
257
100
AcDbEntity
  8
Ebene_1
 62
7
100
AcDbSpline
 70
8
 71
3
 72
8
 73
4
 74
0
 40
0
 40
0
 40
0
 40
0
 40
1
 40
1
 40
1
 40
1
 10
46.076751
 20
126.864560
 30
0.0
 10
46.131451
 20
126.864560
 30
0.0
 10
46.178321
 20
126.907560
 30
0.0
 10
46.178321
 20
126.966120
 30
0.0
  0
LINE
  5
258
100
AcDbEntity
  8
Ebene_1
 62
7
100
AcDbLine
 10
46.178321
 20
126.966120
 30
0.0
 11
46.178321
 21
131.364550
 31
0.0
  0
SPLINE
  5
259
100
AcDbEntity
  8
Ebene_1
 62
7
100
AcDbSpline
 70
8
 71
3
 72
8
 73
4
 74
0
 40
0
 40
0
 40
0
 40
0
 40
1
 40
1
 40
1
 40
1
 10
46.178321
 20
131.364550
 30
0.0
 10
46.178321
 20
131.309850
 30
0.0
 10
46.135321
 20
131.263000
 30
0.0
 10
46.076751
 20
131.263000
 30
0.0
  0
LINE
  5
25a
100
AcDbEntity
  8
Ebene_1
 62
7
100
AcDbLine
 10
46.076751
 20
131.263000
 30
0.0
 11
68.076751
 21
131.263000
 31
0.0
  0
SPLINE
  5
25b
100
AcDbEntity
  8
Ebene_1
 62
7
100
AcDbSpline
 70
8
 71
3
 72
8
 73
4
 74
0
 40
0
 40
0
 40
0
 40
0
 40
1
 40
1
 40
1
 40
1
 10
68.076751
 20
131.263000
 30
0.0
 10
68.022051
 20
131.263000
 30
0.0
 10
67.975191
 20
131.306000
 30
0.0
 10
67.975191
 20
131.364550
 30
0.0
  0
LINE
  5
25c
100
AcDbEntity
  8
Ebene_1
 62
7
100
AcDbLine
 10
67.975191
 20
131.364550
 30
0.0
 11
67.975191
 21
126.966120
 31
0.0
  0
SPLINE
  5
25d
100
AcDbEntity
  8
Ebene_1
 62
7
100
AcDbSpline
 70
8
 71
3
 72
8
 73
4
 74
0
 40
0
 40
0
 40
0
 40
0
 40
1
 40
1
 40
1
 40
1
 10
67.975191
 20
126.966120
 30
0.0
 10
67.975191
 20
126.911420
 30
0.0
 10
68.018191
 20
126.864560
 30
0.0
 10
68.076751
 20
126.864560
 30
0.0
  0
LINE
  5
25e
100
AcDbEntity
  8
Ebene_1
 62
7
100
AcDbLine
 10
68.076751
 20
126.864560
 30
0.0
 11
85.576751
 21
126.864560
 31
0.0
  0
LINE
  5
25f
100
AcDbEntity
  8
Ebene_1
 62
7
100
AcDbLine
 10
85.576751
 20
126.864560
 30
0.0
 11
89.975192
 21
126.864560
 31
0.0
  0
SPLINE
  5
260
100
AcDbEntity
  8
Ebene_1
 62
7
100
AcDbSpline
 70
8
 71
3
 72
8
 73
4
 74
0
 40
0
 40
0
 40
0
 40
0
 40
1
 40
1
 40
1
 40
1
 10
89.975192
 20
126.864560
 30
0.0
 10
90.029892
 20
126.864560
 30
0.0
 10
90.076750
 20
126.907560
 30
0.0
 10
90.076750
 20
126.966120
 30
0.0
  0
LINE
  5
261
100
AcDbEntity
  8
Ebene_1
 62
7
100
AcDbLine
 10
90.076750
 20
126.966120
 30
0.0
 11
90.076750
 21
126.966120
 31
0.0
  0
LINE
  5
262
100
AcDbEntity
  8
Ebene_1
 62
7
100
AcDbLine
 10
90.076750
 20
126.966120
 30
0.0
 11
90.076750
 21
135.165340
 31
0.0
  0
SPLINE
  5
263
100
AcDbEntity
  8
Ebene_1
 62
7
100
AcDbSpline
 70
8
 71
3
 72
8
 73
4
 74
0
 40
0
 40
0
 40
0
 40
0
 40
1
 40
1
 40
1
 40
1
 10
90.076750
 20
135.165340
 30
0.0
 10
90.076750
 20
135.220040
 30
0.0
 10
90.033750
 20
135.266900
 30
0.0
 10
89.975192
 20
135.266900
 30
0.0
  0
LINE
  5
264
100
AcDbEntity
  8
Ebene_1
 62
7
100
AcDbLine
 10
89.975192
 20
135.266900
 30
0.0
 11
85.576751
 21
135.266900
 31
0.0
  0
SPLINE
  5
265
100
AcDbEntity
  8
Ebene_1
 62
7
100
AcDbSpline
 70
8
 71
3
 72
8
 73
4
 74
0
 40
0
 40
0
 40
0
 40
0
 40
1
 40
1
 40
1
 40
1
 10
85.576751
 20
135.266900
 30
0.0
 10
85.631451
 20
135.266900
 30
0.0
 10
85.678322
 20
135.223900
 30
0.0
 10
85.678322
 20
135.165340
 30
0.0
  0
LINE
  5
266
100
AcDbEntity
  8
Ebene_1
 62
7
100
AcDbLine
 10
85.678322
 20
135.165340
 30
0.0
 11
85.678322
 21
157.165340
 31
0.0
  0
SPLINE
  5
267
100
AcDbEntity
  8
Ebene_1
 62
7
100
AcDbSpline
 70
8
 71
3
 72
8
 73
4
 74
0
 40
0
 40
0
 40
0
 40
0
 40
1
 40
1
 40
1
 40
1
 10
85.678322
 20
157.165340
 30
0.0
 10
85.678322
 20
157.110640
 30
0.0
 10
85.635322
 20
157.063780
 30
0.0
 10
85.576751
 20
157.063780
 30
0.0
  0
LINE
  5
268
100
AcDbEntity
  8
Ebene_1
 62
7
100
AcDbLine
 10
85.576751
 20
157.063780
 30
0.0
 11
89.975192
 21
157.063780
 31
0.0
  0
SPLINE
  5
269
100
AcDbEntity
  8
Ebene_1
 62
7
100
AcDbSpline
 70
8
 71
3
 72
8
 73
4
 74
0
 40
0
 40
0
 40
0
 40
0
 40
1
 40
1
 40
1
 40
1
 10
89.975192
 20
157.063780
 30
0.0
 10
90.029892
 20
157.063780
 30
0.0
 10
90.076750
 20
157.106780
 30
0.0
 10
90.076750
 20
157.165340
 30
0.0
  0
LINE
  5
26a
100
AcDbEntity
  8
Ebene_1
 62
7
100
AcDbLine
 10
90.076750
 20
157.165340
 30
0.0
 11
90.076750
 21
165.364560
 31
0.0
  0
LINE
  5
26b
100
AcDbEntity
  8
Ebene_1
 62
7
100
AcDbLine
 10
90.076750
 20
165.364560
 30
0.0
 11
90.076750
 21
169.763000
 31
0.0
  0
SPLINE
  5
26c
100
AcDbEntity
  8
Ebene_1
 62
7
100
AcDbSpline
 70
8
 71
3
 72
8
 73
4
 74
0
 40
0
 40
0
 40
0
 40
0
 40
1
 40
1
 40
1
 40
1
 10
90.076750
 20
169.763000
 30
0.0
 10
90.076750
 20
169.817700
 30
0.0
 10
90.033750
 20
169.864560
 30
0.0
 10
89.975192
 20
169.864560
 30
0.0
  0
LINE
  5
26d
100
AcDbEntity
  8
Ebene_1
 62
7
100
AcDbLine
 10
89.975192
 20
169.864560
 30
0.0
 11
85.576751
 21
169.864560
 31
0.0
  0
LINE
  5
26e
100
AcDbEntity
  8
Ebene_1
 62
7
100
AcDbLine
 10
85.576751
 20
169.864560
 30
0.0
 11
68.076751
 21
169.864560
 31
0.0
  0
SPLINE
  5
26f
100
AcDbEntity
  8
Ebene_1
 62
7
100
AcDbSpline
 70
8
 71
3
 72
8
 73
4
 74
0
 40
0
 40
0
 40
0
 40
0
 40
1
 40
1
 40
1
 40
1
 10
68.076751
 20
169.864560
 30
0.0
 10
68.022051
 20
169.864560
 30
0.0
 10
67.975191
 20
169.821560
 30
0.0
 10
67.975191
 20
169.763000
 30
0.0
  0
LINE
  5
270
100
AcDbEntity
  8
Ebene_1
 62
7
100
AcDbLine
 10
67.975191
 20
169.763000
 30
0.0
 11
67.975191
 21
165.364560
 31
0.0
  0
SPLINE
  5
271
100
AcDbEntity
  8
Ebene_1
 62
7
100
AcDbSpline
 70
8
 71
3
 72
8
 73
4
 74
0
 40
0
 40
0
 40
0
 40
0
 40
1
 40
1
 40
1
 40
1
 10
67.975191
 20
165.364560
 30
0.0
 10
67.975191
 20
165.419260
 30
0.0
 10
68.018191
 20
165.466120
 30
0.0
 10
68.076751
 20
165.466120
 30
0.0
  0
LINE
  5
272
100
AcDbEntity
  8
Ebene_1
 62
7
100
AcDbLine
 10
68.076751
 20
165.466120
 30
0.0
 11
46.076751
 21
165.466120
 31
0.0
  0
SPLINE
  5
273
100
AcDbEntity
  8
Ebene_1
 62
7
100
AcDbSpline
 70
8
 71
3
 72
8
 73
4
 74
0
 40
0
 40
0
 40
0
 40
0
 40
1
 40
1
 40
1
 40
1
 10
46.076751
 20
165.466120
 30
0.0
 10
46.131451
 20
165.466120
 30
0.0
 10
46.178321
 20
165.423120
 30
0.0
 10
46.178321
 20
165.364560
 30
0.0
  0
LINE
  5
274
100
AcDbEntity
  8
Ebene_1
 62
7
100
AcDbLine
 10
46.178321
 20
165.364560
 30
0.0
 11
46.178321
 21
169.763000
 31
0.0
  0
SPLINE
  5
275
100
AcDbEntity
  8
Ebene_1
 62
7
100
AcDbSpline
 70
8
 71
3
 72
8
 73
4
 74
0
 40
0
 40
0
 40
0
 40
0
 40
1
 40
1
 40
1
 40
1
 10
46.178321
 20
169.763000
 30
0.0
 10
46.178321
 20
169.817700
 30
0.0
 10
46.135321
 20
169.864560
 30
0.0
 10
46.076751
 20
169.864560
 30
0.0
  0
LINE
  5
276
100
AcDbEntity
  8
Ebene_1
 62
7
100
AcDbLine
 10
46.076751
 20
169.864560
 30
0.0
 11
28.576751
 21
169.864560
 31
0.0
  0
LINE
  5
277
100
AcDbEntity
  8
Ebene_1
 62
7
100
AcDbLine
 10
28.576751
 20
169.864560
 30
0.0
 11
24.178320
 21
169.864560
 31
0.0
  0
SPLINE
  5
278
100
AcDbEntity
  8
Ebene_1
 62
7
100
AcDbSpline
 70
8
 71
3
 72
8
 73
4
 74
0
 40
0
 40
0
 40
0
 40
0
 40
1
 40
1
 40
1
 40
1
 10
24.178320
 20
169.864560
 30
0.0
 10
24.123620
 20
169.864560
 30
0.0
 10
24.076750
 20
169.821560
 30
0.0
 10
24.076750
 20
169.763000
 30
0.0
  0
LINE
  5
279
100
AcDbEntity
  8
Ebene_1
 62
7
100
AcDbLine
 10
24.076750
 20
169.763000
 30
0.0
 11
24.076750
 21
165.364560
 31
0.0
  0
LINE
  5
27a
100
AcDbEntity
  8
Ebene_1
 62
7
100
AcDbLine
 10
24.076750
 20
165.364560
 30
0.0
 11
24.076750
 21
157.165340
 31
0.0
  0
SPLINE
  5
27b
100
AcDbEntity
  8
Ebene_1
 62
7
100
AcDbSpline
 70
8
 71
3
 72
8
 73
4
 74
0
 40
0
 40
0
 40
0
 40
0
 40
1
 40
1
 40
1
 40
1
 10
24.076750
 20
157.165340
 30
0.0
 10
24.076750
 20
157.110640
 30
0.0
 10
24.119750
 20
157.063780
 30
0.0
 10
24.178320
 20
157.063780
 30
0.0
  0
LINE
  5
27c
100
AcDbEntity
  8
Ebene_1
 62
7
100
AcDbLine
 10
24.178320
 20
157.063780
 30
0.0
 11
28.576751
 21
157.063780
 31
0.0
  0
SPLINE
  5
27d
100
AcDbEntity
  8
Ebene_1
 62
7
100
AcDbSpline
 70
8
 71
3
 72
8
 73
4
 74
0
 40
0
 40
0
 40
0
 40
0
 40
1
 40
1
 40
1
 40
1
 10
28.576751
 20
157.063780
 30
0.0
 10
28.522051
 20
157.063780
 30
0.0
 10
28.475190
 20
157.106780
 30
0.0
 10
28.475190
 20
157.165340
 30
0.0
  0
LINE
  5
27e
100
AcDbEntity
  8
Ebene_1
 62
7
100
AcDbLine
 10
28.475190
 20
157.165340
 30
0.0
 11
28.475190
 21
135.165340
 31
0.0
  0
SPLINE
  5
27f
100
AcDbEntity
  8
Ebene_1
 62
7
100
AcDbSpline
 70
8
 71
3
 72
8
 73
4
 74
0
 40
0
 40
0
 40
0
 40
0
 40
1
 40
1
 40
1
 40
1
 10
28.475190
 20
135.165340
 30
0.0
 10
28.475190
 20
135.220040
 30
0.0
 10
28.518190
 20
135.266900
 30
0.0
 10
28.576751
 20
135.266900
 30
0.0
  0
LINE
  5
280
100
AcDbEntity
  8
Ebene_1
 62
7
100
AcDbLine
 10
28.576751
 20
135.266900
 30
0.0
 11
24.178320
 21
135.266900
 31
0.0
  0
SPLINE
  5
281
100
AcDbEntity
  8
Ebene_1
 62
7
100
AcDbSpline
 70
8
 71
3
 72
8
 73
4
 74
0
 40
0
 40
0
 40
0
 40
0
 40
1
 40
1
 40
1
 40
1
 10
24.178320
 20
135.266900
 30
0.0
 10
24.123620
 20
135.266900
 30
0.0
 10
24.076750
 20
135.223900
 30
0.0
 10
24.076750
 20
135.165340
 30
0.0
  0
LINE
  5
282
100
AcDbEntity
  8
Ebene_1
 62
7
100
AcDbLine
 10
24.076750
 20
135.165340
 30
0.0
 11
24.076750
 21
126.966120
 31
0.0
  0
SPLINE
  5
283
100
AcDbEntity
  8
Ebene_1
 62
7
100
AcDbSpline
 70
8
 71
3
 72
8
 73
4
 74
0
 40
0
 40
0
 40
0
 40
0
 40
1
 40
1
 40
1
 40
1
 10
24.076750
 20
126.966120
 30
0.0
 10
24.076750
 20
126.911420
 30
0.0
 10
24.119750
 20
126.864560
 30
0.0
 10
24.178320
 20
126.864560
 30
0.0
  0
LINE
  5
284
100
AcDbEntity
  8
Ebene_1
 62
7
100
AcDbLine
 10
24.178320
 20
126.864560
 30
0.0
 11
28.576751
 21
126.864560
 31
0.0
  0
LINE
  5
285
100
AcDbEntity
  8
Ebene_1
 62
7
100
AcDbLine
 10
84.273280
 20
142.003790
 30
0.0
 11
84.273280
 21
160.381990
 31
0.0
  0
LINE
  5
286
100
AcDbEntity
  8
Ebene_1
 62
7
100
AcDbLine
 10
84.273280
 20
160.381990
 30
0.0
 11
50.164570
 21
160.381990
 31
0.0
  0
LINE
  5
287
100
AcDbEntity
  8
Ebene_1
 62
7
100
AcDbLine
 10
50.164570
 20
160.381990
 30
0.0
 11
50.164570
 21
156.072110
 31
0.0
  0
LINE
  5
288
100
AcDbEntity
  8
Ebene_1
 62
7
100
AcDbLine
 10
50.164570
 20
156.072110
 30
0.0
 11
32.080570
 21
156.072110
 31
0.0
  0
LINE
  5
289
100
AcDbEntity
  8
Ebene_1
 62
7
100
AcDbLine
 10
32.080570
 20
156.072110
 30
0.0
 11
32.080570
 21
142.003790
 31
0.0
  0
LINE
  5
28a
100
AcDbEntity
  8
Ebene_1
 62
7
100
AcDbLine
 10
32.080570
 20
142.003790
 30
0.0
 11
84.273280
 21
142.003790
 31
0.0
  0
SPLINE
  5
28b
100
AcDbEntity
  8
Ebene_1
 62
7
100
AcDbSpline
 70
8
 71
3
 72
8
 73
4
 74
0
 40
0
 40
0
 40
0
 40
0
 40
1
 40
1
 40
1
 40
1
 10
81.660811
 20
260.259490
 30
0.0
 10
81.124913
 20
260.259490
 30
0.0
 10
80.629722
 20
259.973591
 30
0.0
 10
80.361773
 20
259.509490
 30
0.0
  0
SPLINE
  5
28c
100
AcDbEntity
  8
Ebene_1
 62
7
100
AcDbSpline
 70
8
 71
3
 72
8
 73
4
 74
0
 40
0
 40
0
 40
0
 40
0
 40
1
 40
1
 40
1
 40
1
 10
80.361773
 20
259.509490
 30
0.0
 10
80.093824
 20
259.045388
 30
0.0
 10
80.093824
 20
258.473591
 30
0.0
 10
80.361773
 20
258.009490
 30
0.0
  0
SPLINE
  5
28d
100
AcDbEntity
  8
Ebene_1
 62
7
100
AcDbSpline
 70
8
 71
3
 72
8
 73
4
 74
0
 40
0
 40
0
 40
0
 40
0
 40
1
 40
1
 40
1
 40
1
 10
80.361773
 20
258.009490
 30
0.0
 10
80.629722
 20
257.545388
 30
0.0
 10
81.124913
 20
257.259490
 30
0.0
 10
81.660811
 20
257.259490
 30
0.0
  0
SPLINE
  5
28e
100
AcDbEntity
  8
Ebene_1
 62
7
100
AcDbSpline
 70
8
 71
3
 72
8
 73
4
 74
0
 40
0
 40
0
 40
0
 40
0
 40
1
 40
1
 40
1
 40
1
 10
81.660811
 20
257.259490
 30
0.0
 10
82.196709
 20
257.259490
 30
0.0
 10
82.691900
 20
257.545388
 30
0.0
 10
82.959849
 20
258.009490
 30
0.0
  0
SPLINE
  5
28f
100
AcDbEntity
  8
Ebene_1
 62
7
100
AcDbSpline
 70
8
 71
3
 72
8
 73
4
 74
0
 40
0
 40
0
 40
0
 40
0
 40
1
 40
1
 40
1
 40
1
 10
82.959849
 20
258.009490
 30
0.0
 10
83.227798
 20
258.473591
 30
0.0
 10
83.227798
 20
259.045388
 30
0.0
 10
82.959849
 20
259.509490
 30
0.0
  0
SPLINE
  5
290
100
AcDbEntity
  8
Ebene_1
 62
7
100
AcDbSpline
 70
8
 71
3
 72
8
 73
4
 74
0
 40
0
 40
0
 40
0
 40
0
 40
1
 40
1
 40
1
 40
1
 10
82.959849
 20
259.509490
 30
0.0
 10
82.691900
 20
259.973591
 30
0.0
 10
82.196709
 20
260.259490
 30
0.0
 10
81.660811
 20
260.259490
 30
0.0
  0
LINE
  5
291
100
AcDbEntity
  8
Ebene_1
 62
7
100
AcDbLine
 10
81.660811
 20
260.259490
 30
0.0
 11
81.660811
 21
260.259490
 31
0.0
  0
SPLINE
  5
292
100
AcDbEntity
  8
Ebene_1
 62
7
100
AcDbSpline
 70
8
 71
3
 72
8
 73
4
 74
0
 40
0
 40
0
 40
0
 40
0
 40
1
 40
1
 40
1
 40
1
 10
32.873553
 20
260.240244
 30
0.0
 10
32.337654
 20
260.240244
 30
0.0
 10
31.842464
 20
259.954346
 30
0.0
 10
31.574515
 20
259.490244
 30
0.0
  0
SPLINE
  5
293
100
AcDbEntity
  8
Ebene_1
 62
7
100
AcDbSpline
 70
8
 71
3
 72
8
 73
4
 74
0
 40
0
 40
0
 40
0
 40
0
 40
1
 40
1
 40
1
 40
1
 10
31.574515
 20
259.490244
 30
0.0
 10
31.306565
 20
259.026143
 30
0.0
 10
31.306565
 20
258.454346
 30
0.0
 10
31.574515
 20
257.990244
 30
0.0
  0
SPLINE
  5
294
100
AcDbEntity
  8
Ebene_1
 62
7
100
AcDbSpline
 70
8
 71
3
 72
8
 73
4
 74
0
 40
0
 40
0
 40
0
 40
0
 40
1
 40
1
 40
1
 40
1
 10
31.574515
 20
257.990244
 30
0.0
 10
31.842464
 20
257.526143
 30
0.0
 10
32.337654
 20
257.240244
 30
0.0
 10
32.873553
 20
257.240244
 30
0.0
  0
SPLINE
  5
295
100
AcDbEntity
  8
Ebene_1
 62
7
100
AcDbSpline
 70
8
 71
3
 72
8
 73
4
 74
0
 40
0
 40
0
 40
0
 40
0
 40
1
 40
1
 40
1
 40
1
 10
32.873553
 20
257.240244
 30
0.0
 10
33.409451
 20
257.240244
 30
0.0
 10
33.904642
 20
257.526143
 30
0.0
 10
34.172591
 20
257.990244
 30
0.0
  0
SPLINE
  5
296
100
AcDbEntity
  8
Ebene_1
 62
7
100
AcDbSpline
 70
8
 71
3
 72
8
 73
4
 74
0
 40
0
 40
0
 40
0
 40
0
 40
1
 40
1
 40
1
 40
1
 10
34.172591
 20
257.990244
 30
0.0
 10
34.440540
 20
258.454346
 30
0.0
 10
34.440540
 20
259.026143
 30
0.0
 10
34.172591
 20
259.490244
 30
0.0
  0
SPLINE
  5
297
100
AcDbEntity
  8
Ebene_1
 62
7
100
AcDbSpline
 70
8
 71
3
 72
8
 73
4
 74
0
 40
0
 40
0
 40
0
 40
0
 40
1
 40
1
 40
1
 40
1
 10
34.172591
 20
259.490244
 30
0.0
 10
33.904642
 20
259.954346
 30
0.0
 10
33.409451
 20
260.240244
 30
0.0
 10
32.873553
 20
260.240244
 30
0.0
  0
LINE
  5
298
100
AcDbEntity
  8
Ebene_1
 62
7
100
AcDbLine
 10
32.873553
 20
260.240244
 30
0.0
 11
32.873553
 21
260.240244
 31
0.0
  0
SPLINE
  5
299
100
AcDbEntity
  8
Ebene_1
 62
7
100
AcDbSpline
 70
8
 71
3
 72
8
 73
4
 74
0
 40
0
 40
0
 40
0
 40
0
 40
1
 40
1
 40
1
 40
1
 10
81.680054
 20
202.506242
 30
0.0
 10
81.144156
 20
202.506242
 30
0.0
 10
80.648965
 20
202.220344
 30
0.0
 10
80.381016
 20
201.756242
 30
0.0
  0
SPLINE
  5
29a
100
AcDbEntity
  8
Ebene_1
 62
7
100
AcDbSpline
 70
8
 71
3
 72
8
 73
4
 74
0
 40
0
 40
0
 40
0
 40
0
 40
1
 40
1
 40
1
 40
1
 10
80.381016
 20
201.756242
 30
0.0
 10
80.113067
 20
201.292141
 30
0.0
 10
80.113067
 20
200.720344
 30
0.0
 10
80.381016
 20
200.256242
 30
0.0
  0
SPLINE
  5
29b
100
AcDbEntity
  8
Ebene_1
 62
7
100
AcDbSpline
 70
8
 71
3
 72
8
 73
4
 74
0
 40
0
 40
0
 40
0
 40
0
 40
1
 40
1
 40
1
 40
1
 10
80.381016
 20
200.256242
 30
0.0
 10
80.648965
 20
199.792141
 30
0.0
 10
81.144156
 20
199.506242
 30
0.0
 10
81.680054
 20
199.506242
 30
0.0
  0
SPLINE
  5
29c
100
AcDbEntity
  8
Ebene_1
 62
7
100
AcDbSpline
 70
8
 71
3
 72
8
 73
4
 74
0
 40
0
 40
0
 40
0
 40
0
 40
1
 40
1
 40
1
 40
1
 10
81.680054
 20
199.506242
 30
0.0
 10
82.215953
 20
199.506242
 30
0.0
 10
82.711143
 20
199.792141
 30
0.0
 10
82.979092
 20
200.256242
 30
0.0
  0
SPLINE
  5
29d
100
AcDbEntity
  8
Ebene_1
 62
7
100
AcDbSpline
 70
8
 71
3
 72
8
 73
4
 74
0
 40
0
 40
0
 40
0
 40
0
 40
1
 40
1
 40
1
 40
1
 10
82.979092
 20
200.256242
 30
0.0
 10
83.247042
 20
200.720344
 30
0.0
 10
83.247042
 20
201.292141
 30
0.0
 10
82.979092
 20
201.756242
 30
0.0
  0
SPLINE
  5
29e
100
AcDbEntity
  8
Ebene_1
 62
7
100
AcDbSpline
 70
8
 71
3
 72
8
 73
4
 74
0
 40
0
 40
0
 40
0
 40
0
 40
1
 40
1
 40
1
 40
1
 10
82.979092
 20
201.756242
 30
0.0
 10
82.711143
 20
202.220344
 30
0.0
 10
82.215953
 20
202.506242
 30
0.0
 10
81.680054
 20
202.506242
 30
0.0
  0
LINE
  5
29f
100
AcDbEntity
  8
Ebene_1
 62
7
100
AcDbLine
 10
81.680054
 20
202.506242
 30
0.0
 11
81.680054
 21
202.506242
 31
0.0
  0
SPLINE
  5
2a0
100
AcDbEntity
  8
Ebene_1
 62
7
100
AcDbSpline
 70
8
 71
3
 72
8
 73
4
 74
0
 40
0
 40
0
 40
0
 40
0
 40
1
 40
1
 40
1
 40
1
 10
32.873553
 20
202.487009
 30
0.0
 10
32.337654
 20
202.487009
 30
0.0
 10
31.842464
 20
202.201111
 30
0.0
 10
31.574515
 20
201.737009
 30
0.0
  0
SPLINE
  5
2a1
100
AcDbEntity
  8
Ebene_1
 62
7
100
AcDbSpline
 70
8
 71
3
 72
8
 73
4
 74
0
 40
0
 40
0
 40
0
 40
0
 40
1
 40
1
 40
1
 40
1
 10
31.574515
 20
201.737009
 30
0.0
 10
31.306565
 20
201.272908
 30
0.0
 10
31.306565
 20
200.701111
 30
0.0
 10
31.574515
 20
200.237009
 30
0.0
  0
SPLINE
  5
2a2
100
AcDbEntity
  8
Ebene_1
 62
7
100
AcDbSpline
 70
8
 71
3
 72
8
 73
4
 74
0
 40
0
 40
0
 40
0
 40
0
 40
1
 40
1
 40
1
 40
1
 10
31.574515
 20
200.237009
 30
0.0
 10
31.842464
 20
199.772908
 30
0.0
 10
32.337654
 20
199.487009
 30
0.0
 10
32.873553
 20
199.487009
 30
0.0
  0
SPLINE
  5
2a3
100
AcDbEntity
  8
Ebene_1
 62
7
100
AcDbSpline
 70
8
 71
3
 72
8
 73
4
 74
0
 40
0
 40
0
 40
0
 40
0
 40
1
 40
1
 40
1
 40
1
 10
32.873553
 20
199.487009
 30
0.0
 10
33.701980
 20
199.487009
 30
0.0
 10
34.373553
 20
200.158582
 30
0.0
 10
34.373553
 20
200.987009
 30
0.0
  0
SPLINE
  5
2a4
100
AcDbEntity
  8
Ebene_1
 62
7
100
AcDbSpline
 70
8
 71
3
 72
8
 73
4
 74
0
 40
0
 40
0
 40
0
 40
0
 40
1
 40
1
 40
1
 40
1
 10
34.373553
 20
200.987009
 30
0.0
 10
34.373553
 20
201.815436
 30
0.0
 10
33.701980
 20
202.487009
 30
0.0
 10
32.873553
 20
202.487009
 30
0.0
  0
LINE
  5
2a5
100
AcDbEntity
  8
Ebene_1
 62
7
100
AcDbLine
 10
32.873553
 20
202.487009
 30
0.0
 11
32.873553
 21
202.487009
 31
0.0
  0
ENDSEC
  0
SECTION
  2
OBJECTS
  0
DICTIONARY
  5
C
330
0
100
AcDbDictionary
  3
ACAD_GROUP
350
D
  3
ACAD_MLINESTYLE
350
17
  0
DICTIONARY
  5
D
330
C
100
AcDbDictionary
  0
DICTIONARY
  5
1A
330
C
100
AcDbDictionary
  0
DICTIONARY
  5
17
330
C
100
AcDbDictionary
  3
STANDARD
350
18
  0
DICTIONARY
  5
19
330
C
100
AcDbDictionary
  0
ENDSEC
  0
EOF
