  0
SECTION
  2
HEADER
  9
$ACADVER
  1
AC1014
  9
$HANDSEED
  5
FFFF
  9
$MEASUREMENT
 70
     1
  0
ENDSEC
  0
SECTION
  2
TABLES
  0
TABLE
  2
VPORT
  5
8
330
0
100
AcDbSymbolTable
 70
     4
  0
VPORT
  5
2E
330
8
100
AcDbSymbolTableRecord
100
AcDbViewportTableRecord
  2
*ACTIVE
 70
     0
 10
0.0
 20
0.0
 11
1.0
 21
1.0
 12
210.0
 22
148.5
 13
0.0
 23
0.0
 14
10.0
 24
10.0
 15
10.0
 25
10.0
 16
0.0
 26
0.0
 36
1.0
 17
0.0
 27
0.0
 37
0.0
 40
341.0
 41
1.24
 42
50.0
 43
0.0
 44
0.0
 50
0.0
 51
0.0
 71
     0
 72
   100
 73
     1
 74
     3
 75
     0
 76
     0
 77
     0
 78
     0
  0
ENDTAB
  0
TABLE
  2
LTYPE
  5
5
330
0
100
AcDbSymbolTable
 70
     1
  0
LTYPE
  5
14
330
5
100
AcDbSymbolTableRecord
100
AcDbLinetypeTableRecord
  2
BYBLOCK
 70
     0
  3

 72
    65
 73
     0
 40
0.0
  0
LTYPE
  5
15
330
5
100
AcDbSymbolTableRecord
100
AcDbLinetypeTableRecord
  2
BYLAYER
 70
     0
  3

 72
    65
 73
     0
 40
0.0
  0
LTYPE
  5
16
330
5
100
AcDbSymbolTableRecord
100
AcDbLinetypeTableRecord
  2
CONTINUOUS
 70
     0
  3
Solid line
 72
    65
 73
     0
 40
0.0
  0
ENDTAB
  0
TABLE
  2
LAYER
  5
2
100
AcDbSymbolTable
 70
1
  0
LAYER
  5
50
100
AcDbSymbolTableRecord
100
AcDbLayerTableRecord
  2
0
 70
0
  6
CONTINUOUS
  0
ENDTAB
  0
TABLE
  2
STYLE
  5
3
330
0
100
AcDbSymbolTable
 70
     1
  0
STYLE
  5
11
330
3
100
AcDbSymbolTableRecord
100
AcDbTextStyleTableRecord
  2
STANDARD
 70
     0
 40
0.0
 41
1.0
 50
0.0
 71
     0
 42
2.5
  3
txt
  4

  0
ENDTAB
  0
TABLE
  2
VIEW
  5
6
330
0
100
AcDbSymbolTable
 70
     0
  0
ENDTAB
  0
TABLE
  2
UCS
  5
7
330
0
100
AcDbSymbolTable
 70
     0
  0
ENDTAB
  0
TABLE
  2
APPID
  5
9
330
0
100
AcDbSymbolTable
 70
     2
  0
APPID
  5
12
330
9
100
AcDbSymbolTableRecord
100
AcDbRegAppTableRecord
  2
ACAD
 70
     0
  0
ENDTAB
  0
TABLE
  2
DIMSTYLE
  5
A
330
0
100
AcDbSymbolTable
 70
     1
  0
DIMSTYLE
105
27
330
A
100
AcDbSymbolTableRecord
100
AcDbDimStyleTableRecord
  2
ISO-25
 70
     0
  3

  4

  5

  6

  7

 40
1.0
 41
2.5
 42
0.625
 43
3.75
 44
1.25
 45
0.0
 46
0.0
 47
0.0
 48
0.0
140
2.5
141
2.5
142
0.0
143
0.03937007874016
144
1.0
145
0.0
146
1.0
147
0.625
 71
     0
 72
     0
 73
     0
 74
     0
 75
     0
 76
     0
 77
     1
 78
     8
170
     0
171
     3
172
     1
173
     0
174
     0
175
     0
176
     0
177
     0
178
     0
270
     2
271
     2
272
     2
273
     2
274
     3
340
11
275
     0
280
     0
281
     0
282
     0
283
     0
284
     8
285
     0
286
     0
287
     3
288
     0
  0
ENDTAB
  0
TABLE
  2
BLOCK_RECORD
  5
1
330
0
100
AcDbSymbolTable
 70
     1
  0
BLOCK_RECORD
  5
1F
330
1
100
AcDbSymbolTableRecord
100
AcDbBlockTableRecord
  2
*MODEL_SPACE
  0
BLOCK_RECORD
  5
1B
330
1
100
AcDbSymbolTableRecord
100
AcDbBlockTableRecord
  2
*PAPER_SPACE
  0
ENDTAB
  0
ENDSEC
  0
SECTION
  2
BLOCKS
  0
BLOCK
  5
20
330
1F
100
AcDbEntity
  8
0
100
AcDbBlockBegin
  2
*MODEL_SPACE
 70
     0
 10
0.0
 20
0.0
 30
0.0
  3
*MODEL_SPACE
  1

  0
ENDBLK
  5
21
330
1F
100
AcDbEntity
  8
0
100
AcDbBlockEnd
  0
BLOCK
  5
1C
330
1B
100
AcDbEntity
 67
     1
  8
0
100
AcDbBlockBegin
  2
*PAPER_SPACE
  1

  0
ENDBLK
  5
1D
330
1B
100
AcDbEntity
 67
     1
  8
0
100
AcDbBlockEnd
  0
ENDSEC
  0
SECTION
  2
ENTITIES
  0
SPLINE
  5
100
100
AcDbEntity
  8
0
 62
7
100
AcDbSpline
 70
8
 71
3
 72
8
 73
4
 74
0
 40
0
 40
0
 40
0
 40
0
 40
1
 40
1
 40
1
 40
1
 10
137.890900
 20
194.478000
 30
0.0
 10
133.381890
 20
191.229560
 30
0.0
 10
129.455240
 20
187.544760
 30
0.0
 10
126.982790
 20
182.648480
 30
0.0
  0
LINE
  5
101
100
AcDbEntity
  8
0
 62
7
100
AcDbLine
 10
126.982790
 20
182.648480
 30
0.0
 11
128.728580
 21
189.581050
 31
0.0
  0
SPLINE
  5
102
100
AcDbEntity
  8
0
 62
7
100
AcDbSpline
 70
8
 71
3
 72
8
 73
4
 74
0
 40
0
 40
0
 40
0
 40
0
 40
1
 40
1
 40
1
 40
1
 10
128.728580
 20
189.581050
 30
0.0
 10
126.115290
 20
184.924630
 30
0.0
 10
124.441170
 20
180.227080
 30
0.0
 10
123.868960
 20
175.518906
 30
0.0
  0
LINE
  5
103
100
AcDbEntity
  8
0
 62
7
100
AcDbLine
 10
123.868960
 20
175.518906
 30
0.0
 11
120.245040
 21
177.752220
 31
0.0
  0
LINE
  5
104
100
AcDbEntity
  8
0
 62
7
100
AcDbLine
 10
120.245040
 20
177.752220
 30
0.0
 11
119.614820
 21
177.266876
 31
0.0
  0
SPLINE
  5
105
100
AcDbEntity
  8
0
 62
7
100
AcDbSpline
 70
8
 71
3
 72
8
 73
4
 74
0
 40
0
 40
0
 40
0
 40
0
 40
1
 40
1
 40
1
 40
1
 10
119.614820
 20
177.266876
 30
0.0
 10
122.766340
 20
171.594956
 30
0.0
 10
121.117900
 20
168.589586
 30
0.0
 10
119.566220
 20
167.522865
 30
0.0
  0
SPLINE
  5
106
100
AcDbEntity
  8
0
 62
7
100
AcDbSpline
 70
8
 71
3
 72
8
 73
4
 74
0
 40
0
 40
0
 40
0
 40
0
 40
1
 40
1
 40
1
 40
1
 10
119.566220
 20
167.522865
 30
0.0
 10
116.414680
 20
165.341145
 30
0.0
 10
111.808600
 20
162.626116
 30
0.0
 10
109.530310
 20
160.250565
 30
0.0
  0
SPLINE
  5
107
100
AcDbEntity
  8
0
 62
7
100
AcDbSpline
 70
8
 71
3
 72
8
 73
4
 74
0
 40
0
 40
0
 40
0
 40
0
 40
1
 40
1
 40
1
 40
1
 10
109.530310
 20
160.250565
 30
0.0
 10
105.118230
 20
155.741924
 30
0.0
 10
103.857790
 20
151.426785
 30
0.0
 10
104.245790
 20
145.754504
 30
0.0
  0
SPLINE
  5
108
100
AcDbEntity
  8
0
 62
7
100
AcDbSpline
 70
8
 71
3
 72
8
 73
4
 74
0
 40
0
 40
0
 40
0
 40
0
 40
1
 40
1
 40
1
 40
1
 10
104.245790
 20
145.754504
 30
0.0
 10
104.682060
 20
138.481966
 30
0.0
 10
109.966580
 20
132.422055
 30
0.0
 10
117.044590
 20
130.046515
 30
0.0
  0
SPLINE
  5
109
100
AcDbEntity
  8
0
 62
7
100
AcDbSpline
 70
8
 71
3
 72
8
 73
4
 74
0
 40
0
 40
0
 40
0
 40
0
 40
1
 40
1
 40
1
 40
1
 10
117.044590
 20
130.046515
 30
0.0
 10
120.147130
 20
129.028064
 30
0.0
 10
123.007760
 20
128.883105
 30
0.0
 10
126.207580
 20
128.883105
 30
0.0
  0
SPLINE
  5
10a
100
AcDbEntity
  8
0
 62
7
100
AcDbSpline
 70
8
 71
3
 72
8
 73
4
 74
0
 40
0
 40
0
 40
0
 40
0
 40
1
 40
1
 40
1
 40
1
 10
126.207580
 20
128.883105
 30
0.0
 10
131.346680
 20
128.883105
 30
0.0
 10
136.631080
 20
130.240515
 30
0.0
 10
140.460990
 20
133.440336
 30
0.0
  0
SPLINE
  5
10b
100
AcDbEntity
  8
0
 62
7
100
AcDbSpline
 70
8
 71
3
 72
8
 73
4
 74
0
 40
0
 40
0
 40
0
 40
0
 40
1
 40
1
 40
1
 40
1
 10
140.460990
 20
133.440336
 30
0.0
 10
144.533360
 20
136.833966
 30
0.0
 10
146.957470
 20
141.924145
 30
0.0
 10
146.957470
 20
147.208406
 30
0.0
  0
SPLINE
  5
10c
100
AcDbEntity
  8
0
 62
7
100
AcDbSpline
 70
8
 71
3
 72
8
 73
4
 74
0
 40
0
 40
0
 40
0
 40
0
 40
1
 40
1
 40
1
 40
1
 10
146.957470
 20
147.208406
 30
0.0
 10
146.957470
 20
152.541315
 30
0.0
 10
144.727210
 20
157.583845
 30
0.0
 10
140.800030
 20
161.171315
 30
0.0
  0
SPLINE
  5
10d
100
AcDbEntity
  8
0
 62
7
100
AcDbSpline
 70
8
 71
3
 72
8
 73
4
 74
0
 40
0
 40
0
 40
0
 40
0
 40
1
 40
1
 40
1
 40
1
 10
140.800030
 20
161.171315
 30
0.0
 10
138.715200
 20
163.061945
 30
0.0
 10
136.097040
 20
164.613115
 30
0.0
 10
133.382110
 20
166.116115
 30
0.0
  0
SPLINE
  5
10e
100
AcDbEntity
  8
0
 62
7
100
AcDbSpline
 70
8
 71
3
 72
8
 73
4
 74
0
 40
0
 40
0
 40
0
 40
0
 40
1
 40
1
 40
1
 40
1
 10
133.382110
 20
166.116115
 30
0.0
 10
132.170210
 20
166.795195
 30
0.0
 10
128.437230
 20
169.703766
 30
0.0
 10
129.697780
 20
173.873036
 30
0.0
  0
LINE
  5
10f
100
AcDbEntity
  8
0
 62
7
100
AcDbLine
 10
129.697780
 20
173.873036
 30
0.0
 11
127.000740
 21
174.240506
 31
0.0
  0
SPLINE
  5
110
100
AcDbEntity
  8
0
 62
7
100
AcDbSpline
 70
8
 71
3
 72
8
 73
4
 74
0
 40
0
 40
0
 40
0
 40
0
 40
1
 40
1
 40
1
 40
1
 10
127.000740
 20
174.240506
 30
0.0
 10
130.746820
 20
180.105340
 30
0.0
 10
135.617760
 20
185.934020
 30
0.0
 10
141.720760
 20
191.374690
 30
0.0
  0
SPLINE
  5
111
100
AcDbEntity
  8
0
 62
7
100
AcDbSpline
 70
8
 71
3
 72
8
 73
4
 74
0
 40
0
 40
0
 40
0
 40
0
 40
1
 40
1
 40
1
 40
1
 10
141.720760
 20
191.374690
 30
0.0
 10
137.018290
 20
189.774780
 30
0.0
 10
132.849220
 20
187.350970
 30
0.0
 10
129.746300
 20
182.987520
 30
0.0
  0
SPLINE
  5
112
100
AcDbEntity
  8
0
 62
7
100
AcDbSpline
 70
8
 71
3
 72
8
 73
4
 74
0
 40
0
 40
0
 40
0
 40
0
 40
1
 40
1
 40
1
 40
1
 10
129.746300
 20
182.987520
 30
0.0
 10
131.588690
 20
186.817430
 30
0.0
 10
134.594090
 20
190.648090
 30
0.0
 10
137.890830
 20
194.478000
 30
0.0
  0
LINE
  5
113
100
AcDbEntity
  8
0
 62
7
100
AcDbLine
 10
137.890830
 20
194.478000
 30
0.0
 11
137.890900
 21
194.478000
 31
0.0
  0
LINE
  5
114
100
AcDbEntity
  8
0
 62
7
100
AcDbLine
 10
120.972330
 20
176.249076
 30
0.0
 11
123.716520
 21
175.118256
 31
0.0
  0
SPLINE
  5
115
100
AcDbEntity
  8
0
 62
7
100
AcDbSpline
 70
8
 71
3
 72
8
 73
4
 74
0
 40
0
 40
0
 40
0
 40
0
 40
1
 40
1
 40
1
 40
1
 10
123.716520
 20
175.118256
 30
0.0
 10
123.716380
 20
175.117256
 30
0.0
 10
123.715800
 20
175.115256
 30
0.0
 10
123.715800
 20
175.114256
 30
0.0
  0
LINE
  5
116
100
AcDbEntity
  8
0
 62
7
100
AcDbLine
 10
123.715800
 20
175.114256
 30
0.0
 11
126.721380
 21
173.805256
 31
0.0
  0
SPLINE
  5
117
100
AcDbEntity
  8
0
 62
7
100
AcDbSpline
 70
8
 71
3
 72
8
 73
4
 74
0
 40
0
 40
0
 40
0
 40
0
 40
1
 40
1
 40
1
 40
1
 10
126.721380
 20
173.805256
 30
0.0
 10
126.722100
 20
173.806256
 30
0.0
 10
126.722380
 20
173.808256
 30
0.0
 10
126.724380
 20
173.809256
 30
0.0
  0
LINE
  5
118
100
AcDbEntity
  8
0
 62
7
100
AcDbLine
 10
126.724380
 20
173.809256
 30
0.0
 11
128.050720
 21
173.146446
 31
0.0
  0
SPLINE
  5
119
100
AcDbEntity
  8
0
 62
7
100
AcDbSpline
 70
8
 71
3
 72
8
 73
4
 74
0
 40
0
 40
0
 40
0
 40
0
 40
1
 40
1
 40
1
 40
1
 10
128.050720
 20
173.146446
 30
0.0
 10
127.178160
 20
169.898356
 30
0.0
 10
129.844620
 20
166.504365
 30
0.0
 10
131.977710
 20
165.292436
 30
0.0
  0
SPLINE
  5
11a
100
AcDbEntity
  8
0
 62
7
100
AcDbSpline
 70
8
 71
3
 72
8
 73
4
 74
0
 40
0
 40
0
 40
0
 40
0
 40
1
 40
1
 40
1
 40
1
 10
131.977710
 20
165.292436
 30
0.0
 10
134.110800
 20
164.080176
 30
0.0
 10
137.552770
 20
161.801486
 30
0.0
 10
139.637590
 20
159.910834
 30
0.0
  0
SPLINE
  5
11b
100
AcDbEntity
  8
0
 62
7
100
AcDbSpline
 70
8
 71
3
 72
8
 73
4
 74
0
 40
0
 40
0
 40
0
 40
0
 40
1
 40
1
 40
1
 40
1
 10
139.637590
 20
159.910834
 30
0.0
 10
143.273690
 20
156.662386
 30
0.0
 10
145.213320
 20
152.056765
 30
0.0
 10
145.213320
 20
147.208406
 30
0.0
  0
SPLINE
  5
11c
100
AcDbEntity
  8
0
 62
7
100
AcDbSpline
 70
8
 71
3
 72
8
 73
4
 74
0
 40
0
 40
0
 40
0
 40
0
 40
1
 40
1
 40
1
 40
1
 10
145.213320
 20
147.208406
 30
0.0
 10
145.213320
 20
142.409036
 30
0.0
 10
143.128630
 20
137.706295
 30
0.0
 10
139.395620
 20
134.603735
 30
0.0
  0
SPLINE
  5
11d
100
AcDbEntity
  8
0
 62
7
100
AcDbSpline
 70
8
 71
3
 72
8
 73
4
 74
0
 40
0
 40
0
 40
0
 40
0
 40
1
 40
1
 40
1
 40
1
 10
139.395620
 20
134.603735
 30
0.0
 10
136.550020
 20
132.232454
 30
0.0
 10
131.771910
 20
130.474325
 30
0.0
 10
128.290610
 20
129.984105
 30
0.0
  0
SPLINE
  5
11e
100
AcDbEntity
  8
0
 62
7
100
AcDbSpline
 70
8
 71
3
 72
8
 73
4
 74
0
 40
0
 40
0
 40
0
 40
0
 40
1
 40
1
 40
1
 40
1
 10
128.290610
 20
129.984105
 30
0.0
 10
123.734710
 20
129.759005
 30
0.0
 10
119.432020
 20
130.361654
 30
0.0
 10
115.542120
 20
132.228965
 30
0.0
  0
SPLINE
  5
11f
100
AcDbEntity
  8
0
 62
7
100
AcDbSpline
 70
8
 71
3
 72
8
 73
4
 74
0
 40
0
 40
0
 40
0
 40
0
 40
1
 40
1
 40
1
 40
1
 10
115.542120
 20
132.228965
 30
0.0
 10
109.870200
 20
134.992485
 30
0.0
 10
106.089090
 20
140.907047
 30
0.0
 10
105.846640
 20
145.755047
 30
0.0
  0
SPLINE
  5
120
100
AcDbEntity
  8
0
 62
7
100
AcDbSpline
 70
8
 71
3
 72
8
 73
4
 74
0
 40
0
 40
0
 40
0
 40
0
 40
1
 40
1
 40
1
 40
1
 10
105.846640
 20
145.755047
 30
0.0
 10
105.313450
 20
155.596597
 30
0.0
 10
110.064480
 20
158.457296
 30
0.0
 10
114.427940
 20
162.044747
 30
0.0
  0
SPLINE
  5
121
100
AcDbEntity
  8
0
 62
7
100
AcDbSpline
 70
8
 71
3
 72
8
 73
4
 74
0
 40
0
 40
0
 40
0
 40
0
 40
1
 40
1
 40
1
 40
1
 10
114.427940
 20
162.044747
 30
0.0
 10
116.900390
 20
164.080924
 30
0.0
 10
120.293700
 20
165.050477
 30
0.0
 10
122.281240
 20
168.638286
 30
0.0
  0
SPLINE
  5
122
100
AcDbEntity
  8
0
 62
7
100
AcDbSpline
 70
8
 71
3
 72
8
 73
4
 74
0
 40
0
 40
0
 40
0
 40
0
 40
1
 40
1
 40
1
 40
1
 10
122.281240
 20
168.638286
 30
0.0
 10
122.669240
 20
169.413576
 30
0.0
 10
122.863130
 20
171.159136
 30
0.0
 10
122.426840
 20
172.952856
 30
0.0
  0
SPLINE
  5
123
100
AcDbEntity
  8
0
 62
7
100
AcDbSpline
 70
8
 71
3
 72
8
 73
4
 74
0
 40
0
 40
0
 40
0
 40
0
 40
1
 40
1
 40
1
 40
1
 10
122.426840
 20
172.952856
 30
0.0
 10
122.232680
 20
173.582956
 30
0.0
 10
121.311610
 20
175.764726
 30
0.0
 10
120.972250
 20
176.249626
 30
0.0
  0
LINE
  5
124
100
AcDbEntity
  8
0
 62
7
100
AcDbLine
 10
120.972250
 20
176.249626
 30
0.0
 11
120.972330
 21
176.249076
 31
0.0
  0
SPLINE
  5
125
100
AcDbEntity
  8
0
 62
7
100
AcDbSpline
 70
8
 71
3
 72
8
 73
4
 74
0
 40
0
 40
0
 40
0
 40
0
 40
1
 40
1
 40
1
 40
1
 10
126.022620
 20
148.057840
 30
0.0
 10
126.022620
 20
148.323056
 30
0.0
 10
125.917263
 20
148.577410
 30
0.0
 10
125.729727
 20
148.764947
 30
0.0
  0
SPLINE
  5
126
100
AcDbEntity
  8
0
 62
7
100
AcDbSpline
 70
8
 71
3
 72
8
 73
4
 74
0
 40
0
 40
0
 40
0
 40
0
 40
1
 40
1
 40
1
 40
1
 10
125.729727
 20
148.764947
 30
0.0
 10
125.542190
 20
148.952483
 30
0.0
 10
125.287836
 20
149.057840
 30
0.0
 10
125.022620
 20
149.057840
 30
0.0
  0
SPLINE
  5
127
100
AcDbEntity
  8
0
 62
7
100
AcDbSpline
 70
8
 71
3
 72
8
 73
4
 74
0
 40
0
 40
0
 40
0
 40
0
 40
1
 40
1
 40
1
 40
1
 10
125.022620
 20
149.057840
 30
0.0
 10
124.757404
 20
149.057840
 30
0.0
 10
124.503050
 20
148.952483
 30
0.0
 10
124.315513
 20
148.764947
 30
0.0
  0
SPLINE
  5
128
100
AcDbEntity
  8
0
 62
7
100
AcDbSpline
 70
8
 71
3
 72
8
 73
4
 74
0
 40
0
 40
0
 40
0
 40
0
 40
1
 40
1
 40
1
 40
1
 10
124.315513
 20
148.764947
 30
0.0
 10
124.127977
 20
148.577410
 30
0.0
 10
124.022620
 20
148.323056
 30
0.0
 10
124.022620
 20
148.057840
 30
0.0
  0
SPLINE
  5
129
100
AcDbEntity
  8
0
 62
7
100
AcDbSpline
 70
8
 71
3
 72
8
 73
4
 74
0
 40
0
 40
0
 40
0
 40
0
 40
1
 40
1
 40
1
 40
1
 10
124.022620
 20
148.057840
 30
0.0
 10
124.022619
 20
147.792623
 30
0.0
 10
124.127976
 20
147.538269
 30
0.0
 10
124.315513
 20
147.350732
 30
0.0
  0
SPLINE
  5
12a
100
AcDbEntity
  8
0
 62
7
100
AcDbSpline
 70
8
 71
3
 72
8
 73
4
 74
0
 40
0
 40
0
 40
0
 40
0
 40
1
 40
1
 40
1
 40
1
 10
124.315513
 20
147.350732
 30
0.0
 10
124.503049
 20
147.163195
 30
0.0
 10
124.757403
 20
147.057838
 30
0.0
 10
125.022620
 20
147.057838
 30
0.0
  0
SPLINE
  5
12b
100
AcDbEntity
  8
0
 62
7
100
AcDbSpline
 70
8
 71
3
 72
8
 73
4
 74
0
 40
0
 40
0
 40
0
 40
0
 40
1
 40
1
 40
1
 40
1
 10
125.022620
 20
147.057838
 30
0.0
 10
125.287837
 20
147.057838
 30
0.0
 10
125.542191
 20
147.163195
 30
0.0
 10
125.729727
 20
147.350732
 30
0.0
  0
SPLINE
  5
12c
100
AcDbEntity
  8
0
 62
7
100
AcDbSpline
 70
8
 71
3
 72
8
 73
4
 74
0
 40
0
 40
0
 40
0
 40
0
 40
1
 40
1
 40
1
 40
1
 10
125.729727
 20
147.350732
 30
0.0
 10
125.917264
 20
147.538269
 30
0.0
 10
126.022621
 20
147.792623
 30
0.0
 10
126.022620
 20
148.057840
 30
0.0
  0
LINE
  5
12d
100
AcDbEntity
  8
0
 62
7
100
AcDbLine
 10
126.022620
 20
148.057840
 30
0.0
 11
126.022620
 21
148.057840
 31
0.0
  0
SPLINE
  5
12e
100
AcDbEntity
  8
0
 62
7
100
AcDbSpline
 70
8
 71
3
 72
8
 73
4
 74
0
 40
0
 40
0
 40
0
 40
0
 40
1
 40
1
 40
1
 40
1
 10
127.349950
 20
146.212178
 30
0.0
 10
127.349950
 20
146.477394
 30
0.0
 10
127.244593
 20
146.731748
 30
0.0
 10
127.057057
 20
146.919285
 30
0.0
  0
SPLINE
  5
12f
100
AcDbEntity
  8
0
 62
7
100
AcDbSpline
 70
8
 71
3
 72
8
 73
4
 74
0
 40
0
 40
0
 40
0
 40
0
 40
1
 40
1
 40
1
 40
1
 10
127.057057
 20
146.919285
 30
0.0
 10
126.869520
 20
147.106821
 30
0.0
 10
126.615166
 20
147.212178
 30
0.0
 10
126.349950
 20
147.212178
 30
0.0
  0
SPLINE
  5
130
100
AcDbEntity
  8
0
 62
7
100
AcDbSpline
 70
8
 71
3
 72
8
 73
4
 74
0
 40
0
 40
0
 40
0
 40
0
 40
1
 40
1
 40
1
 40
1
 10
126.349950
 20
147.212178
 30
0.0
 10
126.084734
 20
147.212178
 30
0.0
 10
125.830380
 20
147.106821
 30
0.0
 10
125.642843
 20
146.919285
 30
0.0
  0
SPLINE
  5
131
100
AcDbEntity
  8
0
 62
7
100
AcDbSpline
 70
8
 71
3
 72
8
 73
4
 74
0
 40
0
 40
0
 40
0
 40
0
 40
1
 40
1
 40
1
 40
1
 10
125.642843
 20
146.919285
 30
0.0
 10
125.455307
 20
146.731748
 30
0.0
 10
125.349950
 20
146.477394
 30
0.0
 10
125.349950
 20
146.212178
 30
0.0
  0
SPLINE
  5
132
100
AcDbEntity
  8
0
 62
7
100
AcDbSpline
 70
8
 71
3
 72
8
 73
4
 74
0
 40
0
 40
0
 40
0
 40
0
 40
1
 40
1
 40
1
 40
1
 10
125.349950
 20
146.212178
 30
0.0
 10
125.349949
 20
145.946961
 30
0.0
 10
125.455306
 20
145.692607
 30
0.0
 10
125.642843
 20
145.505070
 30
0.0
  0
SPLINE
  5
133
100
AcDbEntity
  8
0
 62
7
100
AcDbSpline
 70
8
 71
3
 72
8
 73
4
 74
0
 40
0
 40
0
 40
0
 40
0
 40
1
 40
1
 40
1
 40
1
 10
125.642843
 20
145.505070
 30
0.0
 10
125.830379
 20
145.317533
 30
0.0
 10
126.084733
 20
145.212176
 30
0.0
 10
126.349950
 20
145.212176
 30
0.0
  0
SPLINE
  5
134
100
AcDbEntity
  8
0
 62
7
100
AcDbSpline
 70
8
 71
3
 72
8
 73
4
 74
0
 40
0
 40
0
 40
0
 40
0
 40
1
 40
1
 40
1
 40
1
 10
126.349950
 20
145.212176
 30
0.0
 10
126.615167
 20
145.212176
 30
0.0
 10
126.869521
 20
145.317533
 30
0.0
 10
127.057057
 20
145.505070
 30
0.0
  0
SPLINE
  5
135
100
AcDbEntity
  8
0
 62
7
100
AcDbSpline
 70
8
 71
3
 72
8
 73
4
 74
0
 40
0
 40
0
 40
0
 40
0
 40
1
 40
1
 40
1
 40
1
 10
127.057057
 20
145.505070
 30
0.0
 10
127.244594
 20
145.692607
 30
0.0
 10
127.349951
 20
145.946961
 30
0.0
 10
127.349950
 20
146.212178
 30
0.0
  0
LINE
  5
136
100
AcDbEntity
  8
0
 62
7
100
AcDbLine
 10
127.349950
 20
146.212178
 30
0.0
 11
127.349950
 21
146.212178
 31
0.0
  0
SPLINE
  5
137
100
AcDbEntity
  8
0
 62
7
100
AcDbSpline
 70
8
 71
3
 72
8
 73
4
 74
0
 40
0
 40
0
 40
0
 40
0
 40
1
 40
1
 40
1
 40
1
 10
123.721510
 20
146.265645
 30
0.0
 10
123.721510
 20
146.530861
 30
0.0
 10
123.616153
 20
146.785215
 30
0.0
 10
123.428617
 20
146.972752
 30
0.0
  0
SPLINE
  5
138
100
AcDbEntity
  8
0
 62
7
100
AcDbSpline
 70
8
 71
3
 72
8
 73
4
 74
0
 40
0
 40
0
 40
0
 40
0
 40
1
 40
1
 40
1
 40
1
 10
123.428617
 20
146.972752
 30
0.0
 10
123.241080
 20
147.160288
 30
0.0
 10
122.986726
 20
147.265645
 30
0.0
 10
122.721510
 20
147.265645
 30
0.0
  0
SPLINE
  5
139
100
AcDbEntity
  8
0
 62
7
100
AcDbSpline
 70
8
 71
3
 72
8
 73
4
 74
0
 40
0
 40
0
 40
0
 40
0
 40
1
 40
1
 40
1
 40
1
 10
122.721510
 20
147.265645
 30
0.0
 10
122.456294
 20
147.265645
 30
0.0
 10
122.201940
 20
147.160288
 30
0.0
 10
122.014403
 20
146.972752
 30
0.0
  0
SPLINE
  5
13a
100
AcDbEntity
  8
0
 62
7
100
AcDbSpline
 70
8
 71
3
 72
8
 73
4
 74
0
 40
0
 40
0
 40
0
 40
0
 40
1
 40
1
 40
1
 40
1
 10
122.014403
 20
146.972752
 30
0.0
 10
121.826867
 20
146.785215
 30
0.0
 10
121.721510
 20
146.530861
 30
0.0
 10
121.721510
 20
146.265645
 30
0.0
  0
SPLINE
  5
13b
100
AcDbEntity
  8
0
 62
7
100
AcDbSpline
 70
8
 71
3
 72
8
 73
4
 74
0
 40
0
 40
0
 40
0
 40
0
 40
1
 40
1
 40
1
 40
1
 10
121.721510
 20
146.265645
 30
0.0
 10
121.721509
 20
146.000428
 30
0.0
 10
121.826866
 20
145.746074
 30
0.0
 10
122.014403
 20
145.558537
 30
0.0
  0
SPLINE
  5
13c
100
AcDbEntity
  8
0
 62
7
100
AcDbSpline
 70
8
 71
3
 72
8
 73
4
 74
0
 40
0
 40
0
 40
0
 40
0
 40
1
 40
1
 40
1
 40
1
 10
122.014403
 20
145.558537
 30
0.0
 10
122.201939
 20
145.371000
 30
0.0
 10
122.456293
 20
145.265643
 30
0.0
 10
122.721510
 20
145.265643
 30
0.0
  0
SPLINE
  5
13d
100
AcDbEntity
  8
0
 62
7
100
AcDbSpline
 70
8
 71
3
 72
8
 73
4
 74
0
 40
0
 40
0
 40
0
 40
0
 40
1
 40
1
 40
1
 40
1
 10
122.721510
 20
145.265643
 30
0.0
 10
122.986727
 20
145.265643
 30
0.0
 10
123.241081
 20
145.371000
 30
0.0
 10
123.428617
 20
145.558537
 30
0.0
  0
SPLINE
  5
13e
100
AcDbEntity
  8
0
 62
7
100
AcDbSpline
 70
8
 71
3
 72
8
 73
4
 74
0
 40
0
 40
0
 40
0
 40
0
 40
1
 40
1
 40
1
 40
1
 10
123.428617
 20
145.558537
 30
0.0
 10
123.616154
 20
145.746074
 30
0.0
 10
123.721511
 20
146.000428
 30
0.0
 10
123.721510
 20
146.265645
 30
0.0
  0
LINE
  5
13f
100
AcDbEntity
  8
0
 62
7
100
AcDbLine
 10
123.721510
 20
146.265645
 30
0.0
 11
123.721510
 21
146.265645
 31
0.0
  0
SPLINE
  5
140
100
AcDbEntity
  8
0
 62
7
100
AcDbSpline
 70
8
 71
3
 72
8
 73
4
 74
0
 40
0
 40
0
 40
0
 40
0
 40
1
 40
1
 40
1
 40
1
 10
123.101240
 20
149.949653
 30
0.0
 10
123.101240
 20
150.214869
 30
0.0
 10
122.995883
 20
150.469223
 30
0.0
 10
122.808347
 20
150.656760
 30
0.0
  0
SPLINE
  5
141
100
AcDbEntity
  8
0
 62
7
100
AcDbSpline
 70
8
 71
3
 72
8
 73
4
 74
0
 40
0
 40
0
 40
0
 40
0
 40
1
 40
1
 40
1
 40
1
 10
122.808347
 20
150.656760
 30
0.0
 10
122.620810
 20
150.844296
 30
0.0
 10
122.366456
 20
150.949653
 30
0.0
 10
122.101240
 20
150.949653
 30
0.0
  0
SPLINE
  5
142
100
AcDbEntity
  8
0
 62
7
100
AcDbSpline
 70
8
 71
3
 72
8
 73
4
 74
0
 40
0
 40
0
 40
0
 40
0
 40
1
 40
1
 40
1
 40
1
 10
122.101240
 20
150.949653
 30
0.0
 10
121.836024
 20
150.949653
 30
0.0
 10
121.581670
 20
150.844296
 30
0.0
 10
121.394133
 20
150.656760
 30
0.0
  0
SPLINE
  5
143
100
AcDbEntity
  8
0
 62
7
100
AcDbSpline
 70
8
 71
3
 72
8
 73
4
 74
0
 40
0
 40
0
 40
0
 40
0
 40
1
 40
1
 40
1
 40
1
 10
121.394133
 20
150.656760
 30
0.0
 10
121.206597
 20
150.469223
 30
0.0
 10
121.101240
 20
150.214869
 30
0.0
 10
121.101240
 20
149.949653
 30
0.0
  0
SPLINE
  5
144
100
AcDbEntity
  8
0
 62
7
100
AcDbSpline
 70
8
 71
3
 72
8
 73
4
 74
0
 40
0
 40
0
 40
0
 40
0
 40
1
 40
1
 40
1
 40
1
 10
121.101240
 20
149.949653
 30
0.0
 10
121.101239
 20
149.684436
 30
0.0
 10
121.206596
 20
149.430082
 30
0.0
 10
121.394133
 20
149.242545
 30
0.0
  0
SPLINE
  5
145
100
AcDbEntity
  8
0
 62
7
100
AcDbSpline
 70
8
 71
3
 72
8
 73
4
 74
0
 40
0
 40
0
 40
0
 40
0
 40
1
 40
1
 40
1
 40
1
 10
121.394133
 20
149.242545
 30
0.0
 10
121.581669
 20
149.055008
 30
0.0
 10
121.836023
 20
148.949651
 30
0.0
 10
122.101240
 20
148.949651
 30
0.0
  0
SPLINE
  5
146
100
AcDbEntity
  8
0
 62
7
100
AcDbSpline
 70
8
 71
3
 72
8
 73
4
 74
0
 40
0
 40
0
 40
0
 40
0
 40
1
 40
1
 40
1
 40
1
 10
122.101240
 20
148.949651
 30
0.0
 10
122.366457
 20
148.949651
 30
0.0
 10
122.620811
 20
149.055008
 30
0.0
 10
122.808347
 20
149.242545
 30
0.0
  0
SPLINE
  5
147
100
AcDbEntity
  8
0
 62
7
100
AcDbSpline
 70
8
 71
3
 72
8
 73
4
 74
0
 40
0
 40
0
 40
0
 40
0
 40
1
 40
1
 40
1
 40
1
 10
122.808347
 20
149.242545
 30
0.0
 10
122.995884
 20
149.430082
 30
0.0
 10
123.101241
 20
149.684436
 30
0.0
 10
123.101240
 20
149.949653
 30
0.0
  0
LINE
  5
148
100
AcDbEntity
  8
0
 62
7
100
AcDbLine
 10
123.101240
 20
149.949653
 30
0.0
 11
123.101240
 21
149.949653
 31
0.0
  0
SPLINE
  5
149
100
AcDbEntity
  8
0
 62
7
100
AcDbSpline
 70
8
 71
3
 72
8
 73
4
 74
0
 40
0
 40
0
 40
0
 40
0
 40
1
 40
1
 40
1
 40
1
 10
126.327950
 20
151.927135
 30
0.0
 10
126.327950
 20
152.192351
 30
0.0
 10
126.222593
 20
152.446705
 30
0.0
 10
126.035057
 20
152.634242
 30
0.0
  0
SPLINE
  5
14a
100
AcDbEntity
  8
0
 62
7
100
AcDbSpline
 70
8
 71
3
 72
8
 73
4
 74
0
 40
0
 40
0
 40
0
 40
0
 40
1
 40
1
 40
1
 40
1
 10
126.035057
 20
152.634242
 30
0.0
 10
125.847520
 20
152.821778
 30
0.0
 10
125.593166
 20
152.927135
 30
0.0
 10
125.327950
 20
152.927135
 30
0.0
  0
SPLINE
  5
14b
100
AcDbEntity
  8
0
 62
7
100
AcDbSpline
 70
8
 71
3
 72
8
 73
4
 74
0
 40
0
 40
0
 40
0
 40
0
 40
1
 40
1
 40
1
 40
1
 10
125.327950
 20
152.927135
 30
0.0
 10
125.062734
 20
152.927135
 30
0.0
 10
124.808380
 20
152.821778
 30
0.0
 10
124.620843
 20
152.634242
 30
0.0
  0
SPLINE
  5
14c
100
AcDbEntity
  8
0
 62
7
100
AcDbSpline
 70
8
 71
3
 72
8
 73
4
 74
0
 40
0
 40
0
 40
0
 40
0
 40
1
 40
1
 40
1
 40
1
 10
124.620843
 20
152.634242
 30
0.0
 10
124.433307
 20
152.446705
 30
0.0
 10
124.327950
 20
152.192351
 30
0.0
 10
124.327950
 20
151.927135
 30
0.0
  0
SPLINE
  5
14d
100
AcDbEntity
  8
0
 62
7
100
AcDbSpline
 70
8
 71
3
 72
8
 73
4
 74
0
 40
0
 40
0
 40
0
 40
0
 40
1
 40
1
 40
1
 40
1
 10
124.327950
 20
151.927135
 30
0.0
 10
124.327949
 20
151.661918
 30
0.0
 10
124.433306
 20
151.407564
 30
0.0
 10
124.620843
 20
151.220027
 30
0.0
  0
SPLINE
  5
14e
100
AcDbEntity
  8
0
 62
7
100
AcDbSpline
 70
8
 71
3
 72
8
 73
4
 74
0
 40
0
 40
0
 40
0
 40
0
 40
1
 40
1
 40
1
 40
1
 10
124.620843
 20
151.220027
 30
0.0
 10
124.808379
 20
151.032490
 30
0.0
 10
125.062733
 20
150.927133
 30
0.0
 10
125.327950
 20
150.927133
 30
0.0
  0
SPLINE
  5
14f
100
AcDbEntity
  8
0
 62
7
100
AcDbSpline
 70
8
 71
3
 72
8
 73
4
 74
0
 40
0
 40
0
 40
0
 40
0
 40
1
 40
1
 40
1
 40
1
 10
125.327950
 20
150.927133
 30
0.0
 10
125.593167
 20
150.927133
 30
0.0
 10
125.847521
 20
151.032490
 30
0.0
 10
126.035057
 20
151.220027
 30
0.0
  0
SPLINE
  5
150
100
AcDbEntity
  8
0
 62
7
100
AcDbSpline
 70
8
 71
3
 72
8
 73
4
 74
0
 40
0
 40
0
 40
0
 40
0
 40
1
 40
1
 40
1
 40
1
 10
126.035057
 20
151.220027
 30
0.0
 10
126.222594
 20
151.407564
 30
0.0
 10
126.327951
 20
151.661918
 30
0.0
 10
126.327950
 20
151.927135
 30
0.0
  0
LINE
  5
151
100
AcDbEntity
  8
0
 62
7
100
AcDbLine
 10
126.327950
 20
151.927135
 30
0.0
 11
126.327950
 21
151.927135
 31
0.0
  0
SPLINE
  5
152
100
AcDbEntity
  8
0
 62
7
100
AcDbSpline
 70
8
 71
3
 72
8
 73
4
 74
0
 40
0
 40
0
 40
0
 40
0
 40
1
 40
1
 40
1
 40
1
 10
129.686250
 20
150.083797
 30
0.0
 10
129.686250
 20
150.349013
 30
0.0
 10
129.580893
 20
150.603367
 30
0.0
 10
129.393357
 20
150.790904
 30
0.0
  0
SPLINE
  5
153
100
AcDbEntity
  8
0
 62
7
100
AcDbSpline
 70
8
 71
3
 72
8
 73
4
 74
0
 40
0
 40
0
 40
0
 40
0
 40
1
 40
1
 40
1
 40
1
 10
129.393357
 20
150.790904
 30
0.0
 10
129.205820
 20
150.978440
 30
0.0
 10
128.951466
 20
151.083797
 30
0.0
 10
128.686250
 20
151.083797
 30
0.0
  0
SPLINE
  5
154
100
AcDbEntity
  8
0
 62
7
100
AcDbSpline
 70
8
 71
3
 72
8
 73
4
 74
0
 40
0
 40
0
 40
0
 40
0
 40
1
 40
1
 40
1
 40
1
 10
128.686250
 20
151.083797
 30
0.0
 10
128.421034
 20
151.083797
 30
0.0
 10
128.166680
 20
150.978440
 30
0.0
 10
127.979143
 20
150.790904
 30
0.0
  0
SPLINE
  5
155
100
AcDbEntity
  8
0
 62
7
100
AcDbSpline
 70
8
 71
3
 72
8
 73
4
 74
0
 40
0
 40
0
 40
0
 40
0
 40
1
 40
1
 40
1
 40
1
 10
127.979143
 20
150.790904
 30
0.0
 10
127.791607
 20
150.603367
 30
0.0
 10
127.686250
 20
150.349013
 30
0.0
 10
127.686250
 20
150.083797
 30
0.0
  0
SPLINE
  5
156
100
AcDbEntity
  8
0
 62
7
100
AcDbSpline
 70
8
 71
3
 72
8
 73
4
 74
0
 40
0
 40
0
 40
0
 40
0
 40
1
 40
1
 40
1
 40
1
 10
127.686250
 20
150.083797
 30
0.0
 10
127.686249
 20
149.818580
 30
0.0
 10
127.791606
 20
149.564226
 30
0.0
 10
127.979143
 20
149.376689
 30
0.0
  0
SPLINE
  5
157
100
AcDbEntity
  8
0
 62
7
100
AcDbSpline
 70
8
 71
3
 72
8
 73
4
 74
0
 40
0
 40
0
 40
0
 40
0
 40
1
 40
1
 40
1
 40
1
 10
127.979143
 20
149.376689
 30
0.0
 10
128.166679
 20
149.189152
 30
0.0
 10
128.421033
 20
149.083795
 30
0.0
 10
128.686250
 20
149.083795
 30
0.0
  0
SPLINE
  5
158
100
AcDbEntity
  8
0
 62
7
100
AcDbSpline
 70
8
 71
3
 72
8
 73
4
 74
0
 40
0
 40
0
 40
0
 40
0
 40
1
 40
1
 40
1
 40
1
 10
128.686250
 20
149.083795
 30
0.0
 10
128.951467
 20
149.083795
 30
0.0
 10
129.205821
 20
149.189152
 30
0.0
 10
129.393357
 20
149.376689
 30
0.0
  0
SPLINE
  5
159
100
AcDbEntity
  8
0
 62
7
100
AcDbSpline
 70
8
 71
3
 72
8
 73
4
 74
0
 40
0
 40
0
 40
0
 40
0
 40
1
 40
1
 40
1
 40
1
 10
129.393357
 20
149.376689
 30
0.0
 10
129.580894
 20
149.564226
 30
0.0
 10
129.686251
 20
149.818580
 30
0.0
 10
129.686250
 20
150.083797
 30
0.0
  0
LINE
  5
15a
100
AcDbEntity
  8
0
 62
7
100
AcDbLine
 10
129.686250
 20
150.083797
 30
0.0
 11
129.686250
 21
150.083797
 31
0.0
  0
SPLINE
  5
15b
100
AcDbEntity
  8
0
 62
7
100
AcDbSpline
 70
8
 71
3
 72
8
 73
4
 74
0
 40
0
 40
0
 40
0
 40
0
 40
1
 40
1
 40
1
 40
1
 10
130.069670
 20
146.242323
 30
0.0
 10
130.069670
 20
146.507539
 30
0.0
 10
129.964313
 20
146.761893
 30
0.0
 10
129.776777
 20
146.949430
 30
0.0
  0
SPLINE
  5
15c
100
AcDbEntity
  8
0
 62
7
100
AcDbSpline
 70
8
 71
3
 72
8
 73
4
 74
0
 40
0
 40
0
 40
0
 40
0
 40
1
 40
1
 40
1
 40
1
 10
129.776777
 20
146.949430
 30
0.0
 10
129.589240
 20
147.136966
 30
0.0
 10
129.334886
 20
147.242323
 30
0.0
 10
129.069670
 20
147.242323
 30
0.0
  0
SPLINE
  5
15d
100
AcDbEntity
  8
0
 62
7
100
AcDbSpline
 70
8
 71
3
 72
8
 73
4
 74
0
 40
0
 40
0
 40
0
 40
0
 40
1
 40
1
 40
1
 40
1
 10
129.069670
 20
147.242323
 30
0.0
 10
128.804454
 20
147.242323
 30
0.0
 10
128.550100
 20
147.136966
 30
0.0
 10
128.362563
 20
146.949430
 30
0.0
  0
SPLINE
  5
15e
100
AcDbEntity
  8
0
 62
7
100
AcDbSpline
 70
8
 71
3
 72
8
 73
4
 74
0
 40
0
 40
0
 40
0
 40
0
 40
1
 40
1
 40
1
 40
1
 10
128.362563
 20
146.949430
 30
0.0
 10
128.175027
 20
146.761893
 30
0.0
 10
128.069670
 20
146.507539
 30
0.0
 10
128.069670
 20
146.242323
 30
0.0
  0
SPLINE
  5
15f
100
AcDbEntity
  8
0
 62
7
100
AcDbSpline
 70
8
 71
3
 72
8
 73
4
 74
0
 40
0
 40
0
 40
0
 40
0
 40
1
 40
1
 40
1
 40
1
 10
128.069670
 20
146.242323
 30
0.0
 10
128.069669
 20
145.977106
 30
0.0
 10
128.175026
 20
145.722752
 30
0.0
 10
128.362563
 20
145.535215
 30
0.0
  0
SPLINE
  5
160
100
AcDbEntity
  8
0
 62
7
100
AcDbSpline
 70
8
 71
3
 72
8
 73
4
 74
0
 40
0
 40
0
 40
0
 40
0
 40
1
 40
1
 40
1
 40
1
 10
128.362563
 20
145.535215
 30
0.0
 10
128.550099
 20
145.347678
 30
0.0
 10
128.804453
 20
145.242321
 30
0.0
 10
129.069670
 20
145.242321
 30
0.0
  0
SPLINE
  5
161
100
AcDbEntity
  8
0
 62
7
100
AcDbSpline
 70
8
 71
3
 72
8
 73
4
 74
0
 40
0
 40
0
 40
0
 40
0
 40
1
 40
1
 40
1
 40
1
 10
129.069670
 20
145.242321
 30
0.0
 10
129.334887
 20
145.242321
 30
0.0
 10
129.589241
 20
145.347678
 30
0.0
 10
129.776777
 20
145.535215
 30
0.0
  0
SPLINE
  5
162
100
AcDbEntity
  8
0
 62
7
100
AcDbSpline
 70
8
 71
3
 72
8
 73
4
 74
0
 40
0
 40
0
 40
0
 40
0
 40
1
 40
1
 40
1
 40
1
 10
129.776777
 20
145.535215
 30
0.0
 10
129.964314
 20
145.722752
 30
0.0
 10
130.069671
 20
145.977106
 30
0.0
 10
130.069670
 20
146.242323
 30
0.0
  0
LINE
  5
163
100
AcDbEntity
  8
0
 62
7
100
AcDbLine
 10
130.069670
 20
146.242323
 30
0.0
 11
130.069670
 21
146.242323
 31
0.0
  0
SPLINE
  5
164
100
AcDbEntity
  8
0
 62
7
100
AcDbSpline
 70
8
 71
3
 72
8
 73
4
 74
0
 40
0
 40
0
 40
0
 40
0
 40
1
 40
1
 40
1
 40
1
 10
127.339370
 20
143.498176
 30
0.0
 10
127.339370
 20
143.763392
 30
0.0
 10
127.234013
 20
144.017746
 30
0.0
 10
127.046477
 20
144.205283
 30
0.0
  0
SPLINE
  5
165
100
AcDbEntity
  8
0
 62
7
100
AcDbSpline
 70
8
 71
3
 72
8
 73
4
 74
0
 40
0
 40
0
 40
0
 40
0
 40
1
 40
1
 40
1
 40
1
 10
127.046477
 20
144.205283
 30
0.0
 10
126.858940
 20
144.392819
 30
0.0
 10
126.604586
 20
144.498176
 30
0.0
 10
126.339370
 20
144.498176
 30
0.0
  0
SPLINE
  5
166
100
AcDbEntity
  8
0
 62
7
100
AcDbSpline
 70
8
 71
3
 72
8
 73
4
 74
0
 40
0
 40
0
 40
0
 40
0
 40
1
 40
1
 40
1
 40
1
 10
126.339370
 20
144.498176
 30
0.0
 10
126.074154
 20
144.498176
 30
0.0
 10
125.819800
 20
144.392819
 30
0.0
 10
125.632263
 20
144.205283
 30
0.0
  0
SPLINE
  5
167
100
AcDbEntity
  8
0
 62
7
100
AcDbSpline
 70
8
 71
3
 72
8
 73
4
 74
0
 40
0
 40
0
 40
0
 40
0
 40
1
 40
1
 40
1
 40
1
 10
125.632263
 20
144.205283
 30
0.0
 10
125.444727
 20
144.017746
 30
0.0
 10
125.339370
 20
143.763392
 30
0.0
 10
125.339370
 20
143.498176
 30
0.0
  0
SPLINE
  5
168
100
AcDbEntity
  8
0
 62
7
100
AcDbSpline
 70
8
 71
3
 72
8
 73
4
 74
0
 40
0
 40
0
 40
0
 40
0
 40
1
 40
1
 40
1
 40
1
 10
125.339370
 20
143.498176
 30
0.0
 10
125.339369
 20
143.232959
 30
0.0
 10
125.444726
 20
142.978605
 30
0.0
 10
125.632263
 20
142.791068
 30
0.0
  0
SPLINE
  5
169
100
AcDbEntity
  8
0
 62
7
100
AcDbSpline
 70
8
 71
3
 72
8
 73
4
 74
0
 40
0
 40
0
 40
0
 40
0
 40
1
 40
1
 40
1
 40
1
 10
125.632263
 20
142.791068
 30
0.0
 10
125.819799
 20
142.603531
 30
0.0
 10
126.074153
 20
142.498174
 30
0.0
 10
126.339370
 20
142.498174
 30
0.0
  0
SPLINE
  5
16a
100
AcDbEntity
  8
0
 62
7
100
AcDbSpline
 70
8
 71
3
 72
8
 73
4
 74
0
 40
0
 40
0
 40
0
 40
0
 40
1
 40
1
 40
1
 40
1
 10
126.339370
 20
142.498174
 30
0.0
 10
126.604587
 20
142.498174
 30
0.0
 10
126.858941
 20
142.603531
 30
0.0
 10
127.046477
 20
142.791068
 30
0.0
  0
SPLINE
  5
16b
100
AcDbEntity
  8
0
 62
7
100
AcDbSpline
 70
8
 71
3
 72
8
 73
4
 74
0
 40
0
 40
0
 40
0
 40
0
 40
1
 40
1
 40
1
 40
1
 10
127.046477
 20
142.791068
 30
0.0
 10
127.234014
 20
142.978605
 30
0.0
 10
127.339371
 20
143.232959
 30
0.0
 10
127.339370
 20
143.498176
 30
0.0
  0
LINE
  5
16c
100
AcDbEntity
  8
0
 62
7
100
AcDbLine
 10
127.339370
 20
143.498176
 30
0.0
 11
127.339370
 21
143.498176
 31
0.0
  0
SPLINE
  5
16d
100
AcDbEntity
  8
0
 62
7
100
AcDbSpline
 70
8
 71
3
 72
8
 73
4
 74
0
 40
0
 40
0
 40
0
 40
0
 40
1
 40
1
 40
1
 40
1
 10
123.447080
 20
143.672103
 30
0.0
 10
123.447080
 20
143.937319
 30
0.0
 10
123.341723
 20
144.191673
 30
0.0
 10
123.154187
 20
144.379210
 30
0.0
  0
SPLINE
  5
16e
100
AcDbEntity
  8
0
 62
7
100
AcDbSpline
 70
8
 71
3
 72
8
 73
4
 74
0
 40
0
 40
0
 40
0
 40
0
 40
1
 40
1
 40
1
 40
1
 10
123.154187
 20
144.379210
 30
0.0
 10
122.966650
 20
144.566746
 30
0.0
 10
122.712296
 20
144.672103
 30
0.0
 10
122.447080
 20
144.672103
 30
0.0
  0
SPLINE
  5
16f
100
AcDbEntity
  8
0
 62
7
100
AcDbSpline
 70
8
 71
3
 72
8
 73
4
 74
0
 40
0
 40
0
 40
0
 40
0
 40
1
 40
1
 40
1
 40
1
 10
122.447080
 20
144.672103
 30
0.0
 10
122.181864
 20
144.672103
 30
0.0
 10
121.927510
 20
144.566746
 30
0.0
 10
121.739973
 20
144.379210
 30
0.0
  0
SPLINE
  5
170
100
AcDbEntity
  8
0
 62
7
100
AcDbSpline
 70
8
 71
3
 72
8
 73
4
 74
0
 40
0
 40
0
 40
0
 40
0
 40
1
 40
1
 40
1
 40
1
 10
121.739973
 20
144.379210
 30
0.0
 10
121.552437
 20
144.191673
 30
0.0
 10
121.447080
 20
143.937319
 30
0.0
 10
121.447080
 20
143.672103
 30
0.0
  0
SPLINE
  5
171
100
AcDbEntity
  8
0
 62
7
100
AcDbSpline
 70
8
 71
3
 72
8
 73
4
 74
0
 40
0
 40
0
 40
0
 40
0
 40
1
 40
1
 40
1
 40
1
 10
121.447080
 20
143.672103
 30
0.0
 10
121.447079
 20
143.406886
 30
0.0
 10
121.552436
 20
143.152532
 30
0.0
 10
121.739973
 20
142.964995
 30
0.0
  0
SPLINE
  5
172
100
AcDbEntity
  8
0
 62
7
100
AcDbSpline
 70
8
 71
3
 72
8
 73
4
 74
0
 40
0
 40
0
 40
0
 40
0
 40
1
 40
1
 40
1
 40
1
 10
121.739973
 20
142.964995
 30
0.0
 10
121.927509
 20
142.777458
 30
0.0
 10
122.181863
 20
142.672101
 30
0.0
 10
122.447080
 20
142.672101
 30
0.0
  0
SPLINE
  5
173
100
AcDbEntity
  8
0
 62
7
100
AcDbSpline
 70
8
 71
3
 72
8
 73
4
 74
0
 40
0
 40
0
 40
0
 40
0
 40
1
 40
1
 40
1
 40
1
 10
122.447080
 20
142.672101
 30
0.0
 10
122.712297
 20
142.672101
 30
0.0
 10
122.966651
 20
142.777458
 30
0.0
 10
123.154187
 20
142.964995
 30
0.0
  0
SPLINE
  5
174
100
AcDbEntity
  8
0
 62
7
100
AcDbSpline
 70
8
 71
3
 72
8
 73
4
 74
0
 40
0
 40
0
 40
0
 40
0
 40
1
 40
1
 40
1
 40
1
 10
123.154187
 20
142.964995
 30
0.0
 10
123.341724
 20
143.152532
 30
0.0
 10
123.447081
 20
143.406886
 30
0.0
 10
123.447080
 20
143.672103
 30
0.0
  0
LINE
  5
175
100
AcDbEntity
  8
0
 62
7
100
AcDbLine
 10
123.447080
 20
143.672103
 30
0.0
 11
123.447080
 21
143.672103
 31
0.0
  0
SPLINE
  5
176
100
AcDbEntity
  8
0
 62
7
100
AcDbSpline
 70
8
 71
3
 72
8
 73
4
 74
0
 40
0
 40
0
 40
0
 40
0
 40
1
 40
1
 40
1
 40
1
 10
120.798310
 20
146.531266
 30
0.0
 10
120.798310
 20
146.796482
 30
0.0
 10
120.692953
 20
147.050836
 30
0.0
 10
120.505417
 20
147.238373
 30
0.0
  0
SPLINE
  5
177
100
AcDbEntity
  8
0
 62
7
100
AcDbSpline
 70
8
 71
3
 72
8
 73
4
 74
0
 40
0
 40
0
 40
0
 40
0
 40
1
 40
1
 40
1
 40
1
 10
120.505417
 20
147.238373
 30
0.0
 10
120.317880
 20
147.425909
 30
0.0
 10
120.063526
 20
147.531266
 30
0.0
 10
119.798310
 20
147.531266
 30
0.0
  0
SPLINE
  5
178
100
AcDbEntity
  8
0
 62
7
100
AcDbSpline
 70
8
 71
3
 72
8
 73
4
 74
0
 40
0
 40
0
 40
0
 40
0
 40
1
 40
1
 40
1
 40
1
 10
119.798310
 20
147.531266
 30
0.0
 10
119.533094
 20
147.531266
 30
0.0
 10
119.278740
 20
147.425909
 30
0.0
 10
119.091203
 20
147.238373
 30
0.0
  0
SPLINE
  5
179
100
AcDbEntity
  8
0
 62
7
100
AcDbSpline
 70
8
 71
3
 72
8
 73
4
 74
0
 40
0
 40
0
 40
0
 40
0
 40
1
 40
1
 40
1
 40
1
 10
119.091203
 20
147.238373
 30
0.0
 10
118.903667
 20
147.050836
 30
0.0
 10
118.798310
 20
146.796482
 30
0.0
 10
118.798310
 20
146.531266
 30
0.0
  0
SPLINE
  5
17a
100
AcDbEntity
  8
0
 62
7
100
AcDbSpline
 70
8
 71
3
 72
8
 73
4
 74
0
 40
0
 40
0
 40
0
 40
0
 40
1
 40
1
 40
1
 40
1
 10
118.798310
 20
146.531266
 30
0.0
 10
118.798309
 20
146.266049
 30
0.0
 10
118.903666
 20
146.011695
 30
0.0
 10
119.091203
 20
145.824158
 30
0.0
  0
SPLINE
  5
17b
100
AcDbEntity
  8
0
 62
7
100
AcDbSpline
 70
8
 71
3
 72
8
 73
4
 74
0
 40
0
 40
0
 40
0
 40
0
 40
1
 40
1
 40
1
 40
1
 10
119.091203
 20
145.824158
 30
0.0
 10
119.278739
 20
145.636621
 30
0.0
 10
119.533093
 20
145.531264
 30
0.0
 10
119.798310
 20
145.531264
 30
0.0
  0
SPLINE
  5
17c
100
AcDbEntity
  8
0
 62
7
100
AcDbSpline
 70
8
 71
3
 72
8
 73
4
 74
0
 40
0
 40
0
 40
0
 40
0
 40
1
 40
1
 40
1
 40
1
 10
119.798310
 20
145.531264
 30
0.0
 10
120.063527
 20
145.531264
 30
0.0
 10
120.317881
 20
145.636621
 30
0.0
 10
120.505417
 20
145.824158
 30
0.0
  0
SPLINE
  5
17d
100
AcDbEntity
  8
0
 62
7
100
AcDbSpline
 70
8
 71
3
 72
8
 73
4
 74
0
 40
0
 40
0
 40
0
 40
0
 40
1
 40
1
 40
1
 40
1
 10
120.505417
 20
145.824158
 30
0.0
 10
120.692954
 20
146.011695
 30
0.0
 10
120.798311
 20
146.266049
 30
0.0
 10
120.798310
 20
146.531266
 30
0.0
  0
LINE
  5
17e
100
AcDbEntity
  8
0
 62
7
100
AcDbLine
 10
120.798310
 20
146.531266
 30
0.0
 11
120.798310
 21
146.531266
 31
0.0
  0
SPLINE
  5
17f
100
AcDbEntity
  8
0
 62
7
100
AcDbSpline
 70
8
 71
3
 72
8
 73
4
 74
0
 40
0
 40
0
 40
0
 40
0
 40
1
 40
1
 40
1
 40
1
 10
120.778270
 20
150.446011
 30
0.0
 10
120.778270
 20
150.711227
 30
0.0
 10
120.672913
 20
150.965581
 30
0.0
 10
120.485377
 20
151.153118
 30
0.0
  0
SPLINE
  5
180
100
AcDbEntity
  8
0
 62
7
100
AcDbSpline
 70
8
 71
3
 72
8
 73
4
 74
0
 40
0
 40
0
 40
0
 40
0
 40
1
 40
1
 40
1
 40
1
 10
120.485377
 20
151.153118
 30
0.0
 10
120.297840
 20
151.340654
 30
0.0
 10
120.043486
 20
151.446011
 30
0.0
 10
119.778270
 20
151.446011
 30
0.0
  0
SPLINE
  5
181
100
AcDbEntity
  8
0
 62
7
100
AcDbSpline
 70
8
 71
3
 72
8
 73
4
 74
0
 40
0
 40
0
 40
0
 40
0
 40
1
 40
1
 40
1
 40
1
 10
119.778270
 20
151.446011
 30
0.0
 10
119.513054
 20
151.446011
 30
0.0
 10
119.258700
 20
151.340654
 30
0.0
 10
119.071163
 20
151.153118
 30
0.0
  0
SPLINE
  5
182
100
AcDbEntity
  8
0
 62
7
100
AcDbSpline
 70
8
 71
3
 72
8
 73
4
 74
0
 40
0
 40
0
 40
0
 40
0
 40
1
 40
1
 40
1
 40
1
 10
119.071163
 20
151.153118
 30
0.0
 10
118.883627
 20
150.965581
 30
0.0
 10
118.778270
 20
150.711227
 30
0.0
 10
118.778270
 20
150.446011
 30
0.0
  0
SPLINE
  5
183
100
AcDbEntity
  8
0
 62
7
100
AcDbSpline
 70
8
 71
3
 72
8
 73
4
 74
0
 40
0
 40
0
 40
0
 40
0
 40
1
 40
1
 40
1
 40
1
 10
118.778270
 20
150.446011
 30
0.0
 10
118.778269
 20
150.180794
 30
0.0
 10
118.883626
 20
149.926440
 30
0.0
 10
119.071163
 20
149.738903
 30
0.0
  0
SPLINE
  5
184
100
AcDbEntity
  8
0
 62
7
100
AcDbSpline
 70
8
 71
3
 72
8
 73
4
 74
0
 40
0
 40
0
 40
0
 40
0
 40
1
 40
1
 40
1
 40
1
 10
119.071163
 20
149.738903
 30
0.0
 10
119.258699
 20
149.551366
 30
0.0
 10
119.513053
 20
149.446009
 30
0.0
 10
119.778270
 20
149.446009
 30
0.0
  0
SPLINE
  5
185
100
AcDbEntity
  8
0
 62
7
100
AcDbSpline
 70
8
 71
3
 72
8
 73
4
 74
0
 40
0
 40
0
 40
0
 40
0
 40
1
 40
1
 40
1
 40
1
 10
119.778270
 20
149.446009
 30
0.0
 10
120.043487
 20
149.446009
 30
0.0
 10
120.297841
 20
149.551366
 30
0.0
 10
120.485377
 20
149.738903
 30
0.0
  0
SPLINE
  5
186
100
AcDbEntity
  8
0
 62
7
100
AcDbSpline
 70
8
 71
3
 72
8
 73
4
 74
0
 40
0
 40
0
 40
0
 40
0
 40
1
 40
1
 40
1
 40
1
 10
120.485377
 20
149.738903
 30
0.0
 10
120.672914
 20
149.926440
 30
0.0
 10
120.778271
 20
150.180794
 30
0.0
 10
120.778270
 20
150.446011
 30
0.0
  0
LINE
  5
187
100
AcDbEntity
  8
0
 62
7
100
AcDbLine
 10
120.778270
 20
150.446011
 30
0.0
 11
120.778270
 21
150.446011
 31
0.0
  0
SPLINE
  5
188
100
AcDbEntity
  8
0
 62
7
100
AcDbSpline
 70
8
 71
3
 72
8
 73
4
 74
0
 40
0
 40
0
 40
0
 40
0
 40
1
 40
1
 40
1
 40
1
 10
123.282850
 20
153.458186
 30
0.0
 10
123.282850
 20
153.723402
 30
0.0
 10
123.177493
 20
153.977756
 30
0.0
 10
122.989957
 20
154.165293
 30
0.0
  0
SPLINE
  5
189
100
AcDbEntity
  8
0
 62
7
100
AcDbSpline
 70
8
 71
3
 72
8
 73
4
 74
0
 40
0
 40
0
 40
0
 40
0
 40
1
 40
1
 40
1
 40
1
 10
122.989957
 20
154.165293
 30
0.0
 10
122.802420
 20
154.352829
 30
0.0
 10
122.548066
 20
154.458186
 30
0.0
 10
122.282850
 20
154.458186
 30
0.0
  0
SPLINE
  5
18a
100
AcDbEntity
  8
0
 62
7
100
AcDbSpline
 70
8
 71
3
 72
8
 73
4
 74
0
 40
0
 40
0
 40
0
 40
0
 40
1
 40
1
 40
1
 40
1
 10
122.282850
 20
154.458186
 30
0.0
 10
122.017634
 20
154.458186
 30
0.0
 10
121.763280
 20
154.352829
 30
0.0
 10
121.575743
 20
154.165293
 30
0.0
  0
SPLINE
  5
18b
100
AcDbEntity
  8
0
 62
7
100
AcDbSpline
 70
8
 71
3
 72
8
 73
4
 74
0
 40
0
 40
0
 40
0
 40
0
 40
1
 40
1
 40
1
 40
1
 10
121.575743
 20
154.165293
 30
0.0
 10
121.388207
 20
153.977756
 30
0.0
 10
121.282850
 20
153.723402
 30
0.0
 10
121.282850
 20
153.458186
 30
0.0
  0
SPLINE
  5
18c
100
AcDbEntity
  8
0
 62
7
100
AcDbSpline
 70
8
 71
3
 72
8
 73
4
 74
0
 40
0
 40
0
 40
0
 40
0
 40
1
 40
1
 40
1
 40
1
 10
121.282850
 20
153.458186
 30
0.0
 10
121.282849
 20
153.192969
 30
0.0
 10
121.388206
 20
152.938615
 30
0.0
 10
121.575743
 20
152.751078
 30
0.0
  0
SPLINE
  5
18d
100
AcDbEntity
  8
0
 62
7
100
AcDbSpline
 70
8
 71
3
 72
8
 73
4
 74
0
 40
0
 40
0
 40
0
 40
0
 40
1
 40
1
 40
1
 40
1
 10
121.575743
 20
152.751078
 30
0.0
 10
121.763279
 20
152.563541
 30
0.0
 10
122.017633
 20
152.458184
 30
0.0
 10
122.282850
 20
152.458184
 30
0.0
  0
SPLINE
  5
18e
100
AcDbEntity
  8
0
 62
7
100
AcDbSpline
 70
8
 71
3
 72
8
 73
4
 74
0
 40
0
 40
0
 40
0
 40
0
 40
1
 40
1
 40
1
 40
1
 10
122.282850
 20
152.458184
 30
0.0
 10
122.548067
 20
152.458184
 30
0.0
 10
122.802421
 20
152.563541
 30
0.0
 10
122.989957
 20
152.751078
 30
0.0
  0
SPLINE
  5
18f
100
AcDbEntity
  8
0
 62
7
100
AcDbSpline
 70
8
 71
3
 72
8
 73
4
 74
0
 40
0
 40
0
 40
0
 40
0
 40
1
 40
1
 40
1
 40
1
 10
122.989957
 20
152.751078
 30
0.0
 10
123.177494
 20
152.938615
 30
0.0
 10
123.282851
 20
153.192969
 30
0.0
 10
123.282850
 20
153.458186
 30
0.0
  0
LINE
  5
190
100
AcDbEntity
  8
0
 62
7
100
AcDbLine
 10
123.282850
 20
153.458186
 30
0.0
 11
123.282850
 21
153.458186
 31
0.0
  0
SPLINE
  5
191
100
AcDbEntity
  8
0
 62
7
100
AcDbSpline
 70
8
 71
3
 72
8
 73
4
 74
0
 40
0
 40
0
 40
0
 40
0
 40
1
 40
1
 40
1
 40
1
 10
127.136810
 20
154.208631
 30
0.0
 10
127.136810
 20
154.473847
 30
0.0
 10
127.031453
 20
154.728201
 30
0.0
 10
126.843917
 20
154.915738
 30
0.0
  0
SPLINE
  5
192
100
AcDbEntity
  8
0
 62
7
100
AcDbSpline
 70
8
 71
3
 72
8
 73
4
 74
0
 40
0
 40
0
 40
0
 40
0
 40
1
 40
1
 40
1
 40
1
 10
126.843917
 20
154.915738
 30
0.0
 10
126.656380
 20
155.103274
 30
0.0
 10
126.402026
 20
155.208631
 30
0.0
 10
126.136810
 20
155.208631
 30
0.0
  0
SPLINE
  5
193
100
AcDbEntity
  8
0
 62
7
100
AcDbSpline
 70
8
 71
3
 72
8
 73
4
 74
0
 40
0
 40
0
 40
0
 40
0
 40
1
 40
1
 40
1
 40
1
 10
126.136810
 20
155.208631
 30
0.0
 10
125.871594
 20
155.208631
 30
0.0
 10
125.617240
 20
155.103274
 30
0.0
 10
125.429703
 20
154.915738
 30
0.0
  0
SPLINE
  5
194
100
AcDbEntity
  8
0
 62
7
100
AcDbSpline
 70
8
 71
3
 72
8
 73
4
 74
0
 40
0
 40
0
 40
0
 40
0
 40
1
 40
1
 40
1
 40
1
 10
125.429703
 20
154.915738
 30
0.0
 10
125.242167
 20
154.728201
 30
0.0
 10
125.136810
 20
154.473847
 30
0.0
 10
125.136810
 20
154.208631
 30
0.0
  0
SPLINE
  5
195
100
AcDbEntity
  8
0
 62
7
100
AcDbSpline
 70
8
 71
3
 72
8
 73
4
 74
0
 40
0
 40
0
 40
0
 40
0
 40
1
 40
1
 40
1
 40
1
 10
125.136810
 20
154.208631
 30
0.0
 10
125.136809
 20
153.943414
 30
0.0
 10
125.242166
 20
153.689060
 30
0.0
 10
125.429703
 20
153.501523
 30
0.0
  0
SPLINE
  5
196
100
AcDbEntity
  8
0
 62
7
100
AcDbSpline
 70
8
 71
3
 72
8
 73
4
 74
0
 40
0
 40
0
 40
0
 40
0
 40
1
 40
1
 40
1
 40
1
 10
125.429703
 20
153.501523
 30
0.0
 10
125.617239
 20
153.313986
 30
0.0
 10
125.871593
 20
153.208629
 30
0.0
 10
126.136810
 20
153.208629
 30
0.0
  0
SPLINE
  5
197
100
AcDbEntity
  8
0
 62
7
100
AcDbSpline
 70
8
 71
3
 72
8
 73
4
 74
0
 40
0
 40
0
 40
0
 40
0
 40
1
 40
1
 40
1
 40
1
 10
126.136810
 20
153.208629
 30
0.0
 10
126.402027
 20
153.208629
 30
0.0
 10
126.656381
 20
153.313986
 30
0.0
 10
126.843917
 20
153.501523
 30
0.0
  0
SPLINE
  5
198
100
AcDbEntity
  8
0
 62
7
100
AcDbSpline
 70
8
 71
3
 72
8
 73
4
 74
0
 40
0
 40
0
 40
0
 40
0
 40
1
 40
1
 40
1
 40
1
 10
126.843917
 20
153.501523
 30
0.0
 10
127.031454
 20
153.689060
 30
0.0
 10
127.136811
 20
153.943414
 30
0.0
 10
127.136810
 20
154.208631
 30
0.0
  0
LINE
  5
199
100
AcDbEntity
  8
0
 62
7
100
AcDbLine
 10
127.136810
 20
154.208631
 30
0.0
 11
127.136810
 21
154.208631
 31
0.0
  0
SPLINE
  5
19a
100
AcDbEntity
  8
0
 62
7
100
AcDbSpline
 70
8
 71
3
 72
8
 73
4
 74
0
 40
0
 40
0
 40
0
 40
0
 40
1
 40
1
 40
1
 40
1
 10
130.687890
 20
152.525095
 30
0.0
 10
130.687890
 20
152.790311
 30
0.0
 10
130.582533
 20
153.044665
 30
0.0
 10
130.394997
 20
153.232202
 30
0.0
  0
SPLINE
  5
19b
100
AcDbEntity
  8
0
 62
7
100
AcDbSpline
 70
8
 71
3
 72
8
 73
4
 74
0
 40
0
 40
0
 40
0
 40
0
 40
1
 40
1
 40
1
 40
1
 10
130.394997
 20
153.232202
 30
0.0
 10
130.207460
 20
153.419738
 30
0.0
 10
129.953106
 20
153.525095
 30
0.0
 10
129.687890
 20
153.525095
 30
0.0
  0
SPLINE
  5
19c
100
AcDbEntity
  8
0
 62
7
100
AcDbSpline
 70
8
 71
3
 72
8
 73
4
 74
0
 40
0
 40
0
 40
0
 40
0
 40
1
 40
1
 40
1
 40
1
 10
129.687890
 20
153.525095
 30
0.0
 10
129.422674
 20
153.525095
 30
0.0
 10
129.168320
 20
153.419738
 30
0.0
 10
128.980783
 20
153.232202
 30
0.0
  0
SPLINE
  5
19d
100
AcDbEntity
  8
0
 62
7
100
AcDbSpline
 70
8
 71
3
 72
8
 73
4
 74
0
 40
0
 40
0
 40
0
 40
0
 40
1
 40
1
 40
1
 40
1
 10
128.980783
 20
153.232202
 30
0.0
 10
128.793247
 20
153.044665
 30
0.0
 10
128.687890
 20
152.790311
 30
0.0
 10
128.687890
 20
152.525095
 30
0.0
  0
SPLINE
  5
19e
100
AcDbEntity
  8
0
 62
7
100
AcDbSpline
 70
8
 71
3
 72
8
 73
4
 74
0
 40
0
 40
0
 40
0
 40
0
 40
1
 40
1
 40
1
 40
1
 10
128.687890
 20
152.525095
 30
0.0
 10
128.687889
 20
152.259878
 30
0.0
 10
128.793246
 20
152.005524
 30
0.0
 10
128.980783
 20
151.817987
 30
0.0
  0
SPLINE
  5
19f
100
AcDbEntity
  8
0
 62
7
100
AcDbSpline
 70
8
 71
3
 72
8
 73
4
 74
0
 40
0
 40
0
 40
0
 40
0
 40
1
 40
1
 40
1
 40
1
 10
128.980783
 20
151.817987
 30
0.0
 10
129.168319
 20
151.630450
 30
0.0
 10
129.422673
 20
151.525093
 30
0.0
 10
129.687890
 20
151.525093
 30
0.0
  0
SPLINE
  5
1a0
100
AcDbEntity
  8
0
 62
7
100
AcDbSpline
 70
8
 71
3
 72
8
 73
4
 74
0
 40
0
 40
0
 40
0
 40
0
 40
1
 40
1
 40
1
 40
1
 10
129.687890
 20
151.525093
 30
0.0
 10
129.953107
 20
151.525093
 30
0.0
 10
130.207461
 20
151.630450
 30
0.0
 10
130.394997
 20
151.817987
 30
0.0
  0
SPLINE
  5
1a1
100
AcDbEntity
  8
0
 62
7
100
AcDbSpline
 70
8
 71
3
 72
8
 73
4
 74
0
 40
0
 40
0
 40
0
 40
0
 40
1
 40
1
 40
1
 40
1
 10
130.394997
 20
151.817987
 30
0.0
 10
130.582534
 20
152.005524
 30
0.0
 10
130.687891
 20
152.259878
 30
0.0
 10
130.687890
 20
152.525095
 30
0.0
  0
LINE
  5
1a2
100
AcDbEntity
  8
0
 62
7
100
AcDbLine
 10
130.687890
 20
152.525095
 30
0.0
 11
130.687890
 21
152.525095
 31
0.0
  0
SPLINE
  5
1a3
100
AcDbEntity
  8
0
 62
7
100
AcDbSpline
 70
8
 71
3
 72
8
 73
4
 74
0
 40
0
 40
0
 40
0
 40
0
 40
1
 40
1
 40
1
 40
1
 10
132.556300
 20
149.066202
 30
0.0
 10
132.556300
 20
149.331418
 30
0.0
 10
132.450943
 20
149.585772
 30
0.0
 10
132.263407
 20
149.773309
 30
0.0
  0
SPLINE
  5
1a4
100
AcDbEntity
  8
0
 62
7
100
AcDbSpline
 70
8
 71
3
 72
8
 73
4
 74
0
 40
0
 40
0
 40
0
 40
0
 40
1
 40
1
 40
1
 40
1
 10
132.263407
 20
149.773309
 30
0.0
 10
132.075870
 20
149.960845
 30
0.0
 10
131.821516
 20
150.066202
 30
0.0
 10
131.556300
 20
150.066202
 30
0.0
  0
SPLINE
  5
1a5
100
AcDbEntity
  8
0
 62
7
100
AcDbSpline
 70
8
 71
3
 72
8
 73
4
 74
0
 40
0
 40
0
 40
0
 40
0
 40
1
 40
1
 40
1
 40
1
 10
131.556300
 20
150.066202
 30
0.0
 10
131.291084
 20
150.066202
 30
0.0
 10
131.036730
 20
149.960845
 30
0.0
 10
130.849193
 20
149.773309
 30
0.0
  0
SPLINE
  5
1a6
100
AcDbEntity
  8
0
 62
7
100
AcDbSpline
 70
8
 71
3
 72
8
 73
4
 74
0
 40
0
 40
0
 40
0
 40
0
 40
1
 40
1
 40
1
 40
1
 10
130.849193
 20
149.773309
 30
0.0
 10
130.661657
 20
149.585772
 30
0.0
 10
130.556300
 20
149.331418
 30
0.0
 10
130.556300
 20
149.066202
 30
0.0
  0
SPLINE
  5
1a7
100
AcDbEntity
  8
0
 62
7
100
AcDbSpline
 70
8
 71
3
 72
8
 73
4
 74
0
 40
0
 40
0
 40
0
 40
0
 40
1
 40
1
 40
1
 40
1
 10
130.556300
 20
149.066202
 30
0.0
 10
130.556299
 20
148.800985
 30
0.0
 10
130.661656
 20
148.546631
 30
0.0
 10
130.849193
 20
148.359094
 30
0.0
  0
SPLINE
  5
1a8
100
AcDbEntity
  8
0
 62
7
100
AcDbSpline
 70
8
 71
3
 72
8
 73
4
 74
0
 40
0
 40
0
 40
0
 40
0
 40
1
 40
1
 40
1
 40
1
 10
130.849193
 20
148.359094
 30
0.0
 10
131.036729
 20
148.171557
 30
0.0
 10
131.291083
 20
148.066200
 30
0.0
 10
131.556300
 20
148.066200
 30
0.0
  0
SPLINE
  5
1a9
100
AcDbEntity
  8
0
 62
7
100
AcDbSpline
 70
8
 71
3
 72
8
 73
4
 74
0
 40
0
 40
0
 40
0
 40
0
 40
1
 40
1
 40
1
 40
1
 10
131.556300
 20
148.066200
 30
0.0
 10
131.821517
 20
148.066200
 30
0.0
 10
132.075871
 20
148.171557
 30
0.0
 10
132.263407
 20
148.359094
 30
0.0
  0
SPLINE
  5
1aa
100
AcDbEntity
  8
0
 62
7
100
AcDbSpline
 70
8
 71
3
 72
8
 73
4
 74
0
 40
0
 40
0
 40
0
 40
0
 40
1
 40
1
 40
1
 40
1
 10
132.263407
 20
148.359094
 30
0.0
 10
132.450944
 20
148.546631
 30
0.0
 10
132.556301
 20
148.800985
 30
0.0
 10
132.556300
 20
149.066202
 30
0.0
  0
LINE
  5
1ab
100
AcDbEntity
  8
0
 62
7
100
AcDbLine
 10
132.556300
 20
149.066202
 30
0.0
 11
132.556300
 21
149.066202
 31
0.0
  0
SPLINE
  5
1ac
100
AcDbEntity
  8
0
 62
7
100
AcDbSpline
 70
8
 71
3
 72
8
 73
4
 74
0
 40
0
 40
0
 40
0
 40
0
 40
1
 40
1
 40
1
 40
1
 10
132.149370
 20
145.146350
 30
0.0
 10
132.149370
 20
145.411566
 30
0.0
 10
132.044013
 20
145.665920
 30
0.0
 10
131.856477
 20
145.853457
 30
0.0
  0
SPLINE
  5
1ad
100
AcDbEntity
  8
0
 62
7
100
AcDbSpline
 70
8
 71
3
 72
8
 73
4
 74
0
 40
0
 40
0
 40
0
 40
0
 40
1
 40
1
 40
1
 40
1
 10
131.856477
 20
145.853457
 30
0.0
 10
131.668940
 20
146.040993
 30
0.0
 10
131.414586
 20
146.146350
 30
0.0
 10
131.149370
 20
146.146350
 30
0.0
  0
SPLINE
  5
1ae
100
AcDbEntity
  8
0
 62
7
100
AcDbSpline
 70
8
 71
3
 72
8
 73
4
 74
0
 40
0
 40
0
 40
0
 40
0
 40
1
 40
1
 40
1
 40
1
 10
131.149370
 20
146.146350
 30
0.0
 10
130.884154
 20
146.146350
 30
0.0
 10
130.629800
 20
146.040993
 30
0.0
 10
130.442263
 20
145.853457
 30
0.0
  0
SPLINE
  5
1af
100
AcDbEntity
  8
0
 62
7
100
AcDbSpline
 70
8
 71
3
 72
8
 73
4
 74
0
 40
0
 40
0
 40
0
 40
0
 40
1
 40
1
 40
1
 40
1
 10
130.442263
 20
145.853457
 30
0.0
 10
130.254727
 20
145.665920
 30
0.0
 10
130.149370
 20
145.411566
 30
0.0
 10
130.149370
 20
145.146350
 30
0.0
  0
SPLINE
  5
1b0
100
AcDbEntity
  8
0
 62
7
100
AcDbSpline
 70
8
 71
3
 72
8
 73
4
 74
0
 40
0
 40
0
 40
0
 40
0
 40
1
 40
1
 40
1
 40
1
 10
130.149370
 20
145.146350
 30
0.0
 10
130.149369
 20
144.881133
 30
0.0
 10
130.254726
 20
144.626779
 30
0.0
 10
130.442263
 20
144.439242
 30
0.0
  0
SPLINE
  5
1b1
100
AcDbEntity
  8
0
 62
7
100
AcDbSpline
 70
8
 71
3
 72
8
 73
4
 74
0
 40
0
 40
0
 40
0
 40
0
 40
1
 40
1
 40
1
 40
1
 10
130.442263
 20
144.439242
 30
0.0
 10
130.629799
 20
144.251705
 30
0.0
 10
130.884153
 20
144.146348
 30
0.0
 10
131.149370
 20
144.146348
 30
0.0
  0
SPLINE
  5
1b2
100
AcDbEntity
  8
0
 62
7
100
AcDbSpline
 70
8
 71
3
 72
8
 73
4
 74
0
 40
0
 40
0
 40
0
 40
0
 40
1
 40
1
 40
1
 40
1
 10
131.149370
 20
144.146348
 30
0.0
 10
131.414587
 20
144.146348
 30
0.0
 10
131.668941
 20
144.251705
 30
0.0
 10
131.856477
 20
144.439242
 30
0.0
  0
SPLINE
  5
1b3
100
AcDbEntity
  8
0
 62
7
100
AcDbSpline
 70
8
 71
3
 72
8
 73
4
 74
0
 40
0
 40
0
 40
0
 40
0
 40
1
 40
1
 40
1
 40
1
 10
131.856477
 20
144.439242
 30
0.0
 10
132.044014
 20
144.626779
 30
0.0
 10
132.149371
 20
144.881133
 30
0.0
 10
132.149370
 20
145.146350
 30
0.0
  0
LINE
  5
1b4
100
AcDbEntity
  8
0
 62
7
100
AcDbLine
 10
132.149370
 20
145.146350
 30
0.0
 11
132.149370
 21
145.146350
 31
0.0
  0
SPLINE
  5
1b5
100
AcDbEntity
  8
0
 62
7
100
AcDbSpline
 70
8
 71
3
 72
8
 73
4
 74
0
 40
0
 40
0
 40
0
 40
0
 40
1
 40
1
 40
1
 40
1
 10
129.670170
 20
142.086047
 30
0.0
 10
129.670170
 20
142.351263
 30
0.0
 10
129.564813
 20
142.605617
 30
0.0
 10
129.377277
 20
142.793154
 30
0.0
  0
SPLINE
  5
1b6
100
AcDbEntity
  8
0
 62
7
100
AcDbSpline
 70
8
 71
3
 72
8
 73
4
 74
0
 40
0
 40
0
 40
0
 40
0
 40
1
 40
1
 40
1
 40
1
 10
129.377277
 20
142.793154
 30
0.0
 10
129.189740
 20
142.980690
 30
0.0
 10
128.935386
 20
143.086047
 30
0.0
 10
128.670170
 20
143.086047
 30
0.0
  0
SPLINE
  5
1b7
100
AcDbEntity
  8
0
 62
7
100
AcDbSpline
 70
8
 71
3
 72
8
 73
4
 74
0
 40
0
 40
0
 40
0
 40
0
 40
1
 40
1
 40
1
 40
1
 10
128.670170
 20
143.086047
 30
0.0
 10
128.404954
 20
143.086047
 30
0.0
 10
128.150600
 20
142.980690
 30
0.0
 10
127.963063
 20
142.793154
 30
0.0
  0
SPLINE
  5
1b8
100
AcDbEntity
  8
0
 62
7
100
AcDbSpline
 70
8
 71
3
 72
8
 73
4
 74
0
 40
0
 40
0
 40
0
 40
0
 40
1
 40
1
 40
1
 40
1
 10
127.963063
 20
142.793154
 30
0.0
 10
127.775527
 20
142.605617
 30
0.0
 10
127.670170
 20
142.351263
 30
0.0
 10
127.670170
 20
142.086047
 30
0.0
  0
SPLINE
  5
1b9
100
AcDbEntity
  8
0
 62
7
100
AcDbSpline
 70
8
 71
3
 72
8
 73
4
 74
0
 40
0
 40
0
 40
0
 40
0
 40
1
 40
1
 40
1
 40
1
 10
127.670170
 20
142.086047
 30
0.0
 10
127.670169
 20
141.820830
 30
0.0
 10
127.775526
 20
141.566476
 30
0.0
 10
127.963063
 20
141.378939
 30
0.0
  0
SPLINE
  5
1ba
100
AcDbEntity
  8
0
 62
7
100
AcDbSpline
 70
8
 71
3
 72
8
 73
4
 74
0
 40
0
 40
0
 40
0
 40
0
 40
1
 40
1
 40
1
 40
1
 10
127.963063
 20
141.378939
 30
0.0
 10
128.150599
 20
141.191402
 30
0.0
 10
128.404953
 20
141.086045
 30
0.0
 10
128.670170
 20
141.086045
 30
0.0
  0
SPLINE
  5
1bb
100
AcDbEntity
  8
0
 62
7
100
AcDbSpline
 70
8
 71
3
 72
8
 73
4
 74
0
 40
0
 40
0
 40
0
 40
0
 40
1
 40
1
 40
1
 40
1
 10
128.670170
 20
141.086045
 30
0.0
 10
128.935387
 20
141.086045
 30
0.0
 10
129.189741
 20
141.191402
 30
0.0
 10
129.377277
 20
141.378939
 30
0.0
  0
SPLINE
  5
1bc
100
AcDbEntity
  8
0
 62
7
100
AcDbSpline
 70
8
 71
3
 72
8
 73
4
 74
0
 40
0
 40
0
 40
0
 40
0
 40
1
 40
1
 40
1
 40
1
 10
129.377277
 20
141.378939
 30
0.0
 10
129.564814
 20
141.566476
 30
0.0
 10
129.670171
 20
141.820830
 30
0.0
 10
129.670170
 20
142.086047
 30
0.0
  0
LINE
  5
1bd
100
AcDbEntity
  8
0
 62
7
100
AcDbLine
 10
129.670170
 20
142.086047
 30
0.0
 11
129.670170
 21
142.086047
 31
0.0
  0
SPLINE
  5
1be
100
AcDbEntity
  8
0
 62
7
100
AcDbSpline
 70
8
 71
3
 72
8
 73
4
 74
0
 40
0
 40
0
 40
0
 40
0
 40
1
 40
1
 40
1
 40
1
 10
125.920310
 20
140.861756
 30
0.0
 10
125.920310
 20
141.126972
 30
0.0
 10
125.814953
 20
141.381326
 30
0.0
 10
125.627417
 20
141.568863
 30
0.0
  0
SPLINE
  5
1bf
100
AcDbEntity
  8
0
 62
7
100
AcDbSpline
 70
8
 71
3
 72
8
 73
4
 74
0
 40
0
 40
0
 40
0
 40
0
 40
1
 40
1
 40
1
 40
1
 10
125.627417
 20
141.568863
 30
0.0
 10
125.439880
 20
141.756399
 30
0.0
 10
125.185526
 20
141.861756
 30
0.0
 10
124.920310
 20
141.861756
 30
0.0
  0
SPLINE
  5
1c0
100
AcDbEntity
  8
0
 62
7
100
AcDbSpline
 70
8
 71
3
 72
8
 73
4
 74
0
 40
0
 40
0
 40
0
 40
0
 40
1
 40
1
 40
1
 40
1
 10
124.920310
 20
141.861756
 30
0.0
 10
124.655094
 20
141.861756
 30
0.0
 10
124.400740
 20
141.756399
 30
0.0
 10
124.213203
 20
141.568863
 30
0.0
  0
SPLINE
  5
1c1
100
AcDbEntity
  8
0
 62
7
100
AcDbSpline
 70
8
 71
3
 72
8
 73
4
 74
0
 40
0
 40
0
 40
0
 40
0
 40
1
 40
1
 40
1
 40
1
 10
124.213203
 20
141.568863
 30
0.0
 10
124.025667
 20
141.381326
 30
0.0
 10
123.920310
 20
141.126972
 30
0.0
 10
123.920310
 20
140.861756
 30
0.0
  0
SPLINE
  5
1c2
100
AcDbEntity
  8
0
 62
7
100
AcDbSpline
 70
8
 71
3
 72
8
 73
4
 74
0
 40
0
 40
0
 40
0
 40
0
 40
1
 40
1
 40
1
 40
1
 10
123.920310
 20
140.861756
 30
0.0
 10
123.920309
 20
140.596539
 30
0.0
 10
124.025666
 20
140.342185
 30
0.0
 10
124.213203
 20
140.154648
 30
0.0
  0
SPLINE
  5
1c3
100
AcDbEntity
  8
0
 62
7
100
AcDbSpline
 70
8
 71
3
 72
8
 73
4
 74
0
 40
0
 40
0
 40
0
 40
0
 40
1
 40
1
 40
1
 40
1
 10
124.213203
 20
140.154648
 30
0.0
 10
124.400739
 20
139.967111
 30
0.0
 10
124.655093
 20
139.861754
 30
0.0
 10
124.920310
 20
139.861754
 30
0.0
  0
SPLINE
  5
1c4
100
AcDbEntity
  8
0
 62
7
100
AcDbSpline
 70
8
 71
3
 72
8
 73
4
 74
0
 40
0
 40
0
 40
0
 40
0
 40
1
 40
1
 40
1
 40
1
 10
124.920310
 20
139.861754
 30
0.0
 10
125.185527
 20
139.861754
 30
0.0
 10
125.439881
 20
139.967111
 30
0.0
 10
125.627417
 20
140.154648
 30
0.0
  0
SPLINE
  5
1c5
100
AcDbEntity
  8
0
 62
7
100
AcDbSpline
 70
8
 71
3
 72
8
 73
4
 74
0
 40
0
 40
0
 40
0
 40
0
 40
1
 40
1
 40
1
 40
1
 10
125.627417
 20
140.154648
 30
0.0
 10
125.814954
 20
140.342185
 30
0.0
 10
125.920311
 20
140.596539
 30
0.0
 10
125.920310
 20
140.861756
 30
0.0
  0
LINE
  5
1c6
100
AcDbEntity
  8
0
 62
7
100
AcDbLine
 10
125.920310
 20
140.861756
 30
0.0
 11
125.920310
 21
140.861756
 31
0.0
  0
SPLINE
  5
1c7
100
AcDbEntity
  8
0
 62
7
100
AcDbSpline
 70
8
 71
3
 72
8
 73
4
 74
0
 40
0
 40
0
 40
0
 40
0
 40
1
 40
1
 40
1
 40
1
 10
122.070750
 20
141.749533
 30
0.0
 10
122.070750
 20
142.014749
 30
0.0
 10
121.965393
 20
142.269103
 30
0.0
 10
121.777857
 20
142.456640
 30
0.0
  0
SPLINE
  5
1c8
100
AcDbEntity
  8
0
 62
7
100
AcDbSpline
 70
8
 71
3
 72
8
 73
4
 74
0
 40
0
 40
0
 40
0
 40
0
 40
1
 40
1
 40
1
 40
1
 10
121.777857
 20
142.456640
 30
0.0
 10
121.590320
 20
142.644176
 30
0.0
 10
121.335966
 20
142.749533
 30
0.0
 10
121.070750
 20
142.749533
 30
0.0
  0
SPLINE
  5
1c9
100
AcDbEntity
  8
0
 62
7
100
AcDbSpline
 70
8
 71
3
 72
8
 73
4
 74
0
 40
0
 40
0
 40
0
 40
0
 40
1
 40
1
 40
1
 40
1
 10
121.070750
 20
142.749533
 30
0.0
 10
120.805534
 20
142.749533
 30
0.0
 10
120.551180
 20
142.644176
 30
0.0
 10
120.363643
 20
142.456640
 30
0.0
  0
SPLINE
  5
1ca
100
AcDbEntity
  8
0
 62
7
100
AcDbSpline
 70
8
 71
3
 72
8
 73
4
 74
0
 40
0
 40
0
 40
0
 40
0
 40
1
 40
1
 40
1
 40
1
 10
120.363643
 20
142.456640
 30
0.0
 10
120.176107
 20
142.269103
 30
0.0
 10
120.070750
 20
142.014749
 30
0.0
 10
120.070750
 20
141.749533
 30
0.0
  0
SPLINE
  5
1cb
100
AcDbEntity
  8
0
 62
7
100
AcDbSpline
 70
8
 71
3
 72
8
 73
4
 74
0
 40
0
 40
0
 40
0
 40
0
 40
1
 40
1
 40
1
 40
1
 10
120.070750
 20
141.749533
 30
0.0
 10
120.070749
 20
141.484316
 30
0.0
 10
120.176106
 20
141.229962
 30
0.0
 10
120.363643
 20
141.042425
 30
0.0
  0
SPLINE
  5
1cc
100
AcDbEntity
  8
0
 62
7
100
AcDbSpline
 70
8
 71
3
 72
8
 73
4
 74
0
 40
0
 40
0
 40
0
 40
0
 40
1
 40
1
 40
1
 40
1
 10
120.363643
 20
141.042425
 30
0.0
 10
120.551179
 20
140.854888
 30
0.0
 10
120.805533
 20
140.749531
 30
0.0
 10
121.070750
 20
140.749531
 30
0.0
  0
SPLINE
  5
1cd
100
AcDbEntity
  8
0
 62
7
100
AcDbSpline
 70
8
 71
3
 72
8
 73
4
 74
0
 40
0
 40
0
 40
0
 40
0
 40
1
 40
1
 40
1
 40
1
 10
121.070750
 20
140.749531
 30
0.0
 10
121.335967
 20
140.749531
 30
0.0
 10
121.590321
 20
140.854888
 30
0.0
 10
121.777857
 20
141.042425
 30
0.0
  0
SPLINE
  5
1ce
100
AcDbEntity
  8
0
 62
7
100
AcDbSpline
 70
8
 71
3
 72
8
 73
4
 74
0
 40
0
 40
0
 40
0
 40
0
 40
1
 40
1
 40
1
 40
1
 10
121.777857
 20
141.042425
 30
0.0
 10
121.965394
 20
141.229962
 30
0.0
 10
122.070751
 20
141.484316
 30
0.0
 10
122.070750
 20
141.749533
 30
0.0
  0
LINE
  5
1cf
100
AcDbEntity
  8
0
 62
7
100
AcDbLine
 10
122.070750
 20
141.749533
 30
0.0
 11
122.070750
 21
141.749533
 31
0.0
  0
SPLINE
  5
1d0
100
AcDbEntity
  8
0
 62
7
100
AcDbSpline
 70
8
 71
3
 72
8
 73
4
 74
0
 40
0
 40
0
 40
0
 40
0
 40
1
 40
1
 40
1
 40
1
 10
119.206420
 20
144.465866
 30
0.0
 10
119.206420
 20
144.731082
 30
0.0
 10
119.101063
 20
144.985436
 30
0.0
 10
118.913527
 20
145.172973
 30
0.0
  0
SPLINE
  5
1d1
100
AcDbEntity
  8
0
 62
7
100
AcDbSpline
 70
8
 71
3
 72
8
 73
4
 74
0
 40
0
 40
0
 40
0
 40
0
 40
1
 40
1
 40
1
 40
1
 10
118.913527
 20
145.172973
 30
0.0
 10
118.725990
 20
145.360509
 30
0.0
 10
118.471636
 20
145.465866
 30
0.0
 10
118.206420
 20
145.465866
 30
0.0
  0
SPLINE
  5
1d2
100
AcDbEntity
  8
0
 62
7
100
AcDbSpline
 70
8
 71
3
 72
8
 73
4
 74
0
 40
0
 40
0
 40
0
 40
0
 40
1
 40
1
 40
1
 40
1
 10
118.206420
 20
145.465866
 30
0.0
 10
117.941204
 20
145.465866
 30
0.0
 10
117.686850
 20
145.360509
 30
0.0
 10
117.499313
 20
145.172973
 30
0.0
  0
SPLINE
  5
1d3
100
AcDbEntity
  8
0
 62
7
100
AcDbSpline
 70
8
 71
3
 72
8
 73
4
 74
0
 40
0
 40
0
 40
0
 40
0
 40
1
 40
1
 40
1
 40
1
 10
117.499313
 20
145.172973
 30
0.0
 10
117.311777
 20
144.985436
 30
0.0
 10
117.206420
 20
144.731082
 30
0.0
 10
117.206420
 20
144.465866
 30
0.0
  0
SPLINE
  5
1d4
100
AcDbEntity
  8
0
 62
7
100
AcDbSpline
 70
8
 71
3
 72
8
 73
4
 74
0
 40
0
 40
0
 40
0
 40
0
 40
1
 40
1
 40
1
 40
1
 10
117.206420
 20
144.465866
 30
0.0
 10
117.206419
 20
144.200649
 30
0.0
 10
117.311776
 20
143.946295
 30
0.0
 10
117.499313
 20
143.758758
 30
0.0
  0
SPLINE
  5
1d5
100
AcDbEntity
  8
0
 62
7
100
AcDbSpline
 70
8
 71
3
 72
8
 73
4
 74
0
 40
0
 40
0
 40
0
 40
0
 40
1
 40
1
 40
1
 40
1
 10
117.499313
 20
143.758758
 30
0.0
 10
117.686849
 20
143.571221
 30
0.0
 10
117.941203
 20
143.465864
 30
0.0
 10
118.206420
 20
143.465864
 30
0.0
  0
SPLINE
  5
1d6
100
AcDbEntity
  8
0
 62
7
100
AcDbSpline
 70
8
 71
3
 72
8
 73
4
 74
0
 40
0
 40
0
 40
0
 40
0
 40
1
 40
1
 40
1
 40
1
 10
118.206420
 20
143.465864
 30
0.0
 10
118.471637
 20
143.465864
 30
0.0
 10
118.725991
 20
143.571221
 30
0.0
 10
118.913527
 20
143.758758
 30
0.0
  0
SPLINE
  5
1d7
100
AcDbEntity
  8
0
 62
7
100
AcDbSpline
 70
8
 71
3
 72
8
 73
4
 74
0
 40
0
 40
0
 40
0
 40
0
 40
1
 40
1
 40
1
 40
1
 10
118.913527
 20
143.758758
 30
0.0
 10
119.101064
 20
143.946295
 30
0.0
 10
119.206421
 20
144.200649
 30
0.0
 10
119.206420
 20
144.465866
 30
0.0
  0
LINE
  5
1d8
100
AcDbEntity
  8
0
 62
7
100
AcDbLine
 10
119.206420
 20
144.465866
 30
0.0
 11
119.206420
 21
144.465866
 31
0.0
  0
SPLINE
  5
1d9
100
AcDbEntity
  8
0
 62
7
100
AcDbSpline
 70
8
 71
3
 72
8
 73
4
 74
0
 40
0
 40
0
 40
0
 40
0
 40
1
 40
1
 40
1
 40
1
 10
118.101720
 20
148.261782
 30
0.0
 10
118.101720
 20
148.526998
 30
0.0
 10
117.996363
 20
148.781352
 30
0.0
 10
117.808827
 20
148.968889
 30
0.0
  0
SPLINE
  5
1da
100
AcDbEntity
  8
0
 62
7
100
AcDbSpline
 70
8
 71
3
 72
8
 73
4
 74
0
 40
0
 40
0
 40
0
 40
0
 40
1
 40
1
 40
1
 40
1
 10
117.808827
 20
148.968889
 30
0.0
 10
117.621290
 20
149.156425
 30
0.0
 10
117.366936
 20
149.261782
 30
0.0
 10
117.101720
 20
149.261782
 30
0.0
  0
SPLINE
  5
1db
100
AcDbEntity
  8
0
 62
7
100
AcDbSpline
 70
8
 71
3
 72
8
 73
4
 74
0
 40
0
 40
0
 40
0
 40
0
 40
1
 40
1
 40
1
 40
1
 10
117.101720
 20
149.261782
 30
0.0
 10
116.836504
 20
149.261782
 30
0.0
 10
116.582150
 20
149.156425
 30
0.0
 10
116.394613
 20
148.968889
 30
0.0
  0
SPLINE
  5
1dc
100
AcDbEntity
  8
0
 62
7
100
AcDbSpline
 70
8
 71
3
 72
8
 73
4
 74
0
 40
0
 40
0
 40
0
 40
0
 40
1
 40
1
 40
1
 40
1
 10
116.394613
 20
148.968889
 30
0.0
 10
116.207077
 20
148.781352
 30
0.0
 10
116.101720
 20
148.526998
 30
0.0
 10
116.101720
 20
148.261782
 30
0.0
  0
SPLINE
  5
1dd
100
AcDbEntity
  8
0
 62
7
100
AcDbSpline
 70
8
 71
3
 72
8
 73
4
 74
0
 40
0
 40
0
 40
0
 40
0
 40
1
 40
1
 40
1
 40
1
 10
116.101720
 20
148.261782
 30
0.0
 10
116.101719
 20
147.996565
 30
0.0
 10
116.207076
 20
147.742211
 30
0.0
 10
116.394613
 20
147.554674
 30
0.0
  0
SPLINE
  5
1de
100
AcDbEntity
  8
0
 62
7
100
AcDbSpline
 70
8
 71
3
 72
8
 73
4
 74
0
 40
0
 40
0
 40
0
 40
0
 40
1
 40
1
 40
1
 40
1
 10
116.394613
 20
147.554674
 30
0.0
 10
116.582149
 20
147.367137
 30
0.0
 10
116.836503
 20
147.261780
 30
0.0
 10
117.101720
 20
147.261780
 30
0.0
  0
SPLINE
  5
1df
100
AcDbEntity
  8
0
 62
7
100
AcDbSpline
 70
8
 71
3
 72
8
 73
4
 74
0
 40
0
 40
0
 40
0
 40
0
 40
1
 40
1
 40
1
 40
1
 10
117.101720
 20
147.261780
 30
0.0
 10
117.366937
 20
147.261780
 30
0.0
 10
117.621291
 20
147.367137
 30
0.0
 10
117.808827
 20
147.554674
 30
0.0
  0
SPLINE
  5
1e0
100
AcDbEntity
  8
0
 62
7
100
AcDbSpline
 70
8
 71
3
 72
8
 73
4
 74
0
 40
0
 40
0
 40
0
 40
0
 40
1
 40
1
 40
1
 40
1
 10
117.808827
 20
147.554674
 30
0.0
 10
117.996364
 20
147.742211
 30
0.0
 10
118.101721
 20
147.996565
 30
0.0
 10
118.101720
 20
148.261782
 30
0.0
  0
LINE
  5
1e1
100
AcDbEntity
  8
0
 62
7
100
AcDbLine
 10
118.101720
 20
148.261782
 30
0.0
 11
118.101720
 21
148.261782
 31
0.0
  0
SPLINE
  5
1e2
100
AcDbEntity
  8
0
 62
7
100
AcDbSpline
 70
8
 71
3
 72
8
 73
4
 74
0
 40
0
 40
0
 40
0
 40
0
 40
1
 40
1
 40
1
 40
1
 10
118.956720
 20
152.127140
 30
0.0
 10
118.956720
 20
152.392356
 30
0.0
 10
118.851363
 20
152.646710
 30
0.0
 10
118.663827
 20
152.834247
 30
0.0
  0
SPLINE
  5
1e3
100
AcDbEntity
  8
0
 62
7
100
AcDbSpline
 70
8
 71
3
 72
8
 73
4
 74
0
 40
0
 40
0
 40
0
 40
0
 40
1
 40
1
 40
1
 40
1
 10
118.663827
 20
152.834247
 30
0.0
 10
118.476290
 20
153.021783
 30
0.0
 10
118.221936
 20
153.127140
 30
0.0
 10
117.956720
 20
153.127140
 30
0.0
  0
SPLINE
  5
1e4
100
AcDbEntity
  8
0
 62
7
100
AcDbSpline
 70
8
 71
3
 72
8
 73
4
 74
0
 40
0
 40
0
 40
0
 40
0
 40
1
 40
1
 40
1
 40
1
 10
117.956720
 20
153.127140
 30
0.0
 10
117.691504
 20
153.127140
 30
0.0
 10
117.437150
 20
153.021783
 30
0.0
 10
117.249613
 20
152.834247
 30
0.0
  0
SPLINE
  5
1e5
100
AcDbEntity
  8
0
 62
7
100
AcDbSpline
 70
8
 71
3
 72
8
 73
4
 74
0
 40
0
 40
0
 40
0
 40
0
 40
1
 40
1
 40
1
 40
1
 10
117.249613
 20
152.834247
 30
0.0
 10
117.062077
 20
152.646710
 30
0.0
 10
116.956720
 20
152.392356
 30
0.0
 10
116.956720
 20
152.127140
 30
0.0
  0
SPLINE
  5
1e6
100
AcDbEntity
  8
0
 62
7
100
AcDbSpline
 70
8
 71
3
 72
8
 73
4
 74
0
 40
0
 40
0
 40
0
 40
0
 40
1
 40
1
 40
1
 40
1
 10
116.956720
 20
152.127140
 30
0.0
 10
116.956719
 20
151.861923
 30
0.0
 10
117.062076
 20
151.607569
 30
0.0
 10
117.249613
 20
151.420032
 30
0.0
  0
SPLINE
  5
1e7
100
AcDbEntity
  8
0
 62
7
100
AcDbSpline
 70
8
 71
3
 72
8
 73
4
 74
0
 40
0
 40
0
 40
0
 40
0
 40
1
 40
1
 40
1
 40
1
 10
117.249613
 20
151.420032
 30
0.0
 10
117.437149
 20
151.232495
 30
0.0
 10
117.691503
 20
151.127138
 30
0.0
 10
117.956720
 20
151.127138
 30
0.0
  0
SPLINE
  5
1e8
100
AcDbEntity
  8
0
 62
7
100
AcDbSpline
 70
8
 71
3
 72
8
 73
4
 74
0
 40
0
 40
0
 40
0
 40
0
 40
1
 40
1
 40
1
 40
1
 10
117.956720
 20
151.127138
 30
0.0
 10
118.221937
 20
151.127138
 30
0.0
 10
118.476291
 20
151.232495
 30
0.0
 10
118.663827
 20
151.420032
 30
0.0
  0
SPLINE
  5
1e9
100
AcDbEntity
  8
0
 62
7
100
AcDbSpline
 70
8
 71
3
 72
8
 73
4
 74
0
 40
0
 40
0
 40
0
 40
0
 40
1
 40
1
 40
1
 40
1
 10
118.663827
 20
151.420032
 30
0.0
 10
118.851364
 20
151.607569
 30
0.0
 10
118.956721
 20
151.861923
 30
0.0
 10
118.956720
 20
152.127140
 30
0.0
  0
LINE
  5
1ea
100
AcDbEntity
  8
0
 62
7
100
AcDbLine
 10
118.956720
 20
152.127140
 30
0.0
 11
118.956720
 21
152.127140
 31
0.0
  0
SPLINE
  5
1eb
100
AcDbEntity
  8
0
 62
7
100
AcDbSpline
 70
8
 71
3
 72
8
 73
4
 74
0
 40
0
 40
0
 40
0
 40
0
 40
1
 40
1
 40
1
 40
1
 10
121.539180
 20
155.123624
 30
0.0
 10
121.539180
 20
155.388840
 30
0.0
 10
121.433823
 20
155.643194
 30
0.0
 10
121.246287
 20
155.830731
 30
0.0
  0
SPLINE
  5
1ec
100
AcDbEntity
  8
0
 62
7
100
AcDbSpline
 70
8
 71
3
 72
8
 73
4
 74
0
 40
0
 40
0
 40
0
 40
0
 40
1
 40
1
 40
1
 40
1
 10
121.246287
 20
155.830731
 30
0.0
 10
121.058750
 20
156.018267
 30
0.0
 10
120.804396
 20
156.123624
 30
0.0
 10
120.539180
 20
156.123624
 30
0.0
  0
SPLINE
  5
1ed
100
AcDbEntity
  8
0
 62
7
100
AcDbSpline
 70
8
 71
3
 72
8
 73
4
 74
0
 40
0
 40
0
 40
0
 40
0
 40
1
 40
1
 40
1
 40
1
 10
120.539180
 20
156.123624
 30
0.0
 10
120.273964
 20
156.123624
 30
0.0
 10
120.019610
 20
156.018267
 30
0.0
 10
119.832073
 20
155.830731
 30
0.0
  0
SPLINE
  5
1ee
100
AcDbEntity
  8
0
 62
7
100
AcDbSpline
 70
8
 71
3
 72
8
 73
4
 74
0
 40
0
 40
0
 40
0
 40
0
 40
1
 40
1
 40
1
 40
1
 10
119.832073
 20
155.830731
 30
0.0
 10
119.644537
 20
155.643194
 30
0.0
 10
119.539180
 20
155.388840
 30
0.0
 10
119.539180
 20
155.123624
 30
0.0
  0
SPLINE
  5
1ef
100
AcDbEntity
  8
0
 62
7
100
AcDbSpline
 70
8
 71
3
 72
8
 73
4
 74
0
 40
0
 40
0
 40
0
 40
0
 40
1
 40
1
 40
1
 40
1
 10
119.539180
 20
155.123624
 30
0.0
 10
119.539179
 20
154.858407
 30
0.0
 10
119.644536
 20
154.604053
 30
0.0
 10
119.832073
 20
154.416516
 30
0.0
  0
SPLINE
  5
1f0
100
AcDbEntity
  8
0
 62
7
100
AcDbSpline
 70
8
 71
3
 72
8
 73
4
 74
0
 40
0
 40
0
 40
0
 40
0
 40
1
 40
1
 40
1
 40
1
 10
119.832073
 20
154.416516
 30
0.0
 10
120.019609
 20
154.228979
 30
0.0
 10
120.273963
 20
154.123622
 30
0.0
 10
120.539180
 20
154.123622
 30
0.0
  0
SPLINE
  5
1f1
100
AcDbEntity
  8
0
 62
7
100
AcDbSpline
 70
8
 71
3
 72
8
 73
4
 74
0
 40
0
 40
0
 40
0
 40
0
 40
1
 40
1
 40
1
 40
1
 10
120.539180
 20
154.123622
 30
0.0
 10
120.804397
 20
154.123622
 30
0.0
 10
121.058751
 20
154.228979
 30
0.0
 10
121.246287
 20
154.416516
 30
0.0
  0
SPLINE
  5
1f2
100
AcDbEntity
  8
0
 62
7
100
AcDbSpline
 70
8
 71
3
 72
8
 73
4
 74
0
 40
0
 40
0
 40
0
 40
0
 40
1
 40
1
 40
1
 40
1
 10
121.246287
 20
154.416516
 30
0.0
 10
121.433824
 20
154.604053
 30
0.0
 10
121.539181
 20
154.858407
 30
0.0
 10
121.539180
 20
155.123624
 30
0.0
  0
LINE
  5
1f3
100
AcDbEntity
  8
0
 62
7
100
AcDbLine
 10
121.539180
 20
155.123624
 30
0.0
 11
121.539180
 21
155.123624
 31
0.0
  0
SPLINE
  5
1f4
100
AcDbEntity
  8
0
 62
7
100
AcDbSpline
 70
8
 71
3
 72
8
 73
4
 74
0
 40
0
 40
0
 40
0
 40
0
 40
1
 40
1
 40
1
 40
1
 10
125.237510
 20
156.536731
 30
0.0
 10
125.237510
 20
156.801947
 30
0.0
 10
125.132153
 20
157.056301
 30
0.0
 10
124.944617
 20
157.243838
 30
0.0
  0
SPLINE
  5
1f5
100
AcDbEntity
  8
0
 62
7
100
AcDbSpline
 70
8
 71
3
 72
8
 73
4
 74
0
 40
0
 40
0
 40
0
 40
0
 40
1
 40
1
 40
1
 40
1
 10
124.944617
 20
157.243838
 30
0.0
 10
124.757080
 20
157.431374
 30
0.0
 10
124.502726
 20
157.536731
 30
0.0
 10
124.237510
 20
157.536731
 30
0.0
  0
SPLINE
  5
1f6
100
AcDbEntity
  8
0
 62
7
100
AcDbSpline
 70
8
 71
3
 72
8
 73
4
 74
0
 40
0
 40
0
 40
0
 40
0
 40
1
 40
1
 40
1
 40
1
 10
124.237510
 20
157.536731
 30
0.0
 10
123.972294
 20
157.536731
 30
0.0
 10
123.717940
 20
157.431374
 30
0.0
 10
123.530403
 20
157.243838
 30
0.0
  0
SPLINE
  5
1f7
100
AcDbEntity
  8
0
 62
7
100
AcDbSpline
 70
8
 71
3
 72
8
 73
4
 74
0
 40
0
 40
0
 40
0
 40
0
 40
1
 40
1
 40
1
 40
1
 10
123.530403
 20
157.243838
 30
0.0
 10
123.342867
 20
157.056301
 30
0.0
 10
123.237510
 20
156.801947
 30
0.0
 10
123.237510
 20
156.536731
 30
0.0
  0
SPLINE
  5
1f8
100
AcDbEntity
  8
0
 62
7
100
AcDbSpline
 70
8
 71
3
 72
8
 73
4
 74
0
 40
0
 40
0
 40
0
 40
0
 40
1
 40
1
 40
1
 40
1
 10
123.237510
 20
156.536731
 30
0.0
 10
123.237509
 20
156.271514
 30
0.0
 10
123.342866
 20
156.017160
 30
0.0
 10
123.530403
 20
155.829623
 30
0.0
  0
SPLINE
  5
1f9
100
AcDbEntity
  8
0
 62
7
100
AcDbSpline
 70
8
 71
3
 72
8
 73
4
 74
0
 40
0
 40
0
 40
0
 40
0
 40
1
 40
1
 40
1
 40
1
 10
123.530403
 20
155.829623
 30
0.0
 10
123.717939
 20
155.642086
 30
0.0
 10
123.972293
 20
155.536729
 30
0.0
 10
124.237510
 20
155.536729
 30
0.0
  0
SPLINE
  5
1fa
100
AcDbEntity
  8
0
 62
7
100
AcDbSpline
 70
8
 71
3
 72
8
 73
4
 74
0
 40
0
 40
0
 40
0
 40
0
 40
1
 40
1
 40
1
 40
1
 10
124.237510
 20
155.536729
 30
0.0
 10
124.502727
 20
155.536729
 30
0.0
 10
124.757081
 20
155.642086
 30
0.0
 10
124.944617
 20
155.829623
 30
0.0
  0
SPLINE
  5
1fb
100
AcDbEntity
  8
0
 62
7
100
AcDbSpline
 70
8
 71
3
 72
8
 73
4
 74
0
 40
0
 40
0
 40
0
 40
0
 40
1
 40
1
 40
1
 40
1
 10
124.944617
 20
155.829623
 30
0.0
 10
125.132154
 20
156.017160
 30
0.0
 10
125.237511
 20
156.271514
 30
0.0
 10
125.237510
 20
156.536731
 30
0.0
  0
LINE
  5
1fc
100
AcDbEntity
  8
0
 62
7
100
AcDbLine
 10
125.237510
 20
156.536731
 30
0.0
 11
125.237510
 21
156.536731
 31
0.0
  0
SPLINE
  5
1fd
100
AcDbEntity
  8
0
 62
7
100
AcDbSpline
 70
8
 71
3
 72
8
 73
4
 74
0
 40
0
 40
0
 40
0
 40
0
 40
1
 40
1
 40
1
 40
1
 10
129.178660
 20
156.119065
 30
0.0
 10
129.178660
 20
156.384281
 30
0.0
 10
129.073303
 20
156.638635
 30
0.0
 10
128.885767
 20
156.826172
 30
0.0
  0
SPLINE
  5
1fe
100
AcDbEntity
  8
0
 62
7
100
AcDbSpline
 70
8
 71
3
 72
8
 73
4
 74
0
 40
0
 40
0
 40
0
 40
0
 40
1
 40
1
 40
1
 40
1
 10
128.885767
 20
156.826172
 30
0.0
 10
128.698230
 20
157.013708
 30
0.0
 10
128.443876
 20
157.119065
 30
0.0
 10
128.178660
 20
157.119065
 30
0.0
  0
SPLINE
  5
1ff
100
AcDbEntity
  8
0
 62
7
100
AcDbSpline
 70
8
 71
3
 72
8
 73
4
 74
0
 40
0
 40
0
 40
0
 40
0
 40
1
 40
1
 40
1
 40
1
 10
128.178660
 20
157.119065
 30
0.0
 10
127.913444
 20
157.119065
 30
0.0
 10
127.659090
 20
157.013708
 30
0.0
 10
127.471553
 20
156.826172
 30
0.0
  0
SPLINE
  5
200
100
AcDbEntity
  8
0
 62
7
100
AcDbSpline
 70
8
 71
3
 72
8
 73
4
 74
0
 40
0
 40
0
 40
0
 40
0
 40
1
 40
1
 40
1
 40
1
 10
127.471553
 20
156.826172
 30
0.0
 10
127.284017
 20
156.638635
 30
0.0
 10
127.178660
 20
156.384281
 30
0.0
 10
127.178660
 20
156.119065
 30
0.0
  0
SPLINE
  5
201
100
AcDbEntity
  8
0
 62
7
100
AcDbSpline
 70
8
 71
3
 72
8
 73
4
 74
0
 40
0
 40
0
 40
0
 40
0
 40
1
 40
1
 40
1
 40
1
 10
127.178660
 20
156.119065
 30
0.0
 10
127.178659
 20
155.853848
 30
0.0
 10
127.284016
 20
155.599494
 30
0.0
 10
127.471553
 20
155.411957
 30
0.0
  0
SPLINE
  5
202
100
AcDbEntity
  8
0
 62
7
100
AcDbSpline
 70
8
 71
3
 72
8
 73
4
 74
0
 40
0
 40
0
 40
0
 40
0
 40
1
 40
1
 40
1
 40
1
 10
127.471553
 20
155.411957
 30
0.0
 10
127.659089
 20
155.224420
 30
0.0
 10
127.913443
 20
155.119063
 30
0.0
 10
128.178660
 20
155.119063
 30
0.0
  0
SPLINE
  5
203
100
AcDbEntity
  8
0
 62
7
100
AcDbSpline
 70
8
 71
3
 72
8
 73
4
 74
0
 40
0
 40
0
 40
0
 40
0
 40
1
 40
1
 40
1
 40
1
 10
128.178660
 20
155.119063
 30
0.0
 10
128.443877
 20
155.119063
 30
0.0
 10
128.698231
 20
155.224420
 30
0.0
 10
128.885767
 20
155.411957
 30
0.0
  0
SPLINE
  5
204
100
AcDbEntity
  8
0
 62
7
100
AcDbSpline
 70
8
 71
3
 72
8
 73
4
 74
0
 40
0
 40
0
 40
0
 40
0
 40
1
 40
1
 40
1
 40
1
 10
128.885767
 20
155.411957
 30
0.0
 10
129.073304
 20
155.599494
 30
0.0
 10
129.178661
 20
155.853848
 30
0.0
 10
129.178660
 20
156.119065
 30
0.0
  0
LINE
  5
205
100
AcDbEntity
  8
0
 62
7
100
AcDbLine
 10
129.178660
 20
156.119065
 30
0.0
 11
129.178660
 21
156.119065
 31
0.0
  0
SPLINE
  5
206
100
AcDbEntity
  8
0
 62
7
100
AcDbSpline
 70
8
 71
3
 72
8
 73
4
 74
0
 40
0
 40
0
 40
0
 40
0
 40
1
 40
1
 40
1
 40
1
 10
132.526240
 20
154.003908
 30
0.0
 10
132.526240
 20
154.269124
 30
0.0
 10
132.420883
 20
154.523478
 30
0.0
 10
132.233347
 20
154.711015
 30
0.0
  0
SPLINE
  5
207
100
AcDbEntity
  8
0
 62
7
100
AcDbSpline
 70
8
 71
3
 72
8
 73
4
 74
0
 40
0
 40
0
 40
0
 40
0
 40
1
 40
1
 40
1
 40
1
 10
132.233347
 20
154.711015
 30
0.0
 10
132.045810
 20
154.898551
 30
0.0
 10
131.791456
 20
155.003908
 30
0.0
 10
131.526240
 20
155.003908
 30
0.0
  0
SPLINE
  5
208
100
AcDbEntity
  8
0
 62
7
100
AcDbSpline
 70
8
 71
3
 72
8
 73
4
 74
0
 40
0
 40
0
 40
0
 40
0
 40
1
 40
1
 40
1
 40
1
 10
131.526240
 20
155.003908
 30
0.0
 10
131.261024
 20
155.003908
 30
0.0
 10
131.006670
 20
154.898551
 30
0.0
 10
130.819133
 20
154.711015
 30
0.0
  0
SPLINE
  5
209
100
AcDbEntity
  8
0
 62
7
100
AcDbSpline
 70
8
 71
3
 72
8
 73
4
 74
0
 40
0
 40
0
 40
0
 40
0
 40
1
 40
1
 40
1
 40
1
 10
130.819133
 20
154.711015
 30
0.0
 10
130.631597
 20
154.523478
 30
0.0
 10
130.526240
 20
154.269124
 30
0.0
 10
130.526240
 20
154.003908
 30
0.0
  0
SPLINE
  5
20a
100
AcDbEntity
  8
0
 62
7
100
AcDbSpline
 70
8
 71
3
 72
8
 73
4
 74
0
 40
0
 40
0
 40
0
 40
0
 40
1
 40
1
 40
1
 40
1
 10
130.526240
 20
154.003908
 30
0.0
 10
130.526239
 20
153.738691
 30
0.0
 10
130.631596
 20
153.484337
 30
0.0
 10
130.819133
 20
153.296800
 30
0.0
  0
SPLINE
  5
20b
100
AcDbEntity
  8
0
 62
7
100
AcDbSpline
 70
8
 71
3
 72
8
 73
4
 74
0
 40
0
 40
0
 40
0
 40
0
 40
1
 40
1
 40
1
 40
1
 10
130.819133
 20
153.296800
 30
0.0
 10
131.006669
 20
153.109263
 30
0.0
 10
131.261023
 20
153.003906
 30
0.0
 10
131.526240
 20
153.003906
 30
0.0
  0
SPLINE
  5
20c
100
AcDbEntity
  8
0
 62
7
100
AcDbSpline
 70
8
 71
3
 72
8
 73
4
 74
0
 40
0
 40
0
 40
0
 40
0
 40
1
 40
1
 40
1
 40
1
 10
131.526240
 20
153.003906
 30
0.0
 10
131.791457
 20
153.003906
 30
0.0
 10
132.045811
 20
153.109263
 30
0.0
 10
132.233347
 20
153.296800
 30
0.0
  0
SPLINE
  5
20d
100
AcDbEntity
  8
0
 62
7
100
AcDbSpline
 70
8
 71
3
 72
8
 73
4
 74
0
 40
0
 40
0
 40
0
 40
0
 40
1
 40
1
 40
1
 40
1
 10
132.233347
 20
153.296800
 30
0.0
 10
132.420884
 20
153.484337
 30
0.0
 10
132.526241
 20
153.738691
 30
0.0
 10
132.526240
 20
154.003908
 30
0.0
  0
LINE
  5
20e
100
AcDbEntity
  8
0
 62
7
100
AcDbLine
 10
132.526240
 20
154.003908
 30
0.0
 11
132.526240
 21
154.003908
 31
0.0
  0
SPLINE
  5
20f
100
AcDbEntity
  8
0
 62
7
100
AcDbSpline
 70
8
 71
3
 72
8
 73
4
 74
0
 40
0
 40
0
 40
0
 40
0
 40
1
 40
1
 40
1
 40
1
 10
134.580300
 20
150.616037
 30
0.0
 10
134.580300
 20
150.881253
 30
0.0
 10
134.474943
 20
151.135607
 30
0.0
 10
134.287407
 20
151.323144
 30
0.0
  0
SPLINE
  5
210
100
AcDbEntity
  8
0
 62
7
100
AcDbSpline
 70
8
 71
3
 72
8
 73
4
 74
0
 40
0
 40
0
 40
0
 40
0
 40
1
 40
1
 40
1
 40
1
 10
134.287407
 20
151.323144
 30
0.0
 10
134.099870
 20
151.510680
 30
0.0
 10
133.845516
 20
151.616037
 30
0.0
 10
133.580300
 20
151.616037
 30
0.0
  0
SPLINE
  5
211
100
AcDbEntity
  8
0
 62
7
100
AcDbSpline
 70
8
 71
3
 72
8
 73
4
 74
0
 40
0
 40
0
 40
0
 40
0
 40
1
 40
1
 40
1
 40
1
 10
133.580300
 20
151.616037
 30
0.0
 10
133.315084
 20
151.616037
 30
0.0
 10
133.060730
 20
151.510680
 30
0.0
 10
132.873193
 20
151.323144
 30
0.0
  0
SPLINE
  5
212
100
AcDbEntity
  8
0
 62
7
100
AcDbSpline
 70
8
 71
3
 72
8
 73
4
 74
0
 40
0
 40
0
 40
0
 40
0
 40
1
 40
1
 40
1
 40
1
 10
132.873193
 20
151.323144
 30
0.0
 10
132.685657
 20
151.135607
 30
0.0
 10
132.580300
 20
150.881253
 30
0.0
 10
132.580300
 20
150.616037
 30
0.0
  0
SPLINE
  5
213
100
AcDbEntity
  8
0
 62
7
100
AcDbSpline
 70
8
 71
3
 72
8
 73
4
 74
0
 40
0
 40
0
 40
0
 40
0
 40
1
 40
1
 40
1
 40
1
 10
132.580300
 20
150.616037
 30
0.0
 10
132.580299
 20
150.350820
 30
0.0
 10
132.685656
 20
150.096466
 30
0.0
 10
132.873193
 20
149.908929
 30
0.0
  0
SPLINE
  5
214
100
AcDbEntity
  8
0
 62
7
100
AcDbSpline
 70
8
 71
3
 72
8
 73
4
 74
0
 40
0
 40
0
 40
0
 40
0
 40
1
 40
1
 40
1
 40
1
 10
132.873193
 20
149.908929
 30
0.0
 10
133.060729
 20
149.721392
 30
0.0
 10
133.315083
 20
149.616035
 30
0.0
 10
133.580300
 20
149.616035
 30
0.0
  0
SPLINE
  5
215
100
AcDbEntity
  8
0
 62
7
100
AcDbSpline
 70
8
 71
3
 72
8
 73
4
 74
0
 40
0
 40
0
 40
0
 40
0
 40
1
 40
1
 40
1
 40
1
 10
133.580300
 20
149.616035
 30
0.0
 10
133.845517
 20
149.616035
 30
0.0
 10
134.099871
 20
149.721392
 30
0.0
 10
134.287407
 20
149.908929
 30
0.0
  0
SPLINE
  5
216
100
AcDbEntity
  8
0
 62
7
100
AcDbSpline
 70
8
 71
3
 72
8
 73
4
 74
0
 40
0
 40
0
 40
0
 40
0
 40
1
 40
1
 40
1
 40
1
 10
134.287407
 20
149.908929
 30
0.0
 10
134.474944
 20
150.096466
 30
0.0
 10
134.580301
 20
150.350820
 30
0.0
 10
134.580300
 20
150.616037
 30
0.0
  0
LINE
  5
217
100
AcDbEntity
  8
0
 62
7
100
AcDbLine
 10
134.580300
 20
150.616037
 30
0.0
 11
134.580300
 21
150.616037
 31
0.0
  0
SPLINE
  5
218
100
AcDbEntity
  8
0
 62
7
100
AcDbSpline
 70
8
 71
3
 72
8
 73
4
 74
0
 40
0
 40
0
 40
0
 40
0
 40
1
 40
1
 40
1
 40
1
 10
134.941420
 20
146.666594
 30
0.0
 10
134.941420
 20
146.931810
 30
0.0
 10
134.836063
 20
147.186164
 30
0.0
 10
134.648527
 20
147.373701
 30
0.0
  0
SPLINE
  5
219
100
AcDbEntity
  8
0
 62
7
100
AcDbSpline
 70
8
 71
3
 72
8
 73
4
 74
0
 40
0
 40
0
 40
0
 40
0
 40
1
 40
1
 40
1
 40
1
 10
134.648527
 20
147.373701
 30
0.0
 10
134.460990
 20
147.561237
 30
0.0
 10
134.206636
 20
147.666594
 30
0.0
 10
133.941420
 20
147.666594
 30
0.0
  0
SPLINE
  5
21a
100
AcDbEntity
  8
0
 62
7
100
AcDbSpline
 70
8
 71
3
 72
8
 73
4
 74
0
 40
0
 40
0
 40
0
 40
0
 40
1
 40
1
 40
1
 40
1
 10
133.941420
 20
147.666594
 30
0.0
 10
133.676204
 20
147.666594
 30
0.0
 10
133.421850
 20
147.561237
 30
0.0
 10
133.234313
 20
147.373701
 30
0.0
  0
SPLINE
  5
21b
100
AcDbEntity
  8
0
 62
7
100
AcDbSpline
 70
8
 71
3
 72
8
 73
4
 74
0
 40
0
 40
0
 40
0
 40
0
 40
1
 40
1
 40
1
 40
1
 10
133.234313
 20
147.373701
 30
0.0
 10
133.046777
 20
147.186164
 30
0.0
 10
132.941420
 20
146.931810
 30
0.0
 10
132.941420
 20
146.666594
 30
0.0
  0
SPLINE
  5
21c
100
AcDbEntity
  8
0
 62
7
100
AcDbSpline
 70
8
 71
3
 72
8
 73
4
 74
0
 40
0
 40
0
 40
0
 40
0
 40
1
 40
1
 40
1
 40
1
 10
132.941420
 20
146.666594
 30
0.0
 10
132.941419
 20
146.401377
 30
0.0
 10
133.046776
 20
146.147023
 30
0.0
 10
133.234313
 20
145.959486
 30
0.0
  0
SPLINE
  5
21d
100
AcDbEntity
  8
0
 62
7
100
AcDbSpline
 70
8
 71
3
 72
8
 73
4
 74
0
 40
0
 40
0
 40
0
 40
0
 40
1
 40
1
 40
1
 40
1
 10
133.234313
 20
145.959486
 30
0.0
 10
133.421849
 20
145.771949
 30
0.0
 10
133.676203
 20
145.666592
 30
0.0
 10
133.941420
 20
145.666592
 30
0.0
  0
SPLINE
  5
21e
100
AcDbEntity
  8
0
 62
7
100
AcDbSpline
 70
8
 71
3
 72
8
 73
4
 74
0
 40
0
 40
0
 40
0
 40
0
 40
1
 40
1
 40
1
 40
1
 10
133.941420
 20
145.666592
 30
0.0
 10
134.206637
 20
145.666592
 30
0.0
 10
134.460991
 20
145.771949
 30
0.0
 10
134.648527
 20
145.959486
 30
0.0
  0
SPLINE
  5
21f
100
AcDbEntity
  8
0
 62
7
100
AcDbSpline
 70
8
 71
3
 72
8
 73
4
 74
0
 40
0
 40
0
 40
0
 40
0
 40
1
 40
1
 40
1
 40
1
 10
134.648527
 20
145.959486
 30
0.0
 10
134.836064
 20
146.147023
 30
0.0
 10
134.941421
 20
146.401377
 30
0.0
 10
134.941420
 20
146.666594
 30
0.0
  0
LINE
  5
220
100
AcDbEntity
  8
0
 62
7
100
AcDbLine
 10
134.941420
 20
146.666594
 30
0.0
 11
134.941420
 21
146.666594
 31
0.0
  0
SPLINE
  5
221
100
AcDbEntity
  8
0
 62
7
100
AcDbSpline
 70
8
 71
3
 72
8
 73
4
 74
0
 40
0
 40
0
 40
0
 40
0
 40
1
 40
1
 40
1
 40
1
 10
133.646220
 20
142.916613
 30
0.0
 10
133.646220
 20
143.181829
 30
0.0
 10
133.540863
 20
143.436183
 30
0.0
 10
133.353327
 20
143.623720
 30
0.0
  0
SPLINE
  5
222
100
AcDbEntity
  8
0
 62
7
100
AcDbSpline
 70
8
 71
3
 72
8
 73
4
 74
0
 40
0
 40
0
 40
0
 40
0
 40
1
 40
1
 40
1
 40
1
 10
133.353327
 20
143.623720
 30
0.0
 10
133.165790
 20
143.811256
 30
0.0
 10
132.911436
 20
143.916613
 30
0.0
 10
132.646220
 20
143.916613
 30
0.0
  0
SPLINE
  5
223
100
AcDbEntity
  8
0
 62
7
100
AcDbSpline
 70
8
 71
3
 72
8
 73
4
 74
0
 40
0
 40
0
 40
0
 40
0
 40
1
 40
1
 40
1
 40
1
 10
132.646220
 20
143.916613
 30
0.0
 10
132.381004
 20
143.916613
 30
0.0
 10
132.126650
 20
143.811256
 30
0.0
 10
131.939113
 20
143.623720
 30
0.0
  0
SPLINE
  5
224
100
AcDbEntity
  8
0
 62
7
100
AcDbSpline
 70
8
 71
3
 72
8
 73
4
 74
0
 40
0
 40
0
 40
0
 40
0
 40
1
 40
1
 40
1
 40
1
 10
131.939113
 20
143.623720
 30
0.0
 10
131.751577
 20
143.436183
 30
0.0
 10
131.646220
 20
143.181829
 30
0.0
 10
131.646220
 20
142.916613
 30
0.0
  0
SPLINE
  5
225
100
AcDbEntity
  8
0
 62
7
100
AcDbSpline
 70
8
 71
3
 72
8
 73
4
 74
0
 40
0
 40
0
 40
0
 40
0
 40
1
 40
1
 40
1
 40
1
 10
131.646220
 20
142.916613
 30
0.0
 10
131.646219
 20
142.651396
 30
0.0
 10
131.751576
 20
142.397042
 30
0.0
 10
131.939113
 20
142.209505
 30
0.0
  0
SPLINE
  5
226
100
AcDbEntity
  8
0
 62
7
100
AcDbSpline
 70
8
 71
3
 72
8
 73
4
 74
0
 40
0
 40
0
 40
0
 40
0
 40
1
 40
1
 40
1
 40
1
 10
131.939113
 20
142.209505
 30
0.0
 10
132.126649
 20
142.021968
 30
0.0
 10
132.381003
 20
141.916611
 30
0.0
 10
132.646220
 20
141.916611
 30
0.0
  0
SPLINE
  5
227
100
AcDbEntity
  8
0
 62
7
100
AcDbSpline
 70
8
 71
3
 72
8
 73
4
 74
0
 40
0
 40
0
 40
0
 40
0
 40
1
 40
1
 40
1
 40
1
 10
132.646220
 20
141.916611
 30
0.0
 10
132.911437
 20
141.916611
 30
0.0
 10
133.165791
 20
142.021968
 30
0.0
 10
133.353327
 20
142.209505
 30
0.0
  0
SPLINE
  5
228
100
AcDbEntity
  8
0
 62
7
100
AcDbSpline
 70
8
 71
3
 72
8
 73
4
 74
0
 40
0
 40
0
 40
0
 40
0
 40
1
 40
1
 40
1
 40
1
 10
133.353327
 20
142.209505
 30
0.0
 10
133.540864
 20
142.397042
 30
0.0
 10
133.646221
 20
142.651396
 30
0.0
 10
133.646220
 20
142.916613
 30
0.0
  0
LINE
  5
229
100
AcDbEntity
  8
0
 62
7
100
AcDbLine
 10
133.646220
 20
142.916613
 30
0.0
 11
133.646220
 21
142.916613
 31
0.0
  0
SPLINE
  5
22a
100
AcDbEntity
  8
0
 62
7
100
AcDbSpline
 70
8
 71
3
 72
8
 73
4
 74
0
 40
0
 40
0
 40
0
 40
0
 40
1
 40
1
 40
1
 40
1
 10
130.881570
 20
140.074013
 30
0.0
 10
130.881570
 20
140.339229
 30
0.0
 10
130.776213
 20
140.593583
 30
0.0
 10
130.588677
 20
140.781120
 30
0.0
  0
SPLINE
  5
22b
100
AcDbEntity
  8
0
 62
7
100
AcDbSpline
 70
8
 71
3
 72
8
 73
4
 74
0
 40
0
 40
0
 40
0
 40
0
 40
1
 40
1
 40
1
 40
1
 10
130.588677
 20
140.781120
 30
0.0
 10
130.401140
 20
140.968656
 30
0.0
 10
130.146786
 20
141.074013
 30
0.0
 10
129.881570
 20
141.074013
 30
0.0
  0
SPLINE
  5
22c
100
AcDbEntity
  8
0
 62
7
100
AcDbSpline
 70
8
 71
3
 72
8
 73
4
 74
0
 40
0
 40
0
 40
0
 40
0
 40
1
 40
1
 40
1
 40
1
 10
129.881570
 20
141.074013
 30
0.0
 10
129.616354
 20
141.074013
 30
0.0
 10
129.362000
 20
140.968656
 30
0.0
 10
129.174463
 20
140.781120
 30
0.0
  0
SPLINE
  5
22d
100
AcDbEntity
  8
0
 62
7
100
AcDbSpline
 70
8
 71
3
 72
8
 73
4
 74
0
 40
0
 40
0
 40
0
 40
0
 40
1
 40
1
 40
1
 40
1
 10
129.174463
 20
140.781120
 30
0.0
 10
128.986927
 20
140.593583
 30
0.0
 10
128.881570
 20
140.339229
 30
0.0
 10
128.881570
 20
140.074013
 30
0.0
  0
SPLINE
  5
22e
100
AcDbEntity
  8
0
 62
7
100
AcDbSpline
 70
8
 71
3
 72
8
 73
4
 74
0
 40
0
 40
0
 40
0
 40
0
 40
1
 40
1
 40
1
 40
1
 10
128.881570
 20
140.074013
 30
0.0
 10
128.881569
 20
139.808796
 30
0.0
 10
128.986926
 20
139.554442
 30
0.0
 10
129.174463
 20
139.366905
 30
0.0
  0
SPLINE
  5
22f
100
AcDbEntity
  8
0
 62
7
100
AcDbSpline
 70
8
 71
3
 72
8
 73
4
 74
0
 40
0
 40
0
 40
0
 40
0
 40
1
 40
1
 40
1
 40
1
 10
129.174463
 20
139.366905
 30
0.0
 10
129.361999
 20
139.179368
 30
0.0
 10
129.616353
 20
139.074011
 30
0.0
 10
129.881570
 20
139.074011
 30
0.0
  0
SPLINE
  5
230
100
AcDbEntity
  8
0
 62
7
100
AcDbSpline
 70
8
 71
3
 72
8
 73
4
 74
0
 40
0
 40
0
 40
0
 40
0
 40
1
 40
1
 40
1
 40
1
 10
129.881570
 20
139.074011
 30
0.0
 10
130.146787
 20
139.074011
 30
0.0
 10
130.401141
 20
139.179368
 30
0.0
 10
130.588677
 20
139.366905
 30
0.0
  0
SPLINE
  5
231
100
AcDbEntity
  8
0
 62
7
100
AcDbSpline
 70
8
 71
3
 72
8
 73
4
 74
0
 40
0
 40
0
 40
0
 40
0
 40
1
 40
1
 40
1
 40
1
 10
130.588677
 20
139.366905
 30
0.0
 10
130.776214
 20
139.554442
 30
0.0
 10
130.881571
 20
139.808796
 30
0.0
 10
130.881570
 20
140.074013
 30
0.0
  0
LINE
  5
232
100
AcDbEntity
  8
0
 62
7
100
AcDbLine
 10
130.881570
 20
140.074013
 30
0.0
 11
130.881570
 21
140.074013
 31
0.0
  0
SPLINE
  5
233
100
AcDbEntity
  8
0
 62
7
100
AcDbSpline
 70
8
 71
3
 72
8
 73
4
 74
0
 40
0
 40
0
 40
0
 40
0
 40
1
 40
1
 40
1
 40
1
 10
127.182840
 20
138.644800
 30
0.0
 10
127.182840
 20
138.910016
 30
0.0
 10
127.077483
 20
139.164370
 30
0.0
 10
126.889947
 20
139.351907
 30
0.0
  0
SPLINE
  5
234
100
AcDbEntity
  8
0
 62
7
100
AcDbSpline
 70
8
 71
3
 72
8
 73
4
 74
0
 40
0
 40
0
 40
0
 40
0
 40
1
 40
1
 40
1
 40
1
 10
126.889947
 20
139.351907
 30
0.0
 10
126.702410
 20
139.539443
 30
0.0
 10
126.448056
 20
139.644800
 30
0.0
 10
126.182840
 20
139.644800
 30
0.0
  0
SPLINE
  5
235
100
AcDbEntity
  8
0
 62
7
100
AcDbSpline
 70
8
 71
3
 72
8
 73
4
 74
0
 40
0
 40
0
 40
0
 40
0
 40
1
 40
1
 40
1
 40
1
 10
126.182840
 20
139.644800
 30
0.0
 10
125.917624
 20
139.644800
 30
0.0
 10
125.663270
 20
139.539443
 30
0.0
 10
125.475733
 20
139.351907
 30
0.0
  0
SPLINE
  5
236
100
AcDbEntity
  8
0
 62
7
100
AcDbSpline
 70
8
 71
3
 72
8
 73
4
 74
0
 40
0
 40
0
 40
0
 40
0
 40
1
 40
1
 40
1
 40
1
 10
125.475733
 20
139.351907
 30
0.0
 10
125.288197
 20
139.164370
 30
0.0
 10
125.182840
 20
138.910016
 30
0.0
 10
125.182840
 20
138.644800
 30
0.0
  0
SPLINE
  5
237
100
AcDbEntity
  8
0
 62
7
100
AcDbSpline
 70
8
 71
3
 72
8
 73
4
 74
0
 40
0
 40
0
 40
0
 40
0
 40
1
 40
1
 40
1
 40
1
 10
125.182840
 20
138.644800
 30
0.0
 10
125.182839
 20
138.379583
 30
0.0
 10
125.288196
 20
138.125229
 30
0.0
 10
125.475733
 20
137.937692
 30
0.0
  0
SPLINE
  5
238
100
AcDbEntity
  8
0
 62
7
100
AcDbSpline
 70
8
 71
3
 72
8
 73
4
 74
0
 40
0
 40
0
 40
0
 40
0
 40
1
 40
1
 40
1
 40
1
 10
125.475733
 20
137.937692
 30
0.0
 10
125.663269
 20
137.750155
 30
0.0
 10
125.917623
 20
137.644798
 30
0.0
 10
126.182840
 20
137.644798
 30
0.0
  0
SPLINE
  5
239
100
AcDbEntity
  8
0
 62
7
100
AcDbSpline
 70
8
 71
3
 72
8
 73
4
 74
0
 40
0
 40
0
 40
0
 40
0
 40
1
 40
1
 40
1
 40
1
 10
126.182840
 20
137.644798
 30
0.0
 10
126.448057
 20
137.644798
 30
0.0
 10
126.702411
 20
137.750155
 30
0.0
 10
126.889947
 20
137.937692
 30
0.0
  0
SPLINE
  5
23a
100
AcDbEntity
  8
0
 62
7
100
AcDbSpline
 70
8
 71
3
 72
8
 73
4
 74
0
 40
0
 40
0
 40
0
 40
0
 40
1
 40
1
 40
1
 40
1
 10
126.889947
 20
137.937692
 30
0.0
 10
127.077484
 20
138.125229
 30
0.0
 10
127.182841
 20
138.379583
 30
0.0
 10
127.182840
 20
138.644800
 30
0.0
  0
LINE
  5
23b
100
AcDbEntity
  8
0
 62
7
100
AcDbLine
 10
127.182840
 20
138.644800
 30
0.0
 11
127.182840
 21
138.644800
 31
0.0
  0
SPLINE
  5
23c
100
AcDbEntity
  8
0
 62
7
100
AcDbSpline
 70
8
 71
3
 72
8
 73
4
 74
0
 40
0
 40
0
 40
0
 40
0
 40
1
 40
1
 40
1
 40
1
 10
123.217060
 20
138.817532
 30
0.0
 10
123.217060
 20
139.082748
 30
0.0
 10
123.111703
 20
139.337102
 30
0.0
 10
122.924167
 20
139.524639
 30
0.0
  0
SPLINE
  5
23d
100
AcDbEntity
  8
0
 62
7
100
AcDbSpline
 70
8
 71
3
 72
8
 73
4
 74
0
 40
0
 40
0
 40
0
 40
0
 40
1
 40
1
 40
1
 40
1
 10
122.924167
 20
139.524639
 30
0.0
 10
122.736630
 20
139.712175
 30
0.0
 10
122.482276
 20
139.817532
 30
0.0
 10
122.217060
 20
139.817532
 30
0.0
  0
SPLINE
  5
23e
100
AcDbEntity
  8
0
 62
7
100
AcDbSpline
 70
8
 71
3
 72
8
 73
4
 74
0
 40
0
 40
0
 40
0
 40
0
 40
1
 40
1
 40
1
 40
1
 10
122.217060
 20
139.817532
 30
0.0
 10
121.951844
 20
139.817532
 30
0.0
 10
121.697490
 20
139.712175
 30
0.0
 10
121.509953
 20
139.524639
 30
0.0
  0
SPLINE
  5
23f
100
AcDbEntity
  8
0
 62
7
100
AcDbSpline
 70
8
 71
3
 72
8
 73
4
 74
0
 40
0
 40
0
 40
0
 40
0
 40
1
 40
1
 40
1
 40
1
 10
121.509953
 20
139.524639
 30
0.0
 10
121.322417
 20
139.337102
 30
0.0
 10
121.217060
 20
139.082748
 30
0.0
 10
121.217060
 20
138.817532
 30
0.0
  0
SPLINE
  5
240
100
AcDbEntity
  8
0
 62
7
100
AcDbSpline
 70
8
 71
3
 72
8
 73
4
 74
0
 40
0
 40
0
 40
0
 40
0
 40
1
 40
1
 40
1
 40
1
 10
121.217060
 20
138.817532
 30
0.0
 10
121.217059
 20
138.552315
 30
0.0
 10
121.322416
 20
138.297961
 30
0.0
 10
121.509953
 20
138.110424
 30
0.0
  0
SPLINE
  5
241
100
AcDbEntity
  8
0
 62
7
100
AcDbSpline
 70
8
 71
3
 72
8
 73
4
 74
0
 40
0
 40
0
 40
0
 40
0
 40
1
 40
1
 40
1
 40
1
 10
121.509953
 20
138.110424
 30
0.0
 10
121.697489
 20
137.922887
 30
0.0
 10
121.951843
 20
137.817530
 30
0.0
 10
122.217060
 20
137.817530
 30
0.0
  0
SPLINE
  5
242
100
AcDbEntity
  8
0
 62
7
100
AcDbSpline
 70
8
 71
3
 72
8
 73
4
 74
0
 40
0
 40
0
 40
0
 40
0
 40
1
 40
1
 40
1
 40
1
 10
122.217060
 20
137.817530
 30
0.0
 10
122.482277
 20
137.817530
 30
0.0
 10
122.736631
 20
137.922887
 30
0.0
 10
122.924167
 20
138.110424
 30
0.0
  0
SPLINE
  5
243
100
AcDbEntity
  8
0
 62
7
100
AcDbSpline
 70
8
 71
3
 72
8
 73
4
 74
0
 40
0
 40
0
 40
0
 40
0
 40
1
 40
1
 40
1
 40
1
 10
122.924167
 20
138.110424
 30
0.0
 10
123.111704
 20
138.297961
 30
0.0
 10
123.217061
 20
138.552315
 30
0.0
 10
123.217060
 20
138.817532
 30
0.0
  0
LINE
  5
244
100
AcDbEntity
  8
0
 62
7
100
AcDbLine
 10
123.217060
 20
138.817532
 30
0.0
 11
123.217060
 21
138.817532
 31
0.0
  0
SPLINE
  5
245
100
AcDbEntity
  8
0
 62
7
100
AcDbSpline
 70
8
 71
3
 72
8
 73
4
 74
0
 40
0
 40
0
 40
0
 40
0
 40
1
 40
1
 40
1
 40
1
 10
119.631720
 20
140.524583
 30
0.0
 10
119.631720
 20
140.789799
 30
0.0
 10
119.526363
 20
141.044153
 30
0.0
 10
119.338827
 20
141.231690
 30
0.0
  0
SPLINE
  5
246
100
AcDbEntity
  8
0
 62
7
100
AcDbSpline
 70
8
 71
3
 72
8
 73
4
 74
0
 40
0
 40
0
 40
0
 40
0
 40
1
 40
1
 40
1
 40
1
 10
119.338827
 20
141.231690
 30
0.0
 10
119.151290
 20
141.419226
 30
0.0
 10
118.896936
 20
141.524583
 30
0.0
 10
118.631720
 20
141.524583
 30
0.0
  0
SPLINE
  5
247
100
AcDbEntity
  8
0
 62
7
100
AcDbSpline
 70
8
 71
3
 72
8
 73
4
 74
0
 40
0
 40
0
 40
0
 40
0
 40
1
 40
1
 40
1
 40
1
 10
118.631720
 20
141.524583
 30
0.0
 10
118.366504
 20
141.524583
 30
0.0
 10
118.112150
 20
141.419226
 30
0.0
 10
117.924613
 20
141.231690
 30
0.0
  0
SPLINE
  5
248
100
AcDbEntity
  8
0
 62
7
100
AcDbSpline
 70
8
 71
3
 72
8
 73
4
 74
0
 40
0
 40
0
 40
0
 40
0
 40
1
 40
1
 40
1
 40
1
 10
117.924613
 20
141.231690
 30
0.0
 10
117.737077
 20
141.044153
 30
0.0
 10
117.631720
 20
140.789799
 30
0.0
 10
117.631720
 20
140.524583
 30
0.0
  0
SPLINE
  5
249
100
AcDbEntity
  8
0
 62
7
100
AcDbSpline
 70
8
 71
3
 72
8
 73
4
 74
0
 40
0
 40
0
 40
0
 40
0
 40
1
 40
1
 40
1
 40
1
 10
117.631720
 20
140.524583
 30
0.0
 10
117.631719
 20
140.259366
 30
0.0
 10
117.737076
 20
140.005012
 30
0.0
 10
117.924613
 20
139.817475
 30
0.0
  0
SPLINE
  5
24a
100
AcDbEntity
  8
0
 62
7
100
AcDbSpline
 70
8
 71
3
 72
8
 73
4
 74
0
 40
0
 40
0
 40
0
 40
0
 40
1
 40
1
 40
1
 40
1
 10
117.924613
 20
139.817475
 30
0.0
 10
118.112149
 20
139.629938
 30
0.0
 10
118.366503
 20
139.524581
 30
0.0
 10
118.631720
 20
139.524581
 30
0.0
  0
SPLINE
  5
24b
100
AcDbEntity
  8
0
 62
7
100
AcDbSpline
 70
8
 71
3
 72
8
 73
4
 74
0
 40
0
 40
0
 40
0
 40
0
 40
1
 40
1
 40
1
 40
1
 10
118.631720
 20
139.524581
 30
0.0
 10
118.896937
 20
139.524581
 30
0.0
 10
119.151291
 20
139.629938
 30
0.0
 10
119.338827
 20
139.817475
 30
0.0
  0
SPLINE
  5
24c
100
AcDbEntity
  8
0
 62
7
100
AcDbSpline
 70
8
 71
3
 72
8
 73
4
 74
0
 40
0
 40
0
 40
0
 40
0
 40
1
 40
1
 40
1
 40
1
 10
119.338827
 20
139.817475
 30
0.0
 10
119.526364
 20
140.005012
 30
0.0
 10
119.631721
 20
140.259366
 30
0.0
 10
119.631720
 20
140.524583
 30
0.0
  0
LINE
  5
24d
100
AcDbEntity
  8
0
 62
7
100
AcDbLine
 10
119.631720
 20
140.524583
 30
0.0
 11
119.631720
 21
140.524583
 31
0.0
  0
SPLINE
  5
24e
100
AcDbEntity
  8
0
 62
7
100
AcDbSpline
 70
8
 71
3
 72
8
 73
4
 74
0
 40
0
 40
0
 40
0
 40
0
 40
1
 40
1
 40
1
 40
1
 10
117.029070
 20
143.524699
 30
0.0
 10
117.029070
 20
143.789915
 30
0.0
 10
116.923713
 20
144.044269
 30
0.0
 10
116.736177
 20
144.231806
 30
0.0
  0
SPLINE
  5
24f
100
AcDbEntity
  8
0
 62
7
100
AcDbSpline
 70
8
 71
3
 72
8
 73
4
 74
0
 40
0
 40
0
 40
0
 40
0
 40
1
 40
1
 40
1
 40
1
 10
116.736177
 20
144.231806
 30
0.0
 10
116.548640
 20
144.419342
 30
0.0
 10
116.294286
 20
144.524699
 30
0.0
 10
116.029070
 20
144.524699
 30
0.0
  0
SPLINE
  5
250
100
AcDbEntity
  8
0
 62
7
100
AcDbSpline
 70
8
 71
3
 72
8
 73
4
 74
0
 40
0
 40
0
 40
0
 40
0
 40
1
 40
1
 40
1
 40
1
 10
116.029070
 20
144.524699
 30
0.0
 10
115.763854
 20
144.524699
 30
0.0
 10
115.509500
 20
144.419342
 30
0.0
 10
115.321963
 20
144.231806
 30
0.0
  0
SPLINE
  5
251
100
AcDbEntity
  8
0
 62
7
100
AcDbSpline
 70
8
 71
3
 72
8
 73
4
 74
0
 40
0
 40
0
 40
0
 40
0
 40
1
 40
1
 40
1
 40
1
 10
115.321963
 20
144.231806
 30
0.0
 10
115.134427
 20
144.044269
 30
0.0
 10
115.029070
 20
143.789915
 30
0.0
 10
115.029070
 20
143.524699
 30
0.0
  0
SPLINE
  5
252
100
AcDbEntity
  8
0
 62
7
100
AcDbSpline
 70
8
 71
3
 72
8
 73
4
 74
0
 40
0
 40
0
 40
0
 40
0
 40
1
 40
1
 40
1
 40
1
 10
115.029070
 20
143.524699
 30
0.0
 10
115.029069
 20
143.259482
 30
0.0
 10
115.134426
 20
143.005128
 30
0.0
 10
115.321963
 20
142.817591
 30
0.0
  0
SPLINE
  5
253
100
AcDbEntity
  8
0
 62
7
100
AcDbSpline
 70
8
 71
3
 72
8
 73
4
 74
0
 40
0
 40
0
 40
0
 40
0
 40
1
 40
1
 40
1
 40
1
 10
115.321963
 20
142.817591
 30
0.0
 10
115.509499
 20
142.630054
 30
0.0
 10
115.763853
 20
142.524697
 30
0.0
 10
116.029070
 20
142.524697
 30
0.0
  0
SPLINE
  5
254
100
AcDbEntity
  8
0
 62
7
100
AcDbSpline
 70
8
 71
3
 72
8
 73
4
 74
0
 40
0
 40
0
 40
0
 40
0
 40
1
 40
1
 40
1
 40
1
 10
116.029070
 20
142.524697
 30
0.0
 10
116.294287
 20
142.524697
 30
0.0
 10
116.548641
 20
142.630054
 30
0.0
 10
116.736177
 20
142.817591
 30
0.0
  0
SPLINE
  5
255
100
AcDbEntity
  8
0
 62
7
100
AcDbSpline
 70
8
 71
3
 72
8
 73
4
 74
0
 40
0
 40
0
 40
0
 40
0
 40
1
 40
1
 40
1
 40
1
 10
116.736177
 20
142.817591
 30
0.0
 10
116.923714
 20
143.005128
 30
0.0
 10
117.029071
 20
143.259482
 30
0.0
 10
117.029070
 20
143.524699
 30
0.0
  0
LINE
  5
256
100
AcDbEntity
  8
0
 62
7
100
AcDbLine
 10
117.029070
 20
143.524699
 30
0.0
 11
117.029070
 21
143.524699
 31
0.0
  0
SPLINE
  5
257
100
AcDbEntity
  8
0
 62
7
100
AcDbSpline
 70
8
 71
3
 72
8
 73
4
 74
0
 40
0
 40
0
 40
0
 40
0
 40
1
 40
1
 40
1
 40
1
 10
115.821890
 20
147.310441
 30
0.0
 10
115.821890
 20
147.575657
 30
0.0
 10
115.716533
 20
147.830011
 30
0.0
 10
115.528997
 20
148.017548
 30
0.0
  0
SPLINE
  5
258
100
AcDbEntity
  8
0
 62
7
100
AcDbSpline
 70
8
 71
3
 72
8
 73
4
 74
0
 40
0
 40
0
 40
0
 40
0
 40
1
 40
1
 40
1
 40
1
 10
115.528997
 20
148.017548
 30
0.0
 10
115.341460
 20
148.205084
 30
0.0
 10
115.087106
 20
148.310441
 30
0.0
 10
114.821890
 20
148.310441
 30
0.0
  0
SPLINE
  5
259
100
AcDbEntity
  8
0
 62
7
100
AcDbSpline
 70
8
 71
3
 72
8
 73
4
 74
0
 40
0
 40
0
 40
0
 40
0
 40
1
 40
1
 40
1
 40
1
 10
114.821890
 20
148.310441
 30
0.0
 10
114.556674
 20
148.310441
 30
0.0
 10
114.302320
 20
148.205084
 30
0.0
 10
114.114783
 20
148.017548
 30
0.0
  0
SPLINE
  5
25a
100
AcDbEntity
  8
0
 62
7
100
AcDbSpline
 70
8
 71
3
 72
8
 73
4
 74
0
 40
0
 40
0
 40
0
 40
0
 40
1
 40
1
 40
1
 40
1
 10
114.114783
 20
148.017548
 30
0.0
 10
113.927247
 20
147.830011
 30
0.0
 10
113.821890
 20
147.575657
 30
0.0
 10
113.821890
 20
147.310441
 30
0.0
  0
SPLINE
  5
25b
100
AcDbEntity
  8
0
 62
7
100
AcDbSpline
 70
8
 71
3
 72
8
 73
4
 74
0
 40
0
 40
0
 40
0
 40
0
 40
1
 40
1
 40
1
 40
1
 10
113.821890
 20
147.310441
 30
0.0
 10
113.821889
 20
147.045224
 30
0.0
 10
113.927246
 20
146.790870
 30
0.0
 10
114.114783
 20
146.603333
 30
0.0
  0
SPLINE
  5
25c
100
AcDbEntity
  8
0
 62
7
100
AcDbSpline
 70
8
 71
3
 72
8
 73
4
 74
0
 40
0
 40
0
 40
0
 40
0
 40
1
 40
1
 40
1
 40
1
 10
114.114783
 20
146.603333
 30
0.0
 10
114.302319
 20
146.415796
 30
0.0
 10
114.556673
 20
146.310439
 30
0.0
 10
114.821890
 20
146.310439
 30
0.0
  0
SPLINE
  5
25d
100
AcDbEntity
  8
0
 62
7
100
AcDbSpline
 70
8
 71
3
 72
8
 73
4
 74
0
 40
0
 40
0
 40
0
 40
0
 40
1
 40
1
 40
1
 40
1
 10
114.821890
 20
146.310439
 30
0.0
 10
115.087107
 20
146.310439
 30
0.0
 10
115.341461
 20
146.415796
 30
0.0
 10
115.528997
 20
146.603333
 30
0.0
  0
SPLINE
  5
25e
100
AcDbEntity
  8
0
 62
7
100
AcDbSpline
 70
8
 71
3
 72
8
 73
4
 74
0
 40
0
 40
0
 40
0
 40
0
 40
1
 40
1
 40
1
 40
1
 10
115.528997
 20
146.603333
 30
0.0
 10
115.716534
 20
146.790870
 30
0.0
 10
115.821891
 20
147.045224
 30
0.0
 10
115.821890
 20
147.310441
 30
0.0
  0
LINE
  5
25f
100
AcDbEntity
  8
0
 62
7
100
AcDbLine
 10
115.821890
 20
147.310441
 30
0.0
 11
115.821890
 21
147.310441
 31
0.0
  0
SPLINE
  5
260
100
AcDbEntity
  8
0
 62
7
100
AcDbSpline
 70
8
 71
3
 72
8
 73
4
 74
0
 40
0
 40
0
 40
0
 40
0
 40
1
 40
1
 40
1
 40
1
 10
116.133020
 20
151.274230
 30
0.0
 10
116.133020
 20
151.539446
 30
0.0
 10
116.027663
 20
151.793800
 30
0.0
 10
115.840127
 20
151.981337
 30
0.0
  0
SPLINE
  5
261
100
AcDbEntity
  8
0
 62
7
100
AcDbSpline
 70
8
 71
3
 72
8
 73
4
 74
0
 40
0
 40
0
 40
0
 40
0
 40
1
 40
1
 40
1
 40
1
 10
115.840127
 20
151.981337
 30
0.0
 10
115.652590
 20
152.168873
 30
0.0
 10
115.398236
 20
152.274230
 30
0.0
 10
115.133020
 20
152.274230
 30
0.0
  0
SPLINE
  5
262
100
AcDbEntity
  8
0
 62
7
100
AcDbSpline
 70
8
 71
3
 72
8
 73
4
 74
0
 40
0
 40
0
 40
0
 40
0
 40
1
 40
1
 40
1
 40
1
 10
115.133020
 20
152.274230
 30
0.0
 10
114.867804
 20
152.274230
 30
0.0
 10
114.613450
 20
152.168873
 30
0.0
 10
114.425913
 20
151.981337
 30
0.0
  0
SPLINE
  5
263
100
AcDbEntity
  8
0
 62
7
100
AcDbSpline
 70
8
 71
3
 72
8
 73
4
 74
0
 40
0
 40
0
 40
0
 40
0
 40
1
 40
1
 40
1
 40
1
 10
114.425913
 20
151.981337
 30
0.0
 10
114.238377
 20
151.793800
 30
0.0
 10
114.133020
 20
151.539446
 30
0.0
 10
114.133020
 20
151.274230
 30
0.0
  0
SPLINE
  5
264
100
AcDbEntity
  8
0
 62
7
100
AcDbSpline
 70
8
 71
3
 72
8
 73
4
 74
0
 40
0
 40
0
 40
0
 40
0
 40
1
 40
1
 40
1
 40
1
 10
114.133020
 20
151.274230
 30
0.0
 10
114.133019
 20
151.009013
 30
0.0
 10
114.238376
 20
150.754659
 30
0.0
 10
114.425913
 20
150.567122
 30
0.0
  0
SPLINE
  5
265
100
AcDbEntity
  8
0
 62
7
100
AcDbSpline
 70
8
 71
3
 72
8
 73
4
 74
0
 40
0
 40
0
 40
0
 40
0
 40
1
 40
1
 40
1
 40
1
 10
114.425913
 20
150.567122
 30
0.0
 10
114.613449
 20
150.379585
 30
0.0
 10
114.867803
 20
150.274228
 30
0.0
 10
115.133020
 20
150.274228
 30
0.0
  0
SPLINE
  5
266
100
AcDbEntity
  8
0
 62
7
100
AcDbSpline
 70
8
 71
3
 72
8
 73
4
 74
0
 40
0
 40
0
 40
0
 40
0
 40
1
 40
1
 40
1
 40
1
 10
115.133020
 20
150.274228
 30
0.0
 10
115.398237
 20
150.274228
 30
0.0
 10
115.652591
 20
150.379585
 30
0.0
 10
115.840127
 20
150.567122
 30
0.0
  0
SPLINE
  5
267
100
AcDbEntity
  8
0
 62
7
100
AcDbSpline
 70
8
 71
3
 72
8
 73
4
 74
0
 40
0
 40
0
 40
0
 40
0
 40
1
 40
1
 40
1
 40
1
 10
115.840127
 20
150.567122
 30
0.0
 10
116.027664
 20
150.754659
 30
0.0
 10
116.133021
 20
151.009013
 30
0.0
 10
116.133020
 20
151.274230
 30
0.0
  0
LINE
  5
268
100
AcDbEntity
  8
0
 62
7
100
AcDbLine
 10
116.133020
 20
151.274230
 30
0.0
 11
116.133020
 21
151.274230
 31
0.0
  0
SPLINE
  5
269
100
AcDbEntity
  8
0
 62
7
100
AcDbSpline
 70
8
 71
3
 72
8
 73
4
 74
0
 40
0
 40
0
 40
0
 40
0
 40
1
 40
1
 40
1
 40
1
 10
117.886150
 20
154.842302
 30
0.0
 10
117.886150
 20
155.107518
 30
0.0
 10
117.780793
 20
155.361872
 30
0.0
 10
117.593257
 20
155.549409
 30
0.0
  0
SPLINE
  5
26a
100
AcDbEntity
  8
0
 62
7
100
AcDbSpline
 70
8
 71
3
 72
8
 73
4
 74
0
 40
0
 40
0
 40
0
 40
0
 40
1
 40
1
 40
1
 40
1
 10
117.593257
 20
155.549409
 30
0.0
 10
117.405720
 20
155.736945
 30
0.0
 10
117.151366
 20
155.842302
 30
0.0
 10
116.886150
 20
155.842302
 30
0.0
  0
SPLINE
  5
26b
100
AcDbEntity
  8
0
 62
7
100
AcDbSpline
 70
8
 71
3
 72
8
 73
4
 74
0
 40
0
 40
0
 40
0
 40
0
 40
1
 40
1
 40
1
 40
1
 10
116.886150
 20
155.842302
 30
0.0
 10
116.620934
 20
155.842302
 30
0.0
 10
116.366580
 20
155.736945
 30
0.0
 10
116.179043
 20
155.549409
 30
0.0
  0
SPLINE
  5
26c
100
AcDbEntity
  8
0
 62
7
100
AcDbSpline
 70
8
 71
3
 72
8
 73
4
 74
0
 40
0
 40
0
 40
0
 40
0
 40
1
 40
1
 40
1
 40
1
 10
116.179043
 20
155.549409
 30
0.0
 10
115.991507
 20
155.361872
 30
0.0
 10
115.886150
 20
155.107518
 30
0.0
 10
115.886150
 20
154.842302
 30
0.0
  0
SPLINE
  5
26d
100
AcDbEntity
  8
0
 62
7
100
AcDbSpline
 70
8
 71
3
 72
8
 73
4
 74
0
 40
0
 40
0
 40
0
 40
0
 40
1
 40
1
 40
1
 40
1
 10
115.886150
 20
154.842302
 30
0.0
 10
115.886149
 20
154.577085
 30
0.0
 10
115.991506
 20
154.322731
 30
0.0
 10
116.179043
 20
154.135194
 30
0.0
  0
SPLINE
  5
26e
100
AcDbEntity
  8
0
 62
7
100
AcDbSpline
 70
8
 71
3
 72
8
 73
4
 74
0
 40
0
 40
0
 40
0
 40
0
 40
1
 40
1
 40
1
 40
1
 10
116.179043
 20
154.135194
 30
0.0
 10
116.366579
 20
153.947657
 30
0.0
 10
116.620933
 20
153.842300
 30
0.0
 10
116.886150
 20
153.842300
 30
0.0
  0
SPLINE
  5
26f
100
AcDbEntity
  8
0
 62
7
100
AcDbSpline
 70
8
 71
3
 72
8
 73
4
 74
0
 40
0
 40
0
 40
0
 40
0
 40
1
 40
1
 40
1
 40
1
 10
116.886150
 20
153.842300
 30
0.0
 10
117.151367
 20
153.842300
 30
0.0
 10
117.405721
 20
153.947657
 30
0.0
 10
117.593257
 20
154.135194
 30
0.0
  0
SPLINE
  5
270
100
AcDbEntity
  8
0
 62
7
100
AcDbSpline
 70
8
 71
3
 72
8
 73
4
 74
0
 40
0
 40
0
 40
0
 40
0
 40
1
 40
1
 40
1
 40
1
 10
117.593257
 20
154.135194
 30
0.0
 10
117.780794
 20
154.322731
 30
0.0
 10
117.886151
 20
154.577085
 30
0.0
 10
117.886150
 20
154.842302
 30
0.0
  0
LINE
  5
271
100
AcDbEntity
  8
0
 62
7
100
AcDbLine
 10
117.886150
 20
154.842302
 30
0.0
 11
117.886150
 21
154.842302
 31
0.0
  0
SPLINE
  5
272
100
AcDbEntity
  8
0
 62
7
100
AcDbSpline
 70
8
 71
3
 72
8
 73
4
 74
0
 40
0
 40
0
 40
0
 40
0
 40
1
 40
1
 40
1
 40
1
 10
120.863300
 20
157.473196
 30
0.0
 10
120.863300
 20
157.738412
 30
0.0
 10
120.757943
 20
157.992766
 30
0.0
 10
120.570407
 20
158.180303
 30
0.0
  0
SPLINE
  5
273
100
AcDbEntity
  8
0
 62
7
100
AcDbSpline
 70
8
 71
3
 72
8
 73
4
 74
0
 40
0
 40
0
 40
0
 40
0
 40
1
 40
1
 40
1
 40
1
 10
120.570407
 20
158.180303
 30
0.0
 10
120.382870
 20
158.367839
 30
0.0
 10
120.128516
 20
158.473196
 30
0.0
 10
119.863300
 20
158.473196
 30
0.0
  0
SPLINE
  5
274
100
AcDbEntity
  8
0
 62
7
100
AcDbSpline
 70
8
 71
3
 72
8
 73
4
 74
0
 40
0
 40
0
 40
0
 40
0
 40
1
 40
1
 40
1
 40
1
 10
119.863300
 20
158.473196
 30
0.0
 10
119.598084
 20
158.473196
 30
0.0
 10
119.343730
 20
158.367839
 30
0.0
 10
119.156193
 20
158.180303
 30
0.0
  0
SPLINE
  5
275
100
AcDbEntity
  8
0
 62
7
100
AcDbSpline
 70
8
 71
3
 72
8
 73
4
 74
0
 40
0
 40
0
 40
0
 40
0
 40
1
 40
1
 40
1
 40
1
 10
119.156193
 20
158.180303
 30
0.0
 10
118.968657
 20
157.992766
 30
0.0
 10
118.863300
 20
157.738412
 30
0.0
 10
118.863300
 20
157.473196
 30
0.0
  0
SPLINE
  5
276
100
AcDbEntity
  8
0
 62
7
100
AcDbSpline
 70
8
 71
3
 72
8
 73
4
 74
0
 40
0
 40
0
 40
0
 40
0
 40
1
 40
1
 40
1
 40
1
 10
118.863300
 20
157.473196
 30
0.0
 10
118.863299
 20
157.207979
 30
0.0
 10
118.968656
 20
156.953625
 30
0.0
 10
119.156193
 20
156.766088
 30
0.0
  0
SPLINE
  5
277
100
AcDbEntity
  8
0
 62
7
100
AcDbSpline
 70
8
 71
3
 72
8
 73
4
 74
0
 40
0
 40
0
 40
0
 40
0
 40
1
 40
1
 40
1
 40
1
 10
119.156193
 20
156.766088
 30
0.0
 10
119.343729
 20
156.578551
 30
0.0
 10
119.598083
 20
156.473194
 30
0.0
 10
119.863300
 20
156.473194
 30
0.0
  0
SPLINE
  5
278
100
AcDbEntity
  8
0
 62
7
100
AcDbSpline
 70
8
 71
3
 72
8
 73
4
 74
0
 40
0
 40
0
 40
0
 40
0
 40
1
 40
1
 40
1
 40
1
 10
119.863300
 20
156.473194
 30
0.0
 10
120.128517
 20
156.473194
 30
0.0
 10
120.382871
 20
156.578551
 30
0.0
 10
120.570407
 20
156.766088
 30
0.0
  0
SPLINE
  5
279
100
AcDbEntity
  8
0
 62
7
100
AcDbSpline
 70
8
 71
3
 72
8
 73
4
 74
0
 40
0
 40
0
 40
0
 40
0
 40
1
 40
1
 40
1
 40
1
 10
120.570407
 20
156.766088
 30
0.0
 10
120.757944
 20
156.953625
 30
0.0
 10
120.863301
 20
157.207979
 30
0.0
 10
120.863300
 20
157.473196
 30
0.0
  0
LINE
  5
27a
100
AcDbEntity
  8
0
 62
7
100
AcDbLine
 10
120.863300
 20
157.473196
 30
0.0
 11
120.863300
 21
157.473196
 31
0.0
  0
SPLINE
  5
27b
100
AcDbEntity
  8
0
 62
7
100
AcDbSpline
 70
8
 71
3
 72
8
 73
4
 74
0
 40
0
 40
0
 40
0
 40
0
 40
1
 40
1
 40
1
 40
1
 10
124.605590
 20
158.803678
 30
0.0
 10
124.605590
 20
159.068894
 30
0.0
 10
124.500233
 20
159.323248
 30
0.0
 10
124.312697
 20
159.510785
 30
0.0
  0
SPLINE
  5
27c
100
AcDbEntity
  8
0
 62
7
100
AcDbSpline
 70
8
 71
3
 72
8
 73
4
 74
0
 40
0
 40
0
 40
0
 40
0
 40
1
 40
1
 40
1
 40
1
 10
124.312697
 20
159.510785
 30
0.0
 10
124.125160
 20
159.698321
 30
0.0
 10
123.870806
 20
159.803678
 30
0.0
 10
123.605590
 20
159.803678
 30
0.0
  0
SPLINE
  5
27d
100
AcDbEntity
  8
0
 62
7
100
AcDbSpline
 70
8
 71
3
 72
8
 73
4
 74
0
 40
0
 40
0
 40
0
 40
0
 40
1
 40
1
 40
1
 40
1
 10
123.605590
 20
159.803678
 30
0.0
 10
123.340374
 20
159.803678
 30
0.0
 10
123.086020
 20
159.698321
 30
0.0
 10
122.898483
 20
159.510785
 30
0.0
  0
SPLINE
  5
27e
100
AcDbEntity
  8
0
 62
7
100
AcDbSpline
 70
8
 71
3
 72
8
 73
4
 74
0
 40
0
 40
0
 40
0
 40
0
 40
1
 40
1
 40
1
 40
1
 10
122.898483
 20
159.510785
 30
0.0
 10
122.710947
 20
159.323248
 30
0.0
 10
122.605590
 20
159.068894
 30
0.0
 10
122.605590
 20
158.803678
 30
0.0
  0
SPLINE
  5
27f
100
AcDbEntity
  8
0
 62
7
100
AcDbSpline
 70
8
 71
3
 72
8
 73
4
 74
0
 40
0
 40
0
 40
0
 40
0
 40
1
 40
1
 40
1
 40
1
 10
122.605590
 20
158.803678
 30
0.0
 10
122.605589
 20
158.538461
 30
0.0
 10
122.710946
 20
158.284107
 30
0.0
 10
122.898483
 20
158.096570
 30
0.0
  0
SPLINE
  5
280
100
AcDbEntity
  8
0
 62
7
100
AcDbSpline
 70
8
 71
3
 72
8
 73
4
 74
0
 40
0
 40
0
 40
0
 40
0
 40
1
 40
1
 40
1
 40
1
 10
122.898483
 20
158.096570
 30
0.0
 10
123.086019
 20
157.909033
 30
0.0
 10
123.340373
 20
157.803676
 30
0.0
 10
123.605590
 20
157.803676
 30
0.0
  0
SPLINE
  5
281
100
AcDbEntity
  8
0
 62
7
100
AcDbSpline
 70
8
 71
3
 72
8
 73
4
 74
0
 40
0
 40
0
 40
0
 40
0
 40
1
 40
1
 40
1
 40
1
 10
123.605590
 20
157.803676
 30
0.0
 10
123.870807
 20
157.803676
 30
0.0
 10
124.125161
 20
157.909033
 30
0.0
 10
124.312697
 20
158.096570
 30
0.0
  0
SPLINE
  5
282
100
AcDbEntity
  8
0
 62
7
100
AcDbSpline
 70
8
 71
3
 72
8
 73
4
 74
0
 40
0
 40
0
 40
0
 40
0
 40
1
 40
1
 40
1
 40
1
 10
124.312697
 20
158.096570
 30
0.0
 10
124.500234
 20
158.284107
 30
0.0
 10
124.605591
 20
158.538461
 30
0.0
 10
124.605590
 20
158.803678
 30
0.0
  0
LINE
  5
283
100
AcDbEntity
  8
0
 62
7
100
AcDbLine
 10
124.605590
 20
158.803678
 30
0.0
 11
124.605590
 21
158.803678
 31
0.0
  0
SPLINE
  5
284
100
AcDbEntity
  8
0
 62
7
100
AcDbSpline
 70
8
 71
3
 72
8
 73
4
 74
0
 40
0
 40
0
 40
0
 40
0
 40
1
 40
1
 40
1
 40
1
 10
128.578520
 20
158.703051
 30
0.0
 10
128.578520
 20
158.968267
 30
0.0
 10
128.473163
 20
159.222621
 30
0.0
 10
128.285627
 20
159.410158
 30
0.0
  0
SPLINE
  5
285
100
AcDbEntity
  8
0
 62
7
100
AcDbSpline
 70
8
 71
3
 72
8
 73
4
 74
0
 40
0
 40
0
 40
0
 40
0
 40
1
 40
1
 40
1
 40
1
 10
128.285627
 20
159.410158
 30
0.0
 10
128.098090
 20
159.597694
 30
0.0
 10
127.843736
 20
159.703051
 30
0.0
 10
127.578520
 20
159.703051
 30
0.0
  0
SPLINE
  5
286
100
AcDbEntity
  8
0
 62
7
100
AcDbSpline
 70
8
 71
3
 72
8
 73
4
 74
0
 40
0
 40
0
 40
0
 40
0
 40
1
 40
1
 40
1
 40
1
 10
127.578520
 20
159.703051
 30
0.0
 10
127.313304
 20
159.703051
 30
0.0
 10
127.058950
 20
159.597694
 30
0.0
 10
126.871413
 20
159.410158
 30
0.0
  0
SPLINE
  5
287
100
AcDbEntity
  8
0
 62
7
100
AcDbSpline
 70
8
 71
3
 72
8
 73
4
 74
0
 40
0
 40
0
 40
0
 40
0
 40
1
 40
1
 40
1
 40
1
 10
126.871413
 20
159.410158
 30
0.0
 10
126.683877
 20
159.222621
 30
0.0
 10
126.578520
 20
158.968267
 30
0.0
 10
126.578520
 20
158.703051
 30
0.0
  0
SPLINE
  5
288
100
AcDbEntity
  8
0
 62
7
100
AcDbSpline
 70
8
 71
3
 72
8
 73
4
 74
0
 40
0
 40
0
 40
0
 40
0
 40
1
 40
1
 40
1
 40
1
 10
126.578520
 20
158.703051
 30
0.0
 10
126.578519
 20
158.437834
 30
0.0
 10
126.683876
 20
158.183480
 30
0.0
 10
126.871413
 20
157.995943
 30
0.0
  0
SPLINE
  5
289
100
AcDbEntity
  8
0
 62
7
100
AcDbSpline
 70
8
 71
3
 72
8
 73
4
 74
0
 40
0
 40
0
 40
0
 40
0
 40
1
 40
1
 40
1
 40
1
 10
126.871413
 20
157.995943
 30
0.0
 10
127.058949
 20
157.808406
 30
0.0
 10
127.313303
 20
157.703049
 30
0.0
 10
127.578520
 20
157.703049
 30
0.0
  0
SPLINE
  5
28a
100
AcDbEntity
  8
0
 62
7
100
AcDbSpline
 70
8
 71
3
 72
8
 73
4
 74
0
 40
0
 40
0
 40
0
 40
0
 40
1
 40
1
 40
1
 40
1
 10
127.578520
 20
157.703049
 30
0.0
 10
127.843737
 20
157.703049
 30
0.0
 10
128.098091
 20
157.808406
 30
0.0
 10
128.285627
 20
157.995943
 30
0.0
  0
SPLINE
  5
28b
100
AcDbEntity
  8
0
 62
7
100
AcDbSpline
 70
8
 71
3
 72
8
 73
4
 74
0
 40
0
 40
0
 40
0
 40
0
 40
1
 40
1
 40
1
 40
1
 10
128.285627
 20
157.995943
 30
0.0
 10
128.473164
 20
158.183480
 30
0.0
 10
128.578521
 20
158.437834
 30
0.0
 10
128.578520
 20
158.703051
 30
0.0
  0
LINE
  5
28c
100
AcDbEntity
  8
0
 62
7
100
AcDbLine
 10
128.578520
 20
158.703051
 30
0.0
 11
128.578520
 21
158.703051
 31
0.0
  0
SPLINE
  5
28d
100
AcDbEntity
  8
0
 62
7
100
AcDbSpline
 70
8
 71
3
 72
8
 73
4
 74
0
 40
0
 40
0
 40
0
 40
0
 40
1
 40
1
 40
1
 40
1
 10
132.267480
 20
157.221031
 30
0.0
 10
132.267480
 20
157.486247
 30
0.0
 10
132.162123
 20
157.740601
 30
0.0
 10
131.974587
 20
157.928138
 30
0.0
  0
SPLINE
  5
28e
100
AcDbEntity
  8
0
 62
7
100
AcDbSpline
 70
8
 71
3
 72
8
 73
4
 74
0
 40
0
 40
0
 40
0
 40
0
 40
1
 40
1
 40
1
 40
1
 10
131.974587
 20
157.928138
 30
0.0
 10
131.787050
 20
158.115674
 30
0.0
 10
131.532696
 20
158.221031
 30
0.0
 10
131.267480
 20
158.221031
 30
0.0
  0
SPLINE
  5
28f
100
AcDbEntity
  8
0
 62
7
100
AcDbSpline
 70
8
 71
3
 72
8
 73
4
 74
0
 40
0
 40
0
 40
0
 40
0
 40
1
 40
1
 40
1
 40
1
 10
131.267480
 20
158.221031
 30
0.0
 10
131.002264
 20
158.221031
 30
0.0
 10
130.747910
 20
158.115674
 30
0.0
 10
130.560373
 20
157.928138
 30
0.0
  0
SPLINE
  5
290
100
AcDbEntity
  8
0
 62
7
100
AcDbSpline
 70
8
 71
3
 72
8
 73
4
 74
0
 40
0
 40
0
 40
0
 40
0
 40
1
 40
1
 40
1
 40
1
 10
130.560373
 20
157.928138
 30
0.0
 10
130.372837
 20
157.740601
 30
0.0
 10
130.267480
 20
157.486247
 30
0.0
 10
130.267480
 20
157.221031
 30
0.0
  0
SPLINE
  5
291
100
AcDbEntity
  8
0
 62
7
100
AcDbSpline
 70
8
 71
3
 72
8
 73
4
 74
0
 40
0
 40
0
 40
0
 40
0
 40
1
 40
1
 40
1
 40
1
 10
130.267480
 20
157.221031
 30
0.0
 10
130.267479
 20
156.955814
 30
0.0
 10
130.372836
 20
156.701460
 30
0.0
 10
130.560373
 20
156.513923
 30
0.0
  0
SPLINE
  5
292
100
AcDbEntity
  8
0
 62
7
100
AcDbSpline
 70
8
 71
3
 72
8
 73
4
 74
0
 40
0
 40
0
 40
0
 40
0
 40
1
 40
1
 40
1
 40
1
 10
130.560373
 20
156.513923
 30
0.0
 10
130.747909
 20
156.326386
 30
0.0
 10
131.002263
 20
156.221029
 30
0.0
 10
131.267480
 20
156.221029
 30
0.0
  0
SPLINE
  5
293
100
AcDbEntity
  8
0
 62
7
100
AcDbSpline
 70
8
 71
3
 72
8
 73
4
 74
0
 40
0
 40
0
 40
0
 40
0
 40
1
 40
1
 40
1
 40
1
 10
131.267480
 20
156.221029
 30
0.0
 10
131.532697
 20
156.221029
 30
0.0
 10
131.787051
 20
156.326386
 30
0.0
 10
131.974587
 20
156.513923
 30
0.0
  0
SPLINE
  5
294
100
AcDbEntity
  8
0
 62
7
100
AcDbSpline
 70
8
 71
3
 72
8
 73
4
 74
0
 40
0
 40
0
 40
0
 40
0
 40
1
 40
1
 40
1
 40
1
 10
131.974587
 20
156.513923
 30
0.0
 10
132.162124
 20
156.701460
 30
0.0
 10
132.267481
 20
156.955814
 30
0.0
 10
132.267480
 20
157.221031
 30
0.0
  0
LINE
  5
295
100
AcDbEntity
  8
0
 62
7
100
AcDbLine
 10
132.267480
 20
157.221031
 30
0.0
 11
132.267480
 21
157.221031
 31
0.0
  0
SPLINE
  5
296
100
AcDbEntity
  8
0
 62
7
100
AcDbSpline
 70
8
 71
3
 72
8
 73
4
 74
0
 40
0
 40
0
 40
0
 40
0
 40
1
 40
1
 40
1
 40
1
 10
135.179990
 20
154.514904
 30
0.0
 10
135.179990
 20
154.780120
 30
0.0
 10
135.074633
 20
155.034474
 30
0.0
 10
134.887097
 20
155.222011
 30
0.0
  0
SPLINE
  5
297
100
AcDbEntity
  8
0
 62
7
100
AcDbSpline
 70
8
 71
3
 72
8
 73
4
 74
0
 40
0
 40
0
 40
0
 40
0
 40
1
 40
1
 40
1
 40
1
 10
134.887097
 20
155.222011
 30
0.0
 10
134.699560
 20
155.409547
 30
0.0
 10
134.445206
 20
155.514904
 30
0.0
 10
134.179990
 20
155.514904
 30
0.0
  0
SPLINE
  5
298
100
AcDbEntity
  8
0
 62
7
100
AcDbSpline
 70
8
 71
3
 72
8
 73
4
 74
0
 40
0
 40
0
 40
0
 40
0
 40
1
 40
1
 40
1
 40
1
 10
134.179990
 20
155.514904
 30
0.0
 10
133.914774
 20
155.514904
 30
0.0
 10
133.660420
 20
155.409547
 30
0.0
 10
133.472883
 20
155.222011
 30
0.0
  0
SPLINE
  5
299
100
AcDbEntity
  8
0
 62
7
100
AcDbSpline
 70
8
 71
3
 72
8
 73
4
 74
0
 40
0
 40
0
 40
0
 40
0
 40
1
 40
1
 40
1
 40
1
 10
133.472883
 20
155.222011
 30
0.0
 10
133.285347
 20
155.034474
 30
0.0
 10
133.179990
 20
154.780120
 30
0.0
 10
133.179990
 20
154.514904
 30
0.0
  0
SPLINE
  5
29a
100
AcDbEntity
  8
0
 62
7
100
AcDbSpline
 70
8
 71
3
 72
8
 73
4
 74
0
 40
0
 40
0
 40
0
 40
0
 40
1
 40
1
 40
1
 40
1
 10
133.179990
 20
154.514904
 30
0.0
 10
133.179989
 20
154.249687
 30
0.0
 10
133.285346
 20
153.995333
 30
0.0
 10
133.472883
 20
153.807796
 30
0.0
  0
SPLINE
  5
29b
100
AcDbEntity
  8
0
 62
7
100
AcDbSpline
 70
8
 71
3
 72
8
 73
4
 74
0
 40
0
 40
0
 40
0
 40
0
 40
1
 40
1
 40
1
 40
1
 10
133.472883
 20
153.807796
 30
0.0
 10
133.660419
 20
153.620259
 30
0.0
 10
133.914773
 20
153.514902
 30
0.0
 10
134.179990
 20
153.514902
 30
0.0
  0
SPLINE
  5
29c
100
AcDbEntity
  8
0
 62
7
100
AcDbSpline
 70
8
 71
3
 72
8
 73
4
 74
0
 40
0
 40
0
 40
0
 40
0
 40
1
 40
1
 40
1
 40
1
 10
134.179990
 20
153.514902
 30
0.0
 10
134.445207
 20
153.514902
 30
0.0
 10
134.699561
 20
153.620259
 30
0.0
 10
134.887097
 20
153.807796
 30
0.0
  0
SPLINE
  5
29d
100
AcDbEntity
  8
0
 62
7
100
AcDbSpline
 70
8
 71
3
 72
8
 73
4
 74
0
 40
0
 40
0
 40
0
 40
0
 40
1
 40
1
 40
1
 40
1
 10
134.887097
 20
153.807796
 30
0.0
 10
135.074634
 20
153.995333
 30
0.0
 10
135.179991
 20
154.249687
 30
0.0
 10
135.179990
 20
154.514904
 30
0.0
  0
LINE
  5
29e
100
AcDbEntity
  8
0
 62
7
100
AcDbLine
 10
135.179990
 20
154.514904
 30
0.0
 11
135.179990
 21
154.514904
 31
0.0
  0
SPLINE
  5
29f
100
AcDbEntity
  8
0
 62
7
100
AcDbSpline
 70
8
 71
3
 72
8
 73
4
 74
0
 40
0
 40
0
 40
0
 40
0
 40
1
 40
1
 40
1
 40
1
 10
136.922060
 20
150.941709
 30
0.0
 10
136.922060
 20
151.206925
 30
0.0
 10
136.816703
 20
151.461279
 30
0.0
 10
136.629167
 20
151.648816
 30
0.0
  0
SPLINE
  5
2a0
100
AcDbEntity
  8
0
 62
7
100
AcDbSpline
 70
8
 71
3
 72
8
 73
4
 74
0
 40
0
 40
0
 40
0
 40
0
 40
1
 40
1
 40
1
 40
1
 10
136.629167
 20
151.648816
 30
0.0
 10
136.441630
 20
151.836352
 30
0.0
 10
136.187276
 20
151.941709
 30
0.0
 10
135.922060
 20
151.941709
 30
0.0
  0
SPLINE
  5
2a1
100
AcDbEntity
  8
0
 62
7
100
AcDbSpline
 70
8
 71
3
 72
8
 73
4
 74
0
 40
0
 40
0
 40
0
 40
0
 40
1
 40
1
 40
1
 40
1
 10
135.922060
 20
151.941709
 30
0.0
 10
135.656844
 20
151.941709
 30
0.0
 10
135.402490
 20
151.836352
 30
0.0
 10
135.214953
 20
151.648816
 30
0.0
  0
SPLINE
  5
2a2
100
AcDbEntity
  8
0
 62
7
100
AcDbSpline
 70
8
 71
3
 72
8
 73
4
 74
0
 40
0
 40
0
 40
0
 40
0
 40
1
 40
1
 40
1
 40
1
 10
135.214953
 20
151.648816
 30
0.0
 10
135.027417
 20
151.461279
 30
0.0
 10
134.922060
 20
151.206925
 30
0.0
 10
134.922060
 20
150.941709
 30
0.0
  0
SPLINE
  5
2a3
100
AcDbEntity
  8
0
 62
7
100
AcDbSpline
 70
8
 71
3
 72
8
 73
4
 74
0
 40
0
 40
0
 40
0
 40
0
 40
1
 40
1
 40
1
 40
1
 10
134.922060
 20
150.941709
 30
0.0
 10
134.922059
 20
150.676492
 30
0.0
 10
135.027416
 20
150.422138
 30
0.0
 10
135.214953
 20
150.234601
 30
0.0
  0
SPLINE
  5
2a4
100
AcDbEntity
  8
0
 62
7
100
AcDbSpline
 70
8
 71
3
 72
8
 73
4
 74
0
 40
0
 40
0
 40
0
 40
0
 40
1
 40
1
 40
1
 40
1
 10
135.214953
 20
150.234601
 30
0.0
 10
135.402489
 20
150.047064
 30
0.0
 10
135.656843
 20
149.941707
 30
0.0
 10
135.922060
 20
149.941707
 30
0.0
  0
SPLINE
  5
2a5
100
AcDbEntity
  8
0
 62
7
100
AcDbSpline
 70
8
 71
3
 72
8
 73
4
 74
0
 40
0
 40
0
 40
0
 40
0
 40
1
 40
1
 40
1
 40
1
 10
135.922060
 20
149.941707
 30
0.0
 10
136.187277
 20
149.941707
 30
0.0
 10
136.441631
 20
150.047064
 30
0.0
 10
136.629167
 20
150.234601
 30
0.0
  0
SPLINE
  5
2a6
100
AcDbEntity
  8
0
 62
7
100
AcDbSpline
 70
8
 71
3
 72
8
 73
4
 74
0
 40
0
 40
0
 40
0
 40
0
 40
1
 40
1
 40
1
 40
1
 10
136.629167
 20
150.234601
 30
0.0
 10
136.816704
 20
150.422138
 30
0.0
 10
136.922061
 20
150.676492
 30
0.0
 10
136.922060
 20
150.941709
 30
0.0
  0
LINE
  5
2a7
100
AcDbEntity
  8
0
 62
7
100
AcDbLine
 10
136.922060
 20
150.941709
 30
0.0
 11
136.922060
 21
150.941709
 31
0.0
  0
SPLINE
  5
2a8
100
AcDbEntity
  8
0
 62
7
100
AcDbSpline
 70
8
 71
3
 72
8
 73
4
 74
0
 40
0
 40
0
 40
0
 40
0
 40
1
 40
1
 40
1
 40
1
 10
137.328400
 20
146.984888
 30
0.0
 10
137.328400
 20
147.250104
 30
0.0
 10
137.223043
 20
147.504458
 30
0.0
 10
137.035507
 20
147.691995
 30
0.0
  0
SPLINE
  5
2a9
100
AcDbEntity
  8
0
 62
7
100
AcDbSpline
 70
8
 71
3
 72
8
 73
4
 74
0
 40
0
 40
0
 40
0
 40
0
 40
1
 40
1
 40
1
 40
1
 10
137.035507
 20
147.691995
 30
0.0
 10
136.847970
 20
147.879531
 30
0.0
 10
136.593616
 20
147.984888
 30
0.0
 10
136.328400
 20
147.984888
 30
0.0
  0
SPLINE
  5
2aa
100
AcDbEntity
  8
0
 62
7
100
AcDbSpline
 70
8
 71
3
 72
8
 73
4
 74
0
 40
0
 40
0
 40
0
 40
0
 40
1
 40
1
 40
1
 40
1
 10
136.328400
 20
147.984888
 30
0.0
 10
136.063184
 20
147.984888
 30
0.0
 10
135.808830
 20
147.879531
 30
0.0
 10
135.621293
 20
147.691995
 30
0.0
  0
SPLINE
  5
2ab
100
AcDbEntity
  8
0
 62
7
100
AcDbSpline
 70
8
 71
3
 72
8
 73
4
 74
0
 40
0
 40
0
 40
0
 40
0
 40
1
 40
1
 40
1
 40
1
 10
135.621293
 20
147.691995
 30
0.0
 10
135.433757
 20
147.504458
 30
0.0
 10
135.328400
 20
147.250104
 30
0.0
 10
135.328400
 20
146.984888
 30
0.0
  0
SPLINE
  5
2ac
100
AcDbEntity
  8
0
 62
7
100
AcDbSpline
 70
8
 71
3
 72
8
 73
4
 74
0
 40
0
 40
0
 40
0
 40
0
 40
1
 40
1
 40
1
 40
1
 10
135.328400
 20
146.984888
 30
0.0
 10
135.328399
 20
146.719671
 30
0.0
 10
135.433756
 20
146.465317
 30
0.0
 10
135.621293
 20
146.277780
 30
0.0
  0
SPLINE
  5
2ad
100
AcDbEntity
  8
0
 62
7
100
AcDbSpline
 70
8
 71
3
 72
8
 73
4
 74
0
 40
0
 40
0
 40
0
 40
0
 40
1
 40
1
 40
1
 40
1
 10
135.621293
 20
146.277780
 30
0.0
 10
135.808829
 20
146.090243
 30
0.0
 10
136.063183
 20
145.984886
 30
0.0
 10
136.328400
 20
145.984886
 30
0.0
  0
SPLINE
  5
2ae
100
AcDbEntity
  8
0
 62
7
100
AcDbSpline
 70
8
 71
3
 72
8
 73
4
 74
0
 40
0
 40
0
 40
0
 40
0
 40
1
 40
1
 40
1
 40
1
 10
136.328400
 20
145.984886
 30
0.0
 10
136.593617
 20
145.984886
 30
0.0
 10
136.847971
 20
146.090243
 30
0.0
 10
137.035507
 20
146.277780
 30
0.0
  0
SPLINE
  5
2af
100
AcDbEntity
  8
0
 62
7
100
AcDbSpline
 70
8
 71
3
 72
8
 73
4
 74
0
 40
0
 40
0
 40
0
 40
0
 40
1
 40
1
 40
1
 40
1
 10
137.035507
 20
146.277780
 30
0.0
 10
137.223044
 20
146.465317
 30
0.0
 10
137.328401
 20
146.719671
 30
0.0
 10
137.328400
 20
146.984888
 30
0.0
  0
LINE
  5
2b0
100
AcDbEntity
  8
0
 62
7
100
AcDbLine
 10
137.328400
 20
146.984888
 30
0.0
 11
137.328400
 21
146.984888
 31
0.0
  0
SPLINE
  5
2b1
100
AcDbEntity
  8
0
 62
7
100
AcDbSpline
 70
8
 71
3
 72
8
 73
4
 74
0
 40
0
 40
0
 40
0
 40
0
 40
1
 40
1
 40
1
 40
1
 10
136.375920
 20
143.122842
 30
0.0
 10
136.375920
 20
143.388058
 30
0.0
 10
136.270563
 20
143.642412
 30
0.0
 10
136.083027
 20
143.829949
 30
0.0
  0
SPLINE
  5
2b2
100
AcDbEntity
  8
0
 62
7
100
AcDbSpline
 70
8
 71
3
 72
8
 73
4
 74
0
 40
0
 40
0
 40
0
 40
0
 40
1
 40
1
 40
1
 40
1
 10
136.083027
 20
143.829949
 30
0.0
 10
135.895490
 20
144.017485
 30
0.0
 10
135.641136
 20
144.122842
 30
0.0
 10
135.375920
 20
144.122842
 30
0.0
  0
SPLINE
  5
2b3
100
AcDbEntity
  8
0
 62
7
100
AcDbSpline
 70
8
 71
3
 72
8
 73
4
 74
0
 40
0
 40
0
 40
0
 40
0
 40
1
 40
1
 40
1
 40
1
 10
135.375920
 20
144.122842
 30
0.0
 10
135.110704
 20
144.122842
 30
0.0
 10
134.856350
 20
144.017485
 30
0.0
 10
134.668813
 20
143.829949
 30
0.0
  0
SPLINE
  5
2b4
100
AcDbEntity
  8
0
 62
7
100
AcDbSpline
 70
8
 71
3
 72
8
 73
4
 74
0
 40
0
 40
0
 40
0
 40
0
 40
1
 40
1
 40
1
 40
1
 10
134.668813
 20
143.829949
 30
0.0
 10
134.481277
 20
143.642412
 30
0.0
 10
134.375920
 20
143.388058
 30
0.0
 10
134.375920
 20
143.122842
 30
0.0
  0
SPLINE
  5
2b5
100
AcDbEntity
  8
0
 62
7
100
AcDbSpline
 70
8
 71
3
 72
8
 73
4
 74
0
 40
0
 40
0
 40
0
 40
0
 40
1
 40
1
 40
1
 40
1
 10
134.375920
 20
143.122842
 30
0.0
 10
134.375919
 20
142.857625
 30
0.0
 10
134.481276
 20
142.603271
 30
0.0
 10
134.668813
 20
142.415734
 30
0.0
  0
SPLINE
  5
2b6
100
AcDbEntity
  8
0
 62
7
100
AcDbSpline
 70
8
 71
3
 72
8
 73
4
 74
0
 40
0
 40
0
 40
0
 40
0
 40
1
 40
1
 40
1
 40
1
 10
134.668813
 20
142.415734
 30
0.0
 10
134.856349
 20
142.228197
 30
0.0
 10
135.110703
 20
142.122840
 30
0.0
 10
135.375920
 20
142.122840
 30
0.0
  0
SPLINE
  5
2b7
100
AcDbEntity
  8
0
 62
7
100
AcDbSpline
 70
8
 71
3
 72
8
 73
4
 74
0
 40
0
 40
0
 40
0
 40
0
 40
1
 40
1
 40
1
 40
1
 10
135.375920
 20
142.122840
 30
0.0
 10
135.641137
 20
142.122840
 30
0.0
 10
135.895491
 20
142.228197
 30
0.0
 10
136.083027
 20
142.415734
 30
0.0
  0
SPLINE
  5
2b8
100
AcDbEntity
  8
0
 62
7
100
AcDbSpline
 70
8
 71
3
 72
8
 73
4
 74
0
 40
0
 40
0
 40
0
 40
0
 40
1
 40
1
 40
1
 40
1
 10
136.083027
 20
142.415734
 30
0.0
 10
136.270564
 20
142.603271
 30
0.0
 10
136.375921
 20
142.857625
 30
0.0
 10
136.375920
 20
143.122842
 30
0.0
  0
LINE
  5
2b9
100
AcDbEntity
  8
0
 62
7
100
AcDbLine
 10
136.375920
 20
143.122842
 30
0.0
 11
136.375920
 21
143.122842
 31
0.0
  0
SPLINE
  5
2ba
100
AcDbEntity
  8
0
 62
7
100
AcDbSpline
 70
8
 71
3
 72
8
 73
4
 74
0
 40
0
 40
0
 40
0
 40
0
 40
1
 40
1
 40
1
 40
1
 10
134.198050
 20
139.794788
 30
0.0
 10
134.198050
 20
140.060004
 30
0.0
 10
134.092693
 20
140.314358
 30
0.0
 10
133.905157
 20
140.501895
 30
0.0
  0
SPLINE
  5
2bb
100
AcDbEntity
  8
0
 62
7
100
AcDbSpline
 70
8
 71
3
 72
8
 73
4
 74
0
 40
0
 40
0
 40
0
 40
0
 40
1
 40
1
 40
1
 40
1
 10
133.905157
 20
140.501895
 30
0.0
 10
133.717620
 20
140.689431
 30
0.0
 10
133.463266
 20
140.794788
 30
0.0
 10
133.198050
 20
140.794788
 30
0.0
  0
SPLINE
  5
2bc
100
AcDbEntity
  8
0
 62
7
100
AcDbSpline
 70
8
 71
3
 72
8
 73
4
 74
0
 40
0
 40
0
 40
0
 40
0
 40
1
 40
1
 40
1
 40
1
 10
133.198050
 20
140.794788
 30
0.0
 10
132.932834
 20
140.794788
 30
0.0
 10
132.678480
 20
140.689431
 30
0.0
 10
132.490943
 20
140.501895
 30
0.0
  0
SPLINE
  5
2bd
100
AcDbEntity
  8
0
 62
7
100
AcDbSpline
 70
8
 71
3
 72
8
 73
4
 74
0
 40
0
 40
0
 40
0
 40
0
 40
1
 40
1
 40
1
 40
1
 10
132.490943
 20
140.501895
 30
0.0
 10
132.303407
 20
140.314358
 30
0.0
 10
132.198050
 20
140.060004
 30
0.0
 10
132.198050
 20
139.794788
 30
0.0
  0
SPLINE
  5
2be
100
AcDbEntity
  8
0
 62
7
100
AcDbSpline
 70
8
 71
3
 72
8
 73
4
 74
0
 40
0
 40
0
 40
0
 40
0
 40
1
 40
1
 40
1
 40
1
 10
132.198050
 20
139.794788
 30
0.0
 10
132.198049
 20
139.529571
 30
0.0
 10
132.303406
 20
139.275217
 30
0.0
 10
132.490943
 20
139.087680
 30
0.0
  0
SPLINE
  5
2bf
100
AcDbEntity
  8
0
 62
7
100
AcDbSpline
 70
8
 71
3
 72
8
 73
4
 74
0
 40
0
 40
0
 40
0
 40
0
 40
1
 40
1
 40
1
 40
1
 10
132.490943
 20
139.087680
 30
0.0
 10
132.678479
 20
138.900143
 30
0.0
 10
132.932833
 20
138.794786
 30
0.0
 10
133.198050
 20
138.794786
 30
0.0
  0
SPLINE
  5
2c0
100
AcDbEntity
  8
0
 62
7
100
AcDbSpline
 70
8
 71
3
 72
8
 73
4
 74
0
 40
0
 40
0
 40
0
 40
0
 40
1
 40
1
 40
1
 40
1
 10
133.198050
 20
138.794786
 30
0.0
 10
133.463267
 20
138.794786
 30
0.0
 10
133.717621
 20
138.900143
 30
0.0
 10
133.905157
 20
139.087680
 30
0.0
  0
SPLINE
  5
2c1
100
AcDbEntity
  8
0
 62
7
100
AcDbSpline
 70
8
 71
3
 72
8
 73
4
 74
0
 40
0
 40
0
 40
0
 40
0
 40
1
 40
1
 40
1
 40
1
 10
133.905157
 20
139.087680
 30
0.0
 10
134.092694
 20
139.275217
 30
0.0
 10
134.198051
 20
139.529571
 30
0.0
 10
134.198050
 20
139.794788
 30
0.0
  0
LINE
  5
2c2
100
AcDbEntity
  8
0
 62
7
100
AcDbLine
 10
134.198050
 20
139.794788
 30
0.0
 11
134.198050
 21
139.794788
 31
0.0
  0
SPLINE
  5
2c3
100
AcDbEntity
  8
0
 62
7
100
AcDbSpline
 70
8
 71
3
 72
8
 73
4
 74
0
 40
0
 40
0
 40
0
 40
0
 40
1
 40
1
 40
1
 40
1
 10
131.001490
 20
137.424851
 30
0.0
 10
131.001490
 20
137.690067
 30
0.0
 10
130.896133
 20
137.944421
 30
0.0
 10
130.708597
 20
138.131958
 30
0.0
  0
SPLINE
  5
2c4
100
AcDbEntity
  8
0
 62
7
100
AcDbSpline
 70
8
 71
3
 72
8
 73
4
 74
0
 40
0
 40
0
 40
0
 40
0
 40
1
 40
1
 40
1
 40
1
 10
130.708597
 20
138.131958
 30
0.0
 10
130.521060
 20
138.319494
 30
0.0
 10
130.266706
 20
138.424851
 30
0.0
 10
130.001490
 20
138.424851
 30
0.0
  0
SPLINE
  5
2c5
100
AcDbEntity
  8
0
 62
7
100
AcDbSpline
 70
8
 71
3
 72
8
 73
4
 74
0
 40
0
 40
0
 40
0
 40
0
 40
1
 40
1
 40
1
 40
1
 10
130.001490
 20
138.424851
 30
0.0
 10
129.736274
 20
138.424851
 30
0.0
 10
129.481920
 20
138.319494
 30
0.0
 10
129.294383
 20
138.131958
 30
0.0
  0
SPLINE
  5
2c6
100
AcDbEntity
  8
0
 62
7
100
AcDbSpline
 70
8
 71
3
 72
8
 73
4
 74
0
 40
0
 40
0
 40
0
 40
0
 40
1
 40
1
 40
1
 40
1
 10
129.294383
 20
138.131958
 30
0.0
 10
129.106847
 20
137.944421
 30
0.0
 10
129.001490
 20
137.690067
 30
0.0
 10
129.001490
 20
137.424851
 30
0.0
  0
SPLINE
  5
2c7
100
AcDbEntity
  8
0
 62
7
100
AcDbSpline
 70
8
 71
3
 72
8
 73
4
 74
0
 40
0
 40
0
 40
0
 40
0
 40
1
 40
1
 40
1
 40
1
 10
129.001490
 20
137.424851
 30
0.0
 10
129.001489
 20
137.159634
 30
0.0
 10
129.106846
 20
136.905280
 30
0.0
 10
129.294383
 20
136.717743
 30
0.0
  0
SPLINE
  5
2c8
100
AcDbEntity
  8
0
 62
7
100
AcDbSpline
 70
8
 71
3
 72
8
 73
4
 74
0
 40
0
 40
0
 40
0
 40
0
 40
1
 40
1
 40
1
 40
1
 10
129.294383
 20
136.717743
 30
0.0
 10
129.481919
 20
136.530206
 30
0.0
 10
129.736273
 20
136.424849
 30
0.0
 10
130.001490
 20
136.424849
 30
0.0
  0
SPLINE
  5
2c9
100
AcDbEntity
  8
0
 62
7
100
AcDbSpline
 70
8
 71
3
 72
8
 73
4
 74
0
 40
0
 40
0
 40
0
 40
0
 40
1
 40
1
 40
1
 40
1
 10
130.001490
 20
136.424849
 30
0.0
 10
130.266707
 20
136.424849
 30
0.0
 10
130.521061
 20
136.530206
 30
0.0
 10
130.708597
 20
136.717743
 30
0.0
  0
SPLINE
  5
2ca
100
AcDbEntity
  8
0
 62
7
100
AcDbSpline
 70
8
 71
3
 72
8
 73
4
 74
0
 40
0
 40
0
 40
0
 40
0
 40
1
 40
1
 40
1
 40
1
 10
130.708597
 20
136.717743
 30
0.0
 10
130.896134
 20
136.905280
 30
0.0
 10
131.001491
 20
137.159634
 30
0.0
 10
131.001490
 20
137.424851
 30
0.0
  0
LINE
  5
2cb
100
AcDbEntity
  8
0
 62
7
100
AcDbLine
 10
131.001490
 20
137.424851
 30
0.0
 11
131.001490
 21
137.424851
 31
0.0
  0
SPLINE
  5
2cc
100
AcDbEntity
  8
0
 62
7
100
AcDbSpline
 70
8
 71
3
 72
8
 73
4
 74
0
 40
0
 40
0
 40
0
 40
0
 40
1
 40
1
 40
1
 40
1
 10
127.191460
 20
136.277111
 30
0.0
 10
127.191460
 20
136.542327
 30
0.0
 10
127.086103
 20
136.796681
 30
0.0
 10
126.898567
 20
136.984218
 30
0.0
  0
SPLINE
  5
2cd
100
AcDbEntity
  8
0
 62
7
100
AcDbSpline
 70
8
 71
3
 72
8
 73
4
 74
0
 40
0
 40
0
 40
0
 40
0
 40
1
 40
1
 40
1
 40
1
 10
126.898567
 20
136.984218
 30
0.0
 10
126.711030
 20
137.171754
 30
0.0
 10
126.456676
 20
137.277111
 30
0.0
 10
126.191460
 20
137.277111
 30
0.0
  0
SPLINE
  5
2ce
100
AcDbEntity
  8
0
 62
7
100
AcDbSpline
 70
8
 71
3
 72
8
 73
4
 74
0
 40
0
 40
0
 40
0
 40
0
 40
1
 40
1
 40
1
 40
1
 10
126.191460
 20
137.277111
 30
0.0
 10
125.926244
 20
137.277111
 30
0.0
 10
125.671890
 20
137.171754
 30
0.0
 10
125.484353
 20
136.984218
 30
0.0
  0
SPLINE
  5
2cf
100
AcDbEntity
  8
0
 62
7
100
AcDbSpline
 70
8
 71
3
 72
8
 73
4
 74
0
 40
0
 40
0
 40
0
 40
0
 40
1
 40
1
 40
1
 40
1
 10
125.484353
 20
136.984218
 30
0.0
 10
125.296817
 20
136.796681
 30
0.0
 10
125.191460
 20
136.542327
 30
0.0
 10
125.191460
 20
136.277111
 30
0.0
  0
SPLINE
  5
2d0
100
AcDbEntity
  8
0
 62
7
100
AcDbSpline
 70
8
 71
3
 72
8
 73
4
 74
0
 40
0
 40
0
 40
0
 40
0
 40
1
 40
1
 40
1
 40
1
 10
125.191460
 20
136.277111
 30
0.0
 10
125.191459
 20
136.011894
 30
0.0
 10
125.296816
 20
135.757540
 30
0.0
 10
125.484353
 20
135.570003
 30
0.0
  0
SPLINE
  5
2d1
100
AcDbEntity
  8
0
 62
7
100
AcDbSpline
 70
8
 71
3
 72
8
 73
4
 74
0
 40
0
 40
0
 40
0
 40
0
 40
1
 40
1
 40
1
 40
1
 10
125.484353
 20
135.570003
 30
0.0
 10
125.671889
 20
135.382466
 30
0.0
 10
125.926243
 20
135.277109
 30
0.0
 10
126.191460
 20
135.277109
 30
0.0
  0
SPLINE
  5
2d2
100
AcDbEntity
  8
0
 62
7
100
AcDbSpline
 70
8
 71
3
 72
8
 73
4
 74
0
 40
0
 40
0
 40
0
 40
0
 40
1
 40
1
 40
1
 40
1
 10
126.191460
 20
135.277109
 30
0.0
 10
126.456677
 20
135.277109
 30
0.0
 10
126.711031
 20
135.382466
 30
0.0
 10
126.898567
 20
135.570003
 30
0.0
  0
SPLINE
  5
2d3
100
AcDbEntity
  8
0
 62
7
100
AcDbSpline
 70
8
 71
3
 72
8
 73
4
 74
0
 40
0
 40
0
 40
0
 40
0
 40
1
 40
1
 40
1
 40
1
 10
126.898567
 20
135.570003
 30
0.0
 10
127.086104
 20
135.757540
 30
0.0
 10
127.191461
 20
136.011894
 30
0.0
 10
127.191460
 20
136.277111
 30
0.0
  0
LINE
  5
2d4
100
AcDbEntity
  8
0
 62
7
100
AcDbLine
 10
127.191460
 20
136.277111
 30
0.0
 11
127.191460
 21
136.277111
 31
0.0
  0
SPLINE
  5
2d5
100
AcDbEntity
  8
0
 62
7
100
AcDbSpline
 70
8
 71
3
 72
8
 73
4
 74
0
 40
0
 40
0
 40
0
 40
0
 40
1
 40
1
 40
1
 40
1
 10
123.214880
 20
136.421745
 30
0.0
 10
123.214880
 20
136.686961
 30
0.0
 10
123.109523
 20
136.941315
 30
0.0
 10
122.921987
 20
137.128852
 30
0.0
  0
SPLINE
  5
2d6
100
AcDbEntity
  8
0
 62
7
100
AcDbSpline
 70
8
 71
3
 72
8
 73
4
 74
0
 40
0
 40
0
 40
0
 40
0
 40
1
 40
1
 40
1
 40
1
 10
122.921987
 20
137.128852
 30
0.0
 10
122.734450
 20
137.316388
 30
0.0
 10
122.480096
 20
137.421745
 30
0.0
 10
122.214880
 20
137.421745
 30
0.0
  0
SPLINE
  5
2d7
100
AcDbEntity
  8
0
 62
7
100
AcDbSpline
 70
8
 71
3
 72
8
 73
4
 74
0
 40
0
 40
0
 40
0
 40
0
 40
1
 40
1
 40
1
 40
1
 10
122.214880
 20
137.421745
 30
0.0
 10
121.949664
 20
137.421745
 30
0.0
 10
121.695310
 20
137.316388
 30
0.0
 10
121.507773
 20
137.128852
 30
0.0
  0
SPLINE
  5
2d8
100
AcDbEntity
  8
0
 62
7
100
AcDbSpline
 70
8
 71
3
 72
8
 73
4
 74
0
 40
0
 40
0
 40
0
 40
0
 40
1
 40
1
 40
1
 40
1
 10
121.507773
 20
137.128852
 30
0.0
 10
121.320237
 20
136.941315
 30
0.0
 10
121.214880
 20
136.686961
 30
0.0
 10
121.214880
 20
136.421745
 30
0.0
  0
SPLINE
  5
2d9
100
AcDbEntity
  8
0
 62
7
100
AcDbSpline
 70
8
 71
3
 72
8
 73
4
 74
0
 40
0
 40
0
 40
0
 40
0
 40
1
 40
1
 40
1
 40
1
 10
121.214880
 20
136.421745
 30
0.0
 10
121.214879
 20
136.156528
 30
0.0
 10
121.320236
 20
135.902174
 30
0.0
 10
121.507773
 20
135.714637
 30
0.0
  0
SPLINE
  5
2da
100
AcDbEntity
  8
0
 62
7
100
AcDbSpline
 70
8
 71
3
 72
8
 73
4
 74
0
 40
0
 40
0
 40
0
 40
0
 40
1
 40
1
 40
1
 40
1
 10
121.507773
 20
135.714637
 30
0.0
 10
121.695309
 20
135.527100
 30
0.0
 10
121.949663
 20
135.421743
 30
0.0
 10
122.214880
 20
135.421743
 30
0.0
  0
SPLINE
  5
2db
100
AcDbEntity
  8
0
 62
7
100
AcDbSpline
 70
8
 71
3
 72
8
 73
4
 74
0
 40
0
 40
0
 40
0
 40
0
 40
1
 40
1
 40
1
 40
1
 10
122.214880
 20
135.421743
 30
0.0
 10
122.480097
 20
135.421743
 30
0.0
 10
122.734451
 20
135.527100
 30
0.0
 10
122.921987
 20
135.714637
 30
0.0
  0
SPLINE
  5
2dc
100
AcDbEntity
  8
0
 62
7
100
AcDbSpline
 70
8
 71
3
 72
8
 73
4
 74
0
 40
0
 40
0
 40
0
 40
0
 40
1
 40
1
 40
1
 40
1
 10
122.921987
 20
135.714637
 30
0.0
 10
123.109524
 20
135.902174
 30
0.0
 10
123.214881
 20
136.156528
 30
0.0
 10
123.214880
 20
136.421745
 30
0.0
  0
LINE
  5
2dd
100
AcDbEntity
  8
0
 62
7
100
AcDbLine
 10
123.214880
 20
136.421745
 30
0.0
 11
123.214880
 21
136.421745
 31
0.0
  0
SPLINE
  5
2de
100
AcDbEntity
  8
0
 62
7
100
AcDbSpline
 70
8
 71
3
 72
8
 73
4
 74
0
 40
0
 40
0
 40
0
 40
0
 40
1
 40
1
 40
1
 40
1
 10
119.490230
 20
137.821822
 30
0.0
 10
119.490230
 20
138.087038
 30
0.0
 10
119.384873
 20
138.341392
 30
0.0
 10
119.197337
 20
138.528929
 30
0.0
  0
SPLINE
  5
2df
100
AcDbEntity
  8
0
 62
7
100
AcDbSpline
 70
8
 71
3
 72
8
 73
4
 74
0
 40
0
 40
0
 40
0
 40
0
 40
1
 40
1
 40
1
 40
1
 10
119.197337
 20
138.528929
 30
0.0
 10
119.009800
 20
138.716465
 30
0.0
 10
118.755446
 20
138.821822
 30
0.0
 10
118.490230
 20
138.821822
 30
0.0
  0
SPLINE
  5
2e0
100
AcDbEntity
  8
0
 62
7
100
AcDbSpline
 70
8
 71
3
 72
8
 73
4
 74
0
 40
0
 40
0
 40
0
 40
0
 40
1
 40
1
 40
1
 40
1
 10
118.490230
 20
138.821822
 30
0.0
 10
118.225014
 20
138.821822
 30
0.0
 10
117.970660
 20
138.716465
 30
0.0
 10
117.783123
 20
138.528929
 30
0.0
  0
SPLINE
  5
2e1
100
AcDbEntity
  8
0
 62
7
100
AcDbSpline
 70
8
 71
3
 72
8
 73
4
 74
0
 40
0
 40
0
 40
0
 40
0
 40
1
 40
1
 40
1
 40
1
 10
117.783123
 20
138.528929
 30
0.0
 10
117.595587
 20
138.341392
 30
0.0
 10
117.490230
 20
138.087038
 30
0.0
 10
117.490230
 20
137.821822
 30
0.0
  0
SPLINE
  5
2e2
100
AcDbEntity
  8
0
 62
7
100
AcDbSpline
 70
8
 71
3
 72
8
 73
4
 74
0
 40
0
 40
0
 40
0
 40
0
 40
1
 40
1
 40
1
 40
1
 10
117.490230
 20
137.821822
 30
0.0
 10
117.490229
 20
137.556605
 30
0.0
 10
117.595586
 20
137.302251
 30
0.0
 10
117.783123
 20
137.114714
 30
0.0
  0
SPLINE
  5
2e3
100
AcDbEntity
  8
0
 62
7
100
AcDbSpline
 70
8
 71
3
 72
8
 73
4
 74
0
 40
0
 40
0
 40
0
 40
0
 40
1
 40
1
 40
1
 40
1
 10
117.783123
 20
137.114714
 30
0.0
 10
117.970659
 20
136.927177
 30
0.0
 10
118.225013
 20
136.821820
 30
0.0
 10
118.490230
 20
136.821820
 30
0.0
  0
SPLINE
  5
2e4
100
AcDbEntity
  8
0
 62
7
100
AcDbSpline
 70
8
 71
3
 72
8
 73
4
 74
0
 40
0
 40
0
 40
0
 40
0
 40
1
 40
1
 40
1
 40
1
 10
118.490230
 20
136.821820
 30
0.0
 10
118.755447
 20
136.821820
 30
0.0
 10
119.009801
 20
136.927177
 30
0.0
 10
119.197337
 20
137.114714
 30
0.0
  0
SPLINE
  5
2e5
100
AcDbEntity
  8
0
 62
7
100
AcDbSpline
 70
8
 71
3
 72
8
 73
4
 74
0
 40
0
 40
0
 40
0
 40
0
 40
1
 40
1
 40
1
 40
1
 10
119.197337
 20
137.114714
 30
0.0
 10
119.384874
 20
137.302251
 30
0.0
 10
119.490231
 20
137.556605
 30
0.0
 10
119.490230
 20
137.821822
 30
0.0
  0
LINE
  5
2e6
100
AcDbEntity
  8
0
 62
7
100
AcDbLine
 10
119.490230
 20
137.821822
 30
0.0
 11
119.490230
 21
137.821822
 31
0.0
  0
SPLINE
  5
2e7
100
AcDbEntity
  8
0
 62
7
100
AcDbSpline
 70
8
 71
3
 72
8
 73
4
 74
0
 40
0
 40
0
 40
0
 40
0
 40
1
 40
1
 40
1
 40
1
 10
116.409310
 20
140.339905
 30
0.0
 10
116.409310
 20
140.605121
 30
0.0
 10
116.303953
 20
140.859475
 30
0.0
 10
116.116417
 20
141.047012
 30
0.0
  0
SPLINE
  5
2e8
100
AcDbEntity
  8
0
 62
7
100
AcDbSpline
 70
8
 71
3
 72
8
 73
4
 74
0
 40
0
 40
0
 40
0
 40
0
 40
1
 40
1
 40
1
 40
1
 10
116.116417
 20
141.047012
 30
0.0
 10
115.928880
 20
141.234548
 30
0.0
 10
115.674526
 20
141.339905
 30
0.0
 10
115.409310
 20
141.339905
 30
0.0
  0
SPLINE
  5
2e9
100
AcDbEntity
  8
0
 62
7
100
AcDbSpline
 70
8
 71
3
 72
8
 73
4
 74
0
 40
0
 40
0
 40
0
 40
0
 40
1
 40
1
 40
1
 40
1
 10
115.409310
 20
141.339905
 30
0.0
 10
115.144094
 20
141.339905
 30
0.0
 10
114.889740
 20
141.234548
 30
0.0
 10
114.702203
 20
141.047012
 30
0.0
  0
SPLINE
  5
2ea
100
AcDbEntity
  8
0
 62
7
100
AcDbSpline
 70
8
 71
3
 72
8
 73
4
 74
0
 40
0
 40
0
 40
0
 40
0
 40
1
 40
1
 40
1
 40
1
 10
114.702203
 20
141.047012
 30
0.0
 10
114.514667
 20
140.859475
 30
0.0
 10
114.409310
 20
140.605121
 30
0.0
 10
114.409310
 20
140.339905
 30
0.0
  0
SPLINE
  5
2eb
100
AcDbEntity
  8
0
 62
7
100
AcDbSpline
 70
8
 71
3
 72
8
 73
4
 74
0
 40
0
 40
0
 40
0
 40
0
 40
1
 40
1
 40
1
 40
1
 10
114.409310
 20
140.339905
 30
0.0
 10
114.409309
 20
140.074688
 30
0.0
 10
114.514666
 20
139.820334
 30
0.0
 10
114.702203
 20
139.632797
 30
0.0
  0
SPLINE
  5
2ec
100
AcDbEntity
  8
0
 62
7
100
AcDbSpline
 70
8
 71
3
 72
8
 73
4
 74
0
 40
0
 40
0
 40
0
 40
0
 40
1
 40
1
 40
1
 40
1
 10
114.702203
 20
139.632797
 30
0.0
 10
114.889739
 20
139.445260
 30
0.0
 10
115.144093
 20
139.339903
 30
0.0
 10
115.409310
 20
139.339903
 30
0.0
  0
SPLINE
  5
2ed
100
AcDbEntity
  8
0
 62
7
100
AcDbSpline
 70
8
 71
3
 72
8
 73
4
 74
0
 40
0
 40
0
 40
0
 40
0
 40
1
 40
1
 40
1
 40
1
 10
115.409310
 20
139.339903
 30
0.0
 10
115.674527
 20
139.339903
 30
0.0
 10
115.928881
 20
139.445260
 30
0.0
 10
116.116417
 20
139.632797
 30
0.0
  0
SPLINE
  5
2ee
100
AcDbEntity
  8
0
 62
7
100
AcDbSpline
 70
8
 71
3
 72
8
 73
4
 74
0
 40
0
 40
0
 40
0
 40
0
 40
1
 40
1
 40
1
 40
1
 10
116.116417
 20
139.632797
 30
0.0
 10
116.303954
 20
139.820334
 30
0.0
 10
116.409311
 20
140.074688
 30
0.0
 10
116.409310
 20
140.339905
 30
0.0
  0
LINE
  5
2ef
100
AcDbEntity
  8
0
 62
7
100
AcDbLine
 10
116.409310
 20
140.339905
 30
0.0
 11
116.409310
 21
140.339905
 31
0.0
  0
SPLINE
  5
2f0
100
AcDbEntity
  8
0
 62
7
100
AcDbSpline
 70
8
 71
3
 72
8
 73
4
 74
0
 40
0
 40
0
 40
0
 40
0
 40
1
 40
1
 40
1
 40
1
 10
114.331680
 20
143.736002
 30
0.0
 10
114.331680
 20
144.001218
 30
0.0
 10
114.226323
 20
144.255572
 30
0.0
 10
114.038787
 20
144.443109
 30
0.0
  0
SPLINE
  5
2f1
100
AcDbEntity
  8
0
 62
7
100
AcDbSpline
 70
8
 71
3
 72
8
 73
4
 74
0
 40
0
 40
0
 40
0
 40
0
 40
1
 40
1
 40
1
 40
1
 10
114.038787
 20
144.443109
 30
0.0
 10
113.851250
 20
144.630645
 30
0.0
 10
113.596896
 20
144.736002
 30
0.0
 10
113.331680
 20
144.736002
 30
0.0
  0
SPLINE
  5
2f2
100
AcDbEntity
  8
0
 62
7
100
AcDbSpline
 70
8
 71
3
 72
8
 73
4
 74
0
 40
0
 40
0
 40
0
 40
0
 40
1
 40
1
 40
1
 40
1
 10
113.331680
 20
144.736002
 30
0.0
 10
113.066464
 20
144.736002
 30
0.0
 10
112.812110
 20
144.630645
 30
0.0
 10
112.624573
 20
144.443109
 30
0.0
  0
SPLINE
  5
2f3
100
AcDbEntity
  8
0
 62
7
100
AcDbSpline
 70
8
 71
3
 72
8
 73
4
 74
0
 40
0
 40
0
 40
0
 40
0
 40
1
 40
1
 40
1
 40
1
 10
112.624573
 20
144.443109
 30
0.0
 10
112.437037
 20
144.255572
 30
0.0
 10
112.331680
 20
144.001218
 30
0.0
 10
112.331680
 20
143.736002
 30
0.0
  0
SPLINE
  5
2f4
100
AcDbEntity
  8
0
 62
7
100
AcDbSpline
 70
8
 71
3
 72
8
 73
4
 74
0
 40
0
 40
0
 40
0
 40
0
 40
1
 40
1
 40
1
 40
1
 10
112.331680
 20
143.736002
 30
0.0
 10
112.331679
 20
143.470785
 30
0.0
 10
112.437036
 20
143.216431
 30
0.0
 10
112.624573
 20
143.028894
 30
0.0
  0
SPLINE
  5
2f5
100
AcDbEntity
  8
0
 62
7
100
AcDbSpline
 70
8
 71
3
 72
8
 73
4
 74
0
 40
0
 40
0
 40
0
 40
0
 40
1
 40
1
 40
1
 40
1
 10
112.624573
 20
143.028894
 30
0.0
 10
112.812109
 20
142.841357
 30
0.0
 10
113.066463
 20
142.736000
 30
0.0
 10
113.331680
 20
142.736000
 30
0.0
  0
SPLINE
  5
2f6
100
AcDbEntity
  8
0
 62
7
100
AcDbSpline
 70
8
 71
3
 72
8
 73
4
 74
0
 40
0
 40
0
 40
0
 40
0
 40
1
 40
1
 40
1
 40
1
 10
113.331680
 20
142.736000
 30
0.0
 10
113.596897
 20
142.736000
 30
0.0
 10
113.851251
 20
142.841357
 30
0.0
 10
114.038787
 20
143.028894
 30
0.0
  0
SPLINE
  5
2f7
100
AcDbEntity
  8
0
 62
7
100
AcDbSpline
 70
8
 71
3
 72
8
 73
4
 74
0
 40
0
 40
0
 40
0
 40
0
 40
1
 40
1
 40
1
 40
1
 10
114.038787
 20
143.028894
 30
0.0
 10
114.226324
 20
143.216431
 30
0.0
 10
114.331681
 20
143.470785
 30
0.0
 10
114.331680
 20
143.736002
 30
0.0
  0
LINE
  5
2f8
100
AcDbEntity
  8
0
 62
7
100
AcDbLine
 10
114.331680
 20
143.736002
 30
0.0
 11
114.331680
 21
143.736002
 31
0.0
  0
SPLINE
  5
2f9
100
AcDbEntity
  8
0
 62
7
100
AcDbSpline
 70
8
 71
3
 72
8
 73
4
 74
0
 40
0
 40
0
 40
0
 40
0
 40
1
 40
1
 40
1
 40
1
 10
113.457160
 20
147.619002
 30
0.0
 10
113.457160
 20
147.884218
 30
0.0
 10
113.351803
 20
148.138572
 30
0.0
 10
113.164267
 20
148.326109
 30
0.0
  0
SPLINE
  5
2fa
100
AcDbEntity
  8
0
 62
7
100
AcDbSpline
 70
8
 71
3
 72
8
 73
4
 74
0
 40
0
 40
0
 40
0
 40
0
 40
1
 40
1
 40
1
 40
1
 10
113.164267
 20
148.326109
 30
0.0
 10
112.976730
 20
148.513645
 30
0.0
 10
112.722376
 20
148.619002
 30
0.0
 10
112.457160
 20
148.619002
 30
0.0
  0
SPLINE
  5
2fb
100
AcDbEntity
  8
0
 62
7
100
AcDbSpline
 70
8
 71
3
 72
8
 73
4
 74
0
 40
0
 40
0
 40
0
 40
0
 40
1
 40
1
 40
1
 40
1
 10
112.457160
 20
148.619002
 30
0.0
 10
112.191944
 20
148.619002
 30
0.0
 10
111.937590
 20
148.513645
 30
0.0
 10
111.750053
 20
148.326109
 30
0.0
  0
SPLINE
  5
2fc
100
AcDbEntity
  8
0
 62
7
100
AcDbSpline
 70
8
 71
3
 72
8
 73
4
 74
0
 40
0
 40
0
 40
0
 40
0
 40
1
 40
1
 40
1
 40
1
 10
111.750053
 20
148.326109
 30
0.0
 10
111.562517
 20
148.138572
 30
0.0
 10
111.457160
 20
147.884218
 30
0.0
 10
111.457160
 20
147.619002
 30
0.0
  0
SPLINE
  5
2fd
100
AcDbEntity
  8
0
 62
7
100
AcDbSpline
 70
8
 71
3
 72
8
 73
4
 74
0
 40
0
 40
0
 40
0
 40
0
 40
1
 40
1
 40
1
 40
1
 10
111.457160
 20
147.619002
 30
0.0
 10
111.457159
 20
147.353785
 30
0.0
 10
111.562516
 20
147.099431
 30
0.0
 10
111.750053
 20
146.911894
 30
0.0
  0
SPLINE
  5
2fe
100
AcDbEntity
  8
0
 62
7
100
AcDbSpline
 70
8
 71
3
 72
8
 73
4
 74
0
 40
0
 40
0
 40
0
 40
0
 40
1
 40
1
 40
1
 40
1
 10
111.750053
 20
146.911894
 30
0.0
 10
111.937589
 20
146.724357
 30
0.0
 10
112.191943
 20
146.619000
 30
0.0
 10
112.457160
 20
146.619000
 30
0.0
  0
SPLINE
  5
2ff
100
AcDbEntity
  8
0
 62
7
100
AcDbSpline
 70
8
 71
3
 72
8
 73
4
 74
0
 40
0
 40
0
 40
0
 40
0
 40
1
 40
1
 40
1
 40
1
 10
112.457160
 20
146.619000
 30
0.0
 10
112.722377
 20
146.619000
 30
0.0
 10
112.976731
 20
146.724357
 30
0.0
 10
113.164267
 20
146.911894
 30
0.0
  0
SPLINE
  5
300
100
AcDbEntity
  8
0
 62
7
100
AcDbSpline
 70
8
 71
3
 72
8
 73
4
 74
0
 40
0
 40
0
 40
0
 40
0
 40
1
 40
1
 40
1
 40
1
 10
113.164267
 20
146.911894
 30
0.0
 10
113.351804
 20
147.099431
 30
0.0
 10
113.457161
 20
147.353785
 30
0.0
 10
113.457160
 20
147.619002
 30
0.0
  0
LINE
  5
301
100
AcDbEntity
  8
0
 62
7
100
AcDbLine
 10
113.457160
 20
147.619002
 30
0.0
 11
113.457160
 21
147.619002
 31
0.0
  0
SPLINE
  5
302
100
AcDbEntity
  8
0
 62
7
100
AcDbSpline
 70
8
 71
3
 72
8
 73
4
 74
0
 40
0
 40
0
 40
0
 40
0
 40
1
 40
1
 40
1
 40
1
 10
113.805810
 20
151.584187
 30
0.0
 10
113.805810
 20
151.849403
 30
0.0
 10
113.700453
 20
152.103757
 30
0.0
 10
113.512917
 20
152.291294
 30
0.0
  0
SPLINE
  5
303
100
AcDbEntity
  8
0
 62
7
100
AcDbSpline
 70
8
 71
3
 72
8
 73
4
 74
0
 40
0
 40
0
 40
0
 40
0
 40
1
 40
1
 40
1
 40
1
 10
113.512917
 20
152.291294
 30
0.0
 10
113.325380
 20
152.478830
 30
0.0
 10
113.071026
 20
152.584187
 30
0.0
 10
112.805810
 20
152.584187
 30
0.0
  0
SPLINE
  5
304
100
AcDbEntity
  8
0
 62
7
100
AcDbSpline
 70
8
 71
3
 72
8
 73
4
 74
0
 40
0
 40
0
 40
0
 40
0
 40
1
 40
1
 40
1
 40
1
 10
112.805810
 20
152.584187
 30
0.0
 10
112.540594
 20
152.584187
 30
0.0
 10
112.286240
 20
152.478830
 30
0.0
 10
112.098703
 20
152.291294
 30
0.0
  0
SPLINE
  5
305
100
AcDbEntity
  8
0
 62
7
100
AcDbSpline
 70
8
 71
3
 72
8
 73
4
 74
0
 40
0
 40
0
 40
0
 40
0
 40
1
 40
1
 40
1
 40
1
 10
112.098703
 20
152.291294
 30
0.0
 10
111.911167
 20
152.103757
 30
0.0
 10
111.805810
 20
151.849403
 30
0.0
 10
111.805810
 20
151.584187
 30
0.0
  0
SPLINE
  5
306
100
AcDbEntity
  8
0
 62
7
100
AcDbSpline
 70
8
 71
3
 72
8
 73
4
 74
0
 40
0
 40
0
 40
0
 40
0
 40
1
 40
1
 40
1
 40
1
 10
111.805810
 20
151.584187
 30
0.0
 10
111.805809
 20
151.318970
 30
0.0
 10
111.911166
 20
151.064616
 30
0.0
 10
112.098703
 20
150.877079
 30
0.0
  0
SPLINE
  5
307
100
AcDbEntity
  8
0
 62
7
100
AcDbSpline
 70
8
 71
3
 72
8
 73
4
 74
0
 40
0
 40
0
 40
0
 40
0
 40
1
 40
1
 40
1
 40
1
 10
112.098703
 20
150.877079
 30
0.0
 10
112.286239
 20
150.689542
 30
0.0
 10
112.540593
 20
150.584185
 30
0.0
 10
112.805810
 20
150.584185
 30
0.0
  0
SPLINE
  5
308
100
AcDbEntity
  8
0
 62
7
100
AcDbSpline
 70
8
 71
3
 72
8
 73
4
 74
0
 40
0
 40
0
 40
0
 40
0
 40
1
 40
1
 40
1
 40
1
 10
112.805810
 20
150.584185
 30
0.0
 10
113.071027
 20
150.584185
 30
0.0
 10
113.325381
 20
150.689542
 30
0.0
 10
113.512917
 20
150.877079
 30
0.0
  0
SPLINE
  5
309
100
AcDbEntity
  8
0
 62
7
100
AcDbSpline
 70
8
 71
3
 72
8
 73
4
 74
0
 40
0
 40
0
 40
0
 40
0
 40
1
 40
1
 40
1
 40
1
 10
113.512917
 20
150.877079
 30
0.0
 10
113.700454
 20
151.064616
 30
0.0
 10
113.805811
 20
151.318970
 30
0.0
 10
113.805810
 20
151.584187
 30
0.0
  0
LINE
  5
30a
100
AcDbEntity
  8
0
 62
7
100
AcDbLine
 10
113.805810
 20
151.584187
 30
0.0
 11
113.805810
 21
151.584187
 31
0.0
  0
SPLINE
  5
30b
100
AcDbEntity
  8
0
 62
7
100
AcDbSpline
 70
8
 71
3
 72
8
 73
4
 74
0
 40
0
 40
0
 40
0
 40
0
 40
1
 40
1
 40
1
 40
1
 10
115.333430
 20
155.261109
 30
0.0
 10
115.333430
 20
155.526325
 30
0.0
 10
115.228073
 20
155.780679
 30
0.0
 10
115.040537
 20
155.968216
 30
0.0
  0
SPLINE
  5
30c
100
AcDbEntity
  8
0
 62
7
100
AcDbSpline
 70
8
 71
3
 72
8
 73
4
 74
0
 40
0
 40
0
 40
0
 40
0
 40
1
 40
1
 40
1
 40
1
 10
115.040537
 20
155.968216
 30
0.0
 10
114.853000
 20
156.155752
 30
0.0
 10
114.598646
 20
156.261109
 30
0.0
 10
114.333430
 20
156.261109
 30
0.0
  0
SPLINE
  5
30d
100
AcDbEntity
  8
0
 62
7
100
AcDbSpline
 70
8
 71
3
 72
8
 73
4
 74
0
 40
0
 40
0
 40
0
 40
0
 40
1
 40
1
 40
1
 40
1
 10
114.333430
 20
156.261109
 30
0.0
 10
114.068214
 20
156.261109
 30
0.0
 10
113.813860
 20
156.155752
 30
0.0
 10
113.626323
 20
155.968216
 30
0.0
  0
SPLINE
  5
30e
100
AcDbEntity
  8
0
 62
7
100
AcDbSpline
 70
8
 71
3
 72
8
 73
4
 74
0
 40
0
 40
0
 40
0
 40
0
 40
1
 40
1
 40
1
 40
1
 10
113.626323
 20
155.968216
 30
0.0
 10
113.438787
 20
155.780679
 30
0.0
 10
113.333430
 20
155.526325
 30
0.0
 10
113.333430
 20
155.261109
 30
0.0
  0
SPLINE
  5
30f
100
AcDbEntity
  8
0
 62
7
100
AcDbSpline
 70
8
 71
3
 72
8
 73
4
 74
0
 40
0
 40
0
 40
0
 40
0
 40
1
 40
1
 40
1
 40
1
 10
113.333430
 20
155.261109
 30
0.0
 10
113.333429
 20
154.995892
 30
0.0
 10
113.438786
 20
154.741538
 30
0.0
 10
113.626323
 20
154.554001
 30
0.0
  0
SPLINE
  5
310
100
AcDbEntity
  8
0
 62
7
100
AcDbSpline
 70
8
 71
3
 72
8
 73
4
 74
0
 40
0
 40
0
 40
0
 40
0
 40
1
 40
1
 40
1
 40
1
 10
113.626323
 20
154.554001
 30
0.0
 10
113.813859
 20
154.366464
 30
0.0
 10
114.068213
 20
154.261107
 30
0.0
 10
114.333430
 20
154.261107
 30
0.0
  0
SPLINE
  5
311
100
AcDbEntity
  8
0
 62
7
100
AcDbSpline
 70
8
 71
3
 72
8
 73
4
 74
0
 40
0
 40
0
 40
0
 40
0
 40
1
 40
1
 40
1
 40
1
 10
114.333430
 20
154.261107
 30
0.0
 10
114.598647
 20
154.261107
 30
0.0
 10
114.853001
 20
154.366464
 30
0.0
 10
115.040537
 20
154.554001
 30
0.0
  0
SPLINE
  5
312
100
AcDbEntity
  8
0
 62
7
100
AcDbSpline
 70
8
 71
3
 72
8
 73
4
 74
0
 40
0
 40
0
 40
0
 40
0
 40
1
 40
1
 40
1
 40
1
 10
115.040537
 20
154.554001
 30
0.0
 10
115.228074
 20
154.741538
 30
0.0
 10
115.333431
 20
154.995892
 30
0.0
 10
115.333430
 20
155.261109
 30
0.0
  0
LINE
  5
313
100
AcDbEntity
  8
0
 62
7
100
AcDbLine
 10
115.333430
 20
155.261109
 30
0.0
 11
115.333430
 21
155.261109
 31
0.0
  0
SPLINE
  5
314
100
AcDbEntity
  8
0
 62
7
100
AcDbSpline
 70
8
 71
3
 72
8
 73
4
 74
0
 40
0
 40
0
 40
0
 40
0
 40
1
 40
1
 40
1
 40
1
 10
117.933530
 20
158.276940
 30
0.0
 10
117.933530
 20
158.542156
 30
0.0
 10
117.828173
 20
158.796510
 30
0.0
 10
117.640637
 20
158.984047
 30
0.0
  0
SPLINE
  5
315
100
AcDbEntity
  8
0
 62
7
100
AcDbSpline
 70
8
 71
3
 72
8
 73
4
 74
0
 40
0
 40
0
 40
0
 40
0
 40
1
 40
1
 40
1
 40
1
 10
117.640637
 20
158.984047
 30
0.0
 10
117.453100
 20
159.171583
 30
0.0
 10
117.198746
 20
159.276940
 30
0.0
 10
116.933530
 20
159.276940
 30
0.0
  0
SPLINE
  5
316
100
AcDbEntity
  8
0
 62
7
100
AcDbSpline
 70
8
 71
3
 72
8
 73
4
 74
0
 40
0
 40
0
 40
0
 40
0
 40
1
 40
1
 40
1
 40
1
 10
116.933530
 20
159.276940
 30
0.0
 10
116.668314
 20
159.276940
 30
0.0
 10
116.413960
 20
159.171583
 30
0.0
 10
116.226423
 20
158.984047
 30
0.0
  0
SPLINE
  5
317
100
AcDbEntity
  8
0
 62
7
100
AcDbSpline
 70
8
 71
3
 72
8
 73
4
 74
0
 40
0
 40
0
 40
0
 40
0
 40
1
 40
1
 40
1
 40
1
 10
116.226423
 20
158.984047
 30
0.0
 10
116.038887
 20
158.796510
 30
0.0
 10
115.933530
 20
158.542156
 30
0.0
 10
115.933530
 20
158.276940
 30
0.0
  0
SPLINE
  5
318
100
AcDbEntity
  8
0
 62
7
100
AcDbSpline
 70
8
 71
3
 72
8
 73
4
 74
0
 40
0
 40
0
 40
0
 40
0
 40
1
 40
1
 40
1
 40
1
 10
115.933530
 20
158.276940
 30
0.0
 10
115.933529
 20
158.011723
 30
0.0
 10
116.038886
 20
157.757369
 30
0.0
 10
116.226423
 20
157.569832
 30
0.0
  0
SPLINE
  5
319
100
AcDbEntity
  8
0
 62
7
100
AcDbSpline
 70
8
 71
3
 72
8
 73
4
 74
0
 40
0
 40
0
 40
0
 40
0
 40
1
 40
1
 40
1
 40
1
 10
116.226423
 20
157.569832
 30
0.0
 10
116.413959
 20
157.382295
 30
0.0
 10
116.668313
 20
157.276938
 30
0.0
 10
116.933530
 20
157.276938
 30
0.0
  0
SPLINE
  5
31a
100
AcDbEntity
  8
0
 62
7
100
AcDbSpline
 70
8
 71
3
 72
8
 73
4
 74
0
 40
0
 40
0
 40
0
 40
0
 40
1
 40
1
 40
1
 40
1
 10
116.933530
 20
157.276938
 30
0.0
 10
117.198747
 20
157.276938
 30
0.0
 10
117.453101
 20
157.382295
 30
0.0
 10
117.640637
 20
157.569832
 30
0.0
  0
SPLINE
  5
31b
100
AcDbEntity
  8
0
 62
7
100
AcDbSpline
 70
8
 71
3
 72
8
 73
4
 74
0
 40
0
 40
0
 40
0
 40
0
 40
1
 40
1
 40
1
 40
1
 10
117.640637
 20
157.569832
 30
0.0
 10
117.828174
 20
157.757369
 30
0.0
 10
117.933531
 20
158.011723
 30
0.0
 10
117.933530
 20
158.276940
 30
0.0
  0
LINE
  5
31c
100
AcDbEntity
  8
0
 62
7
100
AcDbLine
 10
117.933530
 20
158.276940
 30
0.0
 11
117.933530
 21
158.276940
 31
0.0
  0
SPLINE
  5
31d
100
AcDbEntity
  8
0
 62
7
100
AcDbSpline
 70
8
 71
3
 72
8
 73
4
 74
0
 40
0
 40
0
 40
0
 40
0
 40
1
 40
1
 40
1
 40
1
 10
121.345300
 20
160.331061
 30
0.0
 10
121.345300
 20
160.596277
 30
0.0
 10
121.239943
 20
160.850631
 30
0.0
 10
121.052407
 20
161.038168
 30
0.0
  0
SPLINE
  5
31e
100
AcDbEntity
  8
0
 62
7
100
AcDbSpline
 70
8
 71
3
 72
8
 73
4
 74
0
 40
0
 40
0
 40
0
 40
0
 40
1
 40
1
 40
1
 40
1
 10
121.052407
 20
161.038168
 30
0.0
 10
120.864870
 20
161.225704
 30
0.0
 10
120.610516
 20
161.331061
 30
0.0
 10
120.345300
 20
161.331061
 30
0.0
  0
SPLINE
  5
31f
100
AcDbEntity
  8
0
 62
7
100
AcDbSpline
 70
8
 71
3
 72
8
 73
4
 74
0
 40
0
 40
0
 40
0
 40
0
 40
1
 40
1
 40
1
 40
1
 10
120.345300
 20
161.331061
 30
0.0
 10
120.080084
 20
161.331061
 30
0.0
 10
119.825730
 20
161.225704
 30
0.0
 10
119.638193
 20
161.038168
 30
0.0
  0
SPLINE
  5
320
100
AcDbEntity
  8
0
 62
7
100
AcDbSpline
 70
8
 71
3
 72
8
 73
4
 74
0
 40
0
 40
0
 40
0
 40
0
 40
1
 40
1
 40
1
 40
1
 10
119.638193
 20
161.038168
 30
0.0
 10
119.450657
 20
160.850631
 30
0.0
 10
119.345300
 20
160.596277
 30
0.0
 10
119.345300
 20
160.331061
 30
0.0
  0
SPLINE
  5
321
100
AcDbEntity
  8
0
 62
7
100
AcDbSpline
 70
8
 71
3
 72
8
 73
4
 74
0
 40
0
 40
0
 40
0
 40
0
 40
1
 40
1
 40
1
 40
1
 10
119.345300
 20
160.331061
 30
0.0
 10
119.345299
 20
160.065844
 30
0.0
 10
119.450656
 20
159.811490
 30
0.0
 10
119.638193
 20
159.623953
 30
0.0
  0
SPLINE
  5
322
100
AcDbEntity
  8
0
 62
7
100
AcDbSpline
 70
8
 71
3
 72
8
 73
4
 74
0
 40
0
 40
0
 40
0
 40
0
 40
1
 40
1
 40
1
 40
1
 10
119.638193
 20
159.623953
 30
0.0
 10
119.825729
 20
159.436416
 30
0.0
 10
120.080083
 20
159.331059
 30
0.0
 10
120.345300
 20
159.331059
 30
0.0
  0
SPLINE
  5
323
100
AcDbEntity
  8
0
 62
7
100
AcDbSpline
 70
8
 71
3
 72
8
 73
4
 74
0
 40
0
 40
0
 40
0
 40
0
 40
1
 40
1
 40
1
 40
1
 10
120.345300
 20
159.331059
 30
0.0
 10
120.610517
 20
159.331059
 30
0.0
 10
120.864871
 20
159.436416
 30
0.0
 10
121.052407
 20
159.623953
 30
0.0
  0
SPLINE
  5
324
100
AcDbEntity
  8
0
 62
7
100
AcDbSpline
 70
8
 71
3
 72
8
 73
4
 74
0
 40
0
 40
0
 40
0
 40
0
 40
1
 40
1
 40
1
 40
1
 10
121.052407
 20
159.623953
 30
0.0
 10
121.239944
 20
159.811490
 30
0.0
 10
121.345301
 20
160.065844
 30
0.0
 10
121.345300
 20
160.331061
 30
0.0
  0
LINE
  5
325
100
AcDbEntity
  8
0
 62
7
100
AcDbLine
 10
121.345300
 20
160.331061
 30
0.0
 11
121.345300
 21
160.331061
 31
0.0
  0
SPLINE
  5
326
100
AcDbEntity
  8
0
 62
7
100
AcDbSpline
 70
8
 71
3
 72
8
 73
4
 74
0
 40
0
 40
0
 40
0
 40
0
 40
1
 40
1
 40
1
 40
1
 10
125.223500
 20
161.234571
 30
0.0
 10
125.223500
 20
161.499787
 30
0.0
 10
125.118143
 20
161.754141
 30
0.0
 10
124.930607
 20
161.941678
 30
0.0
  0
SPLINE
  5
327
100
AcDbEntity
  8
0
 62
7
100
AcDbSpline
 70
8
 71
3
 72
8
 73
4
 74
0
 40
0
 40
0
 40
0
 40
0
 40
1
 40
1
 40
1
 40
1
 10
124.930607
 20
161.941678
 30
0.0
 10
124.743070
 20
162.129214
 30
0.0
 10
124.488716
 20
162.234571
 30
0.0
 10
124.223500
 20
162.234571
 30
0.0
  0
SPLINE
  5
328
100
AcDbEntity
  8
0
 62
7
100
AcDbSpline
 70
8
 71
3
 72
8
 73
4
 74
0
 40
0
 40
0
 40
0
 40
0
 40
1
 40
1
 40
1
 40
1
 10
124.223500
 20
162.234571
 30
0.0
 10
123.958284
 20
162.234571
 30
0.0
 10
123.703930
 20
162.129214
 30
0.0
 10
123.516393
 20
161.941678
 30
0.0
  0
SPLINE
  5
329
100
AcDbEntity
  8
0
 62
7
100
AcDbSpline
 70
8
 71
3
 72
8
 73
4
 74
0
 40
0
 40
0
 40
0
 40
0
 40
1
 40
1
 40
1
 40
1
 10
123.516393
 20
161.941678
 30
0.0
 10
123.328857
 20
161.754141
 30
0.0
 10
123.223500
 20
161.499787
 30
0.0
 10
123.223500
 20
161.234571
 30
0.0
  0
SPLINE
  5
32a
100
AcDbEntity
  8
0
 62
7
100
AcDbSpline
 70
8
 71
3
 72
8
 73
4
 74
0
 40
0
 40
0
 40
0
 40
0
 40
1
 40
1
 40
1
 40
1
 10
123.223500
 20
161.234571
 30
0.0
 10
123.223499
 20
160.969354
 30
0.0
 10
123.328856
 20
160.715000
 30
0.0
 10
123.516393
 20
160.527463
 30
0.0
  0
SPLINE
  5
32b
100
AcDbEntity
  8
0
 62
7
100
AcDbSpline
 70
8
 71
3
 72
8
 73
4
 74
0
 40
0
 40
0
 40
0
 40
0
 40
1
 40
1
 40
1
 40
1
 10
123.516393
 20
160.527463
 30
0.0
 10
123.703929
 20
160.339926
 30
0.0
 10
123.958283
 20
160.234569
 30
0.0
 10
124.223500
 20
160.234569
 30
0.0
  0
SPLINE
  5
32c
100
AcDbEntity
  8
0
 62
7
100
AcDbSpline
 70
8
 71
3
 72
8
 73
4
 74
0
 40
0
 40
0
 40
0
 40
0
 40
1
 40
1
 40
1
 40
1
 10
124.223500
 20
160.234569
 30
0.0
 10
124.488717
 20
160.234569
 30
0.0
 10
124.743071
 20
160.339926
 30
0.0
 10
124.930607
 20
160.527463
 30
0.0
  0
SPLINE
  5
32d
100
AcDbEntity
  8
0
 62
7
100
AcDbSpline
 70
8
 71
3
 72
8
 73
4
 74
0
 40
0
 40
0
 40
0
 40
0
 40
1
 40
1
 40
1
 40
1
 10
124.930607
 20
160.527463
 30
0.0
 10
125.118144
 20
160.715000
 30
0.0
 10
125.223501
 20
160.969354
 30
0.0
 10
125.223500
 20
161.234571
 30
0.0
  0
LINE
  5
32e
100
AcDbEntity
  8
0
 62
7
100
AcDbLine
 10
125.223500
 20
161.234571
 30
0.0
 11
125.223500
 21
161.234571
 31
0.0
  0
SPLINE
  5
32f
100
AcDbEntity
  8
0
 62
7
100
AcDbSpline
 70
8
 71
3
 72
8
 73
4
 74
0
 40
0
 40
0
 40
0
 40
0
 40
1
 40
1
 40
1
 40
1
 10
129.196010
 20
160.962151
 30
0.0
 10
129.196010
 20
161.227367
 30
0.0
 10
129.090653
 20
161.481721
 30
0.0
 10
128.903117
 20
161.669258
 30
0.0
  0
SPLINE
  5
330
100
AcDbEntity
  8
0
 62
7
100
AcDbSpline
 70
8
 71
3
 72
8
 73
4
 74
0
 40
0
 40
0
 40
0
 40
0
 40
1
 40
1
 40
1
 40
1
 10
128.903117
 20
161.669258
 30
0.0
 10
128.715580
 20
161.856794
 30
0.0
 10
128.461226
 20
161.962151
 30
0.0
 10
128.196010
 20
161.962151
 30
0.0
  0
SPLINE
  5
331
100
AcDbEntity
  8
0
 62
7
100
AcDbSpline
 70
8
 71
3
 72
8
 73
4
 74
0
 40
0
 40
0
 40
0
 40
0
 40
1
 40
1
 40
1
 40
1
 10
128.196010
 20
161.962151
 30
0.0
 10
127.930794
 20
161.962151
 30
0.0
 10
127.676440
 20
161.856794
 30
0.0
 10
127.488903
 20
161.669258
 30
0.0
  0
SPLINE
  5
332
100
AcDbEntity
  8
0
 62
7
100
AcDbSpline
 70
8
 71
3
 72
8
 73
4
 74
0
 40
0
 40
0
 40
0
 40
0
 40
1
 40
1
 40
1
 40
1
 10
127.488903
 20
161.669258
 30
0.0
 10
127.301367
 20
161.481721
 30
0.0
 10
127.196010
 20
161.227367
 30
0.0
 10
127.196010
 20
160.962151
 30
0.0
  0
SPLINE
  5
333
100
AcDbEntity
  8
0
 62
7
100
AcDbSpline
 70
8
 71
3
 72
8
 73
4
 74
0
 40
0
 40
0
 40
0
 40
0
 40
1
 40
1
 40
1
 40
1
 10
127.196010
 20
160.962151
 30
0.0
 10
127.196009
 20
160.696934
 30
0.0
 10
127.301366
 20
160.442580
 30
0.0
 10
127.488903
 20
160.255043
 30
0.0
  0
SPLINE
  5
334
100
AcDbEntity
  8
0
 62
7
100
AcDbSpline
 70
8
 71
3
 72
8
 73
4
 74
0
 40
0
 40
0
 40
0
 40
0
 40
1
 40
1
 40
1
 40
1
 10
127.488903
 20
160.255043
 30
0.0
 10
127.676439
 20
160.067506
 30
0.0
 10
127.930793
 20
159.962149
 30
0.0
 10
128.196010
 20
159.962149
 30
0.0
  0
SPLINE
  5
335
100
AcDbEntity
  8
0
 62
7
100
AcDbSpline
 70
8
 71
3
 72
8
 73
4
 74
0
 40
0
 40
0
 40
0
 40
0
 40
1
 40
1
 40
1
 40
1
 10
128.196010
 20
159.962149
 30
0.0
 10
128.461227
 20
159.962149
 30
0.0
 10
128.715581
 20
160.067506
 30
0.0
 10
128.903117
 20
160.255043
 30
0.0
  0
SPLINE
  5
336
100
AcDbEntity
  8
0
 62
7
100
AcDbSpline
 70
8
 71
3
 72
8
 73
4
 74
0
 40
0
 40
0
 40
0
 40
0
 40
1
 40
1
 40
1
 40
1
 10
128.903117
 20
160.255043
 30
0.0
 10
129.090654
 20
160.442580
 30
0.0
 10
129.196011
 20
160.696934
 30
0.0
 10
129.196010
 20
160.962151
 30
0.0
  0
LINE
  5
337
100
AcDbEntity
  8
0
 62
7
100
AcDbLine
 10
129.196010
 20
160.962151
 30
0.0
 11
129.196010
 21
160.962151
 31
0.0
  0
SPLINE
  5
338
100
AcDbEntity
  8
0
 62
7
100
AcDbSpline
 70
8
 71
3
 72
8
 73
4
 74
0
 40
0
 40
0
 40
0
 40
0
 40
1
 40
1
 40
1
 40
1
 10
132.926340
 20
159.565057
 30
0.0
 10
132.926340
 20
159.830273
 30
0.0
 10
132.820983
 20
160.084627
 30
0.0
 10
132.633447
 20
160.272164
 30
0.0
  0
SPLINE
  5
339
100
AcDbEntity
  8
0
 62
7
100
AcDbSpline
 70
8
 71
3
 72
8
 73
4
 74
0
 40
0
 40
0
 40
0
 40
0
 40
1
 40
1
 40
1
 40
1
 10
132.633447
 20
160.272164
 30
0.0
 10
132.445910
 20
160.459700
 30
0.0
 10
132.191556
 20
160.565057
 30
0.0
 10
131.926340
 20
160.565057
 30
0.0
  0
SPLINE
  5
33a
100
AcDbEntity
  8
0
 62
7
100
AcDbSpline
 70
8
 71
3
 72
8
 73
4
 74
0
 40
0
 40
0
 40
0
 40
0
 40
1
 40
1
 40
1
 40
1
 10
131.926340
 20
160.565057
 30
0.0
 10
131.661124
 20
160.565057
 30
0.0
 10
131.406770
 20
160.459700
 30
0.0
 10
131.219233
 20
160.272164
 30
0.0
  0
SPLINE
  5
33b
100
AcDbEntity
  8
0
 62
7
100
AcDbSpline
 70
8
 71
3
 72
8
 73
4
 74
0
 40
0
 40
0
 40
0
 40
0
 40
1
 40
1
 40
1
 40
1
 10
131.219233
 20
160.272164
 30
0.0
 10
131.031697
 20
160.084627
 30
0.0
 10
130.926340
 20
159.830273
 30
0.0
 10
130.926340
 20
159.565057
 30
0.0
  0
SPLINE
  5
33c
100
AcDbEntity
  8
0
 62
7
100
AcDbSpline
 70
8
 71
3
 72
8
 73
4
 74
0
 40
0
 40
0
 40
0
 40
0
 40
1
 40
1
 40
1
 40
1
 10
130.926340
 20
159.565057
 30
0.0
 10
130.926339
 20
159.299840
 30
0.0
 10
131.031696
 20
159.045486
 30
0.0
 10
131.219233
 20
158.857949
 30
0.0
  0
SPLINE
  5
33d
100
AcDbEntity
  8
0
 62
7
100
AcDbSpline
 70
8
 71
3
 72
8
 73
4
 74
0
 40
0
 40
0
 40
0
 40
0
 40
1
 40
1
 40
1
 40
1
 10
131.219233
 20
158.857949
 30
0.0
 10
131.406769
 20
158.670412
 30
0.0
 10
131.661123
 20
158.565055
 30
0.0
 10
131.926340
 20
158.565055
 30
0.0
  0
SPLINE
  5
33e
100
AcDbEntity
  8
0
 62
7
100
AcDbSpline
 70
8
 71
3
 72
8
 73
4
 74
0
 40
0
 40
0
 40
0
 40
0
 40
1
 40
1
 40
1
 40
1
 10
131.926340
 20
158.565055
 30
0.0
 10
132.191557
 20
158.565055
 30
0.0
 10
132.445911
 20
158.670412
 30
0.0
 10
132.633447
 20
158.857949
 30
0.0
  0
SPLINE
  5
33f
100
AcDbEntity
  8
0
 62
7
100
AcDbSpline
 70
8
 71
3
 72
8
 73
4
 74
0
 40
0
 40
0
 40
0
 40
0
 40
1
 40
1
 40
1
 40
1
 10
132.633447
 20
158.857949
 30
0.0
 10
132.820984
 20
159.045486
 30
0.0
 10
132.926341
 20
159.299840
 30
0.0
 10
132.926340
 20
159.565057
 30
0.0
  0
LINE
  5
340
100
AcDbEntity
  8
0
 62
7
100
AcDbLine
 10
132.926340
 20
159.565057
 30
0.0
 11
132.926340
 21
159.565057
 31
0.0
  0
SPLINE
  5
341
100
AcDbEntity
  8
0
 62
7
100
AcDbSpline
 70
8
 71
3
 72
8
 73
4
 74
0
 40
0
 40
0
 40
0
 40
0
 40
1
 40
1
 40
1
 40
1
 10
136.067640
 20
157.114394
 30
0.0
 10
136.067640
 20
157.379610
 30
0.0
 10
135.962283
 20
157.633964
 30
0.0
 10
135.774747
 20
157.821501
 30
0.0
  0
SPLINE
  5
342
100
AcDbEntity
  8
0
 62
7
100
AcDbSpline
 70
8
 71
3
 72
8
 73
4
 74
0
 40
0
 40
0
 40
0
 40
0
 40
1
 40
1
 40
1
 40
1
 10
135.774747
 20
157.821501
 30
0.0
 10
135.587210
 20
158.009037
 30
0.0
 10
135.332856
 20
158.114394
 30
0.0
 10
135.067640
 20
158.114394
 30
0.0
  0
SPLINE
  5
343
100
AcDbEntity
  8
0
 62
7
100
AcDbSpline
 70
8
 71
3
 72
8
 73
4
 74
0
 40
0
 40
0
 40
0
 40
0
 40
1
 40
1
 40
1
 40
1
 10
135.067640
 20
158.114394
 30
0.0
 10
134.802424
 20
158.114394
 30
0.0
 10
134.548070
 20
158.009037
 30
0.0
 10
134.360533
 20
157.821501
 30
0.0
  0
SPLINE
  5
344
100
AcDbEntity
  8
0
 62
7
100
AcDbSpline
 70
8
 71
3
 72
8
 73
4
 74
0
 40
0
 40
0
 40
0
 40
0
 40
1
 40
1
 40
1
 40
1
 10
134.360533
 20
157.821501
 30
0.0
 10
134.172997
 20
157.633964
 30
0.0
 10
134.067640
 20
157.379610
 30
0.0
 10
134.067640
 20
157.114394
 30
0.0
  0
SPLINE
  5
345
100
AcDbEntity
  8
0
 62
7
100
AcDbSpline
 70
8
 71
3
 72
8
 73
4
 74
0
 40
0
 40
0
 40
0
 40
0
 40
1
 40
1
 40
1
 40
1
 10
134.067640
 20
157.114394
 30
0.0
 10
134.067639
 20
156.849177
 30
0.0
 10
134.172996
 20
156.594823
 30
0.0
 10
134.360533
 20
156.407286
 30
0.0
  0
SPLINE
  5
346
100
AcDbEntity
  8
0
 62
7
100
AcDbSpline
 70
8
 71
3
 72
8
 73
4
 74
0
 40
0
 40
0
 40
0
 40
0
 40
1
 40
1
 40
1
 40
1
 10
134.360533
 20
156.407286
 30
0.0
 10
134.548069
 20
156.219749
 30
0.0
 10
134.802423
 20
156.114392
 30
0.0
 10
135.067640
 20
156.114392
 30
0.0
  0
SPLINE
  5
347
100
AcDbEntity
  8
0
 62
7
100
AcDbSpline
 70
8
 71
3
 72
8
 73
4
 74
0
 40
0
 40
0
 40
0
 40
0
 40
1
 40
1
 40
1
 40
1
 10
135.067640
 20
156.114392
 30
0.0
 10
135.332857
 20
156.114392
 30
0.0
 10
135.587211
 20
156.219749
 30
0.0
 10
135.774747
 20
156.407286
 30
0.0
  0
SPLINE
  5
348
100
AcDbEntity
  8
0
 62
7
100
AcDbSpline
 70
8
 71
3
 72
8
 73
4
 74
0
 40
0
 40
0
 40
0
 40
0
 40
1
 40
1
 40
1
 40
1
 10
135.774747
 20
156.407286
 30
0.0
 10
135.962284
 20
156.594823
 30
0.0
 10
136.067641
 20
156.849177
 30
0.0
 10
136.067640
 20
157.114394
 30
0.0
  0
LINE
  5
349
100
AcDbEntity
  8
0
 62
7
100
AcDbLine
 10
136.067640
 20
157.114394
 30
0.0
 11
136.067640
 21
157.114394
 31
0.0
  0
SPLINE
  5
34a
100
AcDbEntity
  8
0
 62
7
100
AcDbSpline
 70
8
 71
3
 72
8
 73
4
 74
0
 40
0
 40
0
 40
0
 40
0
 40
1
 40
1
 40
1
 40
1
 10
138.332380
 20
153.836222
 30
0.0
 10
138.332380
 20
154.101438
 30
0.0
 10
138.227023
 20
154.355792
 30
0.0
 10
138.039487
 20
154.543329
 30
0.0
  0
SPLINE
  5
34b
100
AcDbEntity
  8
0
 62
7
100
AcDbSpline
 70
8
 71
3
 72
8
 73
4
 74
0
 40
0
 40
0
 40
0
 40
0
 40
1
 40
1
 40
1
 40
1
 10
138.039487
 20
154.543329
 30
0.0
 10
137.851950
 20
154.730865
 30
0.0
 10
137.597596
 20
154.836222
 30
0.0
 10
137.332380
 20
154.836222
 30
0.0
  0
SPLINE
  5
34c
100
AcDbEntity
  8
0
 62
7
100
AcDbSpline
 70
8
 71
3
 72
8
 73
4
 74
0
 40
0
 40
0
 40
0
 40
0
 40
1
 40
1
 40
1
 40
1
 10
137.332380
 20
154.836222
 30
0.0
 10
137.067164
 20
154.836222
 30
0.0
 10
136.812810
 20
154.730865
 30
0.0
 10
136.625273
 20
154.543329
 30
0.0
  0
SPLINE
  5
34d
100
AcDbEntity
  8
0
 62
7
100
AcDbSpline
 70
8
 71
3
 72
8
 73
4
 74
0
 40
0
 40
0
 40
0
 40
0
 40
1
 40
1
 40
1
 40
1
 10
136.625273
 20
154.543329
 30
0.0
 10
136.437737
 20
154.355792
 30
0.0
 10
136.332380
 20
154.101438
 30
0.0
 10
136.332380
 20
153.836222
 30
0.0
  0
SPLINE
  5
34e
100
AcDbEntity
  8
0
 62
7
100
AcDbSpline
 70
8
 71
3
 72
8
 73
4
 74
0
 40
0
 40
0
 40
0
 40
0
 40
1
 40
1
 40
1
 40
1
 10
136.332380
 20
153.836222
 30
0.0
 10
136.332379
 20
153.571005
 30
0.0
 10
136.437736
 20
153.316651
 30
0.0
 10
136.625273
 20
153.129114
 30
0.0
  0
SPLINE
  5
34f
100
AcDbEntity
  8
0
 62
7
100
AcDbSpline
 70
8
 71
3
 72
8
 73
4
 74
0
 40
0
 40
0
 40
0
 40
0
 40
1
 40
1
 40
1
 40
1
 10
136.625273
 20
153.129114
 30
0.0
 10
136.812809
 20
152.941577
 30
0.0
 10
137.067163
 20
152.836220
 30
0.0
 10
137.332380
 20
152.836220
 30
0.0
  0
SPLINE
  5
350
100
AcDbEntity
  8
0
 62
7
100
AcDbSpline
 70
8
 71
3
 72
8
 73
4
 74
0
 40
0
 40
0
 40
0
 40
0
 40
1
 40
1
 40
1
 40
1
 10
137.332380
 20
152.836220
 30
0.0
 10
137.597597
 20
152.836220
 30
0.0
 10
137.851951
 20
152.941577
 30
0.0
 10
138.039487
 20
153.129114
 30
0.0
  0
SPLINE
  5
351
100
AcDbEntity
  8
0
 62
7
100
AcDbSpline
 70
8
 71
3
 72
8
 73
4
 74
0
 40
0
 40
0
 40
0
 40
0
 40
1
 40
1
 40
1
 40
1
 10
138.039487
 20
153.129114
 30
0.0
 10
138.227024
 20
153.316651
 30
0.0
 10
138.332381
 20
153.571005
 30
0.0
 10
138.332380
 20
153.836222
 30
0.0
  0
LINE
  5
352
100
AcDbEntity
  8
0
 62
7
100
AcDbLine
 10
138.332380
 20
153.836222
 30
0.0
 11
138.332380
 21
153.836222
 31
0.0
  0
SPLINE
  5
353
100
AcDbEntity
  8
0
 62
7
100
AcDbSpline
 70
8
 71
3
 72
8
 73
4
 74
0
 40
0
 40
0
 40
0
 40
0
 40
1
 40
1
 40
1
 40
1
 10
139.527850
 20
150.034682
 30
0.0
 10
139.527850
 20
150.299898
 30
0.0
 10
139.422493
 20
150.554252
 30
0.0
 10
139.234957
 20
150.741789
 30
0.0
  0
SPLINE
  5
354
100
AcDbEntity
  8
0
 62
7
100
AcDbSpline
 70
8
 71
3
 72
8
 73
4
 74
0
 40
0
 40
0
 40
0
 40
0
 40
1
 40
1
 40
1
 40
1
 10
139.234957
 20
150.741789
 30
0.0
 10
139.047420
 20
150.929325
 30
0.0
 10
138.793066
 20
151.034682
 30
0.0
 10
138.527850
 20
151.034682
 30
0.0
  0
SPLINE
  5
355
100
AcDbEntity
  8
0
 62
7
100
AcDbSpline
 70
8
 71
3
 72
8
 73
4
 74
0
 40
0
 40
0
 40
0
 40
0
 40
1
 40
1
 40
1
 40
1
 10
138.527850
 20
151.034682
 30
0.0
 10
138.262634
 20
151.034682
 30
0.0
 10
138.008280
 20
150.929325
 30
0.0
 10
137.820743
 20
150.741789
 30
0.0
  0
SPLINE
  5
356
100
AcDbEntity
  8
0
 62
7
100
AcDbSpline
 70
8
 71
3
 72
8
 73
4
 74
0
 40
0
 40
0
 40
0
 40
0
 40
1
 40
1
 40
1
 40
1
 10
137.820743
 20
150.741789
 30
0.0
 10
137.633207
 20
150.554252
 30
0.0
 10
137.527850
 20
150.299898
 30
0.0
 10
137.527850
 20
150.034682
 30
0.0
  0
SPLINE
  5
357
100
AcDbEntity
  8
0
 62
7
100
AcDbSpline
 70
8
 71
3
 72
8
 73
4
 74
0
 40
0
 40
0
 40
0
 40
0
 40
1
 40
1
 40
1
 40
1
 10
137.527850
 20
150.034682
 30
0.0
 10
137.527849
 20
149.769465
 30
0.0
 10
137.633206
 20
149.515111
 30
0.0
 10
137.820743
 20
149.327574
 30
0.0
  0
SPLINE
  5
358
100
AcDbEntity
  8
0
 62
7
100
AcDbSpline
 70
8
 71
3
 72
8
 73
4
 74
0
 40
0
 40
0
 40
0
 40
0
 40
1
 40
1
 40
1
 40
1
 10
137.820743
 20
149.327574
 30
0.0
 10
138.008279
 20
149.140037
 30
0.0
 10
138.262633
 20
149.034680
 30
0.0
 10
138.527850
 20
149.034680
 30
0.0
  0
SPLINE
  5
359
100
AcDbEntity
  8
0
 62
7
100
AcDbSpline
 70
8
 71
3
 72
8
 73
4
 74
0
 40
0
 40
0
 40
0
 40
0
 40
1
 40
1
 40
1
 40
1
 10
138.527850
 20
149.034680
 30
0.0
 10
138.793067
 20
149.034680
 30
0.0
 10
139.047421
 20
149.140037
 30
0.0
 10
139.234957
 20
149.327574
 30
0.0
  0
SPLINE
  5
35a
100
AcDbEntity
  8
0
 62
7
100
AcDbSpline
 70
8
 71
3
 72
8
 73
4
 74
0
 40
0
 40
0
 40
0
 40
0
 40
1
 40
1
 40
1
 40
1
 10
139.234957
 20
149.327574
 30
0.0
 10
139.422494
 20
149.515111
 30
0.0
 10
139.527851
 20
149.769465
 30
0.0
 10
139.527850
 20
150.034682
 30
0.0
  0
LINE
  5
35b
100
AcDbEntity
  8
0
 62
7
100
AcDbLine
 10
139.527850
 20
150.034682
 30
0.0
 11
139.527850
 21
150.034682
 31
0.0
  0
SPLINE
  5
35c
100
AcDbEntity
  8
0
 62
7
100
AcDbSpline
 70
8
 71
3
 72
8
 73
4
 74
0
 40
0
 40
0
 40
0
 40
0
 40
1
 40
1
 40
1
 40
1
 10
139.577700
 20
146.050828
 30
0.0
 10
139.577700
 20
146.316044
 30
0.0
 10
139.472343
 20
146.570398
 30
0.0
 10
139.284807
 20
146.757935
 30
0.0
  0
SPLINE
  5
35d
100
AcDbEntity
  8
0
 62
7
100
AcDbSpline
 70
8
 71
3
 72
8
 73
4
 74
0
 40
0
 40
0
 40
0
 40
0
 40
1
 40
1
 40
1
 40
1
 10
139.284807
 20
146.757935
 30
0.0
 10
139.097270
 20
146.945471
 30
0.0
 10
138.842916
 20
147.050828
 30
0.0
 10
138.577700
 20
147.050828
 30
0.0
  0
SPLINE
  5
35e
100
AcDbEntity
  8
0
 62
7
100
AcDbSpline
 70
8
 71
3
 72
8
 73
4
 74
0
 40
0
 40
0
 40
0
 40
0
 40
1
 40
1
 40
1
 40
1
 10
138.577700
 20
147.050828
 30
0.0
 10
138.312484
 20
147.050828
 30
0.0
 10
138.058130
 20
146.945471
 30
0.0
 10
137.870593
 20
146.757935
 30
0.0
  0
SPLINE
  5
35f
100
AcDbEntity
  8
0
 62
7
100
AcDbSpline
 70
8
 71
3
 72
8
 73
4
 74
0
 40
0
 40
0
 40
0
 40
0
 40
1
 40
1
 40
1
 40
1
 10
137.870593
 20
146.757935
 30
0.0
 10
137.683057
 20
146.570398
 30
0.0
 10
137.577700
 20
146.316044
 30
0.0
 10
137.577700
 20
146.050828
 30
0.0
  0
SPLINE
  5
360
100
AcDbEntity
  8
0
 62
7
100
AcDbSpline
 70
8
 71
3
 72
8
 73
4
 74
0
 40
0
 40
0
 40
0
 40
0
 40
1
 40
1
 40
1
 40
1
 10
137.577700
 20
146.050828
 30
0.0
 10
137.577699
 20
145.785611
 30
0.0
 10
137.683056
 20
145.531257
 30
0.0
 10
137.870593
 20
145.343720
 30
0.0
  0
SPLINE
  5
361
100
AcDbEntity
  8
0
 62
7
100
AcDbSpline
 70
8
 71
3
 72
8
 73
4
 74
0
 40
0
 40
0
 40
0
 40
0
 40
1
 40
1
 40
1
 40
1
 10
137.870593
 20
145.343720
 30
0.0
 10
138.058129
 20
145.156183
 30
0.0
 10
138.312483
 20
145.050826
 30
0.0
 10
138.577700
 20
145.050826
 30
0.0
  0
SPLINE
  5
362
100
AcDbEntity
  8
0
 62
7
100
AcDbSpline
 70
8
 71
3
 72
8
 73
4
 74
0
 40
0
 40
0
 40
0
 40
0
 40
1
 40
1
 40
1
 40
1
 10
138.577700
 20
145.050826
 30
0.0
 10
138.842917
 20
145.050826
 30
0.0
 10
139.097271
 20
145.156183
 30
0.0
 10
139.284807
 20
145.343720
 30
0.0
  0
SPLINE
  5
363
100
AcDbEntity
  8
0
 62
7
100
AcDbSpline
 70
8
 71
3
 72
8
 73
4
 74
0
 40
0
 40
0
 40
0
 40
0
 40
1
 40
1
 40
1
 40
1
 10
139.284807
 20
145.343720
 30
0.0
 10
139.472344
 20
145.531257
 30
0.0
 10
139.577701
 20
145.785611
 30
0.0
 10
139.577700
 20
146.050828
 30
0.0
  0
LINE
  5
364
100
AcDbEntity
  8
0
 62
7
100
AcDbLine
 10
139.577700
 20
146.050828
 30
0.0
 11
139.577700
 21
146.050828
 31
0.0
  0
SPLINE
  5
365
100
AcDbEntity
  8
0
 62
7
100
AcDbSpline
 70
8
 71
3
 72
8
 73
4
 74
0
 40
0
 40
0
 40
0
 40
0
 40
1
 40
1
 40
1
 40
1
 10
138.544600
 20
142.202587
 30
0.0
 10
138.544600
 20
142.467803
 30
0.0
 10
138.439243
 20
142.722157
 30
0.0
 10
138.251707
 20
142.909694
 30
0.0
  0
SPLINE
  5
366
100
AcDbEntity
  8
0
 62
7
100
AcDbSpline
 70
8
 71
3
 72
8
 73
4
 74
0
 40
0
 40
0
 40
0
 40
0
 40
1
 40
1
 40
1
 40
1
 10
138.251707
 20
142.909694
 30
0.0
 10
138.064170
 20
143.097230
 30
0.0
 10
137.809816
 20
143.202587
 30
0.0
 10
137.544600
 20
143.202587
 30
0.0
  0
SPLINE
  5
367
100
AcDbEntity
  8
0
 62
7
100
AcDbSpline
 70
8
 71
3
 72
8
 73
4
 74
0
 40
0
 40
0
 40
0
 40
0
 40
1
 40
1
 40
1
 40
1
 10
137.544600
 20
143.202587
 30
0.0
 10
137.279384
 20
143.202587
 30
0.0
 10
137.025030
 20
143.097230
 30
0.0
 10
136.837493
 20
142.909694
 30
0.0
  0
SPLINE
  5
368
100
AcDbEntity
  8
0
 62
7
100
AcDbSpline
 70
8
 71
3
 72
8
 73
4
 74
0
 40
0
 40
0
 40
0
 40
0
 40
1
 40
1
 40
1
 40
1
 10
136.837493
 20
142.909694
 30
0.0
 10
136.649957
 20
142.722157
 30
0.0
 10
136.544600
 20
142.467803
 30
0.0
 10
136.544600
 20
142.202587
 30
0.0
  0
SPLINE
  5
369
100
AcDbEntity
  8
0
 62
7
100
AcDbSpline
 70
8
 71
3
 72
8
 73
4
 74
0
 40
0
 40
0
 40
0
 40
0
 40
1
 40
1
 40
1
 40
1
 10
136.544600
 20
142.202587
 30
0.0
 10
136.544599
 20
141.937370
 30
0.0
 10
136.649956
 20
141.683016
 30
0.0
 10
136.837493
 20
141.495479
 30
0.0
  0
SPLINE
  5
36a
100
AcDbEntity
  8
0
 62
7
100
AcDbSpline
 70
8
 71
3
 72
8
 73
4
 74
0
 40
0
 40
0
 40
0
 40
0
 40
1
 40
1
 40
1
 40
1
 10
136.837493
 20
141.495479
 30
0.0
 10
137.025029
 20
141.307942
 30
0.0
 10
137.279383
 20
141.202585
 30
0.0
 10
137.544600
 20
141.202585
 30
0.0
  0
SPLINE
  5
36b
100
AcDbEntity
  8
0
 62
7
100
AcDbSpline
 70
8
 71
3
 72
8
 73
4
 74
0
 40
0
 40
0
 40
0
 40
0
 40
1
 40
1
 40
1
 40
1
 10
137.544600
 20
141.202585
 30
0.0
 10
137.809817
 20
141.202585
 30
0.0
 10
138.064171
 20
141.307942
 30
0.0
 10
138.251707
 20
141.495479
 30
0.0
  0
SPLINE
  5
36c
100
AcDbEntity
  8
0
 62
7
100
AcDbSpline
 70
8
 71
3
 72
8
 73
4
 74
0
 40
0
 40
0
 40
0
 40
0
 40
1
 40
1
 40
1
 40
1
 10
138.251707
 20
141.495479
 30
0.0
 10
138.439244
 20
141.683016
 30
0.0
 10
138.544601
 20
141.937370
 30
0.0
 10
138.544600
 20
142.202587
 30
0.0
  0
LINE
  5
36d
100
AcDbEntity
  8
0
 62
7
100
AcDbLine
 10
138.544600
 20
142.202587
 30
0.0
 11
138.544600
 21
142.202587
 31
0.0
  0
SPLINE
  5
36e
100
AcDbEntity
  8
0
 62
7
100
AcDbSpline
 70
8
 71
3
 72
8
 73
4
 74
0
 40
0
 40
0
 40
0
 40
0
 40
1
 40
1
 40
1
 40
1
 10
136.459110
 20
138.806444
 30
0.0
 10
136.459110
 20
139.071660
 30
0.0
 10
136.353753
 20
139.326014
 30
0.0
 10
136.166217
 20
139.513551
 30
0.0
  0
SPLINE
  5
36f
100
AcDbEntity
  8
0
 62
7
100
AcDbSpline
 70
8
 71
3
 72
8
 73
4
 74
0
 40
0
 40
0
 40
0
 40
0
 40
1
 40
1
 40
1
 40
1
 10
136.166217
 20
139.513551
 30
0.0
 10
135.978680
 20
139.701087
 30
0.0
 10
135.724326
 20
139.806444
 30
0.0
 10
135.459110
 20
139.806444
 30
0.0
  0
SPLINE
  5
370
100
AcDbEntity
  8
0
 62
7
100
AcDbSpline
 70
8
 71
3
 72
8
 73
4
 74
0
 40
0
 40
0
 40
0
 40
0
 40
1
 40
1
 40
1
 40
1
 10
135.459110
 20
139.806444
 30
0.0
 10
135.193894
 20
139.806444
 30
0.0
 10
134.939540
 20
139.701087
 30
0.0
 10
134.752003
 20
139.513551
 30
0.0
  0
SPLINE
  5
371
100
AcDbEntity
  8
0
 62
7
100
AcDbSpline
 70
8
 71
3
 72
8
 73
4
 74
0
 40
0
 40
0
 40
0
 40
0
 40
1
 40
1
 40
1
 40
1
 10
134.752003
 20
139.513551
 30
0.0
 10
134.564467
 20
139.326014
 30
0.0
 10
134.459110
 20
139.071660
 30
0.0
 10
134.459110
 20
138.806444
 30
0.0
  0
SPLINE
  5
372
100
AcDbEntity
  8
0
 62
7
100
AcDbSpline
 70
8
 71
3
 72
8
 73
4
 74
0
 40
0
 40
0
 40
0
 40
0
 40
1
 40
1
 40
1
 40
1
 10
134.459110
 20
138.806444
 30
0.0
 10
134.459109
 20
138.541227
 30
0.0
 10
134.564466
 20
138.286873
 30
0.0
 10
134.752003
 20
138.099336
 30
0.0
  0
SPLINE
  5
373
100
AcDbEntity
  8
0
 62
7
100
AcDbSpline
 70
8
 71
3
 72
8
 73
4
 74
0
 40
0
 40
0
 40
0
 40
0
 40
1
 40
1
 40
1
 40
1
 10
134.752003
 20
138.099336
 30
0.0
 10
134.939539
 20
137.911799
 30
0.0
 10
135.193893
 20
137.806442
 30
0.0
 10
135.459110
 20
137.806442
 30
0.0
  0
SPLINE
  5
374
100
AcDbEntity
  8
0
 62
7
100
AcDbSpline
 70
8
 71
3
 72
8
 73
4
 74
0
 40
0
 40
0
 40
0
 40
0
 40
1
 40
1
 40
1
 40
1
 10
135.459110
 20
137.806442
 30
0.0
 10
135.724327
 20
137.806442
 30
0.0
 10
135.978681
 20
137.911799
 30
0.0
 10
136.166217
 20
138.099336
 30
0.0
  0
SPLINE
  5
375
100
AcDbEntity
  8
0
 62
7
100
AcDbSpline
 70
8
 71
3
 72
8
 73
4
 74
0
 40
0
 40
0
 40
0
 40
0
 40
1
 40
1
 40
1
 40
1
 10
136.166217
 20
138.099336
 30
0.0
 10
136.353754
 20
138.286873
 30
0.0
 10
136.459111
 20
138.541227
 30
0.0
 10
136.459110
 20
138.806444
 30
0.0
  0
LINE
  5
376
100
AcDbEntity
  8
0
 62
7
100
AcDbLine
 10
136.459110
 20
138.806444
 30
0.0
 11
136.459110
 21
138.806444
 31
0.0
  0
SPLINE
  5
377
100
AcDbEntity
  8
0
 62
7
100
AcDbSpline
 70
8
 71
3
 72
8
 73
4
 74
0
 40
0
 40
0
 40
0
 40
0
 40
1
 40
1
 40
1
 40
1
 10
133.485860
 20
136.153625
 30
0.0
 10
133.485860
 20
136.418841
 30
0.0
 10
133.380503
 20
136.673195
 30
0.0
 10
133.192967
 20
136.860732
 30
0.0
  0
SPLINE
  5
378
100
AcDbEntity
  8
0
 62
7
100
AcDbSpline
 70
8
 71
3
 72
8
 73
4
 74
0
 40
0
 40
0
 40
0
 40
0
 40
1
 40
1
 40
1
 40
1
 10
133.192967
 20
136.860732
 30
0.0
 10
133.005430
 20
137.048268
 30
0.0
 10
132.751076
 20
137.153625
 30
0.0
 10
132.485860
 20
137.153625
 30
0.0
  0
SPLINE
  5
379
100
AcDbEntity
  8
0
 62
7
100
AcDbSpline
 70
8
 71
3
 72
8
 73
4
 74
0
 40
0
 40
0
 40
0
 40
0
 40
1
 40
1
 40
1
 40
1
 10
132.485860
 20
137.153625
 30
0.0
 10
132.220644
 20
137.153625
 30
0.0
 10
131.966290
 20
137.048268
 30
0.0
 10
131.778753
 20
136.860732
 30
0.0
  0
SPLINE
  5
37a
100
AcDbEntity
  8
0
 62
7
100
AcDbSpline
 70
8
 71
3
 72
8
 73
4
 74
0
 40
0
 40
0
 40
0
 40
0
 40
1
 40
1
 40
1
 40
1
 10
131.778753
 20
136.860732
 30
0.0
 10
131.591217
 20
136.673195
 30
0.0
 10
131.485860
 20
136.418841
 30
0.0
 10
131.485860
 20
136.153625
 30
0.0
  0
SPLINE
  5
37b
100
AcDbEntity
  8
0
 62
7
100
AcDbSpline
 70
8
 71
3
 72
8
 73
4
 74
0
 40
0
 40
0
 40
0
 40
0
 40
1
 40
1
 40
1
 40
1
 10
131.485860
 20
136.153625
 30
0.0
 10
131.485859
 20
135.888408
 30
0.0
 10
131.591216
 20
135.634054
 30
0.0
 10
131.778753
 20
135.446517
 30
0.0
  0
SPLINE
  5
37c
100
AcDbEntity
  8
0
 62
7
100
AcDbSpline
 70
8
 71
3
 72
8
 73
4
 74
0
 40
0
 40
0
 40
0
 40
0
 40
1
 40
1
 40
1
 40
1
 10
131.778753
 20
135.446517
 30
0.0
 10
131.966289
 20
135.258980
 30
0.0
 10
132.220643
 20
135.153623
 30
0.0
 10
132.485860
 20
135.153623
 30
0.0
  0
SPLINE
  5
37d
100
AcDbEntity
  8
0
 62
7
100
AcDbSpline
 70
8
 71
3
 72
8
 73
4
 74
0
 40
0
 40
0
 40
0
 40
0
 40
1
 40
1
 40
1
 40
1
 10
132.485860
 20
135.153623
 30
0.0
 10
132.751077
 20
135.153623
 30
0.0
 10
133.005431
 20
135.258980
 30
0.0
 10
133.192967
 20
135.446517
 30
0.0
  0
SPLINE
  5
37e
100
AcDbEntity
  8
0
 62
7
100
AcDbSpline
 70
8
 71
3
 72
8
 73
4
 74
0
 40
0
 40
0
 40
0
 40
0
 40
1
 40
1
 40
1
 40
1
 10
133.192967
 20
135.446517
 30
0.0
 10
133.380504
 20
135.634054
 30
0.0
 10
133.485861
 20
135.888408
 30
0.0
 10
133.485860
 20
136.153625
 30
0.0
  0
LINE
  5
37f
100
AcDbEntity
  8
0
 62
7
100
AcDbLine
 10
133.485860
 20
136.153625
 30
0.0
 11
133.485860
 21
136.153625
 31
0.0
  0
SPLINE
  5
380
100
AcDbEntity
  8
0
 62
7
100
AcDbSpline
 70
8
 71
3
 72
8
 73
4
 74
0
 40
0
 40
0
 40
0
 40
0
 40
1
 40
1
 40
1
 40
1
 10
129.880370
 20
134.455204
 30
0.0
 10
129.880370
 20
134.720420
 30
0.0
 10
129.775013
 20
134.974774
 30
0.0
 10
129.587477
 20
135.162311
 30
0.0
  0
SPLINE
  5
381
100
AcDbEntity
  8
0
 62
7
100
AcDbSpline
 70
8
 71
3
 72
8
 73
4
 74
0
 40
0
 40
0
 40
0
 40
0
 40
1
 40
1
 40
1
 40
1
 10
129.587477
 20
135.162311
 30
0.0
 10
129.399940
 20
135.349847
 30
0.0
 10
129.145586
 20
135.455204
 30
0.0
 10
128.880370
 20
135.455204
 30
0.0
  0
SPLINE
  5
382
100
AcDbEntity
  8
0
 62
7
100
AcDbSpline
 70
8
 71
3
 72
8
 73
4
 74
0
 40
0
 40
0
 40
0
 40
0
 40
1
 40
1
 40
1
 40
1
 10
128.880370
 20
135.455204
 30
0.0
 10
128.615154
 20
135.455204
 30
0.0
 10
128.360800
 20
135.349847
 30
0.0
 10
128.173263
 20
135.162311
 30
0.0
  0
SPLINE
  5
383
100
AcDbEntity
  8
0
 62
7
100
AcDbSpline
 70
8
 71
3
 72
8
 73
4
 74
0
 40
0
 40
0
 40
0
 40
0
 40
1
 40
1
 40
1
 40
1
 10
128.173263
 20
135.162311
 30
0.0
 10
127.985727
 20
134.974774
 30
0.0
 10
127.880370
 20
134.720420
 30
0.0
 10
127.880370
 20
134.455204
 30
0.0
  0
SPLINE
  5
384
100
AcDbEntity
  8
0
 62
7
100
AcDbSpline
 70
8
 71
3
 72
8
 73
4
 74
0
 40
0
 40
0
 40
0
 40
0
 40
1
 40
1
 40
1
 40
1
 10
127.880370
 20
134.455204
 30
0.0
 10
127.880369
 20
134.189987
 30
0.0
 10
127.985726
 20
133.935633
 30
0.0
 10
128.173263
 20
133.748096
 30
0.0
  0
SPLINE
  5
385
100
AcDbEntity
  8
0
 62
7
100
AcDbSpline
 70
8
 71
3
 72
8
 73
4
 74
0
 40
0
 40
0
 40
0
 40
0
 40
1
 40
1
 40
1
 40
1
 10
128.173263
 20
133.748096
 30
0.0
 10
128.360799
 20
133.560559
 30
0.0
 10
128.615153
 20
133.455202
 30
0.0
 10
128.880370
 20
133.455202
 30
0.0
  0
SPLINE
  5
386
100
AcDbEntity
  8
0
 62
7
100
AcDbSpline
 70
8
 71
3
 72
8
 73
4
 74
0
 40
0
 40
0
 40
0
 40
0
 40
1
 40
1
 40
1
 40
1
 10
128.880370
 20
133.455202
 30
0.0
 10
129.145587
 20
133.455202
 30
0.0
 10
129.399941
 20
133.560559
 30
0.0
 10
129.587477
 20
133.748096
 30
0.0
  0
SPLINE
  5
387
100
AcDbEntity
  8
0
 62
7
100
AcDbSpline
 70
8
 71
3
 72
8
 73
4
 74
0
 40
0
 40
0
 40
0
 40
0
 40
1
 40
1
 40
1
 40
1
 10
129.587477
 20
133.748096
 30
0.0
 10
129.775014
 20
133.935633
 30
0.0
 10
129.880371
 20
134.189987
 30
0.0
 10
129.880370
 20
134.455204
 30
0.0
  0
LINE
  5
388
100
AcDbEntity
  8
0
 62
7
100
AcDbLine
 10
129.880370
 20
134.455204
 30
0.0
 11
129.880370
 21
134.455204
 31
0.0
  0
SPLINE
  5
389
100
AcDbEntity
  8
0
 62
7
100
AcDbSpline
 70
8
 71
3
 72
8
 73
4
 74
0
 40
0
 40
0
 40
0
 40
0
 40
1
 40
1
 40
1
 40
1
 10
125.942150
 20
133.834610
 30
0.0
 10
125.942150
 20
134.099826
 30
0.0
 10
125.836793
 20
134.354180
 30
0.0
 10
125.649257
 20
134.541717
 30
0.0
  0
SPLINE
  5
38a
100
AcDbEntity
  8
0
 62
7
100
AcDbSpline
 70
8
 71
3
 72
8
 73
4
 74
0
 40
0
 40
0
 40
0
 40
0
 40
1
 40
1
 40
1
 40
1
 10
125.649257
 20
134.541717
 30
0.0
 10
125.461720
 20
134.729253
 30
0.0
 10
125.207366
 20
134.834610
 30
0.0
 10
124.942150
 20
134.834610
 30
0.0
  0
SPLINE
  5
38b
100
AcDbEntity
  8
0
 62
7
100
AcDbSpline
 70
8
 71
3
 72
8
 73
4
 74
0
 40
0
 40
0
 40
0
 40
0
 40
1
 40
1
 40
1
 40
1
 10
124.942150
 20
134.834610
 30
0.0
 10
124.676934
 20
134.834610
 30
0.0
 10
124.422580
 20
134.729253
 30
0.0
 10
124.235043
 20
134.541717
 30
0.0
  0
SPLINE
  5
38c
100
AcDbEntity
  8
0
 62
7
100
AcDbSpline
 70
8
 71
3
 72
8
 73
4
 74
0
 40
0
 40
0
 40
0
 40
0
 40
1
 40
1
 40
1
 40
1
 10
124.235043
 20
134.541717
 30
0.0
 10
124.047507
 20
134.354180
 30
0.0
 10
123.942150
 20
134.099826
 30
0.0
 10
123.942150
 20
133.834610
 30
0.0
  0
SPLINE
  5
38d
100
AcDbEntity
  8
0
 62
7
100
AcDbSpline
 70
8
 71
3
 72
8
 73
4
 74
0
 40
0
 40
0
 40
0
 40
0
 40
1
 40
1
 40
1
 40
1
 10
123.942150
 20
133.834610
 30
0.0
 10
123.942149
 20
133.569393
 30
0.0
 10
124.047506
 20
133.315039
 30
0.0
 10
124.235043
 20
133.127502
 30
0.0
  0
SPLINE
  5
38e
100
AcDbEntity
  8
0
 62
7
100
AcDbSpline
 70
8
 71
3
 72
8
 73
4
 74
0
 40
0
 40
0
 40
0
 40
0
 40
1
 40
1
 40
1
 40
1
 10
124.235043
 20
133.127502
 30
0.0
 10
124.422579
 20
132.939965
 30
0.0
 10
124.676933
 20
132.834608
 30
0.0
 10
124.942150
 20
132.834608
 30
0.0
  0
SPLINE
  5
38f
100
AcDbEntity
  8
0
 62
7
100
AcDbSpline
 70
8
 71
3
 72
8
 73
4
 74
0
 40
0
 40
0
 40
0
 40
0
 40
1
 40
1
 40
1
 40
1
 10
124.942150
 20
132.834608
 30
0.0
 10
125.207367
 20
132.834608
 30
0.0
 10
125.461721
 20
132.939965
 30
0.0
 10
125.649257
 20
133.127502
 30
0.0
  0
SPLINE
  5
390
100
AcDbEntity
  8
0
 62
7
100
AcDbSpline
 70
8
 71
3
 72
8
 73
4
 74
0
 40
0
 40
0
 40
0
 40
0
 40
1
 40
1
 40
1
 40
1
 10
125.649257
 20
133.127502
 30
0.0
 10
125.836794
 20
133.315039
 30
0.0
 10
125.942151
 20
133.569393
 30
0.0
 10
125.942150
 20
133.834610
 30
0.0
  0
LINE
  5
391
100
AcDbEntity
  8
0
 62
7
100
AcDbLine
 10
125.942150
 20
133.834610
 30
0.0
 11
125.942150
 21
133.834610
 31
0.0
  0
SPLINE
  5
392
100
AcDbEntity
  8
0
 62
7
100
AcDbSpline
 70
8
 71
3
 72
8
 73
4
 74
0
 40
0
 40
0
 40
0
 40
0
 40
1
 40
1
 40
1
 40
1
 10
121.981920
 20
134.295507
 30
0.0
 10
121.981920
 20
134.560723
 30
0.0
 10
121.876563
 20
134.815077
 30
0.0
 10
121.689027
 20
135.002614
 30
0.0
  0
SPLINE
  5
393
100
AcDbEntity
  8
0
 62
7
100
AcDbSpline
 70
8
 71
3
 72
8
 73
4
 74
0
 40
0
 40
0
 40
0
 40
0
 40
1
 40
1
 40
1
 40
1
 10
121.689027
 20
135.002614
 30
0.0
 10
121.501490
 20
135.190150
 30
0.0
 10
121.247136
 20
135.295507
 30
0.0
 10
120.981920
 20
135.295507
 30
0.0
  0
SPLINE
  5
394
100
AcDbEntity
  8
0
 62
7
100
AcDbSpline
 70
8
 71
3
 72
8
 73
4
 74
0
 40
0
 40
0
 40
0
 40
0
 40
1
 40
1
 40
1
 40
1
 10
120.981920
 20
135.295507
 30
0.0
 10
120.716704
 20
135.295507
 30
0.0
 10
120.462350
 20
135.190150
 30
0.0
 10
120.274813
 20
135.002614
 30
0.0
  0
SPLINE
  5
395
100
AcDbEntity
  8
0
 62
7
100
AcDbSpline
 70
8
 71
3
 72
8
 73
4
 74
0
 40
0
 40
0
 40
0
 40
0
 40
1
 40
1
 40
1
 40
1
 10
120.274813
 20
135.002614
 30
0.0
 10
120.087277
 20
134.815077
 30
0.0
 10
119.981920
 20
134.560723
 30
0.0
 10
119.981920
 20
134.295507
 30
0.0
  0
SPLINE
  5
396
100
AcDbEntity
  8
0
 62
7
100
AcDbSpline
 70
8
 71
3
 72
8
 73
4
 74
0
 40
0
 40
0
 40
0
 40
0
 40
1
 40
1
 40
1
 40
1
 10
119.981920
 20
134.295507
 30
0.0
 10
119.981919
 20
134.030290
 30
0.0
 10
120.087276
 20
133.775936
 30
0.0
 10
120.274813
 20
133.588399
 30
0.0
  0
SPLINE
  5
397
100
AcDbEntity
  8
0
 62
7
100
AcDbSpline
 70
8
 71
3
 72
8
 73
4
 74
0
 40
0
 40
0
 40
0
 40
0
 40
1
 40
1
 40
1
 40
1
 10
120.274813
 20
133.588399
 30
0.0
 10
120.462349
 20
133.400862
 30
0.0
 10
120.716703
 20
133.295505
 30
0.0
 10
120.981920
 20
133.295505
 30
0.0
  0
SPLINE
  5
398
100
AcDbEntity
  8
0
 62
7
100
AcDbSpline
 70
8
 71
3
 72
8
 73
4
 74
0
 40
0
 40
0
 40
0
 40
0
 40
1
 40
1
 40
1
 40
1
 10
120.981920
 20
133.295505
 30
0.0
 10
121.247137
 20
133.295505
 30
0.0
 10
121.501491
 20
133.400862
 30
0.0
 10
121.689027
 20
133.588399
 30
0.0
  0
SPLINE
  5
399
100
AcDbEntity
  8
0
 62
7
100
AcDbSpline
 70
8
 71
3
 72
8
 73
4
 74
0
 40
0
 40
0
 40
0
 40
0
 40
1
 40
1
 40
1
 40
1
 10
121.689027
 20
133.588399
 30
0.0
 10
121.876564
 20
133.775936
 30
0.0
 10
121.981921
 20
134.030290
 30
0.0
 10
121.981920
 20
134.295507
 30
0.0
  0
LINE
  5
39a
100
AcDbEntity
  8
0
 62
7
100
AcDbLine
 10
121.981920
 20
134.295507
 30
0.0
 11
121.981920
 21
134.295507
 31
0.0
  0
SPLINE
  5
39b
100
AcDbEntity
  8
0
 62
7
100
AcDbSpline
 70
8
 71
3
 72
8
 73
4
 74
0
 40
0
 40
0
 40
0
 40
0
 40
1
 40
1
 40
1
 40
1
 10
118.287950
 20
135.794798
 30
0.0
 10
118.287950
 20
136.060014
 30
0.0
 10
118.182593
 20
136.314368
 30
0.0
 10
117.995057
 20
136.501905
 30
0.0
  0
SPLINE
  5
39c
100
AcDbEntity
  8
0
 62
7
100
AcDbSpline
 70
8
 71
3
 72
8
 73
4
 74
0
 40
0
 40
0
 40
0
 40
0
 40
1
 40
1
 40
1
 40
1
 10
117.995057
 20
136.501905
 30
0.0
 10
117.807520
 20
136.689441
 30
0.0
 10
117.553166
 20
136.794798
 30
0.0
 10
117.287950
 20
136.794798
 30
0.0
  0
SPLINE
  5
39d
100
AcDbEntity
  8
0
 62
7
100
AcDbSpline
 70
8
 71
3
 72
8
 73
4
 74
0
 40
0
 40
0
 40
0
 40
0
 40
1
 40
1
 40
1
 40
1
 10
117.287950
 20
136.794798
 30
0.0
 10
117.022734
 20
136.794798
 30
0.0
 10
116.768380
 20
136.689441
 30
0.0
 10
116.580843
 20
136.501905
 30
0.0
  0
SPLINE
  5
39e
100
AcDbEntity
  8
0
 62
7
100
AcDbSpline
 70
8
 71
3
 72
8
 73
4
 74
0
 40
0
 40
0
 40
0
 40
0
 40
1
 40
1
 40
1
 40
1
 10
116.580843
 20
136.501905
 30
0.0
 10
116.393307
 20
136.314368
 30
0.0
 10
116.287950
 20
136.060014
 30
0.0
 10
116.287950
 20
135.794798
 30
0.0
  0
SPLINE
  5
39f
100
AcDbEntity
  8
0
 62
7
100
AcDbSpline
 70
8
 71
3
 72
8
 73
4
 74
0
 40
0
 40
0
 40
0
 40
0
 40
1
 40
1
 40
1
 40
1
 10
116.287950
 20
135.794798
 30
0.0
 10
116.287949
 20
135.529581
 30
0.0
 10
116.393306
 20
135.275227
 30
0.0
 10
116.580843
 20
135.087690
 30
0.0
  0
SPLINE
  5
3a0
100
AcDbEntity
  8
0
 62
7
100
AcDbSpline
 70
8
 71
3
 72
8
 73
4
 74
0
 40
0
 40
0
 40
0
 40
0
 40
1
 40
1
 40
1
 40
1
 10
116.580843
 20
135.087690
 30
0.0
 10
116.768379
 20
134.900153
 30
0.0
 10
117.022733
 20
134.794796
 30
0.0
 10
117.287950
 20
134.794796
 30
0.0
  0
SPLINE
  5
3a1
100
AcDbEntity
  8
0
 62
7
100
AcDbSpline
 70
8
 71
3
 72
8
 73
4
 74
0
 40
0
 40
0
 40
0
 40
0
 40
1
 40
1
 40
1
 40
1
 10
117.287950
 20
134.794796
 30
0.0
 10
117.553167
 20
134.794796
 30
0.0
 10
117.807521
 20
134.900153
 30
0.0
 10
117.995057
 20
135.087690
 30
0.0
  0
SPLINE
  5
3a2
100
AcDbEntity
  8
0
 62
7
100
AcDbSpline
 70
8
 71
3
 72
8
 73
4
 74
0
 40
0
 40
0
 40
0
 40
0
 40
1
 40
1
 40
1
 40
1
 10
117.995057
 20
135.087690
 30
0.0
 10
118.182594
 20
135.275227
 30
0.0
 10
118.287951
 20
135.529581
 30
0.0
 10
118.287950
 20
135.794798
 30
0.0
  0
LINE
  5
3a3
100
AcDbEntity
  8
0
 62
7
100
AcDbLine
 10
118.287950
 20
135.794798
 30
0.0
 11
118.287950
 21
135.794798
 31
0.0
  0
SPLINE
  5
3a4
100
AcDbEntity
  8
0
 62
7
100
AcDbSpline
 70
8
 71
3
 72
8
 73
4
 74
0
 40
0
 40
0
 40
0
 40
0
 40
1
 40
1
 40
1
 40
1
 10
115.143940
 20
138.245291
 30
0.0
 10
115.143940
 20
138.510507
 30
0.0
 10
115.038583
 20
138.764861
 30
0.0
 10
114.851047
 20
138.952398
 30
0.0
  0
SPLINE
  5
3a5
100
AcDbEntity
  8
0
 62
7
100
AcDbSpline
 70
8
 71
3
 72
8
 73
4
 74
0
 40
0
 40
0
 40
0
 40
0
 40
1
 40
1
 40
1
 40
1
 10
114.851047
 20
138.952398
 30
0.0
 10
114.663510
 20
139.139934
 30
0.0
 10
114.409156
 20
139.245291
 30
0.0
 10
114.143940
 20
139.245291
 30
0.0
  0
SPLINE
  5
3a6
100
AcDbEntity
  8
0
 62
7
100
AcDbSpline
 70
8
 71
3
 72
8
 73
4
 74
0
 40
0
 40
0
 40
0
 40
0
 40
1
 40
1
 40
1
 40
1
 10
114.143940
 20
139.245291
 30
0.0
 10
113.878724
 20
139.245291
 30
0.0
 10
113.624370
 20
139.139934
 30
0.0
 10
113.436833
 20
138.952398
 30
0.0
  0
SPLINE
  5
3a7
100
AcDbEntity
  8
0
 62
7
100
AcDbSpline
 70
8
 71
3
 72
8
 73
4
 74
0
 40
0
 40
0
 40
0
 40
0
 40
1
 40
1
 40
1
 40
1
 10
113.436833
 20
138.952398
 30
0.0
 10
113.249297
 20
138.764861
 30
0.0
 10
113.143940
 20
138.510507
 30
0.0
 10
113.143940
 20
138.245291
 30
0.0
  0
SPLINE
  5
3a8
100
AcDbEntity
  8
0
 62
7
100
AcDbSpline
 70
8
 71
3
 72
8
 73
4
 74
0
 40
0
 40
0
 40
0
 40
0
 40
1
 40
1
 40
1
 40
1
 10
113.143940
 20
138.245291
 30
0.0
 10
113.143939
 20
137.980074
 30
0.0
 10
113.249296
 20
137.725720
 30
0.0
 10
113.436833
 20
137.538183
 30
0.0
  0
SPLINE
  5
3a9
100
AcDbEntity
  8
0
 62
7
100
AcDbSpline
 70
8
 71
3
 72
8
 73
4
 74
0
 40
0
 40
0
 40
0
 40
0
 40
1
 40
1
 40
1
 40
1
 10
113.436833
 20
137.538183
 30
0.0
 10
113.624369
 20
137.350646
 30
0.0
 10
113.878723
 20
137.245289
 30
0.0
 10
114.143940
 20
137.245289
 30
0.0
  0
SPLINE
  5
3aa
100
AcDbEntity
  8
0
 62
7
100
AcDbSpline
 70
8
 71
3
 72
8
 73
4
 74
0
 40
0
 40
0
 40
0
 40
0
 40
1
 40
1
 40
1
 40
1
 10
114.143940
 20
137.245289
 30
0.0
 10
114.409157
 20
137.245289
 30
0.0
 10
114.663511
 20
137.350646
 30
0.0
 10
114.851047
 20
137.538183
 30
0.0
  0
SPLINE
  5
3ab
100
AcDbEntity
  8
0
 62
7
100
AcDbSpline
 70
8
 71
3
 72
8
 73
4
 74
0
 40
0
 40
0
 40
0
 40
0
 40
1
 40
1
 40
1
 40
1
 10
114.851047
 20
137.538183
 30
0.0
 10
115.038584
 20
137.725720
 30
0.0
 10
115.143941
 20
137.980074
 30
0.0
 10
115.143940
 20
138.245291
 30
0.0
  0
LINE
  5
3ac
100
AcDbEntity
  8
0
 62
7
100
AcDbLine
 10
115.143940
 20
138.245291
 30
0.0
 11
115.143940
 21
138.245291
 31
0.0
  0
SPLINE
  5
3ad
100
AcDbEntity
  8
0
 62
7
100
AcDbSpline
 70
8
 71
3
 72
8
 73
4
 74
0
 40
0
 40
0
 40
0
 40
0
 40
1
 40
1
 40
1
 40
1
 10
112.800810
 20
141.470263
 30
0.0
 10
112.800810
 20
141.735479
 30
0.0
 10
112.695453
 20
141.989833
 30
0.0
 10
112.507917
 20
142.177370
 30
0.0
  0
SPLINE
  5
3ae
100
AcDbEntity
  8
0
 62
7
100
AcDbSpline
 70
8
 71
3
 72
8
 73
4
 74
0
 40
0
 40
0
 40
0
 40
0
 40
1
 40
1
 40
1
 40
1
 10
112.507917
 20
142.177370
 30
0.0
 10
112.320380
 20
142.364906
 30
0.0
 10
112.066026
 20
142.470263
 30
0.0
 10
111.800810
 20
142.470263
 30
0.0
  0
SPLINE
  5
3af
100
AcDbEntity
  8
0
 62
7
100
AcDbSpline
 70
8
 71
3
 72
8
 73
4
 74
0
 40
0
 40
0
 40
0
 40
0
 40
1
 40
1
 40
1
 40
1
 10
111.800810
 20
142.470263
 30
0.0
 10
111.535594
 20
142.470263
 30
0.0
 10
111.281240
 20
142.364906
 30
0.0
 10
111.093703
 20
142.177370
 30
0.0
  0
SPLINE
  5
3b0
100
AcDbEntity
  8
0
 62
7
100
AcDbSpline
 70
8
 71
3
 72
8
 73
4
 74
0
 40
0
 40
0
 40
0
 40
0
 40
1
 40
1
 40
1
 40
1
 10
111.093703
 20
142.177370
 30
0.0
 10
110.906167
 20
141.989833
 30
0.0
 10
110.800810
 20
141.735479
 30
0.0
 10
110.800810
 20
141.470263
 30
0.0
  0
SPLINE
  5
3b1
100
AcDbEntity
  8
0
 62
7
100
AcDbSpline
 70
8
 71
3
 72
8
 73
4
 74
0
 40
0
 40
0
 40
0
 40
0
 40
1
 40
1
 40
1
 40
1
 10
110.800810
 20
141.470263
 30
0.0
 10
110.800809
 20
141.205046
 30
0.0
 10
110.906166
 20
140.950692
 30
0.0
 10
111.093703
 20
140.763155
 30
0.0
  0
SPLINE
  5
3b2
100
AcDbEntity
  8
0
 62
7
100
AcDbSpline
 70
8
 71
3
 72
8
 73
4
 74
0
 40
0
 40
0
 40
0
 40
0
 40
1
 40
1
 40
1
 40
1
 10
111.093703
 20
140.763155
 30
0.0
 10
111.281239
 20
140.575618
 30
0.0
 10
111.535593
 20
140.470261
 30
0.0
 10
111.800810
 20
140.470261
 30
0.0
  0
SPLINE
  5
3b3
100
AcDbEntity
  8
0
 62
7
100
AcDbSpline
 70
8
 71
3
 72
8
 73
4
 74
0
 40
0
 40
0
 40
0
 40
0
 40
1
 40
1
 40
1
 40
1
 10
111.800810
 20
140.470261
 30
0.0
 10
112.066027
 20
140.470261
 30
0.0
 10
112.320381
 20
140.575618
 30
0.0
 10
112.507917
 20
140.763155
 30
0.0
  0
SPLINE
  5
3b4
100
AcDbEntity
  8
0
 62
7
100
AcDbSpline
 70
8
 71
3
 72
8
 73
4
 74
0
 40
0
 40
0
 40
0
 40
0
 40
1
 40
1
 40
1
 40
1
 10
112.507917
 20
140.763155
 30
0.0
 10
112.695454
 20
140.950692
 30
0.0
 10
112.800811
 20
141.205046
 30
0.0
 10
112.800810
 20
141.470263
 30
0.0
  0
LINE
  5
3b5
100
AcDbEntity
  8
0
 62
7
100
AcDbLine
 10
112.800810
 20
141.470263
 30
0.0
 11
112.800810
 21
141.470263
 31
0.0
  0
SPLINE
  5
3b6
100
AcDbEntity
  8
0
 62
7
100
AcDbSpline
 70
8
 71
3
 72
8
 73
4
 74
0
 40
0
 40
0
 40
0
 40
0
 40
1
 40
1
 40
1
 40
1
 10
111.427660
 20
145.212963
 30
0.0
 10
111.427660
 20
145.478179
 30
0.0
 10
111.322303
 20
145.732533
 30
0.0
 10
111.134767
 20
145.920070
 30
0.0
  0
SPLINE
  5
3b7
100
AcDbEntity
  8
0
 62
7
100
AcDbSpline
 70
8
 71
3
 72
8
 73
4
 74
0
 40
0
 40
0
 40
0
 40
0
 40
1
 40
1
 40
1
 40
1
 10
111.134767
 20
145.920070
 30
0.0
 10
110.947230
 20
146.107606
 30
0.0
 10
110.692876
 20
146.212963
 30
0.0
 10
110.427660
 20
146.212963
 30
0.0
  0
SPLINE
  5
3b8
100
AcDbEntity
  8
0
 62
7
100
AcDbSpline
 70
8
 71
3
 72
8
 73
4
 74
0
 40
0
 40
0
 40
0
 40
0
 40
1
 40
1
 40
1
 40
1
 10
110.427660
 20
146.212963
 30
0.0
 10
110.162444
 20
146.212963
 30
0.0
 10
109.908090
 20
146.107606
 30
0.0
 10
109.720553
 20
145.920070
 30
0.0
  0
SPLINE
  5
3b9
100
AcDbEntity
  8
0
 62
7
100
AcDbSpline
 70
8
 71
3
 72
8
 73
4
 74
0
 40
0
 40
0
 40
0
 40
0
 40
1
 40
1
 40
1
 40
1
 10
109.720553
 20
145.920070
 30
0.0
 10
109.533017
 20
145.732533
 30
0.0
 10
109.427660
 20
145.478179
 30
0.0
 10
109.427660
 20
145.212963
 30
0.0
  0
SPLINE
  5
3ba
100
AcDbEntity
  8
0
 62
7
100
AcDbSpline
 70
8
 71
3
 72
8
 73
4
 74
0
 40
0
 40
0
 40
0
 40
0
 40
1
 40
1
 40
1
 40
1
 10
109.427660
 20
145.212963
 30
0.0
 10
109.427659
 20
144.947746
 30
0.0
 10
109.533016
 20
144.693392
 30
0.0
 10
109.720553
 20
144.505855
 30
0.0
  0
SPLINE
  5
3bb
100
AcDbEntity
  8
0
 62
7
100
AcDbSpline
 70
8
 71
3
 72
8
 73
4
 74
0
 40
0
 40
0
 40
0
 40
0
 40
1
 40
1
 40
1
 40
1
 10
109.720553
 20
144.505855
 30
0.0
 10
109.908089
 20
144.318318
 30
0.0
 10
110.162443
 20
144.212961
 30
0.0
 10
110.427660
 20
144.212961
 30
0.0
  0
SPLINE
  5
3bc
100
AcDbEntity
  8
0
 62
7
100
AcDbSpline
 70
8
 71
3
 72
8
 73
4
 74
0
 40
0
 40
0
 40
0
 40
0
 40
1
 40
1
 40
1
 40
1
 10
110.427660
 20
144.212961
 30
0.0
 10
110.692877
 20
144.212961
 30
0.0
 10
110.947231
 20
144.318318
 30
0.0
 10
111.134767
 20
144.505855
 30
0.0
  0
SPLINE
  5
3bd
100
AcDbEntity
  8
0
 62
7
100
AcDbSpline
 70
8
 71
3
 72
8
 73
4
 74
0
 40
0
 40
0
 40
0
 40
0
 40
1
 40
1
 40
1
 40
1
 10
111.134767
 20
144.505855
 30
0.0
 10
111.322304
 20
144.693392
 30
0.0
 10
111.427661
 20
144.947746
 30
0.0
 10
111.427660
 20
145.212963
 30
0.0
  0
LINE
  5
3be
100
AcDbEntity
  8
0
 62
7
100
AcDbLine
 10
111.427660
 20
145.212963
 30
0.0
 11
111.427660
 21
145.212963
 31
0.0
  0
SPLINE
  5
3bf
100
AcDbEntity
  8
0
 62
7
100
AcDbSpline
 70
8
 71
3
 72
8
 73
4
 74
0
 40
0
 40
0
 40
0
 40
0
 40
1
 40
1
 40
1
 40
1
 10
111.092880
 20
149.186463
 30
0.0
 10
111.092880
 20
149.451679
 30
0.0
 10
110.987523
 20
149.706033
 30
0.0
 10
110.799987
 20
149.893570
 30
0.0
  0
SPLINE
  5
3c0
100
AcDbEntity
  8
0
 62
7
100
AcDbSpline
 70
8
 71
3
 72
8
 73
4
 74
0
 40
0
 40
0
 40
0
 40
0
 40
1
 40
1
 40
1
 40
1
 10
110.799987
 20
149.893570
 30
0.0
 10
110.612450
 20
150.081106
 30
0.0
 10
110.358096
 20
150.186463
 30
0.0
 10
110.092880
 20
150.186463
 30
0.0
  0
SPLINE
  5
3c1
100
AcDbEntity
  8
0
 62
7
100
AcDbSpline
 70
8
 71
3
 72
8
 73
4
 74
0
 40
0
 40
0
 40
0
 40
0
 40
1
 40
1
 40
1
 40
1
 10
110.092880
 20
150.186463
 30
0.0
 10
109.827664
 20
150.186463
 30
0.0
 10
109.573310
 20
150.081106
 30
0.0
 10
109.385773
 20
149.893570
 30
0.0
  0
SPLINE
  5
3c2
100
AcDbEntity
  8
0
 62
7
100
AcDbSpline
 70
8
 71
3
 72
8
 73
4
 74
0
 40
0
 40
0
 40
0
 40
0
 40
1
 40
1
 40
1
 40
1
 10
109.385773
 20
149.893570
 30
0.0
 10
109.198237
 20
149.706033
 30
0.0
 10
109.092880
 20
149.451679
 30
0.0
 10
109.092880
 20
149.186463
 30
0.0
  0
SPLINE
  5
3c3
100
AcDbEntity
  8
0
 62
7
100
AcDbSpline
 70
8
 71
3
 72
8
 73
4
 74
0
 40
0
 40
0
 40
0
 40
0
 40
1
 40
1
 40
1
 40
1
 10
109.092880
 20
149.186463
 30
0.0
 10
109.092879
 20
148.921246
 30
0.0
 10
109.198236
 20
148.666892
 30
0.0
 10
109.385773
 20
148.479355
 30
0.0
  0
SPLINE
  5
3c4
100
AcDbEntity
  8
0
 62
7
100
AcDbSpline
 70
8
 71
3
 72
8
 73
4
 74
0
 40
0
 40
0
 40
0
 40
0
 40
1
 40
1
 40
1
 40
1
 10
109.385773
 20
148.479355
 30
0.0
 10
109.573309
 20
148.291818
 30
0.0
 10
109.827663
 20
148.186461
 30
0.0
 10
110.092880
 20
148.186461
 30
0.0
  0
SPLINE
  5
3c5
100
AcDbEntity
  8
0
 62
7
100
AcDbSpline
 70
8
 71
3
 72
8
 73
4
 74
0
 40
0
 40
0
 40
0
 40
0
 40
1
 40
1
 40
1
 40
1
 10
110.092880
 20
148.186461
 30
0.0
 10
110.358097
 20
148.186461
 30
0.0
 10
110.612451
 20
148.291818
 30
0.0
 10
110.799987
 20
148.479355
 30
0.0
  0
SPLINE
  5
3c6
100
AcDbEntity
  8
0
 62
7
100
AcDbSpline
 70
8
 71
3
 72
8
 73
4
 74
0
 40
0
 40
0
 40
0
 40
0
 40
1
 40
1
 40
1
 40
1
 10
110.799987
 20
148.479355
 30
0.0
 10
110.987524
 20
148.666892
 30
0.0
 10
111.092881
 20
148.921246
 30
0.0
 10
111.092880
 20
149.186463
 30
0.0
  0
LINE
  5
3c7
100
AcDbEntity
  8
0
 62
7
100
AcDbLine
 10
111.092880
 20
149.186463
 30
0.0
 11
111.092880
 21
149.186463
 31
0.0
  0
SPLINE
  5
3c8
100
AcDbEntity
  8
0
 62
7
100
AcDbSpline
 70
8
 71
3
 72
8
 73
4
 74
0
 40
0
 40
0
 40
0
 40
0
 40
1
 40
1
 40
1
 40
1
 10
111.794380
 20
153.112407
 30
0.0
 10
111.794380
 20
153.377623
 30
0.0
 10
111.689023
 20
153.631977
 30
0.0
 10
111.501487
 20
153.819514
 30
0.0
  0
SPLINE
  5
3c9
100
AcDbEntity
  8
0
 62
7
100
AcDbSpline
 70
8
 71
3
 72
8
 73
4
 74
0
 40
0
 40
0
 40
0
 40
0
 40
1
 40
1
 40
1
 40
1
 10
111.501487
 20
153.819514
 30
0.0
 10
111.313950
 20
154.007050
 30
0.0
 10
111.059596
 20
154.112407
 30
0.0
 10
110.794380
 20
154.112407
 30
0.0
  0
SPLINE
  5
3ca
100
AcDbEntity
  8
0
 62
7
100
AcDbSpline
 70
8
 71
3
 72
8
 73
4
 74
0
 40
0
 40
0
 40
0
 40
0
 40
1
 40
1
 40
1
 40
1
 10
110.794380
 20
154.112407
 30
0.0
 10
110.529164
 20
154.112407
 30
0.0
 10
110.274810
 20
154.007050
 30
0.0
 10
110.087273
 20
153.819514
 30
0.0
  0
SPLINE
  5
3cb
100
AcDbEntity
  8
0
 62
7
100
AcDbSpline
 70
8
 71
3
 72
8
 73
4
 74
0
 40
0
 40
0
 40
0
 40
0
 40
1
 40
1
 40
1
 40
1
 10
110.087273
 20
153.819514
 30
0.0
 10
109.899737
 20
153.631977
 30
0.0
 10
109.794380
 20
153.377623
 30
0.0
 10
109.794380
 20
153.112407
 30
0.0
  0
SPLINE
  5
3cc
100
AcDbEntity
  8
0
 62
7
100
AcDbSpline
 70
8
 71
3
 72
8
 73
4
 74
0
 40
0
 40
0
 40
0
 40
0
 40
1
 40
1
 40
1
 40
1
 10
109.794380
 20
153.112407
 30
0.0
 10
109.794379
 20
152.847190
 30
0.0
 10
109.899736
 20
152.592836
 30
0.0
 10
110.087273
 20
152.405299
 30
0.0
  0
SPLINE
  5
3cd
100
AcDbEntity
  8
0
 62
7
100
AcDbSpline
 70
8
 71
3
 72
8
 73
4
 74
0
 40
0
 40
0
 40
0
 40
0
 40
1
 40
1
 40
1
 40
1
 10
110.087273
 20
152.405299
 30
0.0
 10
110.274809
 20
152.217762
 30
0.0
 10
110.529163
 20
152.112405
 30
0.0
 10
110.794380
 20
152.112405
 30
0.0
  0
SPLINE
  5
3ce
100
AcDbEntity
  8
0
 62
7
100
AcDbSpline
 70
8
 71
3
 72
8
 73
4
 74
0
 40
0
 40
0
 40
0
 40
0
 40
1
 40
1
 40
1
 40
1
 10
110.794380
 20
152.112405
 30
0.0
 10
111.059597
 20
152.112405
 30
0.0
 10
111.313951
 20
152.217762
 30
0.0
 10
111.501487
 20
152.405299
 30
0.0
  0
SPLINE
  5
3cf
100
AcDbEntity
  8
0
 62
7
100
AcDbSpline
 70
8
 71
3
 72
8
 73
4
 74
0
 40
0
 40
0
 40
0
 40
0
 40
1
 40
1
 40
1
 40
1
 10
111.501487
 20
152.405299
 30
0.0
 10
111.689024
 20
152.592836
 30
0.0
 10
111.794381
 20
152.847190
 30
0.0
 10
111.794380
 20
153.112407
 30
0.0
  0
LINE
  5
3d0
100
AcDbEntity
  8
0
 62
7
100
AcDbLine
 10
111.794380
 20
153.112407
 30
0.0
 11
111.794380
 21
153.112407
 31
0.0
  0
SPLINE
  5
3d1
100
AcDbEntity
  8
0
 62
7
100
AcDbSpline
 70
8
 71
3
 72
8
 73
4
 74
0
 40
0
 40
0
 40
0
 40
0
 40
1
 40
1
 40
1
 40
1
 10
113.481120
 20
156.725685
 30
0.0
 10
113.481120
 20
156.990901
 30
0.0
 10
113.375763
 20
157.245255
 30
0.0
 10
113.188227
 20
157.432792
 30
0.0
  0
SPLINE
  5
3d2
100
AcDbEntity
  8
0
 62
7
100
AcDbSpline
 70
8
 71
3
 72
8
 73
4
 74
0
 40
0
 40
0
 40
0
 40
0
 40
1
 40
1
 40
1
 40
1
 10
113.188227
 20
157.432792
 30
0.0
 10
113.000690
 20
157.620328
 30
0.0
 10
112.746336
 20
157.725685
 30
0.0
 10
112.481120
 20
157.725685
 30
0.0
  0
SPLINE
  5
3d3
100
AcDbEntity
  8
0
 62
7
100
AcDbSpline
 70
8
 71
3
 72
8
 73
4
 74
0
 40
0
 40
0
 40
0
 40
0
 40
1
 40
1
 40
1
 40
1
 10
112.481120
 20
157.725685
 30
0.0
 10
112.215904
 20
157.725685
 30
0.0
 10
111.961550
 20
157.620328
 30
0.0
 10
111.774013
 20
157.432792
 30
0.0
  0
SPLINE
  5
3d4
100
AcDbEntity
  8
0
 62
7
100
AcDbSpline
 70
8
 71
3
 72
8
 73
4
 74
0
 40
0
 40
0
 40
0
 40
0
 40
1
 40
1
 40
1
 40
1
 10
111.774013
 20
157.432792
 30
0.0
 10
111.586477
 20
157.245255
 30
0.0
 10
111.481120
 20
156.990901
 30
0.0
 10
111.481120
 20
156.725685
 30
0.0
  0
SPLINE
  5
3d5
100
AcDbEntity
  8
0
 62
7
100
AcDbSpline
 70
8
 71
3
 72
8
 73
4
 74
0
 40
0
 40
0
 40
0
 40
0
 40
1
 40
1
 40
1
 40
1
 10
111.481120
 20
156.725685
 30
0.0
 10
111.481119
 20
156.460468
 30
0.0
 10
111.586476
 20
156.206114
 30
0.0
 10
111.774013
 20
156.018577
 30
0.0
  0
SPLINE
  5
3d6
100
AcDbEntity
  8
0
 62
7
100
AcDbSpline
 70
8
 71
3
 72
8
 73
4
 74
0
 40
0
 40
0
 40
0
 40
0
 40
1
 40
1
 40
1
 40
1
 10
111.774013
 20
156.018577
 30
0.0
 10
111.961549
 20
155.831040
 30
0.0
 10
112.215903
 20
155.725683
 30
0.0
 10
112.481120
 20
155.725683
 30
0.0
  0
SPLINE
  5
3d7
100
AcDbEntity
  8
0
 62
7
100
AcDbSpline
 70
8
 71
3
 72
8
 73
4
 74
0
 40
0
 40
0
 40
0
 40
0
 40
1
 40
1
 40
1
 40
1
 10
112.481120
 20
155.725683
 30
0.0
 10
112.746337
 20
155.725683
 30
0.0
 10
113.000691
 20
155.831040
 30
0.0
 10
113.188227
 20
156.018577
 30
0.0
  0
SPLINE
  5
3d8
100
AcDbEntity
  8
0
 62
7
100
AcDbSpline
 70
8
 71
3
 72
8
 73
4
 74
0
 40
0
 40
0
 40
0
 40
0
 40
1
 40
1
 40
1
 40
1
 10
113.188227
 20
156.018577
 30
0.0
 10
113.375764
 20
156.206114
 30
0.0
 10
113.481121
 20
156.460468
 30
0.0
 10
113.481120
 20
156.725685
 30
0.0
  0
LINE
  5
3d9
100
AcDbEntity
  8
0
 62
7
100
AcDbLine
 10
113.481120
 20
156.725685
 30
0.0
 11
113.481120
 21
156.725685
 31
0.0
  0
SPLINE
  5
3da
100
AcDbEntity
  8
0
 62
7
100
AcDbSpline
 70
8
 71
3
 72
8
 73
4
 74
0
 40
0
 40
0
 40
0
 40
0
 40
1
 40
1
 40
1
 40
1
 10
116.063240
 20
159.763412
 30
0.0
 10
116.063240
 20
160.028628
 30
0.0
 10
115.957883
 20
160.282982
 30
0.0
 10
115.770347
 20
160.470519
 30
0.0
  0
SPLINE
  5
3db
100
AcDbEntity
  8
0
 62
7
100
AcDbSpline
 70
8
 71
3
 72
8
 73
4
 74
0
 40
0
 40
0
 40
0
 40
0
 40
1
 40
1
 40
1
 40
1
 10
115.770347
 20
160.470519
 30
0.0
 10
115.582810
 20
160.658055
 30
0.0
 10
115.328456
 20
160.763412
 30
0.0
 10
115.063240
 20
160.763412
 30
0.0
  0
SPLINE
  5
3dc
100
AcDbEntity
  8
0
 62
7
100
AcDbSpline
 70
8
 71
3
 72
8
 73
4
 74
0
 40
0
 40
0
 40
0
 40
0
 40
1
 40
1
 40
1
 40
1
 10
115.063240
 20
160.763412
 30
0.0
 10
114.798024
 20
160.763412
 30
0.0
 10
114.543670
 20
160.658055
 30
0.0
 10
114.356133
 20
160.470519
 30
0.0
  0
SPLINE
  5
3dd
100
AcDbEntity
  8
0
 62
7
100
AcDbSpline
 70
8
 71
3
 72
8
 73
4
 74
0
 40
0
 40
0
 40
0
 40
0
 40
1
 40
1
 40
1
 40
1
 10
114.356133
 20
160.470519
 30
0.0
 10
114.168597
 20
160.282982
 30
0.0
 10
114.063240
 20
160.028628
 30
0.0
 10
114.063240
 20
159.763412
 30
0.0
  0
SPLINE
  5
3de
100
AcDbEntity
  8
0
 62
7
100
AcDbSpline
 70
8
 71
3
 72
8
 73
4
 74
0
 40
0
 40
0
 40
0
 40
0
 40
1
 40
1
 40
1
 40
1
 10
114.063240
 20
159.763412
 30
0.0
 10
114.063239
 20
159.498195
 30
0.0
 10
114.168596
 20
159.243841
 30
0.0
 10
114.356133
 20
159.056304
 30
0.0
  0
SPLINE
  5
3df
100
AcDbEntity
  8
0
 62
7
100
AcDbSpline
 70
8
 71
3
 72
8
 73
4
 74
0
 40
0
 40
0
 40
0
 40
0
 40
1
 40
1
 40
1
 40
1
 10
114.356133
 20
159.056304
 30
0.0
 10
114.543669
 20
158.868767
 30
0.0
 10
114.798023
 20
158.763410
 30
0.0
 10
115.063240
 20
158.763410
 30
0.0
  0
SPLINE
  5
3e0
100
AcDbEntity
  8
0
 62
7
100
AcDbSpline
 70
8
 71
3
 72
8
 73
4
 74
0
 40
0
 40
0
 40
0
 40
0
 40
1
 40
1
 40
1
 40
1
 10
115.063240
 20
158.763410
 30
0.0
 10
115.328457
 20
158.763410
 30
0.0
 10
115.582811
 20
158.868767
 30
0.0
 10
115.770347
 20
159.056304
 30
0.0
  0
SPLINE
  5
3e1
100
AcDbEntity
  8
0
 62
7
100
AcDbSpline
 70
8
 71
3
 72
8
 73
4
 74
0
 40
0
 40
0
 40
0
 40
0
 40
1
 40
1
 40
1
 40
1
 10
115.770347
 20
159.056304
 30
0.0
 10
115.957884
 20
159.243841
 30
0.0
 10
116.063241
 20
159.498195
 30
0.0
 10
116.063240
 20
159.763412
 30
0.0
  0
LINE
  5
3e2
100
AcDbEntity
  8
0
 62
7
100
AcDbLine
 10
116.063240
 20
159.763412
 30
0.0
 11
116.063240
 21
159.763412
 31
0.0
  0
SPLINE
  5
3e3
100
AcDbEntity
  8
0
 62
7
100
AcDbSpline
 70
8
 71
3
 72
8
 73
4
 74
0
 40
0
 40
0
 40
0
 40
0
 40
1
 40
1
 40
1
 40
1
 10
119.358470
 20
162.007681
 30
0.0
 10
119.358470
 20
162.272897
 30
0.0
 10
119.253113
 20
162.527251
 30
0.0
 10
119.065577
 20
162.714788
 30
0.0
  0
SPLINE
  5
3e4
100
AcDbEntity
  8
0
 62
7
100
AcDbSpline
 70
8
 71
3
 72
8
 73
4
 74
0
 40
0
 40
0
 40
0
 40
0
 40
1
 40
1
 40
1
 40
1
 10
119.065577
 20
162.714788
 30
0.0
 10
118.878040
 20
162.902324
 30
0.0
 10
118.623686
 20
163.007681
 30
0.0
 10
118.358470
 20
163.007681
 30
0.0
  0
SPLINE
  5
3e5
100
AcDbEntity
  8
0
 62
7
100
AcDbSpline
 70
8
 71
3
 72
8
 73
4
 74
0
 40
0
 40
0
 40
0
 40
0
 40
1
 40
1
 40
1
 40
1
 10
118.358470
 20
163.007681
 30
0.0
 10
118.093254
 20
163.007681
 30
0.0
 10
117.838900
 20
162.902324
 30
0.0
 10
117.651363
 20
162.714788
 30
0.0
  0
SPLINE
  5
3e6
100
AcDbEntity
  8
0
 62
7
100
AcDbSpline
 70
8
 71
3
 72
8
 73
4
 74
0
 40
0
 40
0
 40
0
 40
0
 40
1
 40
1
 40
1
 40
1
 10
117.651363
 20
162.714788
 30
0.0
 10
117.463827
 20
162.527251
 30
0.0
 10
117.358470
 20
162.272897
 30
0.0
 10
117.358470
 20
162.007681
 30
0.0
  0
SPLINE
  5
3e7
100
AcDbEntity
  8
0
 62
7
100
AcDbSpline
 70
8
 71
3
 72
8
 73
4
 74
0
 40
0
 40
0
 40
0
 40
0
 40
1
 40
1
 40
1
 40
1
 10
117.358470
 20
162.007681
 30
0.0
 10
117.358469
 20
161.742464
 30
0.0
 10
117.463826
 20
161.488110
 30
0.0
 10
117.651363
 20
161.300573
 30
0.0
  0
SPLINE
  5
3e8
100
AcDbEntity
  8
0
 62
7
100
AcDbSpline
 70
8
 71
3
 72
8
 73
4
 74
0
 40
0
 40
0
 40
0
 40
0
 40
1
 40
1
 40
1
 40
1
 10
117.651363
 20
161.300573
 30
0.0
 10
117.838899
 20
161.113036
 30
0.0
 10
118.093253
 20
161.007679
 30
0.0
 10
118.358470
 20
161.007679
 30
0.0
  0
SPLINE
  5
3e9
100
AcDbEntity
  8
0
 62
7
100
AcDbSpline
 70
8
 71
3
 72
8
 73
4
 74
0
 40
0
 40
0
 40
0
 40
0
 40
1
 40
1
 40
1
 40
1
 10
118.358470
 20
161.007679
 30
0.0
 10
118.623687
 20
161.007679
 30
0.0
 10
118.878041
 20
161.113036
 30
0.0
 10
119.065577
 20
161.300573
 30
0.0
  0
SPLINE
  5
3ea
100
AcDbEntity
  8
0
 62
7
100
AcDbSpline
 70
8
 71
3
 72
8
 73
4
 74
0
 40
0
 40
0
 40
0
 40
0
 40
1
 40
1
 40
1
 40
1
 10
119.065577
 20
161.300573
 30
0.0
 10
119.253114
 20
161.488110
 30
0.0
 10
119.358471
 20
161.742464
 30
0.0
 10
119.358470
 20
162.007681
 30
0.0
  0
LINE
  5
3eb
100
AcDbEntity
  8
0
 62
7
100
AcDbLine
 10
119.358470
 20
162.007681
 30
0.0
 11
119.358470
 21
162.007681
 31
0.0
  0
SPLINE
  5
3ec
100
AcDbEntity
  8
0
 62
7
100
AcDbSpline
 70
8
 71
3
 72
8
 73
4
 74
0
 40
0
 40
0
 40
0
 40
0
 40
1
 40
1
 40
1
 40
1
 10
123.127210
 20
163.311196
 30
0.0
 10
123.127210
 20
163.576412
 30
0.0
 10
123.021853
 20
163.830766
 30
0.0
 10
122.834317
 20
164.018303
 30
0.0
  0
SPLINE
  5
3ed
100
AcDbEntity
  8
0
 62
7
100
AcDbSpline
 70
8
 71
3
 72
8
 73
4
 74
0
 40
0
 40
0
 40
0
 40
0
 40
1
 40
1
 40
1
 40
1
 10
122.834317
 20
164.018303
 30
0.0
 10
122.646780
 20
164.205839
 30
0.0
 10
122.392426
 20
164.311196
 30
0.0
 10
122.127210
 20
164.311196
 30
0.0
  0
SPLINE
  5
3ee
100
AcDbEntity
  8
0
 62
7
100
AcDbSpline
 70
8
 71
3
 72
8
 73
4
 74
0
 40
0
 40
0
 40
0
 40
0
 40
1
 40
1
 40
1
 40
1
 10
122.127210
 20
164.311196
 30
0.0
 10
121.861994
 20
164.311196
 30
0.0
 10
121.607640
 20
164.205839
 30
0.0
 10
121.420103
 20
164.018303
 30
0.0
  0
SPLINE
  5
3ef
100
AcDbEntity
  8
0
 62
7
100
AcDbSpline
 70
8
 71
3
 72
8
 73
4
 74
0
 40
0
 40
0
 40
0
 40
0
 40
1
 40
1
 40
1
 40
1
 10
121.420103
 20
164.018303
 30
0.0
 10
121.232567
 20
163.830766
 30
0.0
 10
121.127210
 20
163.576412
 30
0.0
 10
121.127210
 20
163.311196
 30
0.0
  0
SPLINE
  5
3f0
100
AcDbEntity
  8
0
 62
7
100
AcDbSpline
 70
8
 71
3
 72
8
 73
4
 74
0
 40
0
 40
0
 40
0
 40
0
 40
1
 40
1
 40
1
 40
1
 10
121.127210
 20
163.311196
 30
0.0
 10
121.127209
 20
163.045979
 30
0.0
 10
121.232566
 20
162.791625
 30
0.0
 10
121.420103
 20
162.604088
 30
0.0
  0
SPLINE
  5
3f1
100
AcDbEntity
  8
0
 62
7
100
AcDbSpline
 70
8
 71
3
 72
8
 73
4
 74
0
 40
0
 40
0
 40
0
 40
0
 40
1
 40
1
 40
1
 40
1
 10
121.420103
 20
162.604088
 30
0.0
 10
121.607639
 20
162.416551
 30
0.0
 10
121.861993
 20
162.311194
 30
0.0
 10
122.127210
 20
162.311194
 30
0.0
  0
SPLINE
  5
3f2
100
AcDbEntity
  8
0
 62
7
100
AcDbSpline
 70
8
 71
3
 72
8
 73
4
 74
0
 40
0
 40
0
 40
0
 40
0
 40
1
 40
1
 40
1
 40
1
 10
122.127210
 20
162.311194
 30
0.0
 10
122.392427
 20
162.311194
 30
0.0
 10
122.646781
 20
162.416551
 30
0.0
 10
122.834317
 20
162.604088
 30
0.0
  0
SPLINE
  5
3f3
100
AcDbEntity
  8
0
 62
7
100
AcDbSpline
 70
8
 71
3
 72
8
 73
4
 74
0
 40
0
 40
0
 40
0
 40
0
 40
1
 40
1
 40
1
 40
1
 10
122.834317
 20
162.604088
 30
0.0
 10
123.021854
 20
162.791625
 30
0.0
 10
123.127211
 20
163.045979
 30
0.0
 10
123.127210
 20
163.311196
 30
0.0
  0
LINE
  5
3f4
100
AcDbEntity
  8
0
 62
7
100
AcDbLine
 10
123.127210
 20
163.311196
 30
0.0
 11
123.127210
 21
163.311196
 31
0.0
  0
SPLINE
  5
3f5
100
AcDbEntity
  8
0
 62
7
100
AcDbSpline
 70
8
 71
3
 72
8
 73
4
 74
0
 40
0
 40
0
 40
0
 40
0
 40
1
 40
1
 40
1
 40
1
 10
127.104990
 20
163.606870
 30
0.0
 10
127.104990
 20
163.872086
 30
0.0
 10
126.999633
 20
164.126440
 30
0.0
 10
126.812097
 20
164.313977
 30
0.0
  0
SPLINE
  5
3f6
100
AcDbEntity
  8
0
 62
7
100
AcDbSpline
 70
8
 71
3
 72
8
 73
4
 74
0
 40
0
 40
0
 40
0
 40
0
 40
1
 40
1
 40
1
 40
1
 10
126.812097
 20
164.313977
 30
0.0
 10
126.624560
 20
164.501513
 30
0.0
 10
126.370206
 20
164.606870
 30
0.0
 10
126.104990
 20
164.606870
 30
0.0
  0
SPLINE
  5
3f7
100
AcDbEntity
  8
0
 62
7
100
AcDbSpline
 70
8
 71
3
 72
8
 73
4
 74
0
 40
0
 40
0
 40
0
 40
0
 40
1
 40
1
 40
1
 40
1
 10
126.104990
 20
164.606870
 30
0.0
 10
125.839774
 20
164.606870
 30
0.0
 10
125.585420
 20
164.501513
 30
0.0
 10
125.397883
 20
164.313977
 30
0.0
  0
SPLINE
  5
3f8
100
AcDbEntity
  8
0
 62
7
100
AcDbSpline
 70
8
 71
3
 72
8
 73
4
 74
0
 40
0
 40
0
 40
0
 40
0
 40
1
 40
1
 40
1
 40
1
 10
125.397883
 20
164.313977
 30
0.0
 10
125.210347
 20
164.126440
 30
0.0
 10
125.104990
 20
163.872086
 30
0.0
 10
125.104990
 20
163.606870
 30
0.0
  0
SPLINE
  5
3f9
100
AcDbEntity
  8
0
 62
7
100
AcDbSpline
 70
8
 71
3
 72
8
 73
4
 74
0
 40
0
 40
0
 40
0
 40
0
 40
1
 40
1
 40
1
 40
1
 10
125.104990
 20
163.606870
 30
0.0
 10
125.104989
 20
163.341653
 30
0.0
 10
125.210346
 20
163.087299
 30
0.0
 10
125.397883
 20
162.899762
 30
0.0
  0
SPLINE
  5
3fa
100
AcDbEntity
  8
0
 62
7
100
AcDbSpline
 70
8
 71
3
 72
8
 73
4
 74
0
 40
0
 40
0
 40
0
 40
0
 40
1
 40
1
 40
1
 40
1
 10
125.397883
 20
162.899762
 30
0.0
 10
125.585419
 20
162.712225
 30
0.0
 10
125.839773
 20
162.606868
 30
0.0
 10
126.104990
 20
162.606868
 30
0.0
  0
SPLINE
  5
3fb
100
AcDbEntity
  8
0
 62
7
100
AcDbSpline
 70
8
 71
3
 72
8
 73
4
 74
0
 40
0
 40
0
 40
0
 40
0
 40
1
 40
1
 40
1
 40
1
 10
126.104990
 20
162.606868
 30
0.0
 10
126.370207
 20
162.606868
 30
0.0
 10
126.624561
 20
162.712225
 30
0.0
 10
126.812097
 20
162.899762
 30
0.0
  0
SPLINE
  5
3fc
100
AcDbEntity
  8
0
 62
7
100
AcDbSpline
 70
8
 71
3
 72
8
 73
4
 74
0
 40
0
 40
0
 40
0
 40
0
 40
1
 40
1
 40
1
 40
1
 10
126.812097
 20
162.899762
 30
0.0
 10
126.999634
 20
163.087299
 30
0.0
 10
127.104991
 20
163.341653
 30
0.0
 10
127.104990
 20
163.606870
 30
0.0
  0
LINE
  5
3fd
100
AcDbEntity
  8
0
 62
7
100
AcDbLine
 10
127.104990
 20
163.606870
 30
0.0
 11
127.104990
 21
163.606870
 31
0.0
  0
SPLINE
  5
3fe
100
AcDbEntity
  8
0
 62
7
100
AcDbSpline
 70
8
 71
3
 72
8
 73
4
 74
0
 40
0
 40
0
 40
0
 40
0
 40
1
 40
1
 40
1
 40
1
 10
131.032270
 20
162.909142
 30
0.0
 10
131.032270
 20
163.174358
 30
0.0
 10
130.926913
 20
163.428712
 30
0.0
 10
130.739377
 20
163.616249
 30
0.0
  0
SPLINE
  5
3ff
100
AcDbEntity
  8
0
 62
7
100
AcDbSpline
 70
8
 71
3
 72
8
 73
4
 74
0
 40
0
 40
0
 40
0
 40
0
 40
1
 40
1
 40
1
 40
1
 10
130.739377
 20
163.616249
 30
0.0
 10
130.551840
 20
163.803785
 30
0.0
 10
130.297486
 20
163.909142
 30
0.0
 10
130.032270
 20
163.909142
 30
0.0
  0
SPLINE
  5
400
100
AcDbEntity
  8
0
 62
7
100
AcDbSpline
 70
8
 71
3
 72
8
 73
4
 74
0
 40
0
 40
0
 40
0
 40
0
 40
1
 40
1
 40
1
 40
1
 10
130.032270
 20
163.909142
 30
0.0
 10
129.767054
 20
163.909142
 30
0.0
 10
129.512700
 20
163.803785
 30
0.0
 10
129.325163
 20
163.616249
 30
0.0
  0
SPLINE
  5
401
100
AcDbEntity
  8
0
 62
7
100
AcDbSpline
 70
8
 71
3
 72
8
 73
4
 74
0
 40
0
 40
0
 40
0
 40
0
 40
1
 40
1
 40
1
 40
1
 10
129.325163
 20
163.616249
 30
0.0
 10
129.137627
 20
163.428712
 30
0.0
 10
129.032270
 20
163.174358
 30
0.0
 10
129.032270
 20
162.909142
 30
0.0
  0
SPLINE
  5
402
100
AcDbEntity
  8
0
 62
7
100
AcDbSpline
 70
8
 71
3
 72
8
 73
4
 74
0
 40
0
 40
0
 40
0
 40
0
 40
1
 40
1
 40
1
 40
1
 10
129.032270
 20
162.909142
 30
0.0
 10
129.032269
 20
162.643925
 30
0.0
 10
129.137626
 20
162.389571
 30
0.0
 10
129.325163
 20
162.202034
 30
0.0
  0
SPLINE
  5
403
100
AcDbEntity
  8
0
 62
7
100
AcDbSpline
 70
8
 71
3
 72
8
 73
4
 74
0
 40
0
 40
0
 40
0
 40
0
 40
1
 40
1
 40
1
 40
1
 10
129.325163
 20
162.202034
 30
0.0
 10
129.512699
 20
162.014497
 30
0.0
 10
129.767053
 20
161.909140
 30
0.0
 10
130.032270
 20
161.909140
 30
0.0
  0
SPLINE
  5
404
100
AcDbEntity
  8
0
 62
7
100
AcDbSpline
 70
8
 71
3
 72
8
 73
4
 74
0
 40
0
 40
0
 40
0
 40
0
 40
1
 40
1
 40
1
 40
1
 10
130.032270
 20
161.909140
 30
0.0
 10
130.297487
 20
161.909140
 30
0.0
 10
130.551841
 20
162.014497
 30
0.0
 10
130.739377
 20
162.202034
 30
0.0
  0
SPLINE
  5
405
100
AcDbEntity
  8
0
 62
7
100
AcDbSpline
 70
8
 71
3
 72
8
 73
4
 74
0
 40
0
 40
0
 40
0
 40
0
 40
1
 40
1
 40
1
 40
1
 10
130.739377
 20
162.202034
 30
0.0
 10
130.926914
 20
162.389571
 30
0.0
 10
131.032271
 20
162.643925
 30
0.0
 10
131.032270
 20
162.909142
 30
0.0
  0
LINE
  5
406
100
AcDbEntity
  8
0
 62
7
100
AcDbLine
 10
131.032270
 20
162.909142
 30
0.0
 11
131.032270
 21
162.909142
 31
0.0
  0
SPLINE
  5
407
100
AcDbEntity
  8
0
 62
7
100
AcDbSpline
 70
8
 71
3
 72
8
 73
4
 74
0
 40
0
 40
0
 40
0
 40
0
 40
1
 40
1
 40
1
 40
1
 10
134.664870
 20
161.262274
 30
0.0
 10
134.664870
 20
161.527490
 30
0.0
 10
134.559513
 20
161.781844
 30
0.0
 10
134.371977
 20
161.969381
 30
0.0
  0
SPLINE
  5
408
100
AcDbEntity
  8
0
 62
7
100
AcDbSpline
 70
8
 71
3
 72
8
 73
4
 74
0
 40
0
 40
0
 40
0
 40
0
 40
1
 40
1
 40
1
 40
1
 10
134.371977
 20
161.969381
 30
0.0
 10
134.184440
 20
162.156917
 30
0.0
 10
133.930086
 20
162.262274
 30
0.0
 10
133.664870
 20
162.262274
 30
0.0
  0
SPLINE
  5
409
100
AcDbEntity
  8
0
 62
7
100
AcDbSpline
 70
8
 71
3
 72
8
 73
4
 74
0
 40
0
 40
0
 40
0
 40
0
 40
1
 40
1
 40
1
 40
1
 10
133.664870
 20
162.262274
 30
0.0
 10
133.399654
 20
162.262274
 30
0.0
 10
133.145300
 20
162.156917
 30
0.0
 10
132.957763
 20
161.969381
 30
0.0
  0
SPLINE
  5
40a
100
AcDbEntity
  8
0
 62
7
100
AcDbSpline
 70
8
 71
3
 72
8
 73
4
 74
0
 40
0
 40
0
 40
0
 40
0
 40
1
 40
1
 40
1
 40
1
 10
132.957763
 20
161.969381
 30
0.0
 10
132.770227
 20
161.781844
 30
0.0
 10
132.664870
 20
161.527490
 30
0.0
 10
132.664870
 20
161.262274
 30
0.0
  0
SPLINE
  5
40b
100
AcDbEntity
  8
0
 62
7
100
AcDbSpline
 70
8
 71
3
 72
8
 73
4
 74
0
 40
0
 40
0
 40
0
 40
0
 40
1
 40
1
 40
1
 40
1
 10
132.664870
 20
161.262274
 30
0.0
 10
132.664869
 20
160.997057
 30
0.0
 10
132.770226
 20
160.742703
 30
0.0
 10
132.957763
 20
160.555166
 30
0.0
  0
SPLINE
  5
40c
100
AcDbEntity
  8
0
 62
7
100
AcDbSpline
 70
8
 71
3
 72
8
 73
4
 74
0
 40
0
 40
0
 40
0
 40
0
 40
1
 40
1
 40
1
 40
1
 10
132.957763
 20
160.555166
 30
0.0
 10
133.145299
 20
160.367629
 30
0.0
 10
133.399653
 20
160.262272
 30
0.0
 10
133.664870
 20
160.262272
 30
0.0
  0
SPLINE
  5
40d
100
AcDbEntity
  8
0
 62
7
100
AcDbSpline
 70
8
 71
3
 72
8
 73
4
 74
0
 40
0
 40
0
 40
0
 40
0
 40
1
 40
1
 40
1
 40
1
 10
133.664870
 20
160.262272
 30
0.0
 10
133.930087
 20
160.262272
 30
0.0
 10
134.184441
 20
160.367629
 30
0.0
 10
134.371977
 20
160.555166
 30
0.0
  0
SPLINE
  5
40e
100
AcDbEntity
  8
0
 62
7
100
AcDbSpline
 70
8
 71
3
 72
8
 73
4
 74
0
 40
0
 40
0
 40
0
 40
0
 40
1
 40
1
 40
1
 40
1
 10
134.371977
 20
160.555166
 30
0.0
 10
134.559514
 20
160.742703
 30
0.0
 10
134.664871
 20
160.997057
 30
0.0
 10
134.664870
 20
161.262274
 30
0.0
  0
LINE
  5
40f
100
AcDbEntity
  8
0
 62
7
100
AcDbLine
 10
134.664870
 20
161.262274
 30
0.0
 11
134.664870
 21
161.262274
 31
0.0
  0
SPLINE
  5
410
100
AcDbEntity
  8
0
 62
7
100
AcDbSpline
 70
8
 71
3
 72
8
 73
4
 74
0
 40
0
 40
0
 40
0
 40
0
 40
1
 40
1
 40
1
 40
1
 10
137.760740
 20
158.747767
 30
0.0
 10
137.760740
 20
159.012983
 30
0.0
 10
137.655383
 20
159.267337
 30
0.0
 10
137.467847
 20
159.454874
 30
0.0
  0
SPLINE
  5
411
100
AcDbEntity
  8
0
 62
7
100
AcDbSpline
 70
8
 71
3
 72
8
 73
4
 74
0
 40
0
 40
0
 40
0
 40
0
 40
1
 40
1
 40
1
 40
1
 10
137.467847
 20
159.454874
 30
0.0
 10
137.280310
 20
159.642410
 30
0.0
 10
137.025956
 20
159.747767
 30
0.0
 10
136.760740
 20
159.747767
 30
0.0
  0
SPLINE
  5
412
100
AcDbEntity
  8
0
 62
7
100
AcDbSpline
 70
8
 71
3
 72
8
 73
4
 74
0
 40
0
 40
0
 40
0
 40
0
 40
1
 40
1
 40
1
 40
1
 10
136.760740
 20
159.747767
 30
0.0
 10
136.495524
 20
159.747767
 30
0.0
 10
136.241170
 20
159.642410
 30
0.0
 10
136.053633
 20
159.454874
 30
0.0
  0
SPLINE
  5
413
100
AcDbEntity
  8
0
 62
7
100
AcDbSpline
 70
8
 71
3
 72
8
 73
4
 74
0
 40
0
 40
0
 40
0
 40
0
 40
1
 40
1
 40
1
 40
1
 10
136.053633
 20
159.454874
 30
0.0
 10
135.866097
 20
159.267337
 30
0.0
 10
135.760740
 20
159.012983
 30
0.0
 10
135.760740
 20
158.747767
 30
0.0
  0
SPLINE
  5
414
100
AcDbEntity
  8
0
 62
7
100
AcDbSpline
 70
8
 71
3
 72
8
 73
4
 74
0
 40
0
 40
0
 40
0
 40
0
 40
1
 40
1
 40
1
 40
1
 10
135.760740
 20
158.747767
 30
0.0
 10
135.760739
 20
158.482550
 30
0.0
 10
135.866096
 20
158.228196
 30
0.0
 10
136.053633
 20
158.040659
 30
0.0
  0
SPLINE
  5
415
100
AcDbEntity
  8
0
 62
7
100
AcDbSpline
 70
8
 71
3
 72
8
 73
4
 74
0
 40
0
 40
0
 40
0
 40
0
 40
1
 40
1
 40
1
 40
1
 10
136.053633
 20
158.040659
 30
0.0
 10
136.241169
 20
157.853122
 30
0.0
 10
136.495523
 20
157.747765
 30
0.0
 10
136.760740
 20
157.747765
 30
0.0
  0
SPLINE
  5
416
100
AcDbEntity
  8
0
 62
7
100
AcDbSpline
 70
8
 71
3
 72
8
 73
4
 74
0
 40
0
 40
0
 40
0
 40
0
 40
1
 40
1
 40
1
 40
1
 10
136.760740
 20
157.747765
 30
0.0
 10
137.025957
 20
157.747765
 30
0.0
 10
137.280311
 20
157.853122
 30
0.0
 10
137.467847
 20
158.040659
 30
0.0
  0
SPLINE
  5
417
100
AcDbEntity
  8
0
 62
7
100
AcDbSpline
 70
8
 71
3
 72
8
 73
4
 74
0
 40
0
 40
0
 40
0
 40
0
 40
1
 40
1
 40
1
 40
1
 10
137.467847
 20
158.040659
 30
0.0
 10
137.655384
 20
158.228196
 30
0.0
 10
137.760741
 20
158.482550
 30
0.0
 10
137.760740
 20
158.747767
 30
0.0
  0
LINE
  5
418
100
AcDbEntity
  8
0
 62
7
100
AcDbLine
 10
137.760740
 20
158.747767
 30
0.0
 11
137.760740
 21
158.747767
 31
0.0
  0
SPLINE
  5
419
100
AcDbEntity
  8
0
 62
7
100
AcDbSpline
 70
8
 71
3
 72
8
 73
4
 74
0
 40
0
 40
0
 40
0
 40
0
 40
1
 40
1
 40
1
 40
1
 10
140.106080
 20
155.521282
 30
0.0
 10
140.106080
 20
155.786498
 30
0.0
 10
140.000723
 20
156.040852
 30
0.0
 10
139.813187
 20
156.228389
 30
0.0
  0
SPLINE
  5
41a
100
AcDbEntity
  8
0
 62
7
100
AcDbSpline
 70
8
 71
3
 72
8
 73
4
 74
0
 40
0
 40
0
 40
0
 40
0
 40
1
 40
1
 40
1
 40
1
 10
139.813187
 20
156.228389
 30
0.0
 10
139.625650
 20
156.415925
 30
0.0
 10
139.371296
 20
156.521282
 30
0.0
 10
139.106080
 20
156.521282
 30
0.0
  0
SPLINE
  5
41b
100
AcDbEntity
  8
0
 62
7
100
AcDbSpline
 70
8
 71
3
 72
8
 73
4
 74
0
 40
0
 40
0
 40
0
 40
0
 40
1
 40
1
 40
1
 40
1
 10
139.106080
 20
156.521282
 30
0.0
 10
138.840864
 20
156.521282
 30
0.0
 10
138.586510
 20
156.415925
 30
0.0
 10
138.398973
 20
156.228389
 30
0.0
  0
SPLINE
  5
41c
100
AcDbEntity
  8
0
 62
7
100
AcDbSpline
 70
8
 71
3
 72
8
 73
4
 74
0
 40
0
 40
0
 40
0
 40
0
 40
1
 40
1
 40
1
 40
1
 10
138.398973
 20
156.228389
 30
0.0
 10
138.211437
 20
156.040852
 30
0.0
 10
138.106080
 20
155.786498
 30
0.0
 10
138.106080
 20
155.521282
 30
0.0
  0
SPLINE
  5
41d
100
AcDbEntity
  8
0
 62
7
100
AcDbSpline
 70
8
 71
3
 72
8
 73
4
 74
0
 40
0
 40
0
 40
0
 40
0
 40
1
 40
1
 40
1
 40
1
 10
138.106080
 20
155.521282
 30
0.0
 10
138.106079
 20
155.256065
 30
0.0
 10
138.211436
 20
155.001711
 30
0.0
 10
138.398973
 20
154.814174
 30
0.0
  0
SPLINE
  5
41e
100
AcDbEntity
  8
0
 62
7
100
AcDbSpline
 70
8
 71
3
 72
8
 73
4
 74
0
 40
0
 40
0
 40
0
 40
0
 40
1
 40
1
 40
1
 40
1
 10
138.398973
 20
154.814174
 30
0.0
 10
138.586509
 20
154.626637
 30
0.0
 10
138.840863
 20
154.521280
 30
0.0
 10
139.106080
 20
154.521280
 30
0.0
  0
SPLINE
  5
41f
100
AcDbEntity
  8
0
 62
7
100
AcDbSpline
 70
8
 71
3
 72
8
 73
4
 74
0
 40
0
 40
0
 40
0
 40
0
 40
1
 40
1
 40
1
 40
1
 10
139.106080
 20
154.521280
 30
0.0
 10
139.371297
 20
154.521280
 30
0.0
 10
139.625651
 20
154.626637
 30
0.0
 10
139.813187
 20
154.814174
 30
0.0
  0
SPLINE
  5
420
100
AcDbEntity
  8
0
 62
7
100
AcDbSpline
 70
8
 71
3
 72
8
 73
4
 74
0
 40
0
 40
0
 40
0
 40
0
 40
1
 40
1
 40
1
 40
1
 10
139.813187
 20
154.814174
 30
0.0
 10
140.000724
 20
155.001711
 30
0.0
 10
140.106081
 20
155.256065
 30
0.0
 10
140.106080
 20
155.521282
 30
0.0
  0
LINE
  5
421
100
AcDbEntity
  8
0
 62
7
100
AcDbLine
 10
140.106080
 20
155.521282
 30
0.0
 11
140.106080
 21
155.521282
 31
0.0
  0
SPLINE
  5
422
100
AcDbEntity
  8
0
 62
7
100
AcDbSpline
 70
8
 71
3
 72
8
 73
4
 74
0
 40
0
 40
0
 40
0
 40
0
 40
1
 40
1
 40
1
 40
1
 10
141.557690
 20
151.805682
 30
0.0
 10
141.557690
 20
152.070898
 30
0.0
 10
141.452333
 20
152.325252
 30
0.0
 10
141.264797
 20
152.512789
 30
0.0
  0
SPLINE
  5
423
100
AcDbEntity
  8
0
 62
7
100
AcDbSpline
 70
8
 71
3
 72
8
 73
4
 74
0
 40
0
 40
0
 40
0
 40
0
 40
1
 40
1
 40
1
 40
1
 10
141.264797
 20
152.512789
 30
0.0
 10
141.077260
 20
152.700325
 30
0.0
 10
140.822906
 20
152.805682
 30
0.0
 10
140.557690
 20
152.805682
 30
0.0
  0
SPLINE
  5
424
100
AcDbEntity
  8
0
 62
7
100
AcDbSpline
 70
8
 71
3
 72
8
 73
4
 74
0
 40
0
 40
0
 40
0
 40
0
 40
1
 40
1
 40
1
 40
1
 10
140.557690
 20
152.805682
 30
0.0
 10
140.292474
 20
152.805682
 30
0.0
 10
140.038120
 20
152.700325
 30
0.0
 10
139.850583
 20
152.512789
 30
0.0
  0
SPLINE
  5
425
100
AcDbEntity
  8
0
 62
7
100
AcDbSpline
 70
8
 71
3
 72
8
 73
4
 74
0
 40
0
 40
0
 40
0
 40
0
 40
1
 40
1
 40
1
 40
1
 10
139.850583
 20
152.512789
 30
0.0
 10
139.663047
 20
152.325252
 30
0.0
 10
139.557690
 20
152.070898
 30
0.0
 10
139.557690
 20
151.805682
 30
0.0
  0
SPLINE
  5
426
100
AcDbEntity
  8
0
 62
7
100
AcDbSpline
 70
8
 71
3
 72
8
 73
4
 74
0
 40
0
 40
0
 40
0
 40
0
 40
1
 40
1
 40
1
 40
1
 10
139.557690
 20
151.805682
 30
0.0
 10
139.557689
 20
151.540465
 30
0.0
 10
139.663046
 20
151.286111
 30
0.0
 10
139.850583
 20
151.098574
 30
0.0
  0
SPLINE
  5
427
100
AcDbEntity
  8
0
 62
7
100
AcDbSpline
 70
8
 71
3
 72
8
 73
4
 74
0
 40
0
 40
0
 40
0
 40
0
 40
1
 40
1
 40
1
 40
1
 10
139.850583
 20
151.098574
 30
0.0
 10
140.038119
 20
150.911037
 30
0.0
 10
140.292473
 20
150.805680
 30
0.0
 10
140.557690
 20
150.805680
 30
0.0
  0
SPLINE
  5
428
100
AcDbEntity
  8
0
 62
7
100
AcDbSpline
 70
8
 71
3
 72
8
 73
4
 74
0
 40
0
 40
0
 40
0
 40
0
 40
1
 40
1
 40
1
 40
1
 10
140.557690
 20
150.805680
 30
0.0
 10
140.822907
 20
150.805680
 30
0.0
 10
141.077261
 20
150.911037
 30
0.0
 10
141.264797
 20
151.098574
 30
0.0
  0
SPLINE
  5
429
100
AcDbEntity
  8
0
 62
7
100
AcDbSpline
 70
8
 71
3
 72
8
 73
4
 74
0
 40
0
 40
0
 40
0
 40
0
 40
1
 40
1
 40
1
 40
1
 10
141.264797
 20
151.098574
 30
0.0
 10
141.452334
 20
151.286111
 30
0.0
 10
141.557691
 20
151.540465
 30
0.0
 10
141.557690
 20
151.805682
 30
0.0
  0
LINE
  5
42a
100
AcDbEntity
  8
0
 62
7
100
AcDbLine
 10
141.557690
 20
151.805682
 30
0.0
 11
141.557690
 21
151.805682
 31
0.0
  0
SPLINE
  5
42b
100
AcDbEntity
  8
0
 62
7
100
AcDbSpline
 70
8
 71
3
 72
8
 73
4
 74
0
 40
0
 40
0
 40
0
 40
0
 40
1
 40
1
 40
1
 40
1
 10
142.044160
 20
147.845758
 30
0.0
 10
142.044160
 20
148.110974
 30
0.0
 10
141.938803
 20
148.365328
 30
0.0
 10
141.751267
 20
148.552865
 30
0.0
  0
SPLINE
  5
42c
100
AcDbEntity
  8
0
 62
7
100
AcDbSpline
 70
8
 71
3
 72
8
 73
4
 74
0
 40
0
 40
0
 40
0
 40
0
 40
1
 40
1
 40
1
 40
1
 10
141.751267
 20
148.552865
 30
0.0
 10
141.563730
 20
148.740401
 30
0.0
 10
141.309376
 20
148.845758
 30
0.0
 10
141.044160
 20
148.845758
 30
0.0
  0
SPLINE
  5
42d
100
AcDbEntity
  8
0
 62
7
100
AcDbSpline
 70
8
 71
3
 72
8
 73
4
 74
0
 40
0
 40
0
 40
0
 40
0
 40
1
 40
1
 40
1
 40
1
 10
141.044160
 20
148.845758
 30
0.0
 10
140.778944
 20
148.845758
 30
0.0
 10
140.524590
 20
148.740401
 30
0.0
 10
140.337053
 20
148.552865
 30
0.0
  0
SPLINE
  5
42e
100
AcDbEntity
  8
0
 62
7
100
AcDbSpline
 70
8
 71
3
 72
8
 73
4
 74
0
 40
0
 40
0
 40
0
 40
0
 40
1
 40
1
 40
1
 40
1
 10
140.337053
 20
148.552865
 30
0.0
 10
140.149517
 20
148.365328
 30
0.0
 10
140.044160
 20
148.110974
 30
0.0
 10
140.044160
 20
147.845758
 30
0.0
  0
SPLINE
  5
42f
100
AcDbEntity
  8
0
 62
7
100
AcDbSpline
 70
8
 71
3
 72
8
 73
4
 74
0
 40
0
 40
0
 40
0
 40
0
 40
1
 40
1
 40
1
 40
1
 10
140.044160
 20
147.845758
 30
0.0
 10
140.044159
 20
147.580541
 30
0.0
 10
140.149516
 20
147.326187
 30
0.0
 10
140.337053
 20
147.138650
 30
0.0
  0
SPLINE
  5
430
100
AcDbEntity
  8
0
 62
7
100
AcDbSpline
 70
8
 71
3
 72
8
 73
4
 74
0
 40
0
 40
0
 40
0
 40
0
 40
1
 40
1
 40
1
 40
1
 10
140.337053
 20
147.138650
 30
0.0
 10
140.524589
 20
146.951113
 30
0.0
 10
140.778943
 20
146.845756
 30
0.0
 10
141.044160
 20
146.845756
 30
0.0
  0
SPLINE
  5
431
100
AcDbEntity
  8
0
 62
7
100
AcDbSpline
 70
8
 71
3
 72
8
 73
4
 74
0
 40
0
 40
0
 40
0
 40
0
 40
1
 40
1
 40
1
 40
1
 10
141.044160
 20
146.845756
 30
0.0
 10
141.309377
 20
146.845756
 30
0.0
 10
141.563731
 20
146.951113
 30
0.0
 10
141.751267
 20
147.138650
 30
0.0
  0
SPLINE
  5
432
100
AcDbEntity
  8
0
 62
7
100
AcDbSpline
 70
8
 71
3
 72
8
 73
4
 74
0
 40
0
 40
0
 40
0
 40
0
 40
1
 40
1
 40
1
 40
1
 10
141.751267
 20
147.138650
 30
0.0
 10
141.938804
 20
147.326187
 30
0.0
 10
142.044161
 20
147.580541
 30
0.0
 10
142.044160
 20
147.845758
 30
0.0
  0
LINE
  5
433
100
AcDbEntity
  8
0
 62
7
100
AcDbLine
 10
142.044160
 20
147.845758
 30
0.0
 11
142.044160
 21
147.845758
 31
0.0
  0
SPLINE
  5
434
100
AcDbEntity
  8
0
 62
7
100
AcDbSpline
 70
8
 71
3
 72
8
 73
4
 74
0
 40
0
 40
0
 40
0
 40
0
 40
1
 40
1
 40
1
 40
1
 10
141.567710
 20
143.884569
 30
0.0
 10
141.567710
 20
144.149785
 30
0.0
 10
141.462353
 20
144.404139
 30
0.0
 10
141.274817
 20
144.591676
 30
0.0
  0
SPLINE
  5
435
100
AcDbEntity
  8
0
 62
7
100
AcDbSpline
 70
8
 71
3
 72
8
 73
4
 74
0
 40
0
 40
0
 40
0
 40
0
 40
1
 40
1
 40
1
 40
1
 10
141.274817
 20
144.591676
 30
0.0
 10
141.087280
 20
144.779212
 30
0.0
 10
140.832926
 20
144.884569
 30
0.0
 10
140.567710
 20
144.884569
 30
0.0
  0
SPLINE
  5
436
100
AcDbEntity
  8
0
 62
7
100
AcDbSpline
 70
8
 71
3
 72
8
 73
4
 74
0
 40
0
 40
0
 40
0
 40
0
 40
1
 40
1
 40
1
 40
1
 10
140.567710
 20
144.884569
 30
0.0
 10
140.302494
 20
144.884569
 30
0.0
 10
140.048140
 20
144.779212
 30
0.0
 10
139.860603
 20
144.591676
 30
0.0
  0
SPLINE
  5
437
100
AcDbEntity
  8
0
 62
7
100
AcDbSpline
 70
8
 71
3
 72
8
 73
4
 74
0
 40
0
 40
0
 40
0
 40
0
 40
1
 40
1
 40
1
 40
1
 10
139.860603
 20
144.591676
 30
0.0
 10
139.673067
 20
144.404139
 30
0.0
 10
139.567710
 20
144.149785
 30
0.0
 10
139.567710
 20
143.884569
 30
0.0
  0
SPLINE
  5
438
100
AcDbEntity
  8
0
 62
7
100
AcDbSpline
 70
8
 71
3
 72
8
 73
4
 74
0
 40
0
 40
0
 40
0
 40
0
 40
1
 40
1
 40
1
 40
1
 10
139.567710
 20
143.884569
 30
0.0
 10
139.567709
 20
143.619352
 30
0.0
 10
139.673066
 20
143.364998
 30
0.0
 10
139.860603
 20
143.177461
 30
0.0
  0
SPLINE
  5
439
100
AcDbEntity
  8
0
 62
7
100
AcDbSpline
 70
8
 71
3
 72
8
 73
4
 74
0
 40
0
 40
0
 40
0
 40
0
 40
1
 40
1
 40
1
 40
1
 10
139.860603
 20
143.177461
 30
0.0
 10
140.048139
 20
142.989924
 30
0.0
 10
140.302493
 20
142.884567
 30
0.0
 10
140.567710
 20
142.884567
 30
0.0
  0
SPLINE
  5
43a
100
AcDbEntity
  8
0
 62
7
100
AcDbSpline
 70
8
 71
3
 72
8
 73
4
 74
0
 40
0
 40
0
 40
0
 40
0
 40
1
 40
1
 40
1
 40
1
 10
140.567710
 20
142.884567
 30
0.0
 10
140.832927
 20
142.884567
 30
0.0
 10
141.087281
 20
142.989924
 30
0.0
 10
141.274817
 20
143.177461
 30
0.0
  0
SPLINE
  5
43b
100
AcDbEntity
  8
0
 62
7
100
AcDbSpline
 70
8
 71
3
 72
8
 73
4
 74
0
 40
0
 40
0
 40
0
 40
0
 40
1
 40
1
 40
1
 40
1
 10
141.274817
 20
143.177461
 30
0.0
 10
141.462354
 20
143.364998
 30
0.0
 10
141.567711
 20
143.619352
 30
0.0
 10
141.567710
 20
143.884569
 30
0.0
  0
LINE
  5
43c
100
AcDbEntity
  8
0
 62
7
100
AcDbLine
 10
141.567710
 20
143.884569
 30
0.0
 11
141.567710
 21
143.884569
 31
0.0
  0
SPLINE
  5
43d
100
AcDbEntity
  8
0
 62
7
100
AcDbSpline
 70
8
 71
3
 72
8
 73
4
 74
0
 40
0
 40
0
 40
0
 40
0
 40
1
 40
1
 40
1
 40
1
 10
140.161520
 20
140.151349
 30
0.0
 10
140.161520
 20
140.416565
 30
0.0
 10
140.056163
 20
140.670919
 30
0.0
 10
139.868627
 20
140.858456
 30
0.0
  0
SPLINE
  5
43e
100
AcDbEntity
  8
0
 62
7
100
AcDbSpline
 70
8
 71
3
 72
8
 73
4
 74
0
 40
0
 40
0
 40
0
 40
0
 40
1
 40
1
 40
1
 40
1
 10
139.868627
 20
140.858456
 30
0.0
 10
139.681090
 20
141.045992
 30
0.0
 10
139.426736
 20
141.151349
 30
0.0
 10
139.161520
 20
141.151349
 30
0.0
  0
SPLINE
  5
43f
100
AcDbEntity
  8
0
 62
7
100
AcDbSpline
 70
8
 71
3
 72
8
 73
4
 74
0
 40
0
 40
0
 40
0
 40
0
 40
1
 40
1
 40
1
 40
1
 10
139.161520
 20
141.151349
 30
0.0
 10
138.896304
 20
141.151349
 30
0.0
 10
138.641950
 20
141.045992
 30
0.0
 10
138.454413
 20
140.858456
 30
0.0
  0
SPLINE
  5
440
100
AcDbEntity
  8
0
 62
7
100
AcDbSpline
 70
8
 71
3
 72
8
 73
4
 74
0
 40
0
 40
0
 40
0
 40
0
 40
1
 40
1
 40
1
 40
1
 10
138.454413
 20
140.858456
 30
0.0
 10
138.266877
 20
140.670919
 30
0.0
 10
138.161520
 20
140.416565
 30
0.0
 10
138.161520
 20
140.151349
 30
0.0
  0
SPLINE
  5
441
100
AcDbEntity
  8
0
 62
7
100
AcDbSpline
 70
8
 71
3
 72
8
 73
4
 74
0
 40
0
 40
0
 40
0
 40
0
 40
1
 40
1
 40
1
 40
1
 10
138.161520
 20
140.151349
 30
0.0
 10
138.161519
 20
139.886132
 30
0.0
 10
138.266876
 20
139.631778
 30
0.0
 10
138.454413
 20
139.444241
 30
0.0
  0
SPLINE
  5
442
100
AcDbEntity
  8
0
 62
7
100
AcDbSpline
 70
8
 71
3
 72
8
 73
4
 74
0
 40
0
 40
0
 40
0
 40
0
 40
1
 40
1
 40
1
 40
1
 10
138.454413
 20
139.444241
 30
0.0
 10
138.641949
 20
139.256704
 30
0.0
 10
138.896303
 20
139.151347
 30
0.0
 10
139.161520
 20
139.151347
 30
0.0
  0
SPLINE
  5
443
100
AcDbEntity
  8
0
 62
7
100
AcDbSpline
 70
8
 71
3
 72
8
 73
4
 74
0
 40
0
 40
0
 40
0
 40
0
 40
1
 40
1
 40
1
 40
1
 10
139.161520
 20
139.151347
 30
0.0
 10
139.426737
 20
139.151347
 30
0.0
 10
139.681091
 20
139.256704
 30
0.0
 10
139.868627
 20
139.444241
 30
0.0
  0
SPLINE
  5
444
100
AcDbEntity
  8
0
 62
7
100
AcDbSpline
 70
8
 71
3
 72
8
 73
4
 74
0
 40
0
 40
0
 40
0
 40
0
 40
1
 40
1
 40
1
 40
1
 10
139.868627
 20
139.444241
 30
0.0
 10
140.056164
 20
139.631778
 30
0.0
 10
140.161521
 20
139.886132
 30
0.0
 10
140.161520
 20
140.151349
 30
0.0
  0
LINE
  5
445
100
AcDbEntity
  8
0
 62
7
100
AcDbLine
 10
140.161520
 20
140.151349
 30
0.0
 11
140.161520
 21
140.151349
 31
0.0
  0
SPLINE
  5
446
100
AcDbEntity
  8
0
 62
7
100
AcDbSpline
 70
8
 71
3
 72
8
 73
4
 74
0
 40
0
 40
0
 40
0
 40
0
 40
1
 40
1
 40
1
 40
1
 10
137.890670
 20
136.872367
 30
0.0
 10
137.890670
 20
137.137583
 30
0.0
 10
137.785313
 20
137.391937
 30
0.0
 10
137.597777
 20
137.579474
 30
0.0
  0
SPLINE
  5
447
100
AcDbEntity
  8
0
 62
7
100
AcDbSpline
 70
8
 71
3
 72
8
 73
4
 74
0
 40
0
 40
0
 40
0
 40
0
 40
1
 40
1
 40
1
 40
1
 10
137.597777
 20
137.579474
 30
0.0
 10
137.410240
 20
137.767010
 30
0.0
 10
137.155886
 20
137.872367
 30
0.0
 10
136.890670
 20
137.872367
 30
0.0
  0
SPLINE
  5
448
100
AcDbEntity
  8
0
 62
7
100
AcDbSpline
 70
8
 71
3
 72
8
 73
4
 74
0
 40
0
 40
0
 40
0
 40
0
 40
1
 40
1
 40
1
 40
1
 10
136.890670
 20
137.872367
 30
0.0
 10
136.625454
 20
137.872367
 30
0.0
 10
136.371100
 20
137.767010
 30
0.0
 10
136.183563
 20
137.579474
 30
0.0
  0
SPLINE
  5
449
100
AcDbEntity
  8
0
 62
7
100
AcDbSpline
 70
8
 71
3
 72
8
 73
4
 74
0
 40
0
 40
0
 40
0
 40
0
 40
1
 40
1
 40
1
 40
1
 10
136.183563
 20
137.579474
 30
0.0
 10
135.996027
 20
137.391937
 30
0.0
 10
135.890670
 20
137.137583
 30
0.0
 10
135.890670
 20
136.872367
 30
0.0
  0
SPLINE
  5
44a
100
AcDbEntity
  8
0
 62
7
100
AcDbSpline
 70
8
 71
3
 72
8
 73
4
 74
0
 40
0
 40
0
 40
0
 40
0
 40
1
 40
1
 40
1
 40
1
 10
135.890670
 20
136.872367
 30
0.0
 10
135.890669
 20
136.607150
 30
0.0
 10
135.996026
 20
136.352796
 30
0.0
 10
136.183563
 20
136.165259
 30
0.0
  0
SPLINE
  5
44b
100
AcDbEntity
  8
0
 62
7
100
AcDbSpline
 70
8
 71
3
 72
8
 73
4
 74
0
 40
0
 40
0
 40
0
 40
0
 40
1
 40
1
 40
1
 40
1
 10
136.183563
 20
136.165259
 30
0.0
 10
136.371099
 20
135.977722
 30
0.0
 10
136.625453
 20
135.872365
 30
0.0
 10
136.890670
 20
135.872365
 30
0.0
  0
SPLINE
  5
44c
100
AcDbEntity
  8
0
 62
7
100
AcDbSpline
 70
8
 71
3
 72
8
 73
4
 74
0
 40
0
 40
0
 40
0
 40
0
 40
1
 40
1
 40
1
 40
1
 10
136.890670
 20
135.872365
 30
0.0
 10
137.155887
 20
135.872365
 30
0.0
 10
137.410241
 20
135.977722
 30
0.0
 10
137.597777
 20
136.165259
 30
0.0
  0
SPLINE
  5
44d
100
AcDbEntity
  8
0
 62
7
100
AcDbSpline
 70
8
 71
3
 72
8
 73
4
 74
0
 40
0
 40
0
 40
0
 40
0
 40
1
 40
1
 40
1
 40
1
 10
137.597777
 20
136.165259
 30
0.0
 10
137.785314
 20
136.352796
 30
0.0
 10
137.890671
 20
136.607150
 30
0.0
 10
137.890670
 20
136.872367
 30
0.0
  0
LINE
  5
44e
100
AcDbEntity
  8
0
 62
7
100
AcDbLine
 10
137.890670
 20
136.872367
 30
0.0
 11
137.890670
 21
136.872367
 31
0.0
  0
SPLINE
  5
44f
100
AcDbEntity
  8
0
 62
7
100
AcDbSpline
 70
8
 71
3
 72
8
 73
4
 74
0
 40
0
 40
0
 40
0
 40
0
 40
1
 40
1
 40
1
 40
1
 10
134.874060
 20
134.264936
 30
0.0
 10
134.874060
 20
134.530152
 30
0.0
 10
134.768703
 20
134.784506
 30
0.0
 10
134.581167
 20
134.972043
 30
0.0
  0
SPLINE
  5
450
100
AcDbEntity
  8
0
 62
7
100
AcDbSpline
 70
8
 71
3
 72
8
 73
4
 74
0
 40
0
 40
0
 40
0
 40
0
 40
1
 40
1
 40
1
 40
1
 10
134.581167
 20
134.972043
 30
0.0
 10
134.393630
 20
135.159579
 30
0.0
 10
134.139276
 20
135.264936
 30
0.0
 10
133.874060
 20
135.264936
 30
0.0
  0
SPLINE
  5
451
100
AcDbEntity
  8
0
 62
7
100
AcDbSpline
 70
8
 71
3
 72
8
 73
4
 74
0
 40
0
 40
0
 40
0
 40
0
 40
1
 40
1
 40
1
 40
1
 10
133.874060
 20
135.264936
 30
0.0
 10
133.608844
 20
135.264936
 30
0.0
 10
133.354490
 20
135.159579
 30
0.0
 10
133.166953
 20
134.972043
 30
0.0
  0
SPLINE
  5
452
100
AcDbEntity
  8
0
 62
7
100
AcDbSpline
 70
8
 71
3
 72
8
 73
4
 74
0
 40
0
 40
0
 40
0
 40
0
 40
1
 40
1
 40
1
 40
1
 10
133.166953
 20
134.972043
 30
0.0
 10
132.979417
 20
134.784506
 30
0.0
 10
132.874060
 20
134.530152
 30
0.0
 10
132.874060
 20
134.264936
 30
0.0
  0
SPLINE
  5
453
100
AcDbEntity
  8
0
 62
7
100
AcDbSpline
 70
8
 71
3
 72
8
 73
4
 74
0
 40
0
 40
0
 40
0
 40
0
 40
1
 40
1
 40
1
 40
1
 10
132.874060
 20
134.264936
 30
0.0
 10
132.874059
 20
133.999719
 30
0.0
 10
132.979416
 20
133.745365
 30
0.0
 10
133.166953
 20
133.557828
 30
0.0
  0
SPLINE
  5
454
100
AcDbEntity
  8
0
 62
7
100
AcDbSpline
 70
8
 71
3
 72
8
 73
4
 74
0
 40
0
 40
0
 40
0
 40
0
 40
1
 40
1
 40
1
 40
1
 10
133.166953
 20
133.557828
 30
0.0
 10
133.354489
 20
133.370291
 30
0.0
 10
133.608843
 20
133.264934
 30
0.0
 10
133.874060
 20
133.264934
 30
0.0
  0
SPLINE
  5
455
100
AcDbEntity
  8
0
 62
7
100
AcDbSpline
 70
8
 71
3
 72
8
 73
4
 74
0
 40
0
 40
0
 40
0
 40
0
 40
1
 40
1
 40
1
 40
1
 10
133.874060
 20
133.264934
 30
0.0
 10
134.139277
 20
133.264934
 30
0.0
 10
134.393631
 20
133.370291
 30
0.0
 10
134.581167
 20
133.557828
 30
0.0
  0
SPLINE
  5
456
100
AcDbEntity
  8
0
 62
7
100
AcDbSpline
 70
8
 71
3
 72
8
 73
4
 74
0
 40
0
 40
0
 40
0
 40
0
 40
1
 40
1
 40
1
 40
1
 10
134.581167
 20
133.557828
 30
0.0
 10
134.768704
 20
133.745365
 30
0.0
 10
134.874061
 20
133.999719
 30
0.0
 10
134.874060
 20
134.264936
 30
0.0
  0
LINE
  5
457
100
AcDbEntity
  8
0
 62
7
100
AcDbLine
 10
134.874060
 20
134.264936
 30
0.0
 11
134.874060
 21
134.264936
 31
0.0
  0
SPLINE
  5
458
100
AcDbEntity
  8
0
 62
7
100
AcDbSpline
 70
8
 71
3
 72
8
 73
4
 74
0
 40
0
 40
0
 40
0
 40
0
 40
1
 40
1
 40
1
 40
1
 10
131.314730
 20
132.468532
 30
0.0
 10
131.314730
 20
132.733748
 30
0.0
 10
131.209373
 20
132.988102
 30
0.0
 10
131.021837
 20
133.175639
 30
0.0
  0
SPLINE
  5
459
100
AcDbEntity
  8
0
 62
7
100
AcDbSpline
 70
8
 71
3
 72
8
 73
4
 74
0
 40
0
 40
0
 40
0
 40
0
 40
1
 40
1
 40
1
 40
1
 10
131.021837
 20
133.175639
 30
0.0
 10
130.834300
 20
133.363175
 30
0.0
 10
130.579946
 20
133.468532
 30
0.0
 10
130.314730
 20
133.468532
 30
0.0
  0
SPLINE
  5
45a
100
AcDbEntity
  8
0
 62
7
100
AcDbSpline
 70
8
 71
3
 72
8
 73
4
 74
0
 40
0
 40
0
 40
0
 40
0
 40
1
 40
1
 40
1
 40
1
 10
130.314730
 20
133.468532
 30
0.0
 10
130.049514
 20
133.468532
 30
0.0
 10
129.795160
 20
133.363175
 30
0.0
 10
129.607623
 20
133.175639
 30
0.0
  0
SPLINE
  5
45b
100
AcDbEntity
  8
0
 62
7
100
AcDbSpline
 70
8
 71
3
 72
8
 73
4
 74
0
 40
0
 40
0
 40
0
 40
0
 40
1
 40
1
 40
1
 40
1
 10
129.607623
 20
133.175639
 30
0.0
 10
129.420087
 20
132.988102
 30
0.0
 10
129.314730
 20
132.733748
 30
0.0
 10
129.314730
 20
132.468532
 30
0.0
  0
SPLINE
  5
45c
100
AcDbEntity
  8
0
 62
7
100
AcDbSpline
 70
8
 71
3
 72
8
 73
4
 74
0
 40
0
 40
0
 40
0
 40
0
 40
1
 40
1
 40
1
 40
1
 10
129.314730
 20
132.468532
 30
0.0
 10
129.314729
 20
132.203315
 30
0.0
 10
129.420086
 20
131.948961
 30
0.0
 10
129.607623
 20
131.761424
 30
0.0
  0
SPLINE
  5
45d
100
AcDbEntity
  8
0
 62
7
100
AcDbSpline
 70
8
 71
3
 72
8
 73
4
 74
0
 40
0
 40
0
 40
0
 40
0
 40
1
 40
1
 40
1
 40
1
 10
129.607623
 20
131.761424
 30
0.0
 10
129.795159
 20
131.573887
 30
0.0
 10
130.049513
 20
131.468530
 30
0.0
 10
130.314730
 20
131.468530
 30
0.0
  0
SPLINE
  5
45e
100
AcDbEntity
  8
0
 62
7
100
AcDbSpline
 70
8
 71
3
 72
8
 73
4
 74
0
 40
0
 40
0
 40
0
 40
0
 40
1
 40
1
 40
1
 40
1
 10
130.314730
 20
131.468530
 30
0.0
 10
130.579947
 20
131.468530
 30
0.0
 10
130.834301
 20
131.573887
 30
0.0
 10
131.021837
 20
131.761424
 30
0.0
  0
SPLINE
  5
45f
100
AcDbEntity
  8
0
 62
7
100
AcDbSpline
 70
8
 71
3
 72
8
 73
4
 74
0
 40
0
 40
0
 40
0
 40
0
 40
1
 40
1
 40
1
 40
1
 10
131.021837
 20
131.761424
 30
0.0
 10
131.209374
 20
131.948961
 30
0.0
 10
131.314731
 20
132.203315
 30
0.0
 10
131.314730
 20
132.468532
 30
0.0
  0
LINE
  5
460
100
AcDbEntity
  8
0
 62
7
100
AcDbLine
 10
131.314730
 20
132.468532
 30
0.0
 11
131.314730
 21
132.468532
 31
0.0
  0
SPLINE
  5
461
100
AcDbEntity
  8
0
 62
7
100
AcDbSpline
 70
8
 71
3
 72
8
 73
4
 74
0
 40
0
 40
0
 40
0
 40
0
 40
1
 40
1
 40
1
 40
1
 10
127.429150
 20
131.571606
 30
0.0
 10
127.429150
 20
131.836822
 30
0.0
 10
127.323793
 20
132.091176
 30
0.0
 10
127.136257
 20
132.278713
 30
0.0
  0
SPLINE
  5
462
100
AcDbEntity
  8
0
 62
7
100
AcDbSpline
 70
8
 71
3
 72
8
 73
4
 74
0
 40
0
 40
0
 40
0
 40
0
 40
1
 40
1
 40
1
 40
1
 10
127.136257
 20
132.278713
 30
0.0
 10
126.948720
 20
132.466249
 30
0.0
 10
126.694366
 20
132.571606
 30
0.0
 10
126.429150
 20
132.571606
 30
0.0
  0
SPLINE
  5
463
100
AcDbEntity
  8
0
 62
7
100
AcDbSpline
 70
8
 71
3
 72
8
 73
4
 74
0
 40
0
 40
0
 40
0
 40
0
 40
1
 40
1
 40
1
 40
1
 10
126.429150
 20
132.571606
 30
0.0
 10
126.163934
 20
132.571606
 30
0.0
 10
125.909580
 20
132.466249
 30
0.0
 10
125.722043
 20
132.278713
 30
0.0
  0
SPLINE
  5
464
100
AcDbEntity
  8
0
 62
7
100
AcDbSpline
 70
8
 71
3
 72
8
 73
4
 74
0
 40
0
 40
0
 40
0
 40
0
 40
1
 40
1
 40
1
 40
1
 10
125.722043
 20
132.278713
 30
0.0
 10
125.534507
 20
132.091176
 30
0.0
 10
125.429150
 20
131.836822
 30
0.0
 10
125.429150
 20
131.571606
 30
0.0
  0
SPLINE
  5
465
100
AcDbEntity
  8
0
 62
7
100
AcDbSpline
 70
8
 71
3
 72
8
 73
4
 74
0
 40
0
 40
0
 40
0
 40
0
 40
1
 40
1
 40
1
 40
1
 10
125.429150
 20
131.571606
 30
0.0
 10
125.429149
 20
131.306389
 30
0.0
 10
125.534506
 20
131.052035
 30
0.0
 10
125.722043
 20
130.864498
 30
0.0
  0
SPLINE
  5
466
100
AcDbEntity
  8
0
 62
7
100
AcDbSpline
 70
8
 71
3
 72
8
 73
4
 74
0
 40
0
 40
0
 40
0
 40
0
 40
1
 40
1
 40
1
 40
1
 10
125.722043
 20
130.864498
 30
0.0
 10
125.909579
 20
130.676961
 30
0.0
 10
126.163933
 20
130.571604
 30
0.0
 10
126.429150
 20
130.571604
 30
0.0
  0
SPLINE
  5
467
100
AcDbEntity
  8
0
 62
7
100
AcDbSpline
 70
8
 71
3
 72
8
 73
4
 74
0
 40
0
 40
0
 40
0
 40
0
 40
1
 40
1
 40
1
 40
1
 10
126.429150
 20
130.571604
 30
0.0
 10
126.694367
 20
130.571604
 30
0.0
 10
126.948721
 20
130.676961
 30
0.0
 10
127.136257
 20
130.864498
 30
0.0
  0
SPLINE
  5
468
100
AcDbEntity
  8
0
 62
7
100
AcDbSpline
 70
8
 71
3
 72
8
 73
4
 74
0
 40
0
 40
0
 40
0
 40
0
 40
1
 40
1
 40
1
 40
1
 10
127.136257
 20
130.864498
 30
0.0
 10
127.323794
 20
131.052035
 30
0.0
 10
127.429151
 20
131.306389
 30
0.0
 10
127.429150
 20
131.571606
 30
0.0
  0
LINE
  5
469
100
AcDbEntity
  8
0
 62
7
100
AcDbLine
 10
127.429150
 20
131.571606
 30
0.0
 11
127.429150
 21
131.571606
 31
0.0
  0
SPLINE
  5
46a
100
AcDbEntity
  8
0
 62
7
100
AcDbSpline
 70
8
 71
3
 72
8
 73
4
 74
0
 40
0
 40
0
 40
0
 40
0
 40
1
 40
1
 40
1
 40
1
 10
123.441190
 20
131.604118
 30
0.0
 10
123.441190
 20
131.869334
 30
0.0
 10
123.335833
 20
132.123688
 30
0.0
 10
123.148297
 20
132.311225
 30
0.0
  0
SPLINE
  5
46b
100
AcDbEntity
  8
0
 62
7
100
AcDbSpline
 70
8
 71
3
 72
8
 73
4
 74
0
 40
0
 40
0
 40
0
 40
0
 40
1
 40
1
 40
1
 40
1
 10
123.148297
 20
132.311225
 30
0.0
 10
122.960760
 20
132.498761
 30
0.0
 10
122.706406
 20
132.604118
 30
0.0
 10
122.441190
 20
132.604118
 30
0.0
  0
SPLINE
  5
46c
100
AcDbEntity
  8
0
 62
7
100
AcDbSpline
 70
8
 71
3
 72
8
 73
4
 74
0
 40
0
 40
0
 40
0
 40
0
 40
1
 40
1
 40
1
 40
1
 10
122.441190
 20
132.604118
 30
0.0
 10
122.175974
 20
132.604118
 30
0.0
 10
121.921620
 20
132.498761
 30
0.0
 10
121.734083
 20
132.311225
 30
0.0
  0
SPLINE
  5
46d
100
AcDbEntity
  8
0
 62
7
100
AcDbSpline
 70
8
 71
3
 72
8
 73
4
 74
0
 40
0
 40
0
 40
0
 40
0
 40
1
 40
1
 40
1
 40
1
 10
121.734083
 20
132.311225
 30
0.0
 10
121.546547
 20
132.123688
 30
0.0
 10
121.441190
 20
131.869334
 30
0.0
 10
121.441190
 20
131.604118
 30
0.0
  0
SPLINE
  5
46e
100
AcDbEntity
  8
0
 62
7
100
AcDbSpline
 70
8
 71
3
 72
8
 73
4
 74
0
 40
0
 40
0
 40
0
 40
0
 40
1
 40
1
 40
1
 40
1
 10
121.441190
 20
131.604118
 30
0.0
 10
121.441189
 20
131.338901
 30
0.0
 10
121.546546
 20
131.084547
 30
0.0
 10
121.734083
 20
130.897010
 30
0.0
  0
SPLINE
  5
46f
100
AcDbEntity
  8
0
 62
7
100
AcDbSpline
 70
8
 71
3
 72
8
 73
4
 74
0
 40
0
 40
0
 40
0
 40
0
 40
1
 40
1
 40
1
 40
1
 10
121.734083
 20
130.897010
 30
0.0
 10
121.921619
 20
130.709473
 30
0.0
 10
122.175973
 20
130.604116
 30
0.0
 10
122.441190
 20
130.604116
 30
0.0
  0
SPLINE
  5
470
100
AcDbEntity
  8
0
 62
7
100
AcDbSpline
 70
8
 71
3
 72
8
 73
4
 74
0
 40
0
 40
0
 40
0
 40
0
 40
1
 40
1
 40
1
 40
1
 10
122.441190
 20
130.604116
 30
0.0
 10
122.706407
 20
130.604116
 30
0.0
 10
122.960761
 20
130.709473
 30
0.0
 10
123.148297
 20
130.897010
 30
0.0
  0
SPLINE
  5
471
100
AcDbEntity
  8
0
 62
7
100
AcDbSpline
 70
8
 71
3
 72
8
 73
4
 74
0
 40
0
 40
0
 40
0
 40
0
 40
1
 40
1
 40
1
 40
1
 10
123.148297
 20
130.897010
 30
0.0
 10
123.335834
 20
131.084547
 30
0.0
 10
123.441191
 20
131.338901
 30
0.0
 10
123.441190
 20
131.604118
 30
0.0
  0
LINE
  5
472
100
AcDbEntity
  8
0
 62
7
100
AcDbLine
 10
123.441190
 20
131.604118
 30
0.0
 11
123.441190
 21
131.604118
 31
0.0
  0
SPLINE
  5
473
100
AcDbEntity
  8
0
 62
7
100
AcDbSpline
 70
8
 71
3
 72
8
 73
4
 74
0
 40
0
 40
0
 40
0
 40
0
 40
1
 40
1
 40
1
 40
1
 10
119.571140
 20
132.566222
 30
0.0
 10
119.571140
 20
132.831438
 30
0.0
 10
119.465783
 20
133.085792
 30
0.0
 10
119.278247
 20
133.273329
 30
0.0
  0
SPLINE
  5
474
100
AcDbEntity
  8
0
 62
7
100
AcDbSpline
 70
8
 71
3
 72
8
 73
4
 74
0
 40
0
 40
0
 40
0
 40
0
 40
1
 40
1
 40
1
 40
1
 10
119.278247
 20
133.273329
 30
0.0
 10
119.090710
 20
133.460865
 30
0.0
 10
118.836356
 20
133.566222
 30
0.0
 10
118.571140
 20
133.566222
 30
0.0
  0
SPLINE
  5
475
100
AcDbEntity
  8
0
 62
7
100
AcDbSpline
 70
8
 71
3
 72
8
 73
4
 74
0
 40
0
 40
0
 40
0
 40
0
 40
1
 40
1
 40
1
 40
1
 10
118.571140
 20
133.566222
 30
0.0
 10
118.305924
 20
133.566222
 30
0.0
 10
118.051570
 20
133.460865
 30
0.0
 10
117.864033
 20
133.273329
 30
0.0
  0
SPLINE
  5
476
100
AcDbEntity
  8
0
 62
7
100
AcDbSpline
 70
8
 71
3
 72
8
 73
4
 74
0
 40
0
 40
0
 40
0
 40
0
 40
1
 40
1
 40
1
 40
1
 10
117.864033
 20
133.273329
 30
0.0
 10
117.676497
 20
133.085792
 30
0.0
 10
117.571140
 20
132.831438
 30
0.0
 10
117.571140
 20
132.566222
 30
0.0
  0
SPLINE
  5
477
100
AcDbEntity
  8
0
 62
7
100
AcDbSpline
 70
8
 71
3
 72
8
 73
4
 74
0
 40
0
 40
0
 40
0
 40
0
 40
1
 40
1
 40
1
 40
1
 10
117.571140
 20
132.566222
 30
0.0
 10
117.571139
 20
132.301005
 30
0.0
 10
117.676496
 20
132.046651
 30
0.0
 10
117.864033
 20
131.859114
 30
0.0
  0
SPLINE
  5
478
100
AcDbEntity
  8
0
 62
7
100
AcDbSpline
 70
8
 71
3
 72
8
 73
4
 74
0
 40
0
 40
0
 40
0
 40
0
 40
1
 40
1
 40
1
 40
1
 10
117.864033
 20
131.859114
 30
0.0
 10
118.051569
 20
131.671577
 30
0.0
 10
118.305923
 20
131.566220
 30
0.0
 10
118.571140
 20
131.566220
 30
0.0
  0
SPLINE
  5
479
100
AcDbEntity
  8
0
 62
7
100
AcDbSpline
 70
8
 71
3
 72
8
 73
4
 74
0
 40
0
 40
0
 40
0
 40
0
 40
1
 40
1
 40
1
 40
1
 10
118.571140
 20
131.566220
 30
0.0
 10
118.836357
 20
131.566220
 30
0.0
 10
119.090711
 20
131.671577
 30
0.0
 10
119.278247
 20
131.859114
 30
0.0
  0
SPLINE
  5
47a
100
AcDbEntity
  8
0
 62
7
100
AcDbSpline
 70
8
 71
3
 72
8
 73
4
 74
0
 40
0
 40
0
 40
0
 40
0
 40
1
 40
1
 40
1
 40
1
 10
119.278247
 20
131.859114
 30
0.0
 10
119.465784
 20
132.046651
 30
0.0
 10
119.571141
 20
132.301005
 30
0.0
 10
119.571140
 20
132.566222
 30
0.0
  0
LINE
  5
47b
100
AcDbEntity
  8
0
 62
7
100
AcDbLine
 10
119.571140
 20
132.566222
 30
0.0
 11
119.571140
 21
132.566222
 31
0.0
  0
LINE
  5
47c
100
AcDbEntity
  8
0
 62
7
100
AcDbLine
 10
14.101600
 20
27.000000
 30
0.0
 11
32.601600
 21
27.000000
 31
0.0
  0
SPLINE
  5
47d
100
AcDbEntity
  8
0
 62
7
100
AcDbSpline
 70
8
 71
3
 72
8
 73
4
 74
0
 40
0
 40
0
 40
0
 40
0
 40
1
 40
1
 40
1
 40
1
 10
32.601600
 20
27.000000
 30
0.0
 10
32.656290
 20
27.000000
 30
0.0
 10
32.703162
 20
27.043000
 30
0.0
 10
32.703162
 20
27.101560
 30
0.0
  0
LINE
  5
47e
100
AcDbEntity
  8
0
 62
7
100
AcDbLine
 10
32.703162
 20
27.101560
 30
0.0
 11
32.703162
 21
31.101560
 31
0.0
  0
SPLINE
  5
47f
100
AcDbEntity
  8
0
 62
7
100
AcDbSpline
 70
8
 71
3
 72
8
 73
4
 74
0
 40
0
 40
0
 40
0
 40
0
 40
1
 40
1
 40
1
 40
1
 10
32.703162
 20
31.101560
 30
0.0
 10
32.703162
 20
31.046860
 30
0.0
 10
32.660192
 20
31.000000
 30
0.0
 10
32.601600
 20
31.000000
 30
0.0
  0
LINE
  5
480
100
AcDbEntity
  8
0
 62
7
100
AcDbLine
 10
32.601600
 20
31.000000
 30
0.0
 11
52.601600
 21
31.000000
 31
0.0
  0
SPLINE
  5
481
100
AcDbEntity
  8
0
 62
7
100
AcDbSpline
 70
8
 71
3
 72
8
 73
4
 74
0
 40
0
 40
0
 40
0
 40
0
 40
1
 40
1
 40
1
 40
1
 10
52.601600
 20
31.000000
 30
0.0
 10
52.546910
 20
31.000000
 30
0.0
 10
52.500038
 20
31.043000
 30
0.0
 10
52.500038
 20
31.101560
 30
0.0
  0
LINE
  5
482
100
AcDbEntity
  8
0
 62
7
100
AcDbLine
 10
52.500038
 20
31.101560
 30
0.0
 11
52.500038
 21
27.101560
 31
0.0
  0
SPLINE
  5
483
100
AcDbEntity
  8
0
 62
7
100
AcDbSpline
 70
8
 71
3
 72
8
 73
4
 74
0
 40
0
 40
0
 40
0
 40
0
 40
1
 40
1
 40
1
 40
1
 10
52.500038
 20
27.101560
 30
0.0
 10
52.500038
 20
27.046860
 30
0.0
 10
52.543008
 20
27.000000
 30
0.0
 10
52.601600
 20
27.000000
 30
0.0
  0
LINE
  5
484
100
AcDbEntity
  8
0
 62
7
100
AcDbLine
 10
52.601600
 20
27.000000
 30
0.0
 11
71.101600
 21
27.000000
 31
0.0
  0
LINE
  5
485
100
AcDbEntity
  8
0
 62
7
100
AcDbLine
 10
71.101600
 20
27.000000
 30
0.0
 11
75.101600
 21
27.000000
 31
0.0
  0
SPLINE
  5
486
100
AcDbEntity
  8
0
 62
7
100
AcDbSpline
 70
8
 71
3
 72
8
 73
4
 74
0
 40
0
 40
0
 40
0
 40
0
 40
1
 40
1
 40
1
 40
1
 10
75.101600
 20
27.000000
 30
0.0
 10
75.156290
 20
27.000000
 30
0.0
 10
75.203162
 20
27.043000
 30
0.0
 10
75.203162
 20
27.101560
 30
0.0
  0
LINE
  5
487
100
AcDbEntity
  8
0
 62
7
100
AcDbLine
 10
75.203162
 20
27.101560
 30
0.0
 11
75.203162
 21
27.101560
 31
0.0
  0
LINE
  5
488
100
AcDbEntity
  8
0
 62
7
100
AcDbLine
 10
75.203162
 20
27.101560
 30
0.0
 11
75.203162
 21
36.101560
 31
0.0
  0
SPLINE
  5
489
100
AcDbEntity
  8
0
 62
7
100
AcDbSpline
 70
8
 71
3
 72
8
 73
4
 74
0
 40
0
 40
0
 40
0
 40
0
 40
1
 40
1
 40
1
 40
1
 10
75.203162
 20
36.101560
 30
0.0
 10
75.203162
 20
36.156260
 30
0.0
 10
75.160192
 20
36.203130
 30
0.0
 10
75.101600
 20
36.203130
 30
0.0
  0
LINE
  5
48a
100
AcDbEntity
  8
0
 62
7
100
AcDbLine
 10
75.101600
 20
36.203130
 30
0.0
 11
71.101600
 21
36.203130
 31
0.0
  0
SPLINE
  5
48b
100
AcDbEntity
  8
0
 62
7
100
AcDbSpline
 70
8
 71
3
 72
8
 73
4
 74
0
 40
0
 40
0
 40
0
 40
0
 40
1
 40
1
 40
1
 40
1
 10
71.101600
 20
36.203130
 30
0.0
 10
71.156290
 20
36.203130
 30
0.0
 10
71.203162
 20
36.160130
 30
0.0
 10
71.203162
 20
36.101560
 30
0.0
  0
LINE
  5
48c
100
AcDbEntity
  8
0
 62
7
100
AcDbLine
 10
71.203162
 20
36.101560
 30
0.0
 11
71.203162
 21
56.101560
 31
0.0
  0
SPLINE
  5
48d
100
AcDbEntity
  8
0
 62
7
100
AcDbSpline
 70
8
 71
3
 72
8
 73
4
 74
0
 40
0
 40
0
 40
0
 40
0
 40
1
 40
1
 40
1
 40
1
 10
71.203162
 20
56.101560
 30
0.0
 10
71.203162
 20
56.046860
 30
0.0
 10
71.160192
 20
56.000000
 30
0.0
 10
71.101600
 20
56.000000
 30
0.0
  0
LINE
  5
48e
100
AcDbEntity
  8
0
 62
7
100
AcDbLine
 10
71.101600
 20
56.000000
 30
0.0
 11
75.101600
 21
56.000000
 31
0.0
  0
SPLINE
  5
48f
100
AcDbEntity
  8
0
 62
7
100
AcDbSpline
 70
8
 71
3
 72
8
 73
4
 74
0
 40
0
 40
0
 40
0
 40
0
 40
1
 40
1
 40
1
 40
1
 10
75.101600
 20
56.000000
 30
0.0
 10
75.156290
 20
56.000000
 30
0.0
 10
75.203162
 20
56.043000
 30
0.0
 10
75.203162
 20
56.101560
 30
0.0
  0
LINE
  5
490
100
AcDbEntity
  8
0
 62
7
100
AcDbLine
 10
75.203162
 20
56.101560
 30
0.0
 11
75.203162
 21
65.101560
 31
0.0
  0
LINE
  5
491
100
AcDbEntity
  8
0
 62
7
100
AcDbLine
 10
75.203162
 20
65.101560
 30
0.0
 11
75.203162
 21
69.101560
 31
0.0
  0
SPLINE
  5
492
100
AcDbEntity
  8
0
 62
7
100
AcDbSpline
 70
8
 71
3
 72
8
 73
4
 74
0
 40
0
 40
0
 40
0
 40
0
 40
1
 40
1
 40
1
 40
1
 10
75.203162
 20
69.101560
 30
0.0
 10
75.203162
 20
69.156260
 30
0.0
 10
75.160192
 20
69.203130
 30
0.0
 10
75.101600
 20
69.203130
 30
0.0
  0
LINE
  5
493
100
AcDbEntity
  8
0
 62
7
100
AcDbLine
 10
75.101600
 20
69.203130
 30
0.0
 11
71.101600
 21
69.203130
 31
0.0
  0
LINE
  5
494
100
AcDbEntity
  8
0
 62
7
100
AcDbLine
 10
71.101600
 20
69.203130
 30
0.0
 11
52.601600
 21
69.203130
 31
0.0
  0
SPLINE
  5
495
100
AcDbEntity
  8
0
 62
7
100
AcDbSpline
 70
8
 71
3
 72
8
 73
4
 74
0
 40
0
 40
0
 40
0
 40
0
 40
1
 40
1
 40
1
 40
1
 10
52.601600
 20
69.203130
 30
0.0
 10
52.546910
 20
69.203130
 30
0.0
 10
52.500037
 20
69.160130
 30
0.0
 10
52.500037
 20
69.101560
 30
0.0
  0
LINE
  5
496
100
AcDbEntity
  8
0
 62
7
100
AcDbLine
 10
52.500037
 20
69.101560
 30
0.0
 11
52.500037
 21
65.101560
 31
0.0
  0
SPLINE
  5
497
100
AcDbEntity
  8
0
 62
7
100
AcDbSpline
 70
8
 71
3
 72
8
 73
4
 74
0
 40
0
 40
0
 40
0
 40
0
 40
1
 40
1
 40
1
 40
1
 10
52.500037
 20
65.101560
 30
0.0
 10
52.500037
 20
65.156260
 30
0.0
 10
52.543007
 20
65.203130
 30
0.0
 10
52.601600
 20
65.203130
 30
0.0
  0
LINE
  5
498
100
AcDbEntity
  8
0
 62
7
100
AcDbLine
 10
52.601600
 20
65.203130
 30
0.0
 11
32.601600
 21
65.203130
 31
0.0
  0
SPLINE
  5
499
100
AcDbEntity
  8
0
 62
7
100
AcDbSpline
 70
8
 71
3
 72
8
 73
4
 74
0
 40
0
 40
0
 40
0
 40
0
 40
1
 40
1
 40
1
 40
1
 10
32.601600
 20
65.203130
 30
0.0
 10
32.656290
 20
65.203130
 30
0.0
 10
32.703162
 20
65.160130
 30
0.0
 10
32.703162
 20
65.101560
 30
0.0
  0
LINE
  5
49a
100
AcDbEntity
  8
0
 62
7
100
AcDbLine
 10
32.703162
 20
65.101560
 30
0.0
 11
32.703162
 21
69.101560
 31
0.0
  0
SPLINE
  5
49b
100
AcDbEntity
  8
0
 62
7
100
AcDbSpline
 70
8
 71
3
 72
8
 73
4
 74
0
 40
0
 40
0
 40
0
 40
0
 40
1
 40
1
 40
1
 40
1
 10
32.703162
 20
69.101560
 30
0.0
 10
32.703162
 20
69.156260
 30
0.0
 10
32.660192
 20
69.203130
 30
0.0
 10
32.601600
 20
69.203130
 30
0.0
  0
LINE
  5
49c
100
AcDbEntity
  8
0
 62
7
100
AcDbLine
 10
32.601600
 20
69.203130
 30
0.0
 11
14.101600
 21
69.203130
 31
0.0
  0
LINE
  5
49d
100
AcDbEntity
  8
0
 62
7
100
AcDbLine
 10
14.101600
 20
69.203130
 30
0.0
 11
10.101600
 21
69.203130
 31
0.0
  0
SPLINE
  5
49e
100
AcDbEntity
  8
0
 62
7
100
AcDbSpline
 70
8
 71
3
 72
8
 73
4
 74
0
 40
0
 40
0
 40
0
 40
0
 40
1
 40
1
 40
1
 40
1
 10
10.101600
 20
69.203130
 30
0.0
 10
10.046910
 20
69.203130
 30
0.0
 10
10.000037
 20
69.160130
 30
0.0
 10
10.000037
 20
69.101560
 30
0.0
  0
LINE
  5
49f
100
AcDbEntity
  8
0
 62
7
100
AcDbLine
 10
10.000037
 20
69.101560
 30
0.0
 11
10.000037
 21
65.101560
 31
0.0
  0
LINE
  5
4a0
100
AcDbEntity
  8
0
 62
7
100
AcDbLine
 10
10.000037
 20
65.101560
 30
0.0
 11
10.000037
 21
56.101560
 31
0.0
  0
SPLINE
  5
4a1
100
AcDbEntity
  8
0
 62
7
100
AcDbSpline
 70
8
 71
3
 72
8
 73
4
 74
0
 40
0
 40
0
 40
0
 40
0
 40
1
 40
1
 40
1
 40
1
 10
10.000037
 20
56.101560
 30
0.0
 10
10.000037
 20
56.046860
 30
0.0
 10
10.043007
 20
56.000000
 30
0.0
 10
10.101600
 20
56.000000
 30
0.0
  0
LINE
  5
4a2
100
AcDbEntity
  8
0
 62
7
100
AcDbLine
 10
10.101600
 20
56.000000
 30
0.0
 11
14.101600
 21
56.000000
 31
0.0
  0
SPLINE
  5
4a3
100
AcDbEntity
  8
0
 62
7
100
AcDbSpline
 70
8
 71
3
 72
8
 73
4
 74
0
 40
0
 40
0
 40
0
 40
0
 40
1
 40
1
 40
1
 40
1
 10
14.101600
 20
56.000000
 30
0.0
 10
14.046910
 20
56.000000
 30
0.0
 10
14.000037
 20
56.043000
 30
0.0
 10
14.000037
 20
56.101560
 30
0.0
  0
LINE
  5
4a4
100
AcDbEntity
  8
0
 62
7
100
AcDbLine
 10
14.000037
 20
56.101560
 30
0.0
 11
14.000037
 21
36.101560
 31
0.0
  0
SPLINE
  5
4a5
100
AcDbEntity
  8
0
 62
7
100
AcDbSpline
 70
8
 71
3
 72
8
 73
4
 74
0
 40
0
 40
0
 40
0
 40
0
 40
1
 40
1
 40
1
 40
1
 10
14.000037
 20
36.101560
 30
0.0
 10
14.000037
 20
36.156260
 30
0.0
 10
14.043007
 20
36.203130
 30
0.0
 10
14.101600
 20
36.203130
 30
0.0
  0
LINE
  5
4a6
100
AcDbEntity
  8
0
 62
7
100
AcDbLine
 10
14.101600
 20
36.203130
 30
0.0
 11
10.101600
 21
36.203130
 31
0.0
  0
SPLINE
  5
4a7
100
AcDbEntity
  8
0
 62
7
100
AcDbSpline
 70
8
 71
3
 72
8
 73
4
 74
0
 40
0
 40
0
 40
0
 40
0
 40
1
 40
1
 40
1
 40
1
 10
10.101600
 20
36.203130
 30
0.0
 10
10.046910
 20
36.203130
 30
0.0
 10
10.000037
 20
36.160130
 30
0.0
 10
10.000037
 20
36.101560
 30
0.0
  0
LINE
  5
4a8
100
AcDbEntity
  8
0
 62
7
100
AcDbLine
 10
10.000037
 20
36.101560
 30
0.0
 11
10.000038
 21
27.101560
 31
0.0
  0
SPLINE
  5
4a9
100
AcDbEntity
  8
0
 62
7
100
AcDbSpline
 70
8
 71
3
 72
8
 73
4
 74
0
 40
0
 40
0
 40
0
 40
0
 40
1
 40
1
 40
1
 40
1
 10
10.000038
 20
27.101560
 30
0.0
 10
10.000038
 20
27.046860
 30
0.0
 10
10.043008
 20
27.000000
 30
0.0
 10
10.101600
 20
27.000000
 30
0.0
  0
LINE
  5
4aa
100
AcDbEntity
  8
0
 62
7
100
AcDbLine
 10
10.101600
 20
27.000000
 30
0.0
 11
14.101600
 21
27.000000
 31
0.0
  0
LINE
  5
4ab
100
AcDbEntity
  8
0
 62
7
100
AcDbLine
 10
14.101600
 20
71.199200
 30
0.0
 11
32.601600
 21
71.199200
 31
0.0
  0
SPLINE
  5
4ac
100
AcDbEntity
  8
0
 62
7
100
AcDbSpline
 70
8
 71
3
 72
8
 73
4
 74
0
 40
0
 40
0
 40
0
 40
0
 40
1
 40
1
 40
1
 40
1
 10
32.601600
 20
71.199200
 30
0.0
 10
32.656290
 20
71.199200
 30
0.0
 10
32.703162
 20
71.242200
 30
0.0
 10
32.703162
 20
71.300760
 30
0.0
  0
LINE
  5
4ad
100
AcDbEntity
  8
0
 62
7
100
AcDbLine
 10
32.703162
 20
71.300760
 30
0.0
 11
32.703162
 21
75.300760
 31
0.0
  0
SPLINE
  5
4ae
100
AcDbEntity
  8
0
 62
7
100
AcDbSpline
 70
8
 71
3
 72
8
 73
4
 74
0
 40
0
 40
0
 40
0
 40
0
 40
1
 40
1
 40
1
 40
1
 10
32.703162
 20
75.300760
 30
0.0
 10
32.703162
 20
75.246060
 30
0.0
 10
32.660192
 20
75.199200
 30
0.0
 10
32.601600
 20
75.199200
 30
0.0
  0
LINE
  5
4af
100
AcDbEntity
  8
0
 62
7
100
AcDbLine
 10
32.601600
 20
75.199200
 30
0.0
 11
52.601600
 21
75.199200
 31
0.0
  0
SPLINE
  5
4b0
100
AcDbEntity
  8
0
 62
7
100
AcDbSpline
 70
8
 71
3
 72
8
 73
4
 74
0
 40
0
 40
0
 40
0
 40
0
 40
1
 40
1
 40
1
 40
1
 10
52.601600
 20
75.199200
 30
0.0
 10
52.546910
 20
75.199200
 30
0.0
 10
52.500038
 20
75.242200
 30
0.0
 10
52.500038
 20
75.300760
 30
0.0
  0
LINE
  5
4b1
100
AcDbEntity
  8
0
 62
7
100
AcDbLine
 10
52.500038
 20
75.300760
 30
0.0
 11
52.500038
 21
71.300760
 31
0.0
  0
SPLINE
  5
4b2
100
AcDbEntity
  8
0
 62
7
100
AcDbSpline
 70
8
 71
3
 72
8
 73
4
 74
0
 40
0
 40
0
 40
0
 40
0
 40
1
 40
1
 40
1
 40
1
 10
52.500038
 20
71.300760
 30
0.0
 10
52.500038
 20
71.246060
 30
0.0
 10
52.543008
 20
71.199200
 30
0.0
 10
52.601600
 20
71.199200
 30
0.0
  0
LINE
  5
4b3
100
AcDbEntity
  8
0
 62
7
100
AcDbLine
 10
52.601600
 20
71.199200
 30
0.0
 11
71.101600
 21
71.199200
 31
0.0
  0
LINE
  5
4b4
100
AcDbEntity
  8
0
 62
7
100
AcDbLine
 10
71.101600
 20
71.199200
 30
0.0
 11
75.101600
 21
71.199200
 31
0.0
  0
SPLINE
  5
4b5
100
AcDbEntity
  8
0
 62
7
100
AcDbSpline
 70
8
 71
3
 72
8
 73
4
 74
0
 40
0
 40
0
 40
0
 40
0
 40
1
 40
1
 40
1
 40
1
 10
75.101600
 20
71.199200
 30
0.0
 10
75.156290
 20
71.199200
 30
0.0
 10
75.203163
 20
71.242200
 30
0.0
 10
75.203163
 20
71.300760
 30
0.0
  0
LINE
  5
4b6
100
AcDbEntity
  8
0
 62
7
100
AcDbLine
 10
75.203163
 20
71.300760
 30
0.0
 11
75.203163
 21
71.300760
 31
0.0
  0
LINE
  5
4b7
100
AcDbEntity
  8
0
 62
7
100
AcDbLine
 10
75.203163
 20
71.300760
 30
0.0
 11
75.203162
 21
80.300760
 31
0.0
  0
SPLINE
  5
4b8
100
AcDbEntity
  8
0
 62
7
100
AcDbSpline
 70
8
 71
3
 72
8
 73
4
 74
0
 40
0
 40
0
 40
0
 40
0
 40
1
 40
1
 40
1
 40
1
 10
75.203162
 20
80.300760
 30
0.0
 10
75.203162
 20
80.355460
 30
0.0
 10
75.160192
 20
80.402330
 30
0.0
 10
75.101600
 20
80.402330
 30
0.0
  0
LINE
  5
4b9
100
AcDbEntity
  8
0
 62
7
100
AcDbLine
 10
75.101600
 20
80.402330
 30
0.0
 11
71.101600
 21
80.402330
 31
0.0
  0
SPLINE
  5
4ba
100
AcDbEntity
  8
0
 62
7
100
AcDbSpline
 70
8
 71
3
 72
8
 73
4
 74
0
 40
0
 40
0
 40
0
 40
0
 40
1
 40
1
 40
1
 40
1
 10
71.101600
 20
80.402330
 30
0.0
 10
71.156290
 20
80.402330
 30
0.0
 10
71.203162
 20
80.359330
 30
0.0
 10
71.203162
 20
80.300760
 30
0.0
  0
LINE
  5
4bb
100
AcDbEntity
  8
0
 62
7
100
AcDbLine
 10
71.203162
 20
80.300760
 30
0.0
 11
71.203162
 21
100.300760
 31
0.0
  0
SPLINE
  5
4bc
100
AcDbEntity
  8
0
 62
7
100
AcDbSpline
 70
8
 71
3
 72
8
 73
4
 74
0
 40
0
 40
0
 40
0
 40
0
 40
1
 40
1
 40
1
 40
1
 10
71.203162
 20
100.300760
 30
0.0
 10
71.203162
 20
100.246060
 30
0.0
 10
71.160192
 20
100.199200
 30
0.0
 10
71.101600
 20
100.199200
 30
0.0
  0
LINE
  5
4bd
100
AcDbEntity
  8
0
 62
7
100
AcDbLine
 10
71.101600
 20
100.199200
 30
0.0
 11
75.101600
 21
100.199200
 31
0.0
  0
SPLINE
  5
4be
100
AcDbEntity
  8
0
 62
7
100
AcDbSpline
 70
8
 71
3
 72
8
 73
4
 74
0
 40
0
 40
0
 40
0
 40
0
 40
1
 40
1
 40
1
 40
1
 10
75.101600
 20
100.199200
 30
0.0
 10
75.156290
 20
100.199200
 30
0.0
 10
75.203162
 20
100.242200
 30
0.0
 10
75.203162
 20
100.300760
 30
0.0
  0
LINE
  5
4bf
100
AcDbEntity
  8
0
 62
7
100
AcDbLine
 10
75.203162
 20
100.300760
 30
0.0
 11
75.203162
 21
109.300760
 31
0.0
  0
LINE
  5
4c0
100
AcDbEntity
  8
0
 62
7
100
AcDbLine
 10
75.203162
 20
109.300760
 30
0.0
 11
75.203162
 21
113.300760
 31
0.0
  0
SPLINE
  5
4c1
100
AcDbEntity
  8
0
 62
7
100
AcDbSpline
 70
8
 71
3
 72
8
 73
4
 74
0
 40
0
 40
0
 40
0
 40
0
 40
1
 40
1
 40
1
 40
1
 10
75.203162
 20
113.300760
 30
0.0
 10
75.203162
 20
113.355460
 30
0.0
 10
75.160192
 20
113.402330
 30
0.0
 10
75.101600
 20
113.402330
 30
0.0
  0
LINE
  5
4c2
100
AcDbEntity
  8
0
 62
7
100
AcDbLine
 10
75.101600
 20
113.402330
 30
0.0
 11
71.101600
 21
113.402330
 31
0.0
  0
LINE
  5
4c3
100
AcDbEntity
  8
0
 62
7
100
AcDbLine
 10
71.101600
 20
113.402330
 30
0.0
 11
52.601600
 21
113.402330
 31
0.0
  0
SPLINE
  5
4c4
100
AcDbEntity
  8
0
 62
7
100
AcDbSpline
 70
8
 71
3
 72
8
 73
4
 74
0
 40
0
 40
0
 40
0
 40
0
 40
1
 40
1
 40
1
 40
1
 10
52.601600
 20
113.402330
 30
0.0
 10
52.546910
 20
113.402330
 30
0.0
 10
52.500037
 20
113.359330
 30
0.0
 10
52.500037
 20
113.300760
 30
0.0
  0
LINE
  5
4c5
100
AcDbEntity
  8
0
 62
7
100
AcDbLine
 10
52.500037
 20
113.300760
 30
0.0
 11
52.500037
 21
109.300760
 31
0.0
  0
SPLINE
  5
4c6
100
AcDbEntity
  8
0
 62
7
100
AcDbSpline
 70
8
 71
3
 72
8
 73
4
 74
0
 40
0
 40
0
 40
0
 40
0
 40
1
 40
1
 40
1
 40
1
 10
52.500037
 20
109.300760
 30
0.0
 10
52.500037
 20
109.355460
 30
0.0
 10
52.543007
 20
109.402330
 30
0.0
 10
52.601600
 20
109.402330
 30
0.0
  0
LINE
  5
4c7
100
AcDbEntity
  8
0
 62
7
100
AcDbLine
 10
52.601600
 20
109.402330
 30
0.0
 11
32.601600
 21
109.402330
 31
0.0
  0
SPLINE
  5
4c8
100
AcDbEntity
  8
0
 62
7
100
AcDbSpline
 70
8
 71
3
 72
8
 73
4
 74
0
 40
0
 40
0
 40
0
 40
0
 40
1
 40
1
 40
1
 40
1
 10
32.601600
 20
109.402330
 30
0.0
 10
32.656290
 20
109.402330
 30
0.0
 10
32.703162
 20
109.359330
 30
0.0
 10
32.703162
 20
109.300760
 30
0.0
  0
LINE
  5
4c9
100
AcDbEntity
  8
0
 62
7
100
AcDbLine
 10
32.703162
 20
109.300760
 30
0.0
 11
32.703162
 21
113.300760
 31
0.0
  0
SPLINE
  5
4ca
100
AcDbEntity
  8
0
 62
7
100
AcDbSpline
 70
8
 71
3
 72
8
 73
4
 74
0
 40
0
 40
0
 40
0
 40
0
 40
1
 40
1
 40
1
 40
1
 10
32.703162
 20
113.300760
 30
0.0
 10
32.703162
 20
113.355460
 30
0.0
 10
32.660192
 20
113.402330
 30
0.0
 10
32.601600
 20
113.402330
 30
0.0
  0
LINE
  5
4cb
100
AcDbEntity
  8
0
 62
7
100
AcDbLine
 10
32.601600
 20
113.402330
 30
0.0
 11
14.101600
 21
113.402330
 31
0.0
  0
LINE
  5
4cc
100
AcDbEntity
  8
0
 62
7
100
AcDbLine
 10
14.101600
 20
113.402330
 30
0.0
 11
10.101600
 21
113.402330
 31
0.0
  0
SPLINE
  5
4cd
100
AcDbEntity
  8
0
 62
7
100
AcDbSpline
 70
8
 71
3
 72
8
 73
4
 74
0
 40
0
 40
0
 40
0
 40
0
 40
1
 40
1
 40
1
 40
1
 10
10.101600
 20
113.402330
 30
0.0
 10
10.046910
 20
113.402330
 30
0.0
 10
10.000037
 20
113.359330
 30
0.0
 10
10.000037
 20
113.300760
 30
0.0
  0
LINE
  5
4ce
100
AcDbEntity
  8
0
 62
7
100
AcDbLine
 10
10.000037
 20
113.300760
 30
0.0
 11
10.000037
 21
109.300760
 31
0.0
  0
LINE
  5
4cf
100
AcDbEntity
  8
0
 62
7
100
AcDbLine
 10
10.000037
 20
109.300760
 30
0.0
 11
10.000037
 21
100.300760
 31
0.0
  0
SPLINE
  5
4d0
100
AcDbEntity
  8
0
 62
7
100
AcDbSpline
 70
8
 71
3
 72
8
 73
4
 74
0
 40
0
 40
0
 40
0
 40
0
 40
1
 40
1
 40
1
 40
1
 10
10.000037
 20
100.300760
 30
0.0
 10
10.000037
 20
100.246060
 30
0.0
 10
10.043007
 20
100.199200
 30
0.0
 10
10.101600
 20
100.199200
 30
0.0
  0
LINE
  5
4d1
100
AcDbEntity
  8
0
 62
7
100
AcDbLine
 10
10.101600
 20
100.199200
 30
0.0
 11
14.101600
 21
100.199200
 31
0.0
  0
SPLINE
  5
4d2
100
AcDbEntity
  8
0
 62
7
100
AcDbSpline
 70
8
 71
3
 72
8
 73
4
 74
0
 40
0
 40
0
 40
0
 40
0
 40
1
 40
1
 40
1
 40
1
 10
14.101600
 20
100.199200
 30
0.0
 10
14.046910
 20
100.199200
 30
0.0
 10
14.000037
 20
100.242200
 30
0.0
 10
14.000037
 20
100.300760
 30
0.0
  0
LINE
  5
4d3
100
AcDbEntity
  8
0
 62
7
100
AcDbLine
 10
14.000037
 20
100.300760
 30
0.0
 11
14.000037
 21
80.300760
 31
0.0
  0
SPLINE
  5
4d4
100
AcDbEntity
  8
0
 62
7
100
AcDbSpline
 70
8
 71
3
 72
8
 73
4
 74
0
 40
0
 40
0
 40
0
 40
0
 40
1
 40
1
 40
1
 40
1
 10
14.000037
 20
80.300760
 30
0.0
 10
14.000037
 20
80.355460
 30
0.0
 10
14.043007
 20
80.402330
 30
0.0
 10
14.101600
 20
80.402330
 30
0.0
  0
LINE
  5
4d5
100
AcDbEntity
  8
0
 62
7
100
AcDbLine
 10
14.101600
 20
80.402330
 30
0.0
 11
10.101600
 21
80.402330
 31
0.0
  0
SPLINE
  5
4d6
100
AcDbEntity
  8
0
 62
7
100
AcDbSpline
 70
8
 71
3
 72
8
 73
4
 74
0
 40
0
 40
0
 40
0
 40
0
 40
1
 40
1
 40
1
 40
1
 10
10.101600
 20
80.402330
 30
0.0
 10
10.046910
 20
80.402330
 30
0.0
 10
10.000037
 20
80.359330
 30
0.0
 10
10.000037
 20
80.300760
 30
0.0
  0
LINE
  5
4d7
100
AcDbEntity
  8
0
 62
7
100
AcDbLine
 10
10.000037
 20
80.300760
 30
0.0
 11
10.000038
 21
71.300760
 31
0.0
  0
SPLINE
  5
4d8
100
AcDbEntity
  8
0
 62
7
100
AcDbSpline
 70
8
 71
3
 72
8
 73
4
 74
0
 40
0
 40
0
 40
0
 40
0
 40
1
 40
1
 40
1
 40
1
 10
10.000038
 20
71.300760
 30
0.0
 10
10.000038
 20
71.246060
 30
0.0
 10
10.043008
 20
71.199200
 30
0.0
 10
10.101600
 20
71.199200
 30
0.0
  0
LINE
  5
4d9
100
AcDbEntity
  8
0
 62
7
100
AcDbLine
 10
10.101600
 20
71.199200
 30
0.0
 11
14.101600
 21
71.199200
 31
0.0
  0
LINE
  5
4da
100
AcDbEntity
  8
0
 62
7
100
AcDbLine
 10
14.101600
 20
119.398400
 30
0.0
 11
32.601600
 21
119.398400
 31
0.0
  0
SPLINE
  5
4db
100
AcDbEntity
  8
0
 62
7
100
AcDbSpline
 70
8
 71
3
 72
8
 73
4
 74
0
 40
0
 40
0
 40
0
 40
0
 40
1
 40
1
 40
1
 40
1
 10
32.601600
 20
119.398400
 30
0.0
 10
32.546910
 20
119.398400
 30
0.0
 10
32.500038
 20
119.441400
 30
0.0
 10
32.500038
 20
119.499960
 30
0.0
  0
LINE
  5
4dc
100
AcDbEntity
  8
0
 62
7
100
AcDbLine
 10
32.500038
 20
119.499960
 30
0.0
 11
32.500038
 21
115.499960
 31
0.0
  0
SPLINE
  5
4dd
100
AcDbEntity
  8
0
 62
7
100
AcDbSpline
 70
8
 71
3
 72
8
 73
4
 74
0
 40
0
 40
0
 40
0
 40
0
 40
1
 40
1
 40
1
 40
1
 10
32.500038
 20
115.499960
 30
0.0
 10
32.500038
 20
115.445260
 30
0.0
 10
32.543008
 20
115.398400
 30
0.0
 10
32.601600
 20
115.398400
 30
0.0
  0
LINE
  5
4de
100
AcDbEntity
  8
0
 62
7
100
AcDbLine
 10
32.601600
 20
115.398400
 30
0.0
 11
52.601600
 21
115.398400
 31
0.0
  0
SPLINE
  5
4df
100
AcDbEntity
  8
0
 62
7
100
AcDbSpline
 70
8
 71
3
 72
8
 73
4
 74
0
 40
0
 40
0
 40
0
 40
0
 40
1
 40
1
 40
1
 40
1
 10
52.601600
 20
115.398400
 30
0.0
 10
52.656290
 20
115.398400
 30
0.0
 10
52.703162
 20
115.441400
 30
0.0
 10
52.703162
 20
115.499960
 30
0.0
  0
LINE
  5
4e0
100
AcDbEntity
  8
0
 62
7
100
AcDbLine
 10
52.703162
 20
115.499960
 30
0.0
 11
52.703162
 21
119.499960
 31
0.0
  0
SPLINE
  5
4e1
100
AcDbEntity
  8
0
 62
7
100
AcDbSpline
 70
8
 71
3
 72
8
 73
4
 74
0
 40
0
 40
0
 40
0
 40
0
 40
1
 40
1
 40
1
 40
1
 10
52.703162
 20
119.499960
 30
0.0
 10
52.703162
 20
119.445260
 30
0.0
 10
52.660192
 20
119.398400
 30
0.0
 10
52.601600
 20
119.398400
 30
0.0
  0
LINE
  5
4e2
100
AcDbEntity
  8
0
 62
7
100
AcDbLine
 10
52.601600
 20
119.398400
 30
0.0
 11
71.101600
 21
119.398400
 31
0.0
  0
SPLINE
  5
4e3
100
AcDbEntity
  8
0
 62
7
100
AcDbSpline
 70
8
 71
3
 72
8
 73
4
 74
0
 40
0
 40
0
 40
0
 40
0
 40
1
 40
1
 40
1
 40
1
 10
71.101600
 20
119.398400
 30
0.0
 10
71.156290
 20
119.398400
 30
0.0
 10
71.203162
 20
119.441400
 30
0.0
 10
71.203162
 20
119.499960
 30
0.0
  0
LINE
  5
4e4
100
AcDbEntity
  8
0
 62
7
100
AcDbLine
 10
71.203162
 20
119.499960
 30
0.0
 11
71.203162
 21
119.499960
 31
0.0
  0
LINE
  5
4e5
100
AcDbEntity
  8
0
 62
7
100
AcDbLine
 10
71.203162
 20
119.499960
 30
0.0
 11
71.203162
 21
136.499960
 31
0.0
  0
SPLINE
  5
4e6
100
AcDbEntity
  8
0
 62
7
100
AcDbSpline
 70
8
 71
3
 72
8
 73
4
 74
0
 40
0
 40
0
 40
0
 40
0
 40
1
 40
1
 40
1
 40
1
 10
71.203162
 20
136.499960
 30
0.0
 10
71.203162
 20
136.445260
 30
0.0
 10
71.160192
 20
136.398400
 30
0.0
 10
71.101600
 20
136.398400
 30
0.0
  0
LINE
  5
4e7
100
AcDbEntity
  8
0
 62
7
100
AcDbLine
 10
71.101600
 20
136.398400
 30
0.0
 11
75.101600
 21
136.398400
 31
0.0
  0
SPLINE
  5
4e8
100
AcDbEntity
  8
0
 62
7
100
AcDbSpline
 70
8
 71
3
 72
8
 73
4
 74
0
 40
0
 40
0
 40
0
 40
0
 40
1
 40
1
 40
1
 40
1
 10
75.101600
 20
136.398400
 30
0.0
 10
75.156290
 20
136.398400
 30
0.0
 10
75.203162
 20
136.441400
 30
0.0
 10
75.203162
 20
136.499960
 30
0.0
  0
LINE
  5
4e9
100
AcDbEntity
  8
0
 62
7
100
AcDbLine
 10
75.203162
 20
136.499960
 30
0.0
 11
75.203162
 21
156.499960
 31
0.0
  0
SPLINE
  5
4ea
100
AcDbEntity
  8
0
 62
7
100
AcDbSpline
 70
8
 71
3
 72
8
 73
4
 74
0
 40
0
 40
0
 40
0
 40
0
 40
1
 40
1
 40
1
 40
1
 10
75.203162
 20
156.499960
 30
0.0
 10
75.203162
 20
156.554660
 30
0.0
 10
75.160192
 20
156.601520
 30
0.0
 10
75.101600
 20
156.601520
 30
0.0
  0
LINE
  5
4eb
100
AcDbEntity
  8
0
 62
7
100
AcDbLine
 10
75.101600
 20
156.601520
 30
0.0
 11
71.101600
 21
156.601520
 31
0.0
  0
SPLINE
  5
4ec
100
AcDbEntity
  8
0
 62
7
100
AcDbSpline
 70
8
 71
3
 72
8
 73
4
 74
0
 40
0
 40
0
 40
0
 40
0
 40
1
 40
1
 40
1
 40
1
 10
71.101600
 20
156.601520
 30
0.0
 10
71.156290
 20
156.601520
 30
0.0
 10
71.203162
 20
156.558520
 30
0.0
 10
71.203162
 20
156.499960
 30
0.0
  0
LINE
  5
4ed
100
AcDbEntity
  8
0
 62
7
100
AcDbLine
 10
71.203162
 20
156.499960
 30
0.0
 11
71.203162
 21
168.499960
 31
0.0
  0
SPLINE
  5
4ee
100
AcDbEntity
  8
0
 62
7
100
AcDbSpline
 70
8
 71
3
 72
8
 73
4
 74
0
 40
0
 40
0
 40
0
 40
0
 40
1
 40
1
 40
1
 40
1
 10
71.203162
 20
168.499960
 30
0.0
 10
71.203162
 20
168.445260
 30
0.0
 10
71.160192
 20
168.398400
 30
0.0
 10
71.101600
 20
168.398400
 30
0.0
  0
LINE
  5
4ef
100
AcDbEntity
  8
0
 62
7
100
AcDbLine
 10
71.101600
 20
168.398400
 30
0.0
 11
75.101600
 21
168.398400
 31
0.0
  0
SPLINE
  5
4f0
100
AcDbEntity
  8
0
 62
7
100
AcDbSpline
 70
8
 71
3
 72
8
 73
4
 74
0
 40
0
 40
0
 40
0
 40
0
 40
1
 40
1
 40
1
 40
1
 10
75.101600
 20
168.398400
 30
0.0
 10
75.156290
 20
168.398400
 30
0.0
 10
75.203162
 20
168.441400
 30
0.0
 10
75.203162
 20
168.499960
 30
0.0
  0
LINE
  5
4f1
100
AcDbEntity
  8
0
 62
7
100
AcDbLine
 10
75.203162
 20
168.499960
 30
0.0
 11
75.203162
 21
188.499960
 31
0.0
  0
SPLINE
  5
4f2
100
AcDbEntity
  8
0
 62
7
100
AcDbSpline
 70
8
 71
3
 72
8
 73
4
 74
0
 40
0
 40
0
 40
0
 40
0
 40
1
 40
1
 40
1
 40
1
 10
75.203162
 20
188.499960
 30
0.0
 10
75.203162
 20
188.554660
 30
0.0
 10
75.160192
 20
188.601520
 30
0.0
 10
75.101600
 20
188.601520
 30
0.0
  0
LINE
  5
4f3
100
AcDbEntity
  8
0
 62
7
100
AcDbLine
 10
75.101600
 20
188.601520
 30
0.0
 11
71.101600
 21
188.601520
 31
0.0
  0
SPLINE
  5
4f4
100
AcDbEntity
  8
0
 62
7
100
AcDbSpline
 70
8
 71
3
 72
8
 73
4
 74
0
 40
0
 40
0
 40
0
 40
0
 40
1
 40
1
 40
1
 40
1
 10
71.101600
 20
188.601520
 30
0.0
 10
71.156290
 20
188.601520
 30
0.0
 10
71.203162
 20
188.558520
 30
0.0
 10
71.203162
 20
188.499960
 30
0.0
  0
LINE
  5
4f5
100
AcDbEntity
  8
0
 62
7
100
AcDbLine
 10
71.203162
 20
188.499960
 30
0.0
 11
71.203162
 21
205.499960
 31
0.0
  0
SPLINE
  5
4f6
100
AcDbEntity
  8
0
 62
7
100
AcDbSpline
 70
8
 71
3
 72
8
 73
4
 74
0
 40
0
 40
0
 40
0
 40
0
 40
1
 40
1
 40
1
 40
1
 10
71.203162
 20
205.499960
 30
0.0
 10
71.203162
 20
205.554660
 30
0.0
 10
71.160192
 20
205.601520
 30
0.0
 10
71.101600
 20
205.601520
 30
0.0
  0
LINE
  5
4f7
100
AcDbEntity
  8
0
 62
7
100
AcDbLine
 10
71.101600
 20
205.601520
 30
0.0
 11
71.101600
 21
205.601520
 31
0.0
  0
LINE
  5
4f8
100
AcDbEntity
  8
0
 62
7
100
AcDbLine
 10
71.101600
 20
205.601520
 30
0.0
 11
52.601600
 21
205.601520
 31
0.0
  0
SPLINE
  5
4f9
100
AcDbEntity
  8
0
 62
7
100
AcDbSpline
 70
8
 71
3
 72
8
 73
4
 74
0
 40
0
 40
0
 40
0
 40
0
 40
1
 40
1
 40
1
 40
1
 10
52.601600
 20
205.601520
 30
0.0
 10
52.656290
 20
205.601520
 30
0.0
 10
52.703162
 20
205.558520
 30
0.0
 10
52.703162
 20
205.499960
 30
0.0
  0
LINE
  5
4fa
100
AcDbEntity
  8
0
 62
7
100
AcDbLine
 10
52.703162
 20
205.499960
 30
0.0
 11
52.703162
 21
209.499960
 31
0.0
  0
SPLINE
  5
4fb
100
AcDbEntity
  8
0
 62
7
100
AcDbSpline
 70
8
 71
3
 72
8
 73
4
 74
0
 40
0
 40
0
 40
0
 40
0
 40
1
 40
1
 40
1
 40
1
 10
52.703162
 20
209.499960
 30
0.0
 10
52.703162
 20
209.554660
 30
0.0
 10
52.660192
 20
209.601520
 30
0.0
 10
52.601600
 20
209.601520
 30
0.0
  0
LINE
  5
4fc
100
AcDbEntity
  8
0
 62
7
100
AcDbLine
 10
52.601600
 20
209.601520
 30
0.0
 11
32.601600
 21
209.601520
 31
0.0
  0
SPLINE
  5
4fd
100
AcDbEntity
  8
0
 62
7
100
AcDbSpline
 70
8
 71
3
 72
8
 73
4
 74
0
 40
0
 40
0
 40
0
 40
0
 40
1
 40
1
 40
1
 40
1
 10
32.601600
 20
209.601520
 30
0.0
 10
32.546910
 20
209.601520
 30
0.0
 10
32.500037
 20
209.558520
 30
0.0
 10
32.500037
 20
209.499960
 30
0.0
  0
LINE
  5
4fe
100
AcDbEntity
  8
0
 62
7
100
AcDbLine
 10
32.500037
 20
209.499960
 30
0.0
 11
32.500037
 21
205.499960
 31
0.0
  0
SPLINE
  5
4ff
100
AcDbEntity
  8
0
 62
7
100
AcDbSpline
 70
8
 71
3
 72
8
 73
4
 74
0
 40
0
 40
0
 40
0
 40
0
 40
1
 40
1
 40
1
 40
1
 10
32.500037
 20
205.499960
 30
0.0
 10
32.500037
 20
205.554660
 30
0.0
 10
32.543007
 20
205.601520
 30
0.0
 10
32.601600
 20
205.601520
 30
0.0
  0
LINE
  5
500
100
AcDbEntity
  8
0
 62
7
100
AcDbLine
 10
32.601600
 20
205.601520
 30
0.0
 11
14.101600
 21
205.601520
 31
0.0
  0
SPLINE
  5
501
100
AcDbEntity
  8
0
 62
7
100
AcDbSpline
 70
8
 71
3
 72
8
 73
4
 74
0
 40
0
 40
0
 40
0
 40
0
 40
1
 40
1
 40
1
 40
1
 10
14.101600
 20
205.601520
 30
0.0
 10
14.046910
 20
205.601520
 30
0.0
 10
14.000037
 20
205.558520
 30
0.0
 10
14.000037
 20
205.499960
 30
0.0
  0
LINE
  5
502
100
AcDbEntity
  8
0
 62
7
100
AcDbLine
 10
14.000037
 20
205.499960
 30
0.0
 11
14.000037
 21
205.499960
 31
0.0
  0
LINE
  5
503
100
AcDbEntity
  8
0
 62
7
100
AcDbLine
 10
14.000037
 20
205.499960
 30
0.0
 11
14.000037
 21
188.499960
 31
0.0
  0
SPLINE
  5
504
100
AcDbEntity
  8
0
 62
7
100
AcDbSpline
 70
8
 71
3
 72
8
 73
4
 74
0
 40
0
 40
0
 40
0
 40
0
 40
1
 40
1
 40
1
 40
1
 10
14.000037
 20
188.499960
 30
0.0
 10
14.000037
 20
188.554660
 30
0.0
 10
14.043007
 20
188.601520
 30
0.0
 10
14.101600
 20
188.601520
 30
0.0
  0
LINE
  5
505
100
AcDbEntity
  8
0
 62
7
100
AcDbLine
 10
14.101600
 20
188.601520
 30
0.0
 11
10.101600
 21
188.601520
 31
0.0
  0
SPLINE
  5
506
100
AcDbEntity
  8
0
 62
7
100
AcDbSpline
 70
8
 71
3
 72
8
 73
4
 74
0
 40
0
 40
0
 40
0
 40
0
 40
1
 40
1
 40
1
 40
1
 10
10.101600
 20
188.601520
 30
0.0
 10
10.046910
 20
188.601520
 30
0.0
 10
10.000037
 20
188.558520
 30
0.0
 10
10.000037
 20
188.499960
 30
0.0
  0
LINE
  5
507
100
AcDbEntity
  8
0
 62
7
100
AcDbLine
 10
10.000037
 20
188.499960
 30
0.0
 11
10.000037
 21
168.499960
 31
0.0
  0
SPLINE
  5
508
100
AcDbEntity
  8
0
 62
7
100
AcDbSpline
 70
8
 71
3
 72
8
 73
4
 74
0
 40
0
 40
0
 40
0
 40
0
 40
1
 40
1
 40
1
 40
1
 10
10.000037
 20
168.499960
 30
0.0
 10
10.000037
 20
168.445260
 30
0.0
 10
10.043007
 20
168.398400
 30
0.0
 10
10.101600
 20
168.398400
 30
0.0
  0
LINE
  5
509
100
AcDbEntity
  8
0
 62
7
100
AcDbLine
 10
10.101600
 20
168.398400
 30
0.0
 11
14.101600
 21
168.398400
 31
0.0
  0
SPLINE
  5
50a
100
AcDbEntity
  8
0
 62
7
100
AcDbSpline
 70
8
 71
3
 72
8
 73
4
 74
0
 40
0
 40
0
 40
0
 40
0
 40
1
 40
1
 40
1
 40
1
 10
14.101600
 20
168.398400
 30
0.0
 10
14.046910
 20
168.398400
 30
0.0
 10
14.000037
 20
168.441400
 30
0.0
 10
14.000037
 20
168.499960
 30
0.0
  0
LINE
  5
50b
100
AcDbEntity
  8
0
 62
7
100
AcDbLine
 10
14.000037
 20
168.499960
 30
0.0
 11
14.000037
 21
156.499960
 31
0.0
  0
SPLINE
  5
50c
100
AcDbEntity
  8
0
 62
7
100
AcDbSpline
 70
8
 71
3
 72
8
 73
4
 74
0
 40
0
 40
0
 40
0
 40
0
 40
1
 40
1
 40
1
 40
1
 10
14.000037
 20
156.499960
 30
0.0
 10
14.000037
 20
156.554660
 30
0.0
 10
14.043007
 20
156.601520
 30
0.0
 10
14.101600
 20
156.601520
 30
0.0
  0
LINE
  5
50d
100
AcDbEntity
  8
0
 62
7
100
AcDbLine
 10
14.101600
 20
156.601520
 30
0.0
 11
10.101600
 21
156.601520
 31
0.0
  0
SPLINE
  5
50e
100
AcDbEntity
  8
0
 62
7
100
AcDbSpline
 70
8
 71
3
 72
8
 73
4
 74
0
 40
0
 40
0
 40
0
 40
0
 40
1
 40
1
 40
1
 40
1
 10
10.101600
 20
156.601520
 30
0.0
 10
10.046910
 20
156.601520
 30
0.0
 10
10.000037
 20
156.558520
 30
0.0
 10
10.000037
 20
156.499960
 30
0.0
  0
LINE
  5
50f
100
AcDbEntity
  8
0
 62
7
100
AcDbLine
 10
10.000037
 20
156.499960
 30
0.0
 11
10.000037
 21
136.499960
 31
0.0
  0
SPLINE
  5
510
100
AcDbEntity
  8
0
 62
7
100
AcDbSpline
 70
8
 71
3
 72
8
 73
4
 74
0
 40
0
 40
0
 40
0
 40
0
 40
1
 40
1
 40
1
 40
1
 10
10.000037
 20
136.499960
 30
0.0
 10
10.000037
 20
136.445260
 30
0.0
 10
10.043007
 20
136.398400
 30
0.0
 10
10.101600
 20
136.398400
 30
0.0
  0
LINE
  5
511
100
AcDbEntity
  8
0
 62
7
100
AcDbLine
 10
10.101600
 20
136.398400
 30
0.0
 11
14.101600
 21
136.398400
 31
0.0
  0
SPLINE
  5
512
100
AcDbEntity
  8
0
 62
7
100
AcDbSpline
 70
8
 71
3
 72
8
 73
4
 74
0
 40
0
 40
0
 40
0
 40
0
 40
1
 40
1
 40
1
 40
1
 10
14.101600
 20
136.398400
 30
0.0
 10
14.046910
 20
136.398400
 30
0.0
 10
14.000037
 20
136.441400
 30
0.0
 10
14.000037
 20
136.499960
 30
0.0
  0
LINE
  5
513
100
AcDbEntity
  8
0
 62
7
100
AcDbLine
 10
14.000037
 20
136.499960
 30
0.0
 11
14.000038
 21
119.499960
 31
0.0
  0
SPLINE
  5
514
100
AcDbEntity
  8
0
 62
7
100
AcDbSpline
 70
8
 71
3
 72
8
 73
4
 74
0
 40
0
 40
0
 40
0
 40
0
 40
1
 40
1
 40
1
 40
1
 10
14.000038
 20
119.499960
 30
0.0
 10
14.000038
 20
119.445260
 30
0.0
 10
14.043008
 20
119.398400
 30
0.0
 10
14.101600
 20
119.398400
 30
0.0
  0
LINE
  5
515
100
AcDbEntity
  8
0
 62
7
100
AcDbLine
 10
14.101600
 20
119.398400
 30
0.0
 11
14.101600
 21
119.398400
 31
0.0
  0
LINE
  5
516
100
AcDbEntity
  8
0
 62
7
100
AcDbLine
 10
81.300800
 20
27.000000
 30
0.0
 11
98.300800
 21
27.000000
 31
0.0
  0
SPLINE
  5
517
100
AcDbEntity
  8
0
 62
7
100
AcDbSpline
 70
8
 71
3
 72
8
 73
4
 74
0
 40
0
 40
0
 40
0
 40
0
 40
1
 40
1
 40
1
 40
1
 10
98.300800
 20
27.000000
 30
0.0
 10
98.355490
 20
27.000000
 30
0.0
 10
98.402362
 20
27.043000
 30
0.0
 10
98.402362
 20
27.101560
 30
0.0
  0
LINE
  5
518
100
AcDbEntity
  8
0
 62
7
100
AcDbLine
 10
98.402362
 20
27.101560
 30
0.0
 11
98.402362
 21
31.101560
 31
0.0
  0
SPLINE
  5
519
100
AcDbEntity
  8
0
 62
7
100
AcDbSpline
 70
8
 71
3
 72
8
 73
4
 74
0
 40
0
 40
0
 40
0
 40
0
 40
1
 40
1
 40
1
 40
1
 10
98.402362
 20
31.101560
 30
0.0
 10
98.402362
 20
31.046860
 30
0.0
 10
98.359392
 20
31.000000
 30
0.0
 10
98.300800
 20
31.000000
 30
0.0
  0
LINE
  5
51a
100
AcDbEntity
  8
0
 62
7
100
AcDbLine
 10
98.300800
 20
31.000000
 30
0.0
 11
118.300800
 21
31.000000
 31
0.0
  0
SPLINE
  5
51b
100
AcDbEntity
  8
0
 62
7
100
AcDbSpline
 70
8
 71
3
 72
8
 73
4
 74
0
 40
0
 40
0
 40
0
 40
0
 40
1
 40
1
 40
1
 40
1
 10
118.300800
 20
31.000000
 30
0.0
 10
118.246100
 20
31.000000
 30
0.0
 10
118.199240
 20
31.043000
 30
0.0
 10
118.199240
 20
31.101560
 30
0.0
  0
LINE
  5
51c
100
AcDbEntity
  8
0
 62
7
100
AcDbLine
 10
118.199240
 20
31.101560
 30
0.0
 11
118.199240
 21
27.101560
 31
0.0
  0
SPLINE
  5
51d
100
AcDbEntity
  8
0
 62
7
100
AcDbSpline
 70
8
 71
3
 72
8
 73
4
 74
0
 40
0
 40
0
 40
0
 40
0
 40
1
 40
1
 40
1
 40
1
 10
118.199240
 20
27.101560
 30
0.0
 10
118.199240
 20
27.046860
 30
0.0
 10
118.242240
 20
27.000000
 30
0.0
 10
118.300800
 20
27.000000
 30
0.0
  0
LINE
  5
51e
100
AcDbEntity
  8
0
 62
7
100
AcDbLine
 10
118.300800
 20
27.000000
 30
0.0
 11
130.300800
 21
27.000000
 31
0.0
  0
SPLINE
  5
51f
100
AcDbEntity
  8
0
 62
7
100
AcDbSpline
 70
8
 71
3
 72
8
 73
4
 74
0
 40
0
 40
0
 40
0
 40
0
 40
1
 40
1
 40
1
 40
1
 10
130.300800
 20
27.000000
 30
0.0
 10
130.355500
 20
27.000000
 30
0.0
 10
130.402360
 20
27.043000
 30
0.0
 10
130.402360
 20
27.101560
 30
0.0
  0
LINE
  5
520
100
AcDbEntity
  8
0
 62
7
100
AcDbLine
 10
130.402360
 20
27.101560
 30
0.0
 11
130.402360
 21
31.101560
 31
0.0
  0
SPLINE
  5
521
100
AcDbEntity
  8
0
 62
7
100
AcDbSpline
 70
8
 71
3
 72
8
 73
4
 74
0
 40
0
 40
0
 40
0
 40
0
 40
1
 40
1
 40
1
 40
1
 10
130.402360
 20
31.101560
 30
0.0
 10
130.402360
 20
31.046860
 30
0.0
 10
130.359360
 20
31.000000
 30
0.0
 10
130.300800
 20
31.000000
 30
0.0
  0
LINE
  5
522
100
AcDbEntity
  8
0
 62
7
100
AcDbLine
 10
130.300800
 20
31.000000
 30
0.0
 11
150.300800
 21
31.000000
 31
0.0
  0
SPLINE
  5
523
100
AcDbEntity
  8
0
 62
7
100
AcDbSpline
 70
8
 71
3
 72
8
 73
4
 74
0
 40
0
 40
0
 40
0
 40
0
 40
1
 40
1
 40
1
 40
1
 10
150.300800
 20
31.000000
 30
0.0
 10
150.246100
 20
31.000000
 30
0.0
 10
150.199240
 20
31.043000
 30
0.0
 10
150.199240
 20
31.101560
 30
0.0
  0
LINE
  5
524
100
AcDbEntity
  8
0
 62
7
100
AcDbLine
 10
150.199240
 20
31.101560
 30
0.0
 11
150.199240
 21
27.101560
 31
0.0
  0
SPLINE
  5
525
100
AcDbEntity
  8
0
 62
7
100
AcDbSpline
 70
8
 71
3
 72
8
 73
4
 74
0
 40
0
 40
0
 40
0
 40
0
 40
1
 40
1
 40
1
 40
1
 10
150.199240
 20
27.101560
 30
0.0
 10
150.199240
 20
27.046860
 30
0.0
 10
150.242240
 20
27.000000
 30
0.0
 10
150.300800
 20
27.000000
 30
0.0
  0
LINE
  5
526
100
AcDbEntity
  8
0
 62
7
100
AcDbLine
 10
150.300800
 20
27.000000
 30
0.0
 11
167.300800
 21
27.000000
 31
0.0
  0
SPLINE
  5
527
100
AcDbEntity
  8
0
 62
7
100
AcDbSpline
 70
8
 71
3
 72
8
 73
4
 74
0
 40
0
 40
0
 40
0
 40
0
 40
1
 40
1
 40
1
 40
1
 10
167.300800
 20
27.000000
 30
0.0
 10
167.355500
 20
27.000000
 30
0.0
 10
167.402360
 20
27.043000
 30
0.0
 10
167.402360
 20
27.101560
 30
0.0
  0
LINE
  5
528
100
AcDbEntity
  8
0
 62
7
100
AcDbLine
 10
167.402360
 20
27.101560
 30
0.0
 11
167.402360
 21
27.101560
 31
0.0
  0
LINE
  5
529
100
AcDbEntity
  8
0
 62
7
100
AcDbLine
 10
167.402360
 20
27.101560
 30
0.0
 11
167.402360
 21
36.101560
 31
0.0
  0
SPLINE
  5
52a
100
AcDbEntity
  8
0
 62
7
100
AcDbSpline
 70
8
 71
3
 72
8
 73
4
 74
0
 40
0
 40
0
 40
0
 40
0
 40
1
 40
1
 40
1
 40
1
 10
167.402360
 20
36.101560
 30
0.0
 10
167.402360
 20
36.046860
 30
0.0
 10
167.359360
 20
36.000000
 30
0.0
 10
167.300800
 20
36.000000
 30
0.0
  0
LINE
  5
52b
100
AcDbEntity
  8
0
 62
7
100
AcDbLine
 10
167.300800
 20
36.000000
 30
0.0
 11
171.300800
 21
36.000000
 31
0.0
  0
SPLINE
  5
52c
100
AcDbEntity
  8
0
 62
7
100
AcDbSpline
 70
8
 71
3
 72
8
 73
4
 74
0
 40
0
 40
0
 40
0
 40
0
 40
1
 40
1
 40
1
 40
1
 10
171.300800
 20
36.000000
 30
0.0
 10
171.355500
 20
36.000000
 30
0.0
 10
171.402360
 20
36.043000
 30
0.0
 10
171.402360
 20
36.101560
 30
0.0
  0
LINE
  5
52d
100
AcDbEntity
  8
0
 62
7
100
AcDbLine
 10
171.402360
 20
36.101560
 30
0.0
 11
171.402360
 21
56.101560
 31
0.0
  0
SPLINE
  5
52e
100
AcDbEntity
  8
0
 62
7
100
AcDbSpline
 70
8
 71
3
 72
8
 73
4
 74
0
 40
0
 40
0
 40
0
 40
0
 40
1
 40
1
 40
1
 40
1
 10
171.402360
 20
56.101560
 30
0.0
 10
171.402360
 20
56.156260
 30
0.0
 10
171.359360
 20
56.203130
 30
0.0
 10
171.300800
 20
56.203130
 30
0.0
  0
LINE
  5
52f
100
AcDbEntity
  8
0
 62
7
100
AcDbLine
 10
171.300800
 20
56.203130
 30
0.0
 11
167.300800
 21
56.203130
 31
0.0
  0
SPLINE
  5
530
100
AcDbEntity
  8
0
 62
7
100
AcDbSpline
 70
8
 71
3
 72
8
 73
4
 74
0
 40
0
 40
0
 40
0
 40
0
 40
1
 40
1
 40
1
 40
1
 10
167.300800
 20
56.203130
 30
0.0
 10
167.355500
 20
56.203130
 30
0.0
 10
167.402360
 20
56.160130
 30
0.0
 10
167.402360
 20
56.101560
 30
0.0
  0
LINE
  5
531
100
AcDbEntity
  8
0
 62
7
100
AcDbLine
 10
167.402360
 20
56.101560
 30
0.0
 11
167.402360
 21
65.101560
 31
0.0
  0
LINE
  5
532
100
AcDbEntity
  8
0
 62
7
100
AcDbLine
 10
167.402360
 20
65.101560
 30
0.0
 11
167.402360
 21
69.101560
 31
0.0
  0
SPLINE
  5
533
100
AcDbEntity
  8
0
 62
7
100
AcDbSpline
 70
8
 71
3
 72
8
 73
4
 74
0
 40
0
 40
0
 40
0
 40
0
 40
1
 40
1
 40
1
 40
1
 10
167.402360
 20
69.101560
 30
0.0
 10
167.402360
 20
69.156260
 30
0.0
 10
167.359360
 20
69.203130
 30
0.0
 10
167.300800
 20
69.203130
 30
0.0
  0
LINE
  5
534
100
AcDbEntity
  8
0
 62
7
100
AcDbLine
 10
167.300800
 20
69.203130
 30
0.0
 11
167.300800
 21
69.203130
 31
0.0
  0
LINE
  5
535
100
AcDbEntity
  8
0
 62
7
100
AcDbLine
 10
167.300800
 20
69.203130
 30
0.0
 11
150.300800
 21
69.203130
 31
0.0
  0
SPLINE
  5
536
100
AcDbEntity
  8
0
 62
7
100
AcDbSpline
 70
8
 71
3
 72
8
 73
4
 74
0
 40
0
 40
0
 40
0
 40
0
 40
1
 40
1
 40
1
 40
1
 10
150.300800
 20
69.203130
 30
0.0
 10
150.246100
 20
69.203130
 30
0.0
 10
150.199240
 20
69.160130
 30
0.0
 10
150.199240
 20
69.101560
 30
0.0
  0
LINE
  5
537
100
AcDbEntity
  8
0
 62
7
100
AcDbLine
 10
150.199240
 20
69.101560
 30
0.0
 11
150.199240
 21
65.101560
 31
0.0
  0
SPLINE
  5
538
100
AcDbEntity
  8
0
 62
7
100
AcDbSpline
 70
8
 71
3
 72
8
 73
4
 74
0
 40
0
 40
0
 40
0
 40
0
 40
1
 40
1
 40
1
 40
1
 10
150.199240
 20
65.101560
 30
0.0
 10
150.199240
 20
65.156260
 30
0.0
 10
150.242240
 20
65.203130
 30
0.0
 10
150.300800
 20
65.203130
 30
0.0
  0
LINE
  5
539
100
AcDbEntity
  8
0
 62
7
100
AcDbLine
 10
150.300800
 20
65.203130
 30
0.0
 11
130.300800
 21
65.203130
 31
0.0
  0
SPLINE
  5
53a
100
AcDbEntity
  8
0
 62
7
100
AcDbSpline
 70
8
 71
3
 72
8
 73
4
 74
0
 40
0
 40
0
 40
0
 40
0
 40
1
 40
1
 40
1
 40
1
 10
130.300800
 20
65.203130
 30
0.0
 10
130.355500
 20
65.203130
 30
0.0
 10
130.402360
 20
65.160130
 30
0.0
 10
130.402360
 20
65.101560
 30
0.0
  0
LINE
  5
53b
100
AcDbEntity
  8
0
 62
7
100
AcDbLine
 10
130.402360
 20
65.101560
 30
0.0
 11
130.402360
 21
69.101560
 31
0.0
  0
SPLINE
  5
53c
100
AcDbEntity
  8
0
 62
7
100
AcDbSpline
 70
8
 71
3
 72
8
 73
4
 74
0
 40
0
 40
0
 40
0
 40
0
 40
1
 40
1
 40
1
 40
1
 10
130.402360
 20
69.101560
 30
0.0
 10
130.402360
 20
69.156260
 30
0.0
 10
130.359360
 20
69.203130
 30
0.0
 10
130.300800
 20
69.203130
 30
0.0
  0
LINE
  5
53d
100
AcDbEntity
  8
0
 62
7
100
AcDbLine
 10
130.300800
 20
69.203130
 30
0.0
 11
118.300800
 21
69.203130
 31
0.0
  0
SPLINE
  5
53e
100
AcDbEntity
  8
0
 62
7
100
AcDbSpline
 70
8
 71
3
 72
8
 73
4
 74
0
 40
0
 40
0
 40
0
 40
0
 40
1
 40
1
 40
1
 40
1
 10
118.300800
 20
69.203130
 30
0.0
 10
118.246100
 20
69.203130
 30
0.0
 10
118.199240
 20
69.160130
 30
0.0
 10
118.199240
 20
69.101560
 30
0.0
  0
LINE
  5
53f
100
AcDbEntity
  8
0
 62
7
100
AcDbLine
 10
118.199240
 20
69.101560
 30
0.0
 11
118.199240
 21
65.101560
 31
0.0
  0
SPLINE
  5
540
100
AcDbEntity
  8
0
 62
7
100
AcDbSpline
 70
8
 71
3
 72
8
 73
4
 74
0
 40
0
 40
0
 40
0
 40
0
 40
1
 40
1
 40
1
 40
1
 10
118.199240
 20
65.101560
 30
0.0
 10
118.199240
 20
65.156260
 30
0.0
 10
118.242240
 20
65.203130
 30
0.0
 10
118.300800
 20
65.203130
 30
0.0
  0
LINE
  5
541
100
AcDbEntity
  8
0
 62
7
100
AcDbLine
 10
118.300800
 20
65.203130
 30
0.0
 11
98.300800
 21
65.203130
 31
0.0
  0
SPLINE
  5
542
100
AcDbEntity
  8
0
 62
7
100
AcDbSpline
 70
8
 71
3
 72
8
 73
4
 74
0
 40
0
 40
0
 40
0
 40
0
 40
1
 40
1
 40
1
 40
1
 10
98.300800
 20
65.203130
 30
0.0
 10
98.355490
 20
65.203130
 30
0.0
 10
98.402362
 20
65.160130
 30
0.0
 10
98.402362
 20
65.101560
 30
0.0
  0
LINE
  5
543
100
AcDbEntity
  8
0
 62
7
100
AcDbLine
 10
98.402362
 20
65.101560
 30
0.0
 11
98.402362
 21
69.101560
 31
0.0
  0
SPLINE
  5
544
100
AcDbEntity
  8
0
 62
7
100
AcDbSpline
 70
8
 71
3
 72
8
 73
4
 74
0
 40
0
 40
0
 40
0
 40
0
 40
1
 40
1
 40
1
 40
1
 10
98.402362
 20
69.101560
 30
0.0
 10
98.402362
 20
69.156260
 30
0.0
 10
98.359392
 20
69.203130
 30
0.0
 10
98.300800
 20
69.203130
 30
0.0
  0
LINE
  5
545
100
AcDbEntity
  8
0
 62
7
100
AcDbLine
 10
98.300800
 20
69.203130
 30
0.0
 11
81.300800
 21
69.203130
 31
0.0
  0
SPLINE
  5
546
100
AcDbEntity
  8
0
 62
7
100
AcDbSpline
 70
8
 71
3
 72
8
 73
4
 74
0
 40
0
 40
0
 40
0
 40
0
 40
1
 40
1
 40
1
 40
1
 10
81.300800
 20
69.203130
 30
0.0
 10
81.246110
 20
69.203130
 30
0.0
 10
81.199238
 20
69.160130
 30
0.0
 10
81.199238
 20
69.101560
 30
0.0
  0
LINE
  5
547
100
AcDbEntity
  8
0
 62
7
100
AcDbLine
 10
81.199238
 20
69.101560
 30
0.0
 11
81.199238
 21
65.101560
 31
0.0
  0
LINE
  5
548
100
AcDbEntity
  8
0
 62
7
100
AcDbLine
 10
81.199238
 20
65.101560
 30
0.0
 11
81.199238
 21
56.101560
 31
0.0
  0
SPLINE
  5
549
100
AcDbEntity
  8
0
 62
7
100
AcDbSpline
 70
8
 71
3
 72
8
 73
4
 74
0
 40
0
 40
0
 40
0
 40
0
 40
1
 40
1
 40
1
 40
1
 10
81.199238
 20
56.101560
 30
0.0
 10
81.199238
 20
56.156260
 30
0.0
 10
81.242208
 20
56.203130
 30
0.0
 10
81.300800
 20
56.203130
 30
0.0
  0
LINE
  5
54a
100
AcDbEntity
  8
0
 62
7
100
AcDbLine
 10
81.300800
 20
56.203130
 30
0.0
 11
77.300800
 21
56.203130
 31
0.0
  0
SPLINE
  5
54b
100
AcDbEntity
  8
0
 62
7
100
AcDbSpline
 70
8
 71
3
 72
8
 73
4
 74
0
 40
0
 40
0
 40
0
 40
0
 40
1
 40
1
 40
1
 40
1
 10
77.300800
 20
56.203130
 30
0.0
 10
77.246110
 20
56.203130
 30
0.0
 10
77.199238
 20
56.160130
 30
0.0
 10
77.199238
 20
56.101560
 30
0.0
  0
LINE
  5
54c
100
AcDbEntity
  8
0
 62
7
100
AcDbLine
 10
77.199238
 20
56.101560
 30
0.0
 11
77.199238
 21
36.101560
 31
0.0
  0
SPLINE
  5
54d
100
AcDbEntity
  8
0
 62
7
100
AcDbSpline
 70
8
 71
3
 72
8
 73
4
 74
0
 40
0
 40
0
 40
0
 40
0
 40
1
 40
1
 40
1
 40
1
 10
77.199238
 20
36.101560
 30
0.0
 10
77.199238
 20
36.046860
 30
0.0
 10
77.242208
 20
36.000000
 30
0.0
 10
77.300800
 20
36.000000
 30
0.0
  0
LINE
  5
54e
100
AcDbEntity
  8
0
 62
7
100
AcDbLine
 10
77.300800
 20
36.000000
 30
0.0
 11
81.300800
 21
36.000000
 31
0.0
  0
SPLINE
  5
54f
100
AcDbEntity
  8
0
 62
7
100
AcDbSpline
 70
8
 71
3
 72
8
 73
4
 74
0
 40
0
 40
0
 40
0
 40
0
 40
1
 40
1
 40
1
 40
1
 10
81.300800
 20
36.000000
 30
0.0
 10
81.246110
 20
36.000000
 30
0.0
 10
81.199238
 20
36.043000
 30
0.0
 10
81.199238
 20
36.101560
 30
0.0
  0
LINE
  5
550
100
AcDbEntity
  8
0
 62
7
100
AcDbLine
 10
81.199238
 20
36.101560
 30
0.0
 11
81.199238
 21
27.101560
 31
0.0
  0
SPLINE
  5
551
100
AcDbEntity
  8
0
 62
7
100
AcDbSpline
 70
8
 71
3
 72
8
 73
4
 74
0
 40
0
 40
0
 40
0
 40
0
 40
1
 40
1
 40
1
 40
1
 10
81.199238
 20
27.101560
 30
0.0
 10
81.199238
 20
27.046860
 30
0.0
 10
81.242208
 20
27.000000
 30
0.0
 10
81.300800
 20
27.000000
 30
0.0
  0
LINE
  5
552
100
AcDbEntity
  8
0
 62
7
100
AcDbLine
 10
81.300800
 20
27.000000
 30
0.0
 11
81.300800
 21
27.000000
 31
0.0
  0
LINE
  5
553
100
AcDbEntity
  8
0
 62
7
100
AcDbLine
 10
81.300800
 20
71.199200
 30
0.0
 11
98.300800
 21
71.199200
 31
0.0
  0
SPLINE
  5
554
100
AcDbEntity
  8
0
 62
7
100
AcDbSpline
 70
8
 71
3
 72
8
 73
4
 74
0
 40
0
 40
0
 40
0
 40
0
 40
1
 40
1
 40
1
 40
1
 10
98.300800
 20
71.199200
 30
0.0
 10
98.355490
 20
71.199200
 30
0.0
 10
98.402362
 20
71.242200
 30
0.0
 10
98.402362
 20
71.300760
 30
0.0
  0
LINE
  5
555
100
AcDbEntity
  8
0
 62
7
100
AcDbLine
 10
98.402362
 20
71.300760
 30
0.0
 11
98.402362
 21
75.300760
 31
0.0
  0
SPLINE
  5
556
100
AcDbEntity
  8
0
 62
7
100
AcDbSpline
 70
8
 71
3
 72
8
 73
4
 74
0
 40
0
 40
0
 40
0
 40
0
 40
1
 40
1
 40
1
 40
1
 10
98.402362
 20
75.300760
 30
0.0
 10
98.402362
 20
75.246060
 30
0.0
 10
98.359392
 20
75.199200
 30
0.0
 10
98.300800
 20
75.199200
 30
0.0
  0
LINE
  5
557
100
AcDbEntity
  8
0
 62
7
100
AcDbLine
 10
98.300800
 20
75.199200
 30
0.0
 11
118.300800
 21
75.199200
 31
0.0
  0
SPLINE
  5
558
100
AcDbEntity
  8
0
 62
7
100
AcDbSpline
 70
8
 71
3
 72
8
 73
4
 74
0
 40
0
 40
0
 40
0
 40
0
 40
1
 40
1
 40
1
 40
1
 10
118.300800
 20
75.199200
 30
0.0
 10
118.246100
 20
75.199200
 30
0.0
 10
118.199240
 20
75.242200
 30
0.0
 10
118.199240
 20
75.300760
 30
0.0
  0
LINE
  5
559
100
AcDbEntity
  8
0
 62
7
100
AcDbLine
 10
118.199240
 20
75.300760
 30
0.0
 11
118.199240
 21
71.300760
 31
0.0
  0
SPLINE
  5
55a
100
AcDbEntity
  8
0
 62
7
100
AcDbSpline
 70
8
 71
3
 72
8
 73
4
 74
0
 40
0
 40
0
 40
0
 40
0
 40
1
 40
1
 40
1
 40
1
 10
118.199240
 20
71.300760
 30
0.0
 10
118.199240
 20
71.246060
 30
0.0
 10
118.242240
 20
71.199200
 30
0.0
 10
118.300800
 20
71.199200
 30
0.0
  0
LINE
  5
55b
100
AcDbEntity
  8
0
 62
7
100
AcDbLine
 10
118.300800
 20
71.199200
 30
0.0
 11
130.300800
 21
71.199200
 31
0.0
  0
SPLINE
  5
55c
100
AcDbEntity
  8
0
 62
7
100
AcDbSpline
 70
8
 71
3
 72
8
 73
4
 74
0
 40
0
 40
0
 40
0
 40
0
 40
1
 40
1
 40
1
 40
1
 10
130.300800
 20
71.199200
 30
0.0
 10
130.355500
 20
71.199200
 30
0.0
 10
130.402360
 20
71.242200
 30
0.0
 10
130.402360
 20
71.300760
 30
0.0
  0
LINE
  5
55d
100
AcDbEntity
  8
0
 62
7
100
AcDbLine
 10
130.402360
 20
71.300760
 30
0.0
 11
130.402360
 21
75.300760
 31
0.0
  0
SPLINE
  5
55e
100
AcDbEntity
  8
0
 62
7
100
AcDbSpline
 70
8
 71
3
 72
8
 73
4
 74
0
 40
0
 40
0
 40
0
 40
0
 40
1
 40
1
 40
1
 40
1
 10
130.402360
 20
75.300760
 30
0.0
 10
130.402360
 20
75.246060
 30
0.0
 10
130.359360
 20
75.199200
 30
0.0
 10
130.300800
 20
75.199200
 30
0.0
  0
LINE
  5
55f
100
AcDbEntity
  8
0
 62
7
100
AcDbLine
 10
130.300800
 20
75.199200
 30
0.0
 11
150.300800
 21
75.199200
 31
0.0
  0
SPLINE
  5
560
100
AcDbEntity
  8
0
 62
7
100
AcDbSpline
 70
8
 71
3
 72
8
 73
4
 74
0
 40
0
 40
0
 40
0
 40
0
 40
1
 40
1
 40
1
 40
1
 10
150.300800
 20
75.199200
 30
0.0
 10
150.246100
 20
75.199200
 30
0.0
 10
150.199240
 20
75.242200
 30
0.0
 10
150.199240
 20
75.300760
 30
0.0
  0
LINE
  5
561
100
AcDbEntity
  8
0
 62
7
100
AcDbLine
 10
150.199240
 20
75.300760
 30
0.0
 11
150.199240
 21
71.300760
 31
0.0
  0
SPLINE
  5
562
100
AcDbEntity
  8
0
 62
7
100
AcDbSpline
 70
8
 71
3
 72
8
 73
4
 74
0
 40
0
 40
0
 40
0
 40
0
 40
1
 40
1
 40
1
 40
1
 10
150.199240
 20
71.300760
 30
0.0
 10
150.199240
 20
71.246060
 30
0.0
 10
150.242240
 20
71.199200
 30
0.0
 10
150.300800
 20
71.199200
 30
0.0
  0
LINE
  5
563
100
AcDbEntity
  8
0
 62
7
100
AcDbLine
 10
150.300800
 20
71.199200
 30
0.0
 11
167.300800
 21
71.199200
 31
0.0
  0
SPLINE
  5
564
100
AcDbEntity
  8
0
 62
7
100
AcDbSpline
 70
8
 71
3
 72
8
 73
4
 74
0
 40
0
 40
0
 40
0
 40
0
 40
1
 40
1
 40
1
 40
1
 10
167.300800
 20
71.199200
 30
0.0
 10
167.355500
 20
71.199200
 30
0.0
 10
167.402360
 20
71.242200
 30
0.0
 10
167.402360
 20
71.300760
 30
0.0
  0
LINE
  5
565
100
AcDbEntity
  8
0
 62
7
100
AcDbLine
 10
167.402360
 20
71.300760
 30
0.0
 11
167.402360
 21
71.300760
 31
0.0
  0
LINE
  5
566
100
AcDbEntity
  8
0
 62
7
100
AcDbLine
 10
167.402360
 20
71.300760
 30
0.0
 11
167.402360
 21
80.300760
 31
0.0
  0
SPLINE
  5
567
100
AcDbEntity
  8
0
 62
7
100
AcDbSpline
 70
8
 71
3
 72
8
 73
4
 74
0
 40
0
 40
0
 40
0
 40
0
 40
1
 40
1
 40
1
 40
1
 10
167.402360
 20
80.300760
 30
0.0
 10
167.402360
 20
80.246060
 30
0.0
 10
167.359360
 20
80.199200
 30
0.0
 10
167.300800
 20
80.199200
 30
0.0
  0
LINE
  5
568
100
AcDbEntity
  8
0
 62
7
100
AcDbLine
 10
167.300800
 20
80.199200
 30
0.0
 11
171.300800
 21
80.199200
 31
0.0
  0
SPLINE
  5
569
100
AcDbEntity
  8
0
 62
7
100
AcDbSpline
 70
8
 71
3
 72
8
 73
4
 74
0
 40
0
 40
0
 40
0
 40
0
 40
1
 40
1
 40
1
 40
1
 10
171.300800
 20
80.199200
 30
0.0
 10
171.355500
 20
80.199200
 30
0.0
 10
171.402360
 20
80.242200
 30
0.0
 10
171.402360
 20
80.300760
 30
0.0
  0
LINE
  5
56a
100
AcDbEntity
  8
0
 62
7
100
AcDbLine
 10
171.402360
 20
80.300760
 30
0.0
 11
171.402360
 21
100.300760
 31
0.0
  0
SPLINE
  5
56b
100
AcDbEntity
  8
0
 62
7
100
AcDbSpline
 70
8
 71
3
 72
8
 73
4
 74
0
 40
0
 40
0
 40
0
 40
0
 40
1
 40
1
 40
1
 40
1
 10
171.402360
 20
100.300760
 30
0.0
 10
171.402360
 20
100.355460
 30
0.0
 10
171.359360
 20
100.402330
 30
0.0
 10
171.300800
 20
100.402330
 30
0.0
  0
LINE
  5
56c
100
AcDbEntity
  8
0
 62
7
100
AcDbLine
 10
171.300800
 20
100.402330
 30
0.0
 11
167.300800
 21
100.402330
 31
0.0
  0
SPLINE
  5
56d
100
AcDbEntity
  8
0
 62
7
100
AcDbSpline
 70
8
 71
3
 72
8
 73
4
 74
0
 40
0
 40
0
 40
0
 40
0
 40
1
 40
1
 40
1
 40
1
 10
167.300800
 20
100.402330
 30
0.0
 10
167.355500
 20
100.402330
 30
0.0
 10
167.402360
 20
100.359330
 30
0.0
 10
167.402360
 20
100.300760
 30
0.0
  0
LINE
  5
56e
100
AcDbEntity
  8
0
 62
7
100
AcDbLine
 10
167.402360
 20
100.300760
 30
0.0
 11
167.402360
 21
109.300760
 31
0.0
  0
LINE
  5
56f
100
AcDbEntity
  8
0
 62
7
100
AcDbLine
 10
167.402360
 20
109.300760
 30
0.0
 11
167.402360
 21
113.300760
 31
0.0
  0
SPLINE
  5
570
100
AcDbEntity
  8
0
 62
7
100
AcDbSpline
 70
8
 71
3
 72
8
 73
4
 74
0
 40
0
 40
0
 40
0
 40
0
 40
1
 40
1
 40
1
 40
1
 10
167.402360
 20
113.300760
 30
0.0
 10
167.402360
 20
113.355460
 30
0.0
 10
167.359360
 20
113.402330
 30
0.0
 10
167.300800
 20
113.402330
 30
0.0
  0
LINE
  5
571
100
AcDbEntity
  8
0
 62
7
100
AcDbLine
 10
167.300800
 20
113.402330
 30
0.0
 11
167.300800
 21
113.402330
 31
0.0
  0
LINE
  5
572
100
AcDbEntity
  8
0
 62
7
100
AcDbLine
 10
167.300800
 20
113.402330
 30
0.0
 11
150.300800
 21
113.402330
 31
0.0
  0
SPLINE
  5
573
100
AcDbEntity
  8
0
 62
7
100
AcDbSpline
 70
8
 71
3
 72
8
 73
4
 74
0
 40
0
 40
0
 40
0
 40
0
 40
1
 40
1
 40
1
 40
1
 10
150.300800
 20
113.402330
 30
0.0
 10
150.246100
 20
113.402330
 30
0.0
 10
150.199240
 20
113.359330
 30
0.0
 10
150.199240
 20
113.300760
 30
0.0
  0
LINE
  5
574
100
AcDbEntity
  8
0
 62
7
100
AcDbLine
 10
150.199240
 20
113.300760
 30
0.0
 11
150.199240
 21
109.300760
 31
0.0
  0
SPLINE
  5
575
100
AcDbEntity
  8
0
 62
7
100
AcDbSpline
 70
8
 71
3
 72
8
 73
4
 74
0
 40
0
 40
0
 40
0
 40
0
 40
1
 40
1
 40
1
 40
1
 10
150.199240
 20
109.300760
 30
0.0
 10
150.199240
 20
109.355460
 30
0.0
 10
150.242240
 20
109.402330
 30
0.0
 10
150.300800
 20
109.402330
 30
0.0
  0
LINE
  5
576
100
AcDbEntity
  8
0
 62
7
100
AcDbLine
 10
150.300800
 20
109.402330
 30
0.0
 11
130.300800
 21
109.402330
 31
0.0
  0
SPLINE
  5
577
100
AcDbEntity
  8
0
 62
7
100
AcDbSpline
 70
8
 71
3
 72
8
 73
4
 74
0
 40
0
 40
0
 40
0
 40
0
 40
1
 40
1
 40
1
 40
1
 10
130.300800
 20
109.402330
 30
0.0
 10
130.355500
 20
109.402330
 30
0.0
 10
130.402360
 20
109.359330
 30
0.0
 10
130.402360
 20
109.300760
 30
0.0
  0
LINE
  5
578
100
AcDbEntity
  8
0
 62
7
100
AcDbLine
 10
130.402360
 20
109.300760
 30
0.0
 11
130.402360
 21
113.300760
 31
0.0
  0
SPLINE
  5
579
100
AcDbEntity
  8
0
 62
7
100
AcDbSpline
 70
8
 71
3
 72
8
 73
4
 74
0
 40
0
 40
0
 40
0
 40
0
 40
1
 40
1
 40
1
 40
1
 10
130.402360
 20
113.300760
 30
0.0
 10
130.402360
 20
113.355460
 30
0.0
 10
130.359360
 20
113.402330
 30
0.0
 10
130.300800
 20
113.402330
 30
0.0
  0
LINE
  5
57a
100
AcDbEntity
  8
0
 62
7
100
AcDbLine
 10
130.300800
 20
113.402330
 30
0.0
 11
118.300800
 21
113.402330
 31
0.0
  0
SPLINE
  5
57b
100
AcDbEntity
  8
0
 62
7
100
AcDbSpline
 70
8
 71
3
 72
8
 73
4
 74
0
 40
0
 40
0
 40
0
 40
0
 40
1
 40
1
 40
1
 40
1
 10
118.300800
 20
113.402330
 30
0.0
 10
118.246100
 20
113.402330
 30
0.0
 10
118.199240
 20
113.359330
 30
0.0
 10
118.199240
 20
113.300760
 30
0.0
  0
LINE
  5
57c
100
AcDbEntity
  8
0
 62
7
100
AcDbLine
 10
118.199240
 20
113.300760
 30
0.0
 11
118.199240
 21
109.300760
 31
0.0
  0
SPLINE
  5
57d
100
AcDbEntity
  8
0
 62
7
100
AcDbSpline
 70
8
 71
3
 72
8
 73
4
 74
0
 40
0
 40
0
 40
0
 40
0
 40
1
 40
1
 40
1
 40
1
 10
118.199240
 20
109.300760
 30
0.0
 10
118.199240
 20
109.355460
 30
0.0
 10
118.242240
 20
109.402330
 30
0.0
 10
118.300800
 20
109.402330
 30
0.0
  0
LINE
  5
57e
100
AcDbEntity
  8
0
 62
7
100
AcDbLine
 10
118.300800
 20
109.402330
 30
0.0
 11
98.300800
 21
109.402330
 31
0.0
  0
SPLINE
  5
57f
100
AcDbEntity
  8
0
 62
7
100
AcDbSpline
 70
8
 71
3
 72
8
 73
4
 74
0
 40
0
 40
0
 40
0
 40
0
 40
1
 40
1
 40
1
 40
1
 10
98.300800
 20
109.402330
 30
0.0
 10
98.355490
 20
109.402330
 30
0.0
 10
98.402362
 20
109.359330
 30
0.0
 10
98.402362
 20
109.300760
 30
0.0
  0
LINE
  5
580
100
AcDbEntity
  8
0
 62
7
100
AcDbLine
 10
98.402362
 20
109.300760
 30
0.0
 11
98.402362
 21
113.300760
 31
0.0
  0
SPLINE
  5
581
100
AcDbEntity
  8
0
 62
7
100
AcDbSpline
 70
8
 71
3
 72
8
 73
4
 74
0
 40
0
 40
0
 40
0
 40
0
 40
1
 40
1
 40
1
 40
1
 10
98.402362
 20
113.300760
 30
0.0
 10
98.402362
 20
113.355460
 30
0.0
 10
98.359392
 20
113.402330
 30
0.0
 10
98.300800
 20
113.402330
 30
0.0
  0
LINE
  5
582
100
AcDbEntity
  8
0
 62
7
100
AcDbLine
 10
98.300800
 20
113.402330
 30
0.0
 11
81.300800
 21
113.402330
 31
0.0
  0
SPLINE
  5
583
100
AcDbEntity
  8
0
 62
7
100
AcDbSpline
 70
8
 71
3
 72
8
 73
4
 74
0
 40
0
 40
0
 40
0
 40
0
 40
1
 40
1
 40
1
 40
1
 10
81.300800
 20
113.402330
 30
0.0
 10
81.246110
 20
113.402330
 30
0.0
 10
81.199237
 20
113.359330
 30
0.0
 10
81.199237
 20
113.300760
 30
0.0
  0
LINE
  5
584
100
AcDbEntity
  8
0
 62
7
100
AcDbLine
 10
81.199237
 20
113.300760
 30
0.0
 11
81.199237
 21
109.300760
 31
0.0
  0
LINE
  5
585
100
AcDbEntity
  8
0
 62
7
100
AcDbLine
 10
81.199237
 20
109.300760
 30
0.0
 11
81.199237
 21
100.300760
 31
0.0
  0
SPLINE
  5
586
100
AcDbEntity
  8
0
 62
7
100
AcDbSpline
 70
8
 71
3
 72
8
 73
4
 74
0
 40
0
 40
0
 40
0
 40
0
 40
1
 40
1
 40
1
 40
1
 10
81.199237
 20
100.300760
 30
0.0
 10
81.199237
 20
100.355460
 30
0.0
 10
81.242207
 20
100.402330
 30
0.0
 10
81.300800
 20
100.402330
 30
0.0
  0
LINE
  5
587
100
AcDbEntity
  8
0
 62
7
100
AcDbLine
 10
81.300800
 20
100.402330
 30
0.0
 11
77.300800
 21
100.402330
 31
0.0
  0
SPLINE
  5
588
100
AcDbEntity
  8
0
 62
7
100
AcDbSpline
 70
8
 71
3
 72
8
 73
4
 74
0
 40
0
 40
0
 40
0
 40
0
 40
1
 40
1
 40
1
 40
1
 10
77.300800
 20
100.402330
 30
0.0
 10
77.246110
 20
100.402330
 30
0.0
 10
77.199237
 20
100.359330
 30
0.0
 10
77.199237
 20
100.300760
 30
0.0
  0
LINE
  5
589
100
AcDbEntity
  8
0
 62
7
100
AcDbLine
 10
77.199237
 20
100.300760
 30
0.0
 11
77.199237
 21
80.300760
 31
0.0
  0
SPLINE
  5
58a
100
AcDbEntity
  8
0
 62
7
100
AcDbSpline
 70
8
 71
3
 72
8
 73
4
 74
0
 40
0
 40
0
 40
0
 40
0
 40
1
 40
1
 40
1
 40
1
 10
77.199237
 20
80.300760
 30
0.0
 10
77.199237
 20
80.246060
 30
0.0
 10
77.242207
 20
80.199200
 30
0.0
 10
77.300800
 20
80.199200
 30
0.0
  0
LINE
  5
58b
100
AcDbEntity
  8
0
 62
7
100
AcDbLine
 10
77.300800
 20
80.199200
 30
0.0
 11
81.300800
 21
80.199200
 31
0.0
  0
SPLINE
  5
58c
100
AcDbEntity
  8
0
 62
7
100
AcDbSpline
 70
8
 71
3
 72
8
 73
4
 74
0
 40
0
 40
0
 40
0
 40
0
 40
1
 40
1
 40
1
 40
1
 10
81.300800
 20
80.199200
 30
0.0
 10
81.246110
 20
80.199200
 30
0.0
 10
81.199237
 20
80.242200
 30
0.0
 10
81.199237
 20
80.300760
 30
0.0
  0
LINE
  5
58d
100
AcDbEntity
  8
0
 62
7
100
AcDbLine
 10
81.199237
 20
80.300760
 30
0.0
 11
81.199238
 21
71.300760
 31
0.0
  0
SPLINE
  5
58e
100
AcDbEntity
  8
0
 62
7
100
AcDbSpline
 70
8
 71
3
 72
8
 73
4
 74
0
 40
0
 40
0
 40
0
 40
0
 40
1
 40
1
 40
1
 40
1
 10
81.199238
 20
71.300760
 30
0.0
 10
81.199238
 20
71.246060
 30
0.0
 10
81.242208
 20
71.199200
 30
0.0
 10
81.300800
 20
71.199200
 30
0.0
  0
LINE
  5
58f
100
AcDbEntity
  8
0
 62
7
100
AcDbLine
 10
81.300800
 20
71.199200
 30
0.0
 11
81.300800
 21
71.199200
 31
0.0
  0
LINE
  5
590
100
AcDbEntity
  8
0
 62
7
100
AcDbLine
 10
97.074240
 20
118.862210
 30
0.0
 11
115.574240
 21
118.862210
 31
0.0
  0
SPLINE
  5
591
100
AcDbEntity
  8
0
 62
7
100
AcDbSpline
 70
8
 71
3
 72
8
 73
4
 74
0
 40
0
 40
0
 40
0
 40
0
 40
1
 40
1
 40
1
 40
1
 10
115.574240
 20
118.862210
 30
0.0
 10
115.519540
 20
118.862210
 30
0.0
 10
115.472680
 20
118.905210
 30
0.0
 10
115.472680
 20
118.963770
 30
0.0
  0
LINE
  5
592
100
AcDbEntity
  8
0
 62
7
100
AcDbLine
 10
115.472680
 20
118.963770
 30
0.0
 11
115.472680
 21
114.963770
 31
0.0
  0
SPLINE
  5
593
100
AcDbEntity
  8
0
 62
7
100
AcDbSpline
 70
8
 71
3
 72
8
 73
4
 74
0
 40
0
 40
0
 40
0
 40
0
 40
1
 40
1
 40
1
 40
1
 10
115.472680
 20
114.963770
 30
0.0
 10
115.472680
 20
114.909070
 30
0.0
 10
115.515680
 20
114.862210
 30
0.0
 10
115.574240
 20
114.862210
 30
0.0
  0
LINE
  5
594
100
AcDbEntity
  8
0
 62
7
100
AcDbLine
 10
115.574240
 20
114.862210
 30
0.0
 11
135.574240
 21
114.862210
 31
0.0
  0
SPLINE
  5
595
100
AcDbEntity
  8
0
 62
7
100
AcDbSpline
 70
8
 71
3
 72
8
 73
4
 74
0
 40
0
 40
0
 40
0
 40
0
 40
1
 40
1
 40
1
 40
1
 10
135.574240
 20
114.862210
 30
0.0
 10
135.628940
 20
114.862210
 30
0.0
 10
135.675800
 20
114.905210
 30
0.0
 10
135.675800
 20
114.963770
 30
0.0
  0
LINE
  5
596
100
AcDbEntity
  8
0
 62
7
100
AcDbLine
 10
135.675800
 20
114.963770
 30
0.0
 11
135.675800
 21
118.963770
 31
0.0
  0
SPLINE
  5
597
100
AcDbEntity
  8
0
 62
7
100
AcDbSpline
 70
8
 71
3
 72
8
 73
4
 74
0
 40
0
 40
0
 40
0
 40
0
 40
1
 40
1
 40
1
 40
1
 10
135.675800
 20
118.963770
 30
0.0
 10
135.675800
 20
118.909070
 30
0.0
 10
135.632800
 20
118.862210
 30
0.0
 10
135.574240
 20
118.862210
 30
0.0
  0
LINE
  5
598
100
AcDbEntity
  8
0
 62
7
100
AcDbLine
 10
135.574240
 20
118.862210
 30
0.0
 11
154.074240
 21
118.862210
 31
0.0
  0
SPLINE
  5
599
100
AcDbEntity
  8
0
 62
7
100
AcDbSpline
 70
8
 71
3
 72
8
 73
4
 74
0
 40
0
 40
0
 40
0
 40
0
 40
1
 40
1
 40
1
 40
1
 10
154.074240
 20
118.862210
 30
0.0
 10
154.128940
 20
118.862210
 30
0.0
 10
154.175800
 20
118.905210
 30
0.0
 10
154.175800
 20
118.963770
 30
0.0
  0
LINE
  5
59a
100
AcDbEntity
  8
0
 62
7
100
AcDbLine
 10
154.175800
 20
118.963770
 30
0.0
 11
154.175800
 21
118.963770
 31
0.0
  0
LINE
  5
59b
100
AcDbEntity
  8
0
 62
7
100
AcDbLine
 10
154.175800
 20
118.963770
 30
0.0
 11
154.175800
 21
135.963770
 31
0.0
  0
SPLINE
  5
59c
100
AcDbEntity
  8
0
 62
7
100
AcDbSpline
 70
8
 71
3
 72
8
 73
4
 74
0
 40
0
 40
0
 40
0
 40
0
 40
1
 40
1
 40
1
 40
1
 10
154.175800
 20
135.963770
 30
0.0
 10
154.175800
 20
135.909070
 30
0.0
 10
154.132800
 20
135.862210
 30
0.0
 10
154.074240
 20
135.862210
 30
0.0
  0
LINE
  5
59d
100
AcDbEntity
  8
0
 62
7
100
AcDbLine
 10
154.074240
 20
135.862210
 30
0.0
 11
158.074240
 21
135.862210
 31
0.0
  0
SPLINE
  5
59e
100
AcDbEntity
  8
0
 62
7
100
AcDbSpline
 70
8
 71
3
 72
8
 73
4
 74
0
 40
0
 40
0
 40
0
 40
0
 40
1
 40
1
 40
1
 40
1
 10
158.074240
 20
135.862210
 30
0.0
 10
158.128940
 20
135.862210
 30
0.0
 10
158.175800
 20
135.905210
 30
0.0
 10
158.175800
 20
135.963770
 30
0.0
  0
LINE
  5
59f
100
AcDbEntity
  8
0
 62
7
100
AcDbLine
 10
158.175800
 20
135.963770
 30
0.0
 11
158.175800
 21
155.963770
 31
0.0
  0
SPLINE
  5
5a0
100
AcDbEntity
  8
0
 62
7
100
AcDbSpline
 70
8
 71
3
 72
8
 73
4
 74
0
 40
0
 40
0
 40
0
 40
0
 40
1
 40
1
 40
1
 40
1
 10
158.175800
 20
155.963770
 30
0.0
 10
158.175800
 20
156.018470
 30
0.0
 10
158.132800
 20
156.065340
 30
0.0
 10
158.074240
 20
156.065340
 30
0.0
  0
LINE
  5
5a1
100
AcDbEntity
  8
0
 62
7
100
AcDbLine
 10
158.074240
 20
156.065340
 30
0.0
 11
154.074240
 21
156.065340
 31
0.0
  0
SPLINE
  5
5a2
100
AcDbEntity
  8
0
 62
7
100
AcDbSpline
 70
8
 71
3
 72
8
 73
4
 74
0
 40
0
 40
0
 40
0
 40
0
 40
1
 40
1
 40
1
 40
1
 10
154.074240
 20
156.065340
 30
0.0
 10
154.128940
 20
156.065340
 30
0.0
 10
154.175800
 20
156.022340
 30
0.0
 10
154.175800
 20
155.963770
 30
0.0
  0
LINE
  5
5a3
100
AcDbEntity
  8
0
 62
7
100
AcDbLine
 10
154.175800
 20
155.963770
 30
0.0
 11
154.175800
 21
167.963770
 31
0.0
  0
SPLINE
  5
5a4
100
AcDbEntity
  8
0
 62
7
100
AcDbSpline
 70
8
 71
3
 72
8
 73
4
 74
0
 40
0
 40
0
 40
0
 40
0
 40
1
 40
1
 40
1
 40
1
 10
154.175800
 20
167.963770
 30
0.0
 10
154.175800
 20
167.909070
 30
0.0
 10
154.132800
 20
167.862210
 30
0.0
 10
154.074240
 20
167.862210
 30
0.0
  0
LINE
  5
5a5
100
AcDbEntity
  8
0
 62
7
100
AcDbLine
 10
154.074240
 20
167.862210
 30
0.0
 11
158.074240
 21
167.862210
 31
0.0
  0
SPLINE
  5
5a6
100
AcDbEntity
  8
0
 62
7
100
AcDbSpline
 70
8
 71
3
 72
8
 73
4
 74
0
 40
0
 40
0
 40
0
 40
0
 40
1
 40
1
 40
1
 40
1
 10
158.074240
 20
167.862210
 30
0.0
 10
158.128940
 20
167.862210
 30
0.0
 10
158.175800
 20
167.905210
 30
0.0
 10
158.175800
 20
167.963770
 30
0.0
  0
LINE
  5
5a7
100
AcDbEntity
  8
0
 62
7
100
AcDbLine
 10
158.175800
 20
167.963770
 30
0.0
 11
158.175800
 21
187.963770
 31
0.0
  0
SPLINE
  5
5a8
100
AcDbEntity
  8
0
 62
7
100
AcDbSpline
 70
8
 71
3
 72
8
 73
4
 74
0
 40
0
 40
0
 40
0
 40
0
 40
1
 40
1
 40
1
 40
1
 10
158.175800
 20
187.963770
 30
0.0
 10
158.175800
 20
188.018470
 30
0.0
 10
158.132800
 20
188.065340
 30
0.0
 10
158.074240
 20
188.065340
 30
0.0
  0
LINE
  5
5a9
100
AcDbEntity
  8
0
 62
7
100
AcDbLine
 10
158.074240
 20
188.065340
 30
0.0
 11
154.074240
 21
188.065340
 31
0.0
  0
SPLINE
  5
5aa
100
AcDbEntity
  8
0
 62
7
100
AcDbSpline
 70
8
 71
3
 72
8
 73
4
 74
0
 40
0
 40
0
 40
0
 40
0
 40
1
 40
1
 40
1
 40
1
 10
154.074240
 20
188.065340
 30
0.0
 10
154.128940
 20
188.065340
 30
0.0
 10
154.175800
 20
188.022340
 30
0.0
 10
154.175800
 20
187.963770
 30
0.0
  0
LINE
  5
5ab
100
AcDbEntity
  8
0
 62
7
100
AcDbLine
 10
154.175800
 20
187.963770
 30
0.0
 11
154.175800
 21
204.963770
 31
0.0
  0
SPLINE
  5
5ac
100
AcDbEntity
  8
0
 62
7
100
AcDbSpline
 70
8
 71
3
 72
8
 73
4
 74
0
 40
0
 40
0
 40
0
 40
0
 40
1
 40
1
 40
1
 40
1
 10
154.175800
 20
204.963770
 30
0.0
 10
154.175800
 20
205.018470
 30
0.0
 10
154.132800
 20
205.065340
 30
0.0
 10
154.074240
 20
205.065340
 30
0.0
  0
LINE
  5
5ad
100
AcDbEntity
  8
0
 62
7
100
AcDbLine
 10
154.074240
 20
205.065340
 30
0.0
 11
154.074240
 21
205.065340
 31
0.0
  0
LINE
  5
5ae
100
AcDbEntity
  8
0
 62
7
100
AcDbLine
 10
154.074240
 20
205.065340
 30
0.0
 11
135.574240
 21
205.065340
 31
0.0
  0
SPLINE
  5
5af
100
AcDbEntity
  8
0
 62
7
100
AcDbSpline
 70
8
 71
3
 72
8
 73
4
 74
0
 40
0
 40
0
 40
0
 40
0
 40
1
 40
1
 40
1
 40
1
 10
135.574240
 20
205.065340
 30
0.0
 10
135.628940
 20
205.065340
 30
0.0
 10
135.675800
 20
205.022340
 30
0.0
 10
135.675800
 20
204.963770
 30
0.0
  0
LINE
  5
5b0
100
AcDbEntity
  8
0
 62
7
100
AcDbLine
 10
135.675800
 20
204.963770
 30
0.0
 11
135.675800
 21
208.963770
 31
0.0
  0
SPLINE
  5
5b1
100
AcDbEntity
  8
0
 62
7
100
AcDbSpline
 70
8
 71
3
 72
8
 73
4
 74
0
 40
0
 40
0
 40
0
 40
0
 40
1
 40
1
 40
1
 40
1
 10
135.675800
 20
208.963770
 30
0.0
 10
135.675800
 20
209.018470
 30
0.0
 10
135.632800
 20
209.065340
 30
0.0
 10
135.574240
 20
209.065340
 30
0.0
  0
LINE
  5
5b2
100
AcDbEntity
  8
0
 62
7
100
AcDbLine
 10
135.574240
 20
209.065340
 30
0.0
 11
115.574240
 21
209.065340
 31
0.0
  0
SPLINE
  5
5b3
100
AcDbEntity
  8
0
 62
7
100
AcDbSpline
 70
8
 71
3
 72
8
 73
4
 74
0
 40
0
 40
0
 40
0
 40
0
 40
1
 40
1
 40
1
 40
1
 10
115.574240
 20
209.065340
 30
0.0
 10
115.519540
 20
209.065340
 30
0.0
 10
115.472670
 20
209.022340
 30
0.0
 10
115.472670
 20
208.963770
 30
0.0
  0
LINE
  5
5b4
100
AcDbEntity
  8
0
 62
7
100
AcDbLine
 10
115.472670
 20
208.963770
 30
0.0
 11
115.472670
 21
204.963770
 31
0.0
  0
SPLINE
  5
5b5
100
AcDbEntity
  8
0
 62
7
100
AcDbSpline
 70
8
 71
3
 72
8
 73
4
 74
0
 40
0
 40
0
 40
0
 40
0
 40
1
 40
1
 40
1
 40
1
 10
115.472670
 20
204.963770
 30
0.0
 10
115.472670
 20
205.018470
 30
0.0
 10
115.515670
 20
205.065340
 30
0.0
 10
115.574240
 20
205.065340
 30
0.0
  0
LINE
  5
5b6
100
AcDbEntity
  8
0
 62
7
100
AcDbLine
 10
115.574240
 20
205.065340
 30
0.0
 11
97.074240
 21
205.065340
 31
0.0
  0
SPLINE
  5
5b7
100
AcDbEntity
  8
0
 62
7
100
AcDbSpline
 70
8
 71
3
 72
8
 73
4
 74
0
 40
0
 40
0
 40
0
 40
0
 40
1
 40
1
 40
1
 40
1
 10
97.074240
 20
205.065340
 30
0.0
 10
97.019540
 20
205.065340
 30
0.0
 10
96.972670
 20
205.022340
 30
0.0
 10
96.972670
 20
204.963770
 30
0.0
  0
LINE
  5
5b8
100
AcDbEntity
  8
0
 62
7
100
AcDbLine
 10
96.972670
 20
204.963770
 30
0.0
 11
96.972670
 21
204.963770
 31
0.0
  0
LINE
  5
5b9
100
AcDbEntity
  8
0
 62
7
100
AcDbLine
 10
96.972670
 20
204.963770
 30
0.0
 11
96.972670
 21
187.963770
 31
0.0
  0
SPLINE
  5
5ba
100
AcDbEntity
  8
0
 62
7
100
AcDbSpline
 70
8
 71
3
 72
8
 73
4
 74
0
 40
0
 40
0
 40
0
 40
0
 40
1
 40
1
 40
1
 40
1
 10
96.972670
 20
187.963770
 30
0.0
 10
96.972670
 20
188.018470
 30
0.0
 10
97.015670
 20
188.065340
 30
0.0
 10
97.074240
 20
188.065340
 30
0.0
  0
LINE
  5
5bb
100
AcDbEntity
  8
0
 62
7
100
AcDbLine
 10
97.074240
 20
188.065340
 30
0.0
 11
93.074240
 21
188.065340
 31
0.0
  0
SPLINE
  5
5bc
100
AcDbEntity
  8
0
 62
7
100
AcDbSpline
 70
8
 71
3
 72
8
 73
4
 74
0
 40
0
 40
0
 40
0
 40
0
 40
1
 40
1
 40
1
 40
1
 10
93.074240
 20
188.065340
 30
0.0
 10
93.019540
 20
188.065340
 30
0.0
 10
92.972670
 20
188.022340
 30
0.0
 10
92.972670
 20
187.963770
 30
0.0
  0
LINE
  5
5bd
100
AcDbEntity
  8
0
 62
7
100
AcDbLine
 10
92.972670
 20
187.963770
 30
0.0
 11
92.972670
 21
167.963770
 31
0.0
  0
SPLINE
  5
5be
100
AcDbEntity
  8
0
 62
7
100
AcDbSpline
 70
8
 71
3
 72
8
 73
4
 74
0
 40
0
 40
0
 40
0
 40
0
 40
1
 40
1
 40
1
 40
1
 10
92.972670
 20
167.963770
 30
0.0
 10
92.972670
 20
167.909070
 30
0.0
 10
93.015670
 20
167.862210
 30
0.0
 10
93.074240
 20
167.862210
 30
0.0
  0
LINE
  5
5bf
100
AcDbEntity
  8
0
 62
7
100
AcDbLine
 10
93.074240
 20
167.862210
 30
0.0
 11
97.074240
 21
167.862210
 31
0.0
  0
SPLINE
  5
5c0
100
AcDbEntity
  8
0
 62
7
100
AcDbSpline
 70
8
 71
3
 72
8
 73
4
 74
0
 40
0
 40
0
 40
0
 40
0
 40
1
 40
1
 40
1
 40
1
 10
97.074240
 20
167.862210
 30
0.0
 10
97.019540
 20
167.862210
 30
0.0
 10
96.972670
 20
167.905210
 30
0.0
 10
96.972670
 20
167.963770
 30
0.0
  0
LINE
  5
5c1
100
AcDbEntity
  8
0
 62
7
100
AcDbLine
 10
96.972670
 20
167.963770
 30
0.0
 11
96.972670
 21
155.963770
 31
0.0
  0
SPLINE
  5
5c2
100
AcDbEntity
  8
0
 62
7
100
AcDbSpline
 70
8
 71
3
 72
8
 73
4
 74
0
 40
0
 40
0
 40
0
 40
0
 40
1
 40
1
 40
1
 40
1
 10
96.972670
 20
155.963770
 30
0.0
 10
96.972670
 20
156.018470
 30
0.0
 10
97.015670
 20
156.065340
 30
0.0
 10
97.074240
 20
156.065340
 30
0.0
  0
LINE
  5
5c3
100
AcDbEntity
  8
0
 62
7
100
AcDbLine
 10
97.074240
 20
156.065340
 30
0.0
 11
93.074240
 21
156.065340
 31
0.0
  0
SPLINE
  5
5c4
100
AcDbEntity
  8
0
 62
7
100
AcDbSpline
 70
8
 71
3
 72
8
 73
4
 74
0
 40
0
 40
0
 40
0
 40
0
 40
1
 40
1
 40
1
 40
1
 10
93.074240
 20
156.065340
 30
0.0
 10
93.019540
 20
156.065340
 30
0.0
 10
92.972670
 20
156.022340
 30
0.0
 10
92.972670
 20
155.963770
 30
0.0
  0
LINE
  5
5c5
100
AcDbEntity
  8
0
 62
7
100
AcDbLine
 10
92.972670
 20
155.963770
 30
0.0
 11
92.972670
 21
135.963770
 31
0.0
  0
SPLINE
  5
5c6
100
AcDbEntity
  8
0
 62
7
100
AcDbSpline
 70
8
 71
3
 72
8
 73
4
 74
0
 40
0
 40
0
 40
0
 40
0
 40
1
 40
1
 40
1
 40
1
 10
92.972670
 20
135.963770
 30
0.0
 10
92.972670
 20
135.909070
 30
0.0
 10
93.015670
 20
135.862210
 30
0.0
 10
93.074240
 20
135.862210
 30
0.0
  0
LINE
  5
5c7
100
AcDbEntity
  8
0
 62
7
100
AcDbLine
 10
93.074240
 20
135.862210
 30
0.0
 11
97.074240
 21
135.862210
 31
0.0
  0
SPLINE
  5
5c8
100
AcDbEntity
  8
0
 62
7
100
AcDbSpline
 70
8
 71
3
 72
8
 73
4
 74
0
 40
0
 40
0
 40
0
 40
0
 40
1
 40
1
 40
1
 40
1
 10
97.074240
 20
135.862210
 30
0.0
 10
97.019540
 20
135.862210
 30
0.0
 10
96.972670
 20
135.905210
 30
0.0
 10
96.972670
 20
135.963770
 30
0.0
  0
LINE
  5
5c9
100
AcDbEntity
  8
0
 62
7
100
AcDbLine
 10
96.972670
 20
135.963770
 30
0.0
 11
96.972680
 21
118.963770
 31
0.0
  0
SPLINE
  5
5ca
100
AcDbEntity
  8
0
 62
7
100
AcDbSpline
 70
8
 71
3
 72
8
 73
4
 74
0
 40
0
 40
0
 40
0
 40
0
 40
1
 40
1
 40
1
 40
1
 10
96.972680
 20
118.963770
 30
0.0
 10
96.972680
 20
118.909070
 30
0.0
 10
97.015680
 20
118.862210
 30
0.0
 10
97.074240
 20
118.862210
 30
0.0
  0
LINE
  5
5cb
100
AcDbEntity
  8
0
 62
7
100
AcDbLine
 10
97.074240
 20
118.862210
 30
0.0
 11
97.074240
 21
118.862210
 31
0.0
  0
LINE
  5
5cc
100
AcDbEntity
  8
0
 62
7
100
AcDbLine
 10
69.800570
 20
85.940230
 30
0.0
 11
69.800570
 21
104.312750
 31
0.0
  0
LINE
  5
5cd
100
AcDbEntity
  8
0
 62
7
100
AcDbLine
 10
69.800570
 20
104.312750
 30
0.0
 11
35.680160
 21
104.312750
 31
0.0
  0
LINE
  5
5ce
100
AcDbEntity
  8
0
 62
7
100
AcDbLine
 10
35.680160
 20
104.312750
 30
0.0
 11
35.680160
 21
100.015950
 31
0.0
  0
LINE
  5
5cf
100
AcDbEntity
  8
0
 62
7
100
AcDbLine
 10
35.680160
 20
100.015950
 30
0.0
 11
17.603960
 21
100.015950
 31
0.0
  0
LINE
  5
5d0
100
AcDbEntity
  8
0
 62
7
100
AcDbLine
 10
17.603960
 20
100.015950
 30
0.0
 11
17.603960
 21
85.940220
 31
0.0
  0
LINE
  5
5d1
100
AcDbEntity
  8
0
 62
7
100
AcDbLine
 10
17.603960
 20
85.940220
 30
0.0
 11
69.800570
 21
85.940230
 31
0.0
  0
SPLINE
  5
5d2
100
AcDbEntity
  8
0
 62
7
100
AcDbSpline
 70
8
 71
3
 72
8
 73
4
 74
0
 40
0
 40
0
 40
0
 40
0
 40
1
 40
1
 40
1
 40
1
 10
124.973590
 20
87.167890
 30
0.0
 10
124.973590
 20
84.987730
 30
0.0
 10
126.730410
 20
83.209750
 30
0.0
 10
128.910560
 20
83.209750
 30
0.0
  0
SPLINE
  5
5d3
100
AcDbEntity
  8
0
 62
7
100
AcDbSpline
 70
8
 71
3
 72
8
 73
4
 74
0
 40
0
 40
0
 40
0
 40
0
 40
1
 40
1
 40
1
 40
1
 10
128.910560
 20
83.209750
 30
0.0
 10
131.090710
 20
83.209750
 30
0.0
 10
132.847530
 20
84.987730
 30
0.0
 10
132.847530
 20
87.167890
 30
0.0
  0
SPLINE
  5
5d4
100
AcDbEntity
  8
0
 62
7
100
AcDbSpline
 70
8
 71
3
 72
8
 73
4
 74
0
 40
0
 40
0
 40
0
 40
0
 40
1
 40
1
 40
1
 40
1
 10
132.847530
 20
87.167890
 30
0.0
 10
132.847530
 20
89.348040
 30
0.0
 10
131.090710
 20
91.104850
 30
0.0
 10
128.910560
 20
91.104850
 30
0.0
  0
SPLINE
  5
5d5
100
AcDbEntity
  8
0
 62
7
100
AcDbSpline
 70
8
 71
3
 72
8
 73
4
 74
0
 40
0
 40
0
 40
0
 40
0
 40
1
 40
1
 40
1
 40
1
 10
128.910560
 20
91.104850
 30
0.0
 10
126.730410
 20
91.104850
 30
0.0
 10
124.973590
 20
89.348030
 30
0.0
 10
124.973590
 20
87.167890
 30
0.0
  0
LINE
  5
5d6
100
AcDbEntity
  8
0
 62
7
100
AcDbLine
 10
124.973590
 20
87.167890
 30
0.0
 11
124.973590
 21
87.167890
 31
0.0
  0
LINE
  5
5d7
100
AcDbEntity
  8
0
 62
7
100
AcDbLine
 10
96.747810
 20
91.210690
 30
0.0
 11
88.725710
 21
91.210690
 31
0.0
  0
SPLINE
  5
5d8
100
AcDbEntity
  8
0
 62
7
100
AcDbSpline
 70
8
 71
3
 72
8
 73
4
 74
0
 40
0
 40
0
 40
0
 40
0
 40
1
 40
1
 40
1
 40
1
 10
88.725710
 20
91.210690
 30
0.0
 10
87.371050
 20
91.210690
 30
0.0
 10
86.291560
 20
90.110030
 30
0.0
 10
86.291560
 20
88.755370
 30
0.0
  0
LINE
  5
5d9
100
AcDbEntity
  8
0
 62
7
100
AcDbLine
 10
86.291560
 20
88.755370
 30
0.0
 11
86.291560
 21
85.643900
 31
0.0
  0
SPLINE
  5
5da
100
AcDbEntity
  8
0
 62
7
100
AcDbSpline
 70
8
 71
3
 72
8
 73
4
 74
0
 40
0
 40
0
 40
0
 40
0
 40
1
 40
1
 40
1
 40
1
 10
86.291560
 20
85.643900
 30
0.0
 10
86.291560
 20
84.289240
 30
0.0
 10
87.371050
 20
83.188580
 30
0.0
 10
88.725710
 20
83.188580
 30
0.0
  0
LINE
  5
5db
100
AcDbEntity
  8
0
 62
7
100
AcDbLine
 10
88.725710
 20
83.188580
 30
0.0
 11
96.747810
 21
83.188580
 31
0.0
  0
SPLINE
  5
5dc
100
AcDbEntity
  8
0
 62
7
100
AcDbSpline
 70
8
 71
3
 72
8
 73
4
 74
0
 40
0
 40
0
 40
0
 40
0
 40
1
 40
1
 40
1
 40
1
 10
96.747810
 20
83.188580
 30
0.0
 10
98.102470
 20
83.188580
 30
0.0
 10
99.181960
 20
84.289240
 30
0.0
 10
99.181960
 20
85.643900
 30
0.0
  0
LINE
  5
5dd
100
AcDbEntity
  8
0
 62
7
100
AcDbLine
 10
99.181960
 20
85.643900
 30
0.0
 11
99.181960
 21
88.755370
 31
0.0
  0
SPLINE
  5
5de
100
AcDbEntity
  8
0
 62
7
100
AcDbSpline
 70
8
 71
3
 72
8
 73
4
 74
0
 40
0
 40
0
 40
0
 40
0
 40
1
 40
1
 40
1
 40
1
 10
99.181960
 20
88.755370
 30
0.0
 10
99.181960
 20
90.110030
 30
0.0
 10
98.102470
 20
91.210690
 30
0.0
 10
96.747810
 20
91.210690
 30
0.0
  0
LINE
  5
5df
100
AcDbEntity
  8
0
 62
7
100
AcDbLine
 10
96.747810
 20
91.210690
 30
0.0
 11
96.747810
 21
91.210690
 31
0.0
  0
SPLINE
  5
5e0
100
AcDbEntity
  8
0
 62
7
100
AcDbSpline
 70
8
 71
3
 72
8
 73
4
 74
0
 40
0
 40
0
 40
0
 40
0
 40
1
 40
1
 40
1
 40
1
 10
67.185661
 20
203.173779
 30
0.0
 10
66.649763
 20
203.173779
 30
0.0
 10
66.154572
 20
202.887880
 30
0.0
 10
65.886623
 20
202.423779
 30
0.0
  0
SPLINE
  5
5e1
100
AcDbEntity
  8
0
 62
7
100
AcDbSpline
 70
8
 71
3
 72
8
 73
4
 74
0
 40
0
 40
0
 40
0
 40
0
 40
1
 40
1
 40
1
 40
1
 10
65.886623
 20
202.423779
 30
0.0
 10
65.618674
 20
201.959677
 30
0.0
 10
65.618674
 20
201.387880
 30
0.0
 10
65.886623
 20
200.923779
 30
0.0
  0
SPLINE
  5
5e2
100
AcDbEntity
  8
0
 62
7
100
AcDbSpline
 70
8
 71
3
 72
8
 73
4
 74
0
 40
0
 40
0
 40
0
 40
0
 40
1
 40
1
 40
1
 40
1
 10
65.886623
 20
200.923779
 30
0.0
 10
66.154572
 20
200.459677
 30
0.0
 10
66.649763
 20
200.173779
 30
0.0
 10
67.185661
 20
200.173779
 30
0.0
  0
SPLINE
  5
5e3
100
AcDbEntity
  8
0
 62
7
100
AcDbSpline
 70
8
 71
3
 72
8
 73
4
 74
0
 40
0
 40
0
 40
0
 40
0
 40
1
 40
1
 40
1
 40
1
 10
67.185661
 20
200.173779
 30
0.0
 10
67.721559
 20
200.173779
 30
0.0
 10
68.216750
 20
200.459677
 30
0.0
 10
68.484699
 20
200.923779
 30
0.0
  0
SPLINE
  5
5e4
100
AcDbEntity
  8
0
 62
7
100
AcDbSpline
 70
8
 71
3
 72
8
 73
4
 74
0
 40
0
 40
0
 40
0
 40
0
 40
1
 40
1
 40
1
 40
1
 10
68.484699
 20
200.923779
 30
0.0
 10
68.752648
 20
201.387880
 30
0.0
 10
68.752648
 20
201.959677
 30
0.0
 10
68.484699
 20
202.423779
 30
0.0
  0
SPLINE
  5
5e5
100
AcDbEntity
  8
0
 62
7
100
AcDbSpline
 70
8
 71
3
 72
8
 73
4
 74
0
 40
0
 40
0
 40
0
 40
0
 40
1
 40
1
 40
1
 40
1
 10
68.484699
 20
202.423779
 30
0.0
 10
68.216750
 20
202.887880
 30
0.0
 10
67.721559
 20
203.173779
 30
0.0
 10
67.185661
 20
203.173779
 30
0.0
  0
LINE
  5
5e6
100
AcDbEntity
  8
0
 62
7
100
AcDbLine
 10
67.185661
 20
203.173779
 30
0.0
 11
67.185661
 21
203.173779
 31
0.0
  0
SPLINE
  5
5e7
100
AcDbEntity
  8
0
 62
7
100
AcDbSpline
 70
8
 71
3
 72
8
 73
4
 74
0
 40
0
 40
0
 40
0
 40
0
 40
1
 40
1
 40
1
 40
1
 10
18.398403
 20
203.154533
 30
0.0
 10
17.862504
 20
203.154533
 30
0.0
 10
17.367314
 20
202.868635
 30
0.0
 10
17.099365
 20
202.404533
 30
0.0
  0
SPLINE
  5
5e8
100
AcDbEntity
  8
0
 62
7
100
AcDbSpline
 70
8
 71
3
 72
8
 73
4
 74
0
 40
0
 40
0
 40
0
 40
0
 40
1
 40
1
 40
1
 40
1
 10
17.099365
 20
202.404533
 30
0.0
 10
16.831415
 20
201.940432
 30
0.0
 10
16.831415
 20
201.368635
 30
0.0
 10
17.099365
 20
200.904533
 30
0.0
  0
SPLINE
  5
5e9
100
AcDbEntity
  8
0
 62
7
100
AcDbSpline
 70
8
 71
3
 72
8
 73
4
 74
0
 40
0
 40
0
 40
0
 40
0
 40
1
 40
1
 40
1
 40
1
 10
17.099365
 20
200.904533
 30
0.0
 10
17.367314
 20
200.440432
 30
0.0
 10
17.862504
 20
200.154533
 30
0.0
 10
18.398403
 20
200.154533
 30
0.0
  0
SPLINE
  5
5ea
100
AcDbEntity
  8
0
 62
7
100
AcDbSpline
 70
8
 71
3
 72
8
 73
4
 74
0
 40
0
 40
0
 40
0
 40
0
 40
1
 40
1
 40
1
 40
1
 10
18.398403
 20
200.154533
 30
0.0
 10
18.934301
 20
200.154533
 30
0.0
 10
19.429492
 20
200.440432
 30
0.0
 10
19.697441
 20
200.904533
 30
0.0
  0
SPLINE
  5
5eb
100
AcDbEntity
  8
0
 62
7
100
AcDbSpline
 70
8
 71
3
 72
8
 73
4
 74
0
 40
0
 40
0
 40
0
 40
0
 40
1
 40
1
 40
1
 40
1
 10
19.697441
 20
200.904533
 30
0.0
 10
19.965390
 20
201.368635
 30
0.0
 10
19.965390
 20
201.940432
 30
0.0
 10
19.697441
 20
202.404533
 30
0.0
  0
SPLINE
  5
5ec
100
AcDbEntity
  8
0
 62
7
100
AcDbSpline
 70
8
 71
3
 72
8
 73
4
 74
0
 40
0
 40
0
 40
0
 40
0
 40
1
 40
1
 40
1
 40
1
 10
19.697441
 20
202.404533
 30
0.0
 10
19.429492
 20
202.868635
 30
0.0
 10
18.934301
 20
203.154533
 30
0.0
 10
18.398403
 20
203.154533
 30
0.0
  0
LINE
  5
5ed
100
AcDbEntity
  8
0
 62
7
100
AcDbLine
 10
18.398403
 20
203.154533
 30
0.0
 11
18.398403
 21
203.154533
 31
0.0
  0
SPLINE
  5
5ee
100
AcDbEntity
  8
0
 62
7
100
AcDbSpline
 70
8
 71
3
 72
8
 73
4
 74
0
 40
0
 40
0
 40
0
 40
0
 40
1
 40
1
 40
1
 40
1
 10
67.204904
 20
145.420531
 30
0.0
 10
66.669006
 20
145.420531
 30
0.0
 10
66.173815
 20
145.134633
 30
0.0
 10
65.905866
 20
144.670531
 30
0.0
  0
SPLINE
  5
5ef
100
AcDbEntity
  8
0
 62
7
100
AcDbSpline
 70
8
 71
3
 72
8
 73
4
 74
0
 40
0
 40
0
 40
0
 40
0
 40
1
 40
1
 40
1
 40
1
 10
65.905866
 20
144.670531
 30
0.0
 10
65.637917
 20
144.206430
 30
0.0
 10
65.637917
 20
143.634633
 30
0.0
 10
65.905866
 20
143.170531
 30
0.0
  0
SPLINE
  5
5f0
100
AcDbEntity
  8
0
 62
7
100
AcDbSpline
 70
8
 71
3
 72
8
 73
4
 74
0
 40
0
 40
0
 40
0
 40
0
 40
1
 40
1
 40
1
 40
1
 10
65.905866
 20
143.170531
 30
0.0
 10
66.173815
 20
142.706430
 30
0.0
 10
66.669006
 20
142.420531
 30
0.0
 10
67.204904
 20
142.420531
 30
0.0
  0
SPLINE
  5
5f1
100
AcDbEntity
  8
0
 62
7
100
AcDbSpline
 70
8
 71
3
 72
8
 73
4
 74
0
 40
0
 40
0
 40
0
 40
0
 40
1
 40
1
 40
1
 40
1
 10
67.204904
 20
142.420531
 30
0.0
 10
67.740803
 20
142.420531
 30
0.0
 10
68.235993
 20
142.706430
 30
0.0
 10
68.503942
 20
143.170531
 30
0.0
  0
SPLINE
  5
5f2
100
AcDbEntity
  8
0
 62
7
100
AcDbSpline
 70
8
 71
3
 72
8
 73
4
 74
0
 40
0
 40
0
 40
0
 40
0
 40
1
 40
1
 40
1
 40
1
 10
68.503942
 20
143.170531
 30
0.0
 10
68.771892
 20
143.634633
 30
0.0
 10
68.771892
 20
144.206430
 30
0.0
 10
68.503942
 20
144.670531
 30
0.0
  0
SPLINE
  5
5f3
100
AcDbEntity
  8
0
 62
7
100
AcDbSpline
 70
8
 71
3
 72
8
 73
4
 74
0
 40
0
 40
0
 40
0
 40
0
 40
1
 40
1
 40
1
 40
1
 10
68.503942
 20
144.670531
 30
0.0
 10
68.235993
 20
145.134633
 30
0.0
 10
67.740803
 20
145.420531
 30
0.0
 10
67.204904
 20
145.420531
 30
0.0
  0
LINE
  5
5f4
100
AcDbEntity
  8
0
 62
7
100
AcDbLine
 10
67.204904
 20
145.420531
 30
0.0
 11
67.204904
 21
145.420531
 31
0.0
  0
SPLINE
  5
5f5
100
AcDbEntity
  8
0
 62
7
100
AcDbSpline
 70
8
 71
3
 72
8
 73
4
 74
0
 40
0
 40
0
 40
0
 40
0
 40
1
 40
1
 40
1
 40
1
 10
18.398403
 20
145.401298
 30
0.0
 10
17.862504
 20
145.401298
 30
0.0
 10
17.367314
 20
145.115400
 30
0.0
 10
17.099365
 20
144.651298
 30
0.0
  0
SPLINE
  5
5f6
100
AcDbEntity
  8
0
 62
7
100
AcDbSpline
 70
8
 71
3
 72
8
 73
4
 74
0
 40
0
 40
0
 40
0
 40
0
 40
1
 40
1
 40
1
 40
1
 10
17.099365
 20
144.651298
 30
0.0
 10
16.831415
 20
144.187197
 30
0.0
 10
16.831415
 20
143.615400
 30
0.0
 10
17.099365
 20
143.151298
 30
0.0
  0
SPLINE
  5
5f7
100
AcDbEntity
  8
0
 62
7
100
AcDbSpline
 70
8
 71
3
 72
8
 73
4
 74
0
 40
0
 40
0
 40
0
 40
0
 40
1
 40
1
 40
1
 40
1
 10
17.099365
 20
143.151298
 30
0.0
 10
17.367314
 20
142.687197
 30
0.0
 10
17.862504
 20
142.401298
 30
0.0
 10
18.398403
 20
142.401298
 30
0.0
  0
SPLINE
  5
5f8
100
AcDbEntity
  8
0
 62
7
100
AcDbSpline
 70
8
 71
3
 72
8
 73
4
 74
0
 40
0
 40
0
 40
0
 40
0
 40
1
 40
1
 40
1
 40
1
 10
18.398403
 20
142.401298
 30
0.0
 10
19.226830
 20
142.401298
 30
0.0
 10
19.898403
 20
143.072871
 30
0.0
 10
19.898403
 20
143.901298
 30
0.0
  0
SPLINE
  5
5f9
100
AcDbEntity
  8
0
 62
7
100
AcDbSpline
 70
8
 71
3
 72
8
 73
4
 74
0
 40
0
 40
0
 40
0
 40
0
 40
1
 40
1
 40
1
 40
1
 10
19.898403
 20
143.901298
 30
0.0
 10
19.898403
 20
144.729725
 30
0.0
 10
19.226830
 20
145.401298
 30
0.0
 10
18.398403
 20
145.401298
 30
0.0
  0
LINE
  5
5fa
100
AcDbEntity
  8
0
 62
7
100
AcDbLine
 10
18.398403
 20
145.401298
 30
0.0
 11
18.398403
 21
145.401298
 31
0.0
  0
ENDSEC
  0
SECTION
  2
OBJECTS
  0
DICTIONARY
  5
C
330
0
100
AcDbDictionary
  3
ACAD_GROUP
350
D
  3
ACAD_MLINESTYLE
350
17
  0
DICTIONARY
  5
D
330
C
100
AcDbDictionary
  0
DICTIONARY
  5
1A
330
C
100
AcDbDictionary
  0
DICTIONARY
  5
17
330
C
100
AcDbDictionary
  3
STANDARD
350
18
  0
DICTIONARY
  5
19
330
C
100
AcDbDictionary
  0
ENDSEC
  0
EOF
