  0
SECTION
  2
HEADER
  9
$ACADVER
  1
AC1027
  9
$ACADMAINTVER
 70
   125
  9
$DWGCODEPAGE
  3
ANSI_1252
  9
$LASTSAVEDBY
  1
Administrator
  9
$REQUIREDVERSIONS
160
                 0
  9
$INSBASE
 10
0.0
 20
0.0
 30
0.0
  9
$EXTMIN
 10
9.5
 20
-0.053725
 30
0.05
  9
$EXTMAX
 10
287.5
 20
209.946276
 30
0.05
  9
$LIMMIN
 10
0.0
 20
0.0
  9
$LIMMAX
 10
297.0
 20
210.0
  9
$ORTHOMODE
 70
     0
  9
$REGENMODE
 70
     1
  9
$FILLMODE
 70
     1
  9
$QTEXTMODE
 70
     0
  9
$MIRRTEXT
 70
     0
  9
$LTSCALE
 40
0.75
  9
$ATTMODE
 70
     1
  9
$TEXTSIZE
 40
3.5
  9
$TRACEWID
 40
1.0
  9
$TEXTSTYLE
  7
Standard
  9
$CLAYER
  8
0
  9
$CELTYPE
  6
ByLayer
  9
$CECOLOR
 62
   256
  9
$CELTSCALE
 40
1.0
  9
$DISPSILH
 70
     0
  9
$DIMSCALE
 40
1.0
  9
$DIMASZ
 40
3.5
  9
$DIMEXO
 40
2.0
  9
$DIMDLI
 40
9.899495
  9
$DIMRND
 40
0.0
  9
$DIMDLE
 40
0.0
  9
$DIMEXE
 40
2.0
  9
$DIMTP
 40
0.1
  9
$DIMTM
 40
0.1
  9
$DIMTXT
 40
3.5
  9
$DIMCEN
 40
0.0
  9
$DIMTSZ
 40
0.0
  9
$DIMTOL
 70
     0
  9
$DIMLIM
 70
     0
  9
$DIMTIH
 70
     0
  9
$DIMTOH
 70
     0
  9
$DIMSE1
 70
     0
  9
$DIMSE2
 70
     0
  9
$DIMTAD
 70
     1
  9
$DIMZIN
 70
    12
  9
$DIMBLK
  1

  9
$DIMASO
 70
     1
  9
$DIMSHO
 70
     1
  9
$DIMPOST
  1

  9
$DIMAPOST
  1
in
  9
$DIMALT
 70
     0
  9
$DIMALTD
 70
     4
  9
$DIMALTF
 40
0.03937
  9
$DIMLFAC
 40
1.0
  9
$DIMTOFL
 70
     1
  9
$DIMTVP
 40
0.0
  9
$DIMTIX
 70
     0
  9
$DIMSOXD
 70
     0
  9
$DIMSAH
 70
     0
  9
$DIMBLK1
  1

  9
$DIMBLK2
  1

  9
$DIMSTYLE
  2
ISO-25
  9
$DIMCLRD
 70
   256
  9
$DIMCLRE
 70
   256
  9
$DIMCLRT
 70
   256
  9
$DIMTFAC
 40
0.714
  9
$DIMGAP
 40
1.5
  9
$DIMJUST
 70
     0
  9
$DIMSD1
 70
     0
  9
$DIMSD2
 70
     0
  9
$DIMTOLJ
 70
     0
  9
$DIMTZIN
 70
    12
  9
$DIMALTZ
 70
    12
  9
$DIMALTTZ
 70
    12
  9
$DIMUPT
 70
     0
  9
$DIMDEC
 70
     2
  9
$DIMTDEC
 70
     2
  9
$DIMALTU
 70
     2
  9
$DIMALTTD
 70
     4
  9
$DIMTXSTY
  7
Standard
  9
$DIMAUNIT
 70
     0
  9
$DIMADEC
 70
     2
  9
$DIMALTRND
 40
0.0
  9
$DIMAZIN
 70
     3
  9
$DIMDSEP
 70
    46
  9
$DIMATFIT
 70
     3
  9
$DIMFRAC
 70
     0
  9
$DIMLDRBLK
  1

  9
$DIMLUNIT
 70
     2
  9
$DIMLWD
 70
    -2
  9
$DIMLWE
 70
    -2
  9
$DIMTMOVE
 70
     0
  9
$DIMFXL
 40
1.0
  9
$DIMFXLON
 70
     0
  9
$DIMJOGANG
 40
0.785398
  9
$DIMTFILL
 70
     0
  9
$DIMTFILLCLR
 70
     0
  9
$DIMARCSYM
 70
     0
  9
$DIMLTYPE
  6

  9
$DIMLTEX1
  6

  9
$DIMLTEX2
  6

  9
$DIMTXTDIRECTION
 70
     0
  9
$LUNITS
 70
     2
  9
$LUPREC
 70
     4
  9
$SKETCHINC
 40
1.0
  9
$FILLETRAD
 40
0.0
  9
$AUNITS
 70
     0
  9
$AUPREC
 70
     0
  9
$MENU
  1
.
  9
$ELEVATION
 40
0.0
  9
$PELEVATION
 40
0.0
  9
$THICKNESS
 40
0.0
  9
$LIMCHECK
 70
     0
  9
$CHAMFERA
 40
0.0
  9
$CHAMFERB
 40
0.0
  9
$CHAMFERC
 40
0.0
  9
$CHAMFERD
 40
0.0
  9
$SKPOLY
 70
     0
  9
$TDCREATE
 40
2458940.537210648
  9
$TDUCREATE
 40
2458940.453877315
  9
$TDUPDATE
 40
2458940.537210648
  9
$TDUUPDATE
 40
2458940.453877315
  9
$TDINDWG
 40
0.0000000000
  9
$TDUSRTIMER
 40
0.0000000000
  9
$USRTIMER
 70
     1
  9
$ANGBASE
 50
0.0
  9
$ANGDIR
 70
     0
  9
$PDMODE
 70
     0
  9
$PDSIZE
 40
0.0
  9
$PLINEWID
 40
0.0
  9
$SPLFRAME
 70
     0
  9
$SPLINETYPE
 70
     6
  9
$SPLINESEGS
 70
     8
  9
$HANDSEED
  5
786
  9
$SURFTAB1
 70
     6
  9
$SURFTAB2
 70
     6
  9
$SURFTYPE
 70
     6
  9
$SURFU
 70
     6
  9
$SURFV
 70
     6
  9
$UCSBASE
  2

  9
$UCSNAME
  2

  9
$UCSORG
 10
0.0
 20
0.0
 30
0.0
  9
$UCSXDIR
 10
1.0
 20
0.0
 30
0.0
  9
$UCSYDIR
 10
0.0
 20
1.0
 30
0.0
  9
$UCSORTHOREF
  2

  9
$UCSORTHOVIEW
 70
     0
  9
$UCSORGTOP
 10
0.0
 20
0.0
 30
0.0
  9
$UCSORGBOTTOM
 10
0.0
 20
0.0
 30
0.0
  9
$UCSORGLEFT
 10
0.0
 20
0.0
 30
0.0
  9
$UCSORGRIGHT
 10
0.0
 20
0.0
 30
0.0
  9
$UCSORGFRONT
 10
0.0
 20
0.0
 30
0.0
  9
$UCSORGBACK
 10
0.0
 20
0.0
 30
0.0
  9
$PUCSBASE
  2

  9
$PUCSNAME
  2

  9
$PUCSORG
 10
0.0
 20
0.0
 30
0.0
  9
$PUCSXDIR
 10
1.0
 20
0.0
 30
0.0
  9
$PUCSYDIR
 10
0.0
 20
1.0
 30
0.0
  9
$PUCSORTHOREF
  2

  9
$PUCSORTHOVIEW
 70
     0
  9
$PUCSORGTOP
 10
0.0
 20
0.0
 30
0.0
  9
$PUCSORGBOTTOM
 10
0.0
 20
0.0
 30
0.0
  9
$PUCSORGLEFT
 10
0.0
 20
0.0
 30
0.0
  9
$PUCSORGRIGHT
 10
0.0
 20
0.0
 30
0.0
  9
$PUCSORGFRONT
 10
0.0
 20
0.0
 30
0.0
  9
$PUCSORGBACK
 10
0.0
 20
0.0
 30
0.0
  9
$USERI1
 70
     0
  9
$USERI2
 70
     0
  9
$USERI3
 70
     0
  9
$USERI4
 70
     0
  9
$USERI5
 70
     0
  9
$USERR1
 40
0.0
  9
$USERR2
 40
0.0
  9
$USERR3
 40
0.0
  9
$USERR4
 40
0.0
  9
$USERR5
 40
0.0
  9
$WORLDVIEW
 70
     1
  9
$SHADEDGE
 70
     3
  9
$SHADEDIF
 70
    70
  9
$TILEMODE
 70
     1
  9
$MAXACTVP
 70
    64
  9
$PINSBASE
 10
0.0
 20
0.0
 30
0.0
  9
$PLIMCHECK
 70
     0
  9
$PEXTMIN
 10
1.000000E+20
 20
1.000000E+20
 30
1.000000E+20
  9
$PEXTMAX
 10
-1.000000E+20
 20
-1.000000E+20
 30
-1.000000E+20
  9
$PLIMMIN
 10
0.0
 20
0.0
  9
$PLIMMAX
 10
12.0
 20
9.0
  9
$UNITMODE
 70
     0
  9
$VISRETAIN
 70
     1
  9
$PLINEGEN
 70
     0
  9
$PSLTSCALE
 70
     1
  9
$TREEDEPTH
 70
  3020
  9
$CMLSTYLE
  2
Standard
  9
$CMLJUST
 70
     0
  9
$CMLSCALE
 40
20.0
  9
$PROXYGRAPHICS
 70
     1
  9
$MEASUREMENT
 70
     1
  9
$CELWEIGHT
370
    -1
  9
$ENDCAPS
280
     0
  9
$JOINSTYLE
280
     0
  9
$LWDISPLAY
290
     0
  9
$INSUNITS
 70
     4
  9
$HYPERLINKBASE
  1

  9
$STYLESHEET
  1

  9
$XEDIT
290
     1
  9
$CEPSNTYPE
380
     0
  9
$PSTYLEMODE
290
     1
  9
$FINGERPRINTGUID
  2
{5A8CB55D-4952-4C49-8B3E-C35313981CA2}
  9
$VERSIONGUID
  2
{E662077A-9B3F-304F-A645-53654B39BE2E}
  9
$EXTNAMES
290
     1
  9
$PSVPSCALE
 40
0.0
  9
$OLESTARTUP
290
     0
  9
$SORTENTS
280
   127
  9
$INDEXCTL
280
     0
  9
$HIDETEXT
280
     1
  9
$XCLIPFRAME
280
     2
  9
$HALOGAP
280
     0
  9
$OBSCOLOR
 70
   257
  9
$OBSLTYPE
280
     0
  9
$INTERSECTIONDISPLAY
280
     0
  9
$INTERSECTIONCOLOR
 70
   257
  9
$DIMASSOC
280
     2
  9
$PROJECTNAME
  1

  9
$CAMERADISPLAY
290
     0
  9
$LENSLENGTH
 40
50.0
  9
$CAMERAHEIGHT
 40
0.0
  9
$STEPSPERSEC
 40
2.0
  9
$STEPSIZE
 40
6.0
  9
$3DDWFPREC
 40
2.0
  9
$PSOLWIDTH
 40
5.0
  9
$PSOLHEIGHT
 40
80.0
  9
$LOFTANG1
 40
1.570796
  9
$LOFTANG2
 40
1.570796
  9
$LOFTMAG1
 40
0.0
  9
$LOFTMAG2
 40
0.0
  9
$LOFTPARAM
 70
     7
  9
$LOFTNORMALS
280
     1
  9
$LATITUDE
 40
37.795
  9
$LONGITUDE
 40
-122.394
  9
$NORTHDIRECTION
 40
0.0
  9
$TIMEZONE
 70
 -8000
  9
$LIGHTGLYPHDISPLAY
280
     1
  9
$TILEMODELIGHTSYNCH
280
     1
  9
$CMATERIAL
347
11
  9
$SOLIDHIST
280
     0
  9
$SHOWHIST
280
     1
  9
$DWFFRAME
280
     2
  9
$DGNFRAME
280
     0
  9
$REALWORLDSCALE
290
     1
  9
$INTERFERECOLOR
 62
     1
  9
$INTERFEREOBJVS
345
33
  9
$INTERFEREVPVS
346
30
  9
$CSHADOW
280
     0
  9
$SHADOWPLANELOCATION
 40
0.0
  0
ENDSEC
  0
SECTION
  2
CLASSES
  0
CLASS
  1
ACDBDICTIONARYWDFLT
  2
AcDbDictionaryWithDefault
  3
ObjectDBX Classes
 90
        0
 91
        1
280
     0
281
     0
  0
CLASS
  1
MATERIAL
  2
AcDbMaterial
  3
ObjectDBX Classes
 90
     1153
 91
        3
280
     0
281
     0
  0
CLASS
  1
VISUALSTYLE
  2
AcDbVisualStyle
  3
ObjectDBX Classes
 90
     4095
 91
       24
280
     0
281
     0
  0
CLASS
  1
SCALE
  2
AcDbScale
  3
ObjectDBX Classes
 90
     1153
 91
       17
280
     0
281
     0
  0
CLASS
  1
TABLESTYLE
  2
AcDbTableStyle
  3
ObjectDBX Classes
 90
     4095
 91
        1
280
     0
281
     0
  0
CLASS
  1
MLEADERSTYLE
  2
AcDbMLeaderStyle
  3
ACDB_MLEADERSTYLE_CLASS
 90
     4095
 91
        1
280
     0
281
     0
  0
CLASS
  1
ACDBSECTIONVIEWSTYLE
  2
AcDbSectionViewStyle
  3
ObjectDBX Classes
 90
     1025
 91
        1
280
     0
281
     0
  0
CLASS
  1
ACDBDETAILVIEWSTYLE
  2
AcDbDetailViewStyle
  3
ObjectDBX Classes
 90
     1025
 91
        1
280
     0
281
     0
  0
CLASS
  1
ACMESCOPE
  2
AcMeScope
  3
AcMeServices
 90
     1024
 91
        1
280
     0
281
     0
  0
CLASS
  1
ACMECOMMANDHISTORY
  2
AcMeCommandHistory
  3
AcMeServices
 90
     1024
 91
        1
280
     0
281
     0
  0
CLASS
  1
ACIMSYSVARMAN
  2
AcImSysVarManager
  3
AcMeServices
 90
     1024
 91
        1
280
     0
281
     0
  0
CLASS
  1
ACIMINTSYSVAR
  2
AcImIntSysVar
  3
AcMeServices
 90
     1024
 91
        1
280
     0
281
     0
  0
CLASS
  1
ACMESTATEMGR
  2
AcMeStateMgr
  3
AcMeServices
 90
     1024
 91
        1
280
     0
281
     0
  0
CLASS
  1
ACGREFMASTER
  2
AcGrefMaster
  3
AcAttribServices
 90
     1024
 91
        1
280
     0
281
     0
  0
CLASS
  1
SORTENTSTABLE
  2
AcDbSortentsTable
  3
ObjectDBX Classes
 90
        0
 91
        1
280
     0
281
     0
  0
CLASS
  1
DICTIONARYVAR
  2
AcDbDictionaryVar
  3
ObjectDBX Classes
 90
        0
 91
        6
280
     0
281
     0
  0
CLASS
  1
CELLSTYLEMAP
  2
AcDbCellStyleMap
  3
ObjectDBX Classes
 90
     1152
 91
        1
280
     0
281
     0
  0
ENDSEC
  0
SECTION
  2
TABLES
  0
TABLE
  2
VPORT
  5
8
330
0
100
AcDbSymbolTable
 70
     1
1001
ACAD
1000
DbSaveVer
1071
      251
  0
VPORT
  5
57
330
8
100
AcDbSymbolTableRecord
100
AcDbViewportTableRecord
  2
*Active
 70
     0
 10
0.0
 20
0.0
 11
1.0
 21
1.0
 12
148.5
 22
104.946275
 13
0.0
 23
0.0
 14
0.5
 24
0.5
 15
0.0
 25
0.0
 16
0.0
 26
0.0
 36
1.0
 17
0.0
 27
0.0
 37
0.0
 40
210.0
 41
1.697917
 42
50.0
 43
0.0
 44
0.0
 50
0.0
 51
0.0
 71
     0
 72
 20000
 73
     1
 74
     0
 75
     0
 76
     0
 77
     0
 78
     0
281
     0
 65
     1
110
0.0
120
0.0
130
0.0
111
1.0
121
0.0
131
0.0
112
0.0
122
1.0
132
0.0
 79
     0
146
0.0
348
2F
 60
     3
 61
     5
292
     1
282
     1
141
0.0
142
0.0
 63
   250
421
  3355443
  0
ENDTAB
  0
TABLE
  2
LTYPE
  5
5
330
0
100
AcDbSymbolTable
 70
    14
  0
LTYPE
  5
5B
330
5
100
AcDbSymbolTableRecord
100
AcDbLinetypeTableRecord
  2
ByBlock
 70
     0
  3

 72
    65
 73
     0
 40
0.0
  0
LTYPE
  5
5C
330
5
100
AcDbSymbolTableRecord
100
AcDbLinetypeTableRecord
  2
ByLayer
 70
     0
  3

 72
    65
 73
     0
 40
0.0
  0
LTYPE
  5
5D
330
5
100
AcDbSymbolTableRecord
100
AcDbLinetypeTableRecord
  2
Continuous
 70
     0
  3
Solid line
 72
    65
 73
     0
 40
0.0
  0
LTYPE
  5
80
330
5
100
AcDbSymbolTableRecord
100
AcDbLinetypeTableRecord
  2
HIDDEN
 70
     0
  3
Hidden __ __ __ __ __ __ __ __ __ __ __ __ __ _
 72
    65
 73
     2
 40
9.525
 49
6.35
 74
     0
 49
-3.175
 74
     0
  0
LTYPE
  5
81
330
5
100
AcDbSymbolTableRecord
100
AcDbLinetypeTableRecord
  2
PHANTOM2
 70
     0
  3
Phantom (.5x) ___ _ _ ___ _ _ ___ _ _ ___ _ _
 72
    65
 73
     6
 40
31.75
 49
15.875
 74
     0
 49
-3.175
 74
     0
 49
3.175
 74
     0
 49
-3.175
 74
     0
 49
3.175
 74
     0
 49
-3.175
 74
     0
  0
LTYPE
  5
82
330
5
100
AcDbSymbolTableRecord
100
AcDbLinetypeTableRecord
  2
CENTER
 70
     0
  3
Center ____ _ ____ _ ____ _ ____ _ ____ _ ____
 72
    65
 73
     4
 40
50.8
 49
31.75
 74
     0
 49
-6.35
 74
     0
 49
6.35
 74
     0
 49
-6.35
 74
     0
  0
LTYPE
  5
90
330
5
100
AcDbSymbolTableRecord
100
AcDbLinetypeTableRecord
  2
AM_ISO02W050
 70
     0
  3
__ __ __ __ __ __ __ __ __ __ __ __ __ __ __
 72
    65
 73
     2
 40
7.5
 49
6.0
 74
     0
 49
-1.5
 74
     0
  0
LTYPE
  5
91
330
5
100
AcDbSymbolTableRecord
100
AcDbLinetypeTableRecord
  2
AM_ISO08W050
 70
     0
  3
____ . ____ . ____ . ____ . ____ . ____ . ____
 72
    65
 73
     4
 40
18.0
 49
12.0
 74
     0
 49
-1.5
 74
     0
 49
3.0
 74
     0
 49
-1.5
 74
     0
  0
LTYPE
  5
92
330
5
100
AcDbSymbolTableRecord
100
AcDbLinetypeTableRecord
  2
AM_ISO09W050
 70
     0
  3
_____ . . _____ . . _____ . . ____ .. ____
 72
    65
 73
     6
 40
22.5
 49
12.0
 74
     0
 49
-1.5
 74
     0
 49
3.0
 74
     0
 49
-1.5
 74
     0
 49
3.0
 74
     0
 49
-1.5
 74
     0
  0
LTYPE
  5
93
330
5
100
AcDbSymbolTableRecord
100
AcDbLinetypeTableRecord
  2
Amconstr
 70
     0
  3
_______________________
 72
    65
 73
     2
 40
9999.0
 49
9999.0
 74
     0
 49
0.0
 74
     0
  0
LTYPE
  5
94
330
5
100
AcDbSymbolTableRecord
100
AcDbLinetypeTableRecord
  2
AM_ISO08W050x2
 70
     0
  3
__ . __ . __ . __ . __ . __
 72
    65
 73
     4
 40
9.0
 49
6.0
 74
     0
 49
-0.75
 74
     0
 49
1.5
 74
     0
 49
-0.75
 74
     0
  0
LTYPE
  5
95
330
5
100
AcDbSymbolTableRecord
100
AcDbLinetypeTableRecord
  2
AM_ISO02W050x2
 70
     0
  3
 _ _ _ _ _ _ _ _ _ _ _ _
 72
    65
 73
     2
 40
3.75
 49
3.0
 74
     0
 49
-0.75
 74
     0
  0
LTYPE
  5
96
330
5
100
AcDbSymbolTableRecord
100
AcDbLinetypeTableRecord
  2
Amzigzag
 70
     0
  3
/\/-/\/-/\/-/\/-/\/-/\/
 72
    65
 73
     2
 40
11.0001
 49
0.0001
 74
     4
 75
   136
340
8D
 46
0.04
 50
0.0
 44
0.0
 45
0.0
 49
-11.0
 74
     0
  0
LTYPE
  5
97
330
5
100
AcDbSymbolTableRecord
100
AcDbLinetypeTableRecord
  2
ACISOWELD
 70
     0
  3
_ _ _ _ _
 72
    65
 73
     2
 40
2.0
 49
2.0
 74
     0
 49
-1.0
 74
     0
  0
LTYPE
  5
98
330
5
100
AcDbSymbolTableRecord
100
AcDbLinetypeTableRecord
  2
ACISOTGL
 70
     0
  3
_ _ _ _ _
 72
    65
 73
     2
 40
3.0
 49
2.0
 74
     0
 49
-1.0
 74
     0
  0
LTYPE
  5
99
330
5
100
AcDbSymbolTableRecord
100
AcDbLinetypeTableRecord
  2
ACISOTGB
 70
     0
  3
__ . . __ . .
 72
    65
 73
     6
 40
9.0
 49
4.0
 74
     0
 49
-1.0
 74
     0
 49
1.0
 74
     0
 49
-1.0
 74
     0
 49
1.0
 74
     0
 49
-1.0
 74
     0
  0
ENDTAB
  0
TABLE
  2
LAYER
  5
2
330
0
100
AcDbSymbolTable
 70
     3
  0
LAYER
  5
54
330
2
100
AcDbSymbolTableRecord
100
AcDbLayerTableRecord
  2
0
 70
     0
 62
     7
  6
Continuous
370
    -3
390
F
347
21
348
0
1001
AcAecLayerStandard
1000

1000

  0
LAYER
  5
A4
330
2
100
AcDbSymbolTableRecord
100
AcDbLayerTableRecord
  2
Visible
 70
     0
 62
     7
  6
Continuous
370
    50
390
F
347
21
348
0
  0
ENDTAB
  0
TABLE
  2
STYLE
  5
3
330
0
100
AcDbSymbolTable
 70
     4
  0
STYLE
  5
55
330
3
100
AcDbSymbolTableRecord
100
AcDbTextStyleTableRecord
  2
Standard
 70
     0
 40
0.0
 41
1.0
 50
0.0
 71
     0
 42
3.5
  3
Arial.ttf
  4

1001
ACAD
1000
Arial
1071
       34
  0
STYLE
  5
5A
330
3
100
AcDbSymbolTableRecord
100
AcDbTextStyleTableRecord
  2
Annotative
 70
     0
 40
0.0
 41
1.0
 50
0.0
 71
     0
 42
0.2
  3
txt
  4

1001
AcadAnnotative
1000
AnnotativeData
1002
{
1070
     1
1070
     1
1002
}
  0
STYLE
  5
8D
330
3
100
AcDbSymbolTableRecord
100
AcDbTextStyleTableRecord
  2

 70
     1
 40
0.0
 41
1.0
 50
0.0
 71
     0
 42
10.0
  3
genltshp.shx
  4

  0
STYLE
  5
8E
330
3
100
AcDbSymbolTableRecord
100
AcDbTextStyleTableRecord
  2
ACISOGDT
 70
     0
 40
0.0
 41
1.0
 50
0.0
 71
     0
 42
10.0
  3
amgdt.shx
  4

  0
ENDTAB
  0
TABLE
  2
VIEW
  5
6
330
0
100
AcDbSymbolTable
 70
     0
  0
ENDTAB
  0
TABLE
  2
UCS
  5
7
330
0
100
AcDbSymbolTable
 70
     0
  0
ENDTAB
  0
TABLE
  2
APPID
  5
9
330
0
100
AcDbSymbolTable
 70
    16
  0
APPID
  5
56
330
9
100
AcDbSymbolTableRecord
100
AcDbRegAppTableRecord
  2
ACAD
 70
     0
  0
APPID
  5
5E
330
9
100
AcDbSymbolTableRecord
100
AcDbRegAppTableRecord
  2
AcadAnnotative
 70
     0
  0
APPID
  5
78
330
9
100
AcDbSymbolTableRecord
100
AcDbRegAppTableRecord
  2
ACAD_PSEXT
 70
     0
  0
APPID
  5
79
330
9
100
AcDbSymbolTableRecord
100
AcDbRegAppTableRecord
  2
MCAD_NO_VIS
 70
     0
  0
APPID
  5
7A
330
9
100
AcDbSymbolTableRecord
100
AcDbRegAppTableRecord
  2
ACAD_TEMP_GRAPHIC
 70
     0
  0
APPID
  5
83
330
9
100
AcDbSymbolTableRecord
100
AcDbRegAppTableRecord
  2
ACAD_DSTYLE_DIMJAG
 70
     0
  0
APPID
  5
84
330
9
100
AcDbSymbolTableRecord
100
AcDbRegAppTableRecord
  2
ACAD_DSTYLE_DIMTALN
 70
     0
  0
APPID
  5
85
330
9
100
AcDbSymbolTableRecord
100
AcDbRegAppTableRecord
  2
ACAD_NAV_VCDISPLAY
 70
     0
  0
APPID
  5
86
330
9
100
AcDbSymbolTableRecord
100
AcDbRegAppTableRecord
  2
ACAD_DSTYLE_DIMBREAK
 70
     0
  0
APPID
  5
87
330
9
100
AcDbSymbolTableRecord
100
AcDbRegAppTableRecord
  2
FUSIONCURRENTTITLEBLOCK
 70
     0
  0
APPID
  5
88
330
9
100
AcDbSymbolTableRecord
100
AcDbRegAppTableRecord
  2
AcSynergy
 70
     0
  0
APPID
  5
89
330
9
100
AcDbSymbolTableRecord
100
AcDbRegAppTableRecord
  2
GENIUS_GENSCREG_15
 70
     0
  0
APPID
  5
8A
330
9
100
AcDbSymbolTableRecord
100
AcDbRegAppTableRecord
  2
GENIUS_GENOBJ-N-SDF_13
 70
     0
  0
APPID
  5
8B
330
9
100
AcDbSymbolTableRecord
100
AcDbRegAppTableRecord
  2
GENIUS_GENODEF_13
 70
     0
  0
APPID
  5
8C
330
9
100
AcDbSymbolTableRecord
100
AcDbRegAppTableRecord
  2
ACATTRIBSERVICES
 70
     0
  0
APPID
  5
777
330
9
100
AcDbSymbolTableRecord
100
AcDbRegAppTableRecord
  2
AcAecLayerStandard
 70
     0
  0
ENDTAB
  0
TABLE
  2
DIMSTYLE
  5
A
330
0
100
AcDbSymbolTable
 70
     3
100
AcDbDimStyleTable
 71
     1
340
9C
  0
DIMSTYLE
105
58
330
A
100
AcDbSymbolTableRecord
100
AcDbDimStyleTableRecord
  2
Standard
 70
     0
 43
9.899495
 78
    12
 79
     3
140
3.5
179
     2
271
     2
272
     2
284
    12
285
    12
286
    12
340
55
  0
DIMSTYLE
105
59
330
A
100
AcDbSymbolTableRecord
100
AcDbDimStyleTableRecord
  2
Annotative
 70
     0
 40
0.0
 41
2.5
 42
0.625
 43
9.899495
 44
1.25
 73
     0
 74
     0
 77
     1
 78
    12
 79
     3
140
3.5
141
2.5
143
0.03937
147
0.625
171
     3
172
     1
179
     2
271
     2
272
     2
274
     3
278
    44
283
     0
284
    12
285
    12
286
    12
340
55
1001
AcadAnnotative
1000
AnnotativeData
1002
{
1070
     1
1070
     1
1002
}
  0
DIMSTYLE
105
9C
330
A
100
AcDbSymbolTableRecord
100
AcDbDimStyleTableRecord
  2
ISO-25
 70
     0
  4
in
 41
3.5
 42
2.0
 43
9.899495
 44
2.0
 47
0.1
 48
0.1
 73
     0
 74
     0
 77
     1
 78
    12
 79
     3
140
3.5
141
0.0
143
0.03937
146
0.714
147
1.5
171
     4
172
     1
176
   256
177
   256
178
   256
179
     2
271
     2
272
     2
274
     4
283
     0
284
    12
285
    12
286
    12
340
55
1001
ACAD_DSTYLE_DIMBREAK
1070
   391
1040
3.5
1001
ACAD_DSTYLE_DIMJAG
1070
   388
1040
1.5
1001
ACAD_DSTYLE_DIMTALN
1070
   392
1070
     1
  0
ENDTAB
  0
TABLE
  2
BLOCK_RECORD
  5
1
330
0
100
AcDbSymbolTable
 70
     2
  0
BLOCK_RECORD
  5
70
102
{ACAD_XDICTIONARY
360
9D
102
}
330
1
100
AcDbSymbolTableRecord
100
AcDbBlockTableRecord
  2
*Model_Space
340
73
 70
     0
280
     1
281
     0
  0
BLOCK_RECORD
  5
6C
330
1
100
AcDbSymbolTableRecord
100
AcDbBlockTableRecord
  2
*Paper_Space
340
6F
 70
     0
280
     1
281
     0
  0
BLOCK_RECORD
  5
74
330
1
100
AcDbSymbolTableRecord
100
AcDbBlockTableRecord
  2
*Paper_Space0
340
77
 70
     0
280
     1
281
     0
  0
ENDTAB
  0
ENDSEC
  0
SECTION
  2
BLOCKS
  0
BLOCK
  5
71
330
70
100
AcDbEntity
  8
0
100
AcDbBlockBegin
  2
*Model_Space
 70
     0
 10
0.0
 20
0.0
 30
0.0
  3
*Model_Space
  1

  0
ENDBLK
  5
72
330
70
100
AcDbEntity
  8
0
100
AcDbBlockEnd
  0
BLOCK
  5
6D
330
6C
100
AcDbEntity
 67
     1
  8
0
100
AcDbBlockBegin
  2
*Paper_Space
 70
     0
 10
0.0
 20
0.0
 30
0.0
  3
*Paper_Space
  1

  0
ENDBLK
  5
6E
330
6C
100
AcDbEntity
 67
     1
  8
0
100
AcDbBlockEnd
  0
BLOCK
  5
75
330
74
100
AcDbEntity
 67
     1
  8
0
100
AcDbBlockBegin
  2
*Paper_Space0
 70
     0
 10
0.0
 20
0.0
 30
0.0
  3
*Paper_Space0
  1

  0
ENDBLK
  5
76
330
74
100
AcDbEntity
 67
     1
  8
0
100
AcDbBlockEnd
  0
ENDSEC
  0
SECTION
  2
ENTITIES
  0
ARC
  5
40E
330
70
100
AcDbEntity
  8
Visible
100
AcDbCircle
 10
-17.5
 20
37.196276
 30
-0.05
 40
0.5000000000000427
210
0.0
220
0.0
230
-1.0
100
AcDbArc
 50
90.0
 51
270.0
  0
LINE
  5
40F
330
70
100
AcDbEntity
  8
Visible
100
AcDbLine
 10
13.5
 20
37.696276
 30
0.05
 11
17.5
 21
37.696276
 31
0.05
  0
ARC
  5
410
330
70
100
AcDbEntity
  8
Visible
100
AcDbCircle
 10
-13.5
 20
37.196276
 30
-0.05
 40
0.5000000000001137
210
0.0
220
0.0
230
-1.0
100
AcDbArc
 50
0.0
 51
90.0
  0
LINE
  5
411
330
70
100
AcDbEntity
  8
Visible
100
AcDbLine
 10
13.0
 20
21.696276
 30
0.05
 11
13.0
 21
37.196276
 31
0.05
  0
ARC
  5
412
330
70
100
AcDbEntity
  8
Visible
100
AcDbCircle
 10
-13.5
 20
21.696276
 30
-0.05
 40
0.5000000000001404
210
0.0
220
0.0
230
-1.0
100
AcDbArc
 50
270.0
 51
0.0
  0
LINE
  5
413
330
70
100
AcDbEntity
  8
Visible
100
AcDbLine
 10
17.5
 20
21.196276
 30
0.05
 11
13.5
 21
21.196276
 31
0.05
  0
ARC
  5
414
330
70
100
AcDbEntity
  8
Visible
100
AcDbCircle
 10
-17.5
 20
21.696276
 30
-0.05
 40
0.5000000000000427
210
0.0
220
0.0
230
-1.0
100
AcDbArc
 50
90.0
 51
270.0
  0
LINE
  5
415
330
70
100
AcDbEntity
  8
Visible
100
AcDbLine
 10
14.249841
 20
22.198388
 30
0.05
 11
17.5
 21
22.196276
 31
0.05
  0
ARC
  5
416
330
70
100
AcDbEntity
  8
Visible
100
AcDbCircle
 10
14.25
 20
22.448388
 30
0.05
 40
0.2499999999999858
100
AcDbArc
 50
180.0
 51
269.963598
  0
LINE
  5
417
330
70
100
AcDbEntity
  8
Visible
100
AcDbLine
 10
14.0
 20
36.196276
 30
0.05
 11
14.0
 21
22.448388
 31
0.05
  0
ARC
  5
418
330
70
100
AcDbEntity
  8
Visible
100
AcDbCircle
 10
14.5
 20
36.196276
 30
0.05
 40
0.4999999999999672
100
AcDbArc
 50
90.0
 51
180.0
  0
LINE
  5
419
330
70
100
AcDbEntity
  8
Visible
100
AcDbLine
 10
17.5
 20
36.696276
 30
0.05
 11
14.5
 21
36.696276
 31
0.05
  0
ARC
  5
41A
330
70
100
AcDbEntity
  8
Visible
100
AcDbCircle
 10
14.235621
 20
187.44418
 30
0.05
 40
0.2499999999999503
100
AcDbArc
 50
90.0
 51
180.059966
  0
LINE
  5
41B
330
70
100
AcDbEntity
  8
Visible
100
AcDbLine
 10
15.498116
 20
187.69418
 30
0.05
 11
14.235621
 21
187.69418
 31
0.05
  0
LINE
  5
41C
330
70
100
AcDbEntity
  8
Visible
100
AcDbLine
 10
17.5
 20
187.696276
 30
0.05
 11
15.498116
 21
187.69418
 31
0.05
  0
ARC
  5
41D
330
70
100
AcDbEntity
  8
Visible
100
AcDbCircle
 10
-17.5
 20
188.196276
 30
-0.05
 40
0.4999999999999716
210
0.0
220
0.0
230
-1.0
100
AcDbArc
 50
90.0
 51
270.0
  0
LINE
  5
41E
330
70
100
AcDbEntity
  8
Visible
100
AcDbLine
 10
13.5
 20
188.696276
 30
0.05
 11
17.5
 21
188.696276
 31
0.05
  0
ARC
  5
41F
330
70
100
AcDbEntity
  8
Visible
100
AcDbCircle
 10
-13.5
 20
188.196276
 30
-0.05
 40
0.4999999999999716
210
0.0
220
0.0
230
-1.0
100
AcDbArc
 50
0.0
 51
90.0
  0
LINE
  5
420
330
70
100
AcDbEntity
  8
Visible
100
AcDbLine
 10
13.0
 20
172.696276
 30
0.05
 11
13.0
 21
188.196276
 31
0.05
  0
ARC
  5
421
330
70
100
AcDbEntity
  8
Visible
100
AcDbCircle
 10
-13.5
 20
172.696276
 30
-0.05
 40
0.4999999999998295
210
0.0
220
0.0
230
-1.0
100
AcDbArc
 50
270.0
 51
0.0
  0
LINE
  5
422
330
70
100
AcDbEntity
  8
Visible
100
AcDbLine
 10
17.5
 20
172.196276
 30
0.05
 11
13.5
 21
172.196276
 31
0.05
  0
ARC
  5
423
330
70
100
AcDbEntity
  8
Visible
100
AcDbCircle
 10
-17.5
 20
172.696276
 30
-0.05
 40
0.4999999999999716
210
0.0
220
0.0
230
-1.0
100
AcDbArc
 50
90.0
 51
270.0
  0
LINE
  5
424
330
70
100
AcDbEntity
  8
Visible
100
AcDbLine
 10
14.500016
 20
173.205282
 30
0.05
 11
17.5
 21
173.196276
 31
0.05
  0
ARC
  5
425
330
70
100
AcDbEntity
  8
Visible
100
AcDbCircle
 10
14.5
 20
173.705282
 30
0.05
 40
0.4999999999999007
100
AcDbArc
 50
179.975787
 51
270.001827
  0
LINE
  5
426
330
70
100
AcDbEntity
  8
Visible
100
AcDbLine
 10
13.985621
 20
187.443919
 30
0.05
 11
14.0
 21
173.705493
 31
0.05
  0
ARC
  5
427
330
70
100
AcDbEntity
  8
Visible
100
AcDbCircle
 10
-35.5
 20
172.696276
 30
-0.05
 40
0.5000000000001137
210
0.0
220
0.0
230
-1.0
100
AcDbArc
 50
180.0
 51
270.0
  0
LINE
  5
428
330
70
100
AcDbEntity
  8
Visible
100
AcDbLine
 10
36.0
 20
188.196276
 30
0.05
 11
36.0
 21
172.696276
 31
0.05
  0
ARC
  5
429
330
70
100
AcDbEntity
  8
Visible
100
AcDbCircle
 10
-35.5
 20
188.196276
 30
-0.05
 40
0.5000000000000782
210
0.0
220
0.0
230
-1.0
100
AcDbArc
 50
90.0
 51
180.0
  0
LINE
  5
42A
330
70
100
AcDbEntity
  8
Visible
100
AcDbLine
 10
31.5
 20
188.696276
 30
0.05
 11
35.5
 21
188.696276
 31
0.05
  0
ARC
  5
42B
330
70
100
AcDbEntity
  8
Visible
100
AcDbCircle
 10
-31.5
 20
188.196276
 30
-0.05
 40
0.5000000000000427
210
0.0
220
0.0
230
-1.0
100
AcDbArc
 50
270.0
 51
90.0
  0
LINE
  5
42C
330
70
100
AcDbEntity
  8
Visible
100
AcDbLine
 10
34.5
 20
187.696276
 30
0.05
 11
31.5
 21
187.696276
 31
0.05
  0
ARC
  5
42D
330
70
100
AcDbEntity
  8
Visible
100
AcDbCircle
 10
34.5
 20
187.196276
 30
0.05
 40
0.4999999999999716
100
AcDbArc
 50
0.0
 51
90.0
  0
LINE
  5
42E
330
70
100
AcDbEntity
  8
Visible
100
AcDbLine
 10
35.0
 20
173.696276
 30
0.05
 11
35.0
 21
187.196276
 31
0.05
  0
ARC
  5
42F
330
70
100
AcDbEntity
  8
Visible
100
AcDbCircle
 10
34.5
 20
173.696276
 30
0.05
 40
0.5000000000000782
100
AcDbArc
 50
270.0
 51
0.0
  0
LINE
  5
430
330
70
100
AcDbEntity
  8
Visible
100
AcDbLine
 10
31.5
 20
173.196276
 30
0.05
 11
34.5
 21
173.196276
 31
0.05
  0
ARC
  5
431
330
70
100
AcDbEntity
  8
Visible
100
AcDbCircle
 10
-31.5
 20
172.696276
 30
-0.05
 40
0.4999999999999716
210
0.0
220
0.0
230
-1.0
100
AcDbArc
 50
270.0
 51
90.0
  0
LINE
  5
432
330
70
100
AcDbEntity
  8
Visible
100
AcDbLine
 10
35.5
 20
172.196276
 30
0.05
 11
31.5
 21
172.196276
 31
0.05
  0
ARC
  5
433
330
70
100
AcDbEntity
  8
Visible
100
AcDbCircle
 10
-31.5
 20
37.196276
 30
-0.05
 40
0.5000000000000427
210
0.0
220
0.0
230
-1.0
100
AcDbArc
 50
270.0
 51
90.0
  0
LINE
  5
434
330
70
100
AcDbEntity
  8
Visible
100
AcDbLine
 10
34.5
 20
36.696276
 30
0.05
 11
31.5
 21
36.696276
 31
0.05
  0
ARC
  5
435
330
70
100
AcDbEntity
  8
Visible
100
AcDbCircle
 10
34.5
 20
36.196276
 30
0.05
 40
0.4999999999999716
100
AcDbArc
 50
0.0
 51
90.0
  0
LINE
  5
436
330
70
100
AcDbEntity
  8
Visible
100
AcDbLine
 10
35.0
 20
22.696276
 30
0.05
 11
35.0
 21
36.196276
 31
0.05
  0
ARC
  5
437
330
70
100
AcDbEntity
  8
Visible
100
AcDbCircle
 10
34.5
 20
22.696276
 30
0.05
 40
0.5000000000000249
100
AcDbArc
 50
270.0
 51
0.0
  0
LINE
  5
438
330
70
100
AcDbEntity
  8
Visible
100
AcDbLine
 10
31.5
 20
22.196276
 30
0.05
 11
34.5
 21
22.196276
 31
0.05
  0
ARC
  5
439
330
70
100
AcDbEntity
  8
Visible
100
AcDbCircle
 10
-31.5
 20
21.696276
 30
-0.05
 40
0.4999999999999716
210
0.0
220
0.0
230
-1.0
100
AcDbArc
 50
270.0
 51
90.0
  0
LINE
  5
43A
330
70
100
AcDbEntity
  8
Visible
100
AcDbLine
 10
35.5
 20
21.196276
 30
0.05
 11
31.5
 21
21.196276
 31
0.05
  0
ARC
  5
43B
330
70
100
AcDbEntity
  8
Visible
100
AcDbCircle
 10
-35.5
 20
21.696276
 30
-0.05
 40
0.5000000000001137
210
0.0
220
0.0
230
-1.0
100
AcDbArc
 50
180.0
 51
270.0
  0
LINE
  5
43C
330
70
100
AcDbEntity
  8
Visible
100
AcDbLine
 10
36.0
 20
37.196276
 30
0.05
 11
36.0
 21
21.696276
 31
0.05
  0
ARC
  5
43D
330
70
100
AcDbEntity
  8
Visible
100
AcDbCircle
 10
-35.5
 20
37.196276
 30
-0.05
 40
0.4999999999999272
210
0.0
220
0.0
230
-1.0
100
AcDbArc
 50
90.0
 51
180.0
  0
LINE
  5
43E
330
70
100
AcDbEntity
  8
Visible
100
AcDbLine
 10
31.5
 20
37.696276
 30
0.05
 11
35.5
 21
37.696276
 31
0.05
  0
ARC
  5
43F
330
70
100
AcDbEntity
  8
Visible
100
AcDbCircle
 10
-33.248778
 20
6.946276
 30
-0.05
 40
1.249999999999991
210
0.0
220
0.0
230
-1.0
100
AcDbArc
 50
78.520214
 51
2.533956
  0
LINE
  5
440
330
70
100
AcDbEntity
  8
Visible
100
AcDbLine
 10
33.0
 20
10.739169
 30
0.05
 11
33.0
 21
8.17127
 31
0.05
  0
ARC
  5
441
330
70
100
AcDbEntity
  8
Visible
100
AcDbCircle
 10
33.5
 20
10.739169
 30
0.05
 40
0.5000000000001874
100
AcDbArc
 50
135.0
 51
180.0
  0
LINE
  5
442
330
70
100
AcDbEntity
  8
Visible
100
AcDbLine
 10
37.792893
 20
15.739169
 30
0.05
 11
33.146447
 21
11.092722
 31
0.05
  0
ARC
  5
443
330
70
100
AcDbEntity
  8
Visible
100
AcDbCircle
 10
38.5
 20
15.032062
 30
0.05
 40
0.9999999999999431
100
AcDbArc
 50
0.0
 51
135.0
  0
LINE
  5
444
330
70
100
AcDbEntity
  8
Visible
100
AcDbLine
 10
39.5
 20
4.946276
 30
0.05
 11
39.5
 21
15.032062
 31
0.05
  0
ARC
  5
445
330
70
100
AcDbEntity
  8
Visible
100
AcDbCircle
 10
34.5
 20
4.946276
 30
0.05
 40
5.00000000000003
100
AcDbArc
 50
270.0
 51
0.0
  0
LINE
  5
446
330
70
100
AcDbEntity
  8
Visible
100
AcDbLine
 10
14.5
 20
-0.053724
 30
0.05
 11
34.5
 21
-0.053724
 31
0.05
  0
ARC
  5
447
330
70
100
AcDbEntity
  8
Visible
100
AcDbCircle
 10
14.5
 20
4.946276
 30
0.05
 40
5.000000000000035
100
AcDbArc
 50
180.0
 51
270.0
  0
LINE
  5
448
330
70
100
AcDbEntity
  8
Visible
100
AcDbLine
 10
9.5
 20
15.032062
 30
0.05
 11
9.5
 21
4.946276
 31
0.05
  0
ARC
  5
449
330
70
100
AcDbEntity
  8
Visible
100
AcDbCircle
 10
10.5
 20
15.032062
 30
0.05
 40
1.00000000000007
100
AcDbArc
 50
45.0
 51
180.0
  0
LINE
  5
44A
330
70
100
AcDbEntity
  8
Visible
100
AcDbLine
 10
15.853553
 20
11.092722
 30
0.05
 11
11.207107
 21
15.739169
 31
0.05
  0
ARC
  5
44B
330
70
100
AcDbEntity
  8
Visible
100
AcDbCircle
 10
15.5
 20
10.739169
 30
0.05
 40
0.4999999999996874
100
AcDbArc
 50
0.0
 51
45.0
  0
LINE
  5
44C
330
70
100
AcDbEntity
  8
Visible
100
AcDbLine
 10
16.0
 20
8.171021
 30
0.05
 11
16.0
 21
10.739169
 31
0.05
  0
ARC
  5
44D
330
70
100
AcDbEntity
  8
Visible
100
AcDbCircle
 10
-15.75
 20
6.946276
 30
-0.05
 40
1.249999999999959
210
0.0
220
0.0
230
-1.0
100
AcDbArc
 50
180.000023
 51
101.536959
  0
LINE
  5
44E
330
70
100
AcDbEntity
  8
Visible
100
AcDbLine
 10
17.0
 20
10.739169
 30
0.05
 11
17.0
 21
6.946276
 31
0.05
  0
ARC
  5
44F
330
70
100
AcDbEntity
  8
Visible
100
AcDbCircle
 10
-16.5
 20
10.739169
 30
-0.05
 40
0.5000000000005408
210
0.0
220
0.0
230
-1.0
100
AcDbArc
 50
135.0
 51
180.0
  0
LINE
  5
450
330
70
100
AcDbEntity
  8
Visible
100
AcDbLine
 10
9.792893
 20
18.153382
 30
0.05
 11
16.853553
 21
11.092722
 31
0.05
  0
ARC
  5
451
330
70
100
AcDbEntity
  8
Visible
100
AcDbCircle
 10
10.5
 20
18.860489
 30
0.05
 40
0.9999999999996234
100
AcDbArc
 50
180.0
 51
225.0
  0
LINE
  5
452
330
70
100
AcDbEntity
  8
Visible
100
AcDbLine
 10
9.5
 20
191.032062
 30
0.05
 11
9.5
 21
18.860489
 31
0.05
  0
ARC
  5
453
330
70
100
AcDbEntity
  8
Visible
100
AcDbCircle
 10
10.5
 20
191.032062
 30
0.05
 40
1.000000000000023
100
AcDbArc
 50
135.0
 51
180.0
  0
LINE
  5
454
330
70
100
AcDbEntity
  8
Visible
100
AcDbLine
 10
16.853553
 20
198.799829
 30
0.05
 11
9.792893
 21
191.739169
 31
0.05
  0
ARC
  5
455
330
70
100
AcDbEntity
  8
Visible
100
AcDbCircle
 10
-16.5
 20
199.153382
 30
-0.05
 40
0.5000000000003979
210
0.0
220
0.0
230
-1.0
100
AcDbArc
 50
180.0
 51
225.0
  0
LINE
  5
456
330
70
100
AcDbEntity
  8
Visible
100
AcDbLine
 10
17.0
 20
202.946276
 30
0.05
 11
17.0
 21
199.153382
 31
0.05
  0
ARC
  5
457
330
70
100
AcDbEntity
  8
Visible
100
AcDbCircle
 10
-15.75
 20
202.946276
 30
-0.05
 40
1.249999999999994
210
0.0
220
0.0
230
-1.0
100
AcDbArc
 50
258.463041
 51
180.0
  0
LINE
  5
458
330
70
100
AcDbEntity
  8
Visible
100
AcDbLine
 10
16.0
 20
199.153382
 30
0.05
 11
16.0
 21
201.721531
 31
0.05
  0
ARC
  5
459
330
70
100
AcDbEntity
  8
Visible
100
AcDbCircle
 10
15.5
 20
199.153382
 30
0.05
 40
0.4999999999996222
100
AcDbArc
 50
315.0
 51
0.0
  0
LINE
  5
45A
330
70
100
AcDbEntity
  8
Visible
100
AcDbLine
 10
11.207107
 20
194.153382
 30
0.05
 11
15.853553
 21
198.799829
 31
0.05
  0
ARC
  5
45B
330
70
100
AcDbEntity
  8
Visible
100
AcDbCircle
 10
10.5
 20
194.860489
 30
0.05
 40
1.00000000000012
100
AcDbArc
 50
180.0
 51
315.0
  0
LINE
  5
45C
330
70
100
AcDbEntity
  8
Visible
100
AcDbLine
 10
9.5
 20
204.946276
 30
0.05
 11
9.5
 21
194.860489
 31
0.05
  0
ARC
  5
45D
330
70
100
AcDbEntity
  8
Visible
100
AcDbCircle
 10
14.5
 20
204.946276
 30
0.05
 40
5.000000010148658
100
AcDbArc
 50
90.007003
 51
180.0
  0
LINE
  5
45E
330
70
100
AcDbEntity
  8
Visible
100
AcDbLine
 10
34.499389
 20
209.946275
 30
0.05
 11
14.499389
 21
209.946276
 31
0.05
  0
ARC
  5
45F
330
70
100
AcDbEntity
  8
Visible
100
AcDbCircle
 10
34.5
 20
204.946276
 30
0.05
 40
5.0
100
AcDbArc
 50
0.0
 51
90.007003
  0
LINE
  5
460
330
70
100
AcDbEntity
  8
Visible
100
AcDbLine
 10
39.5
 20
194.860489
 30
0.05
 11
39.5
 21
204.946276
 31
0.05
  0
ARC
  5
461
330
70
100
AcDbEntity
  8
Visible
100
AcDbCircle
 10
38.5
 20
194.860489
 30
0.05
 40
0.9999999999999978
100
AcDbArc
 50
225.0
 51
0.0
  0
LINE
  5
462
330
70
100
AcDbEntity
  8
Visible
100
AcDbLine
 10
33.146447
 20
198.799829
 30
0.05
 11
37.792893
 21
194.153382
 31
0.05
  0
ARC
  5
463
330
70
100
AcDbEntity
  8
Visible
100
AcDbCircle
 10
33.5
 20
199.153382
 30
0.05
 40
0.4999999999999716
100
AcDbArc
 50
180.0
 51
225.0
  0
LINE
  5
464
330
70
100
AcDbEntity
  8
Visible
100
AcDbLine
 10
33.0
 20
201.721282
 30
0.05
 11
33.0
 21
199.153382
 31
0.05
  0
ARC
  5
465
330
70
100
AcDbEntity
  8
Visible
100
AcDbCircle
 10
-33.248778
 20
202.946276
 30
-0.05
 40
1.250000000000024
210
0.0
220
0.0
230
-1.0
100
AcDbArc
 50
357.466044
 51
281.479786
  0
LINE
  5
466
330
70
100
AcDbEntity
  8
Visible
100
AcDbLine
 10
32.0
 20
199.153382
 30
0.05
 11
32.0
 21
202.891011
 31
0.05
  0
ARC
  5
467
330
70
100
AcDbEntity
  8
Visible
100
AcDbCircle
 10
-32.5
 20
199.153382
 30
-0.05
 40
0.4999999999998986
210
0.0
220
0.0
230
-1.0
100
AcDbArc
 50
315.0
 51
0.0
  0
LINE
  5
468
330
70
100
AcDbEntity
  8
Visible
100
AcDbLine
 10
39.207107
 20
191.739169
 30
0.05
 11
32.146447
 21
198.799829
 31
0.05
  0
ARC
  5
469
330
70
100
AcDbEntity
  8
Visible
100
AcDbCircle
 10
38.5
 20
191.032062
 30
0.05
 40
1.000000000000251
100
AcDbArc
 50
0.000013
 51
45.0
  0
LINE
  5
46A
330
70
100
AcDbEntity
  8
Visible
100
AcDbLine
 10
39.5
 20
18.860489
 30
0.05
 11
39.5
 21
191.032062
 31
0.05
  0
ARC
  5
46B
330
70
100
AcDbEntity
  8
Visible
100
AcDbCircle
 10
38.5
 20
18.860489
 30
0.05
 40
1.000000000000073
100
AcDbArc
 50
315.0
 51
0.000016
  0
LINE
  5
46C
330
70
100
AcDbEntity
  8
Visible
100
AcDbLine
 10
32.146447
 20
11.092722
 30
0.05
 11
39.207107
 21
18.153382
 31
0.05
  0
ARC
  5
46D
330
70
100
AcDbEntity
  8
Visible
100
AcDbCircle
 10
-32.5
 20
10.739169
 30
-0.05
 40
0.4999999999999006
210
0.0
220
0.0
230
-1.0
100
AcDbArc
 50
0.0
 51
45.0
  0
LINE
  5
46E
330
70
100
AcDbEntity
  8
Visible
100
AcDbLine
 10
32.0
 20
7.00154
 30
0.05
 11
32.0
 21
10.739169
 31
0.05
  0
ARC
  5
46F
330
70
100
AcDbEntity
  8
Visible
100
AcDbCircle
 10
-48.5
 20
37.196275
 30
-0.05
 40
0.5000000000000427
210
0.0
220
0.0
230
-1.0
100
AcDbArc
 50
90.0
 51
270.0
  0
LINE
  5
470
330
70
100
AcDbEntity
  8
Visible
100
AcDbLine
 10
44.5
 20
37.696275
 30
0.05
 11
48.5
 21
37.696275
 31
0.05
  0
ARC
  5
471
330
70
100
AcDbEntity
  8
Visible
100
AcDbCircle
 10
-44.5
 20
37.196275
 30
-0.05
 40
0.5000000000000427
210
0.0
220
0.0
230
-1.0
100
AcDbArc
 50
0.0
 51
90.0
  0
LINE
  5
472
330
70
100
AcDbEntity
  8
Visible
100
AcDbLine
 10
44.0
 20
21.696275
 30
0.05
 11
44.0
 21
37.196275
 31
0.05
  0
ARC
  5
473
330
70
100
AcDbEntity
  8
Visible
100
AcDbCircle
 10
-44.5
 20
21.696275
 30
-0.05
 40
0.5000000000001404
210
0.0
220
0.0
230
-1.0
100
AcDbArc
 50
270.0
 51
0.0
  0
LINE
  5
474
330
70
100
AcDbEntity
  8
Visible
100
AcDbLine
 10
48.5
 20
21.196275
 30
0.05
 11
44.5
 21
21.196275
 31
0.05
  0
ARC
  5
475
330
70
100
AcDbEntity
  8
Visible
100
AcDbCircle
 10
-48.5
 20
21.696275
 30
-0.05
 40
0.5000000000000427
210
0.0
220
0.0
230
-1.0
100
AcDbArc
 50
90.0
 51
270.0
  0
LINE
  5
476
330
70
100
AcDbEntity
  8
Visible
100
AcDbLine
 10
45.249841
 20
22.198388
 30
0.05
 11
48.5
 21
22.196275
 31
0.05
  0
ARC
  5
477
330
70
100
AcDbEntity
  8
Visible
100
AcDbCircle
 10
45.25
 20
22.448388
 30
0.05
 40
0.2499999999999858
100
AcDbArc
 50
180.0
 51
269.963598
  0
LINE
  5
478
330
70
100
AcDbEntity
  8
Visible
100
AcDbLine
 10
45.0
 20
36.196275
 30
0.05
 11
45.0
 21
22.448388
 31
0.05
  0
ARC
  5
479
330
70
100
AcDbEntity
  8
Visible
100
AcDbCircle
 10
45.5
 20
36.196275
 30
0.05
 40
0.5000000000000249
100
AcDbArc
 50
90.0
 51
180.0
  0
LINE
  5
47A
330
70
100
AcDbEntity
  8
Visible
100
AcDbLine
 10
48.5
 20
36.696275
 30
0.05
 11
45.5
 21
36.696275
 31
0.05
  0
ARC
  5
47B
330
70
100
AcDbEntity
  8
Visible
100
AcDbCircle
 10
45.235621
 20
187.44418
 30
0.05
 40
0.2500000000000568
100
AcDbArc
 50
90.0
 51
180.059966
  0
LINE
  5
47C
330
70
100
AcDbEntity
  8
Visible
100
AcDbLine
 10
46.498116
 20
187.69418
 30
0.05
 11
45.235621
 21
187.69418
 31
0.05
  0
LINE
  5
47D
330
70
100
AcDbEntity
  8
Visible
100
AcDbLine
 10
48.5
 20
187.696275
 30
0.05
 11
46.498116
 21
187.69418
 31
0.05
  0
ARC
  5
47E
330
70
100
AcDbEntity
  8
Visible
100
AcDbCircle
 10
-48.5
 20
188.196275
 30
-0.05
 40
0.4999999999999716
210
0.0
220
0.0
230
-1.0
100
AcDbArc
 50
90.0
 51
270.0
  0
LINE
  5
47F
330
70
100
AcDbEntity
  8
Visible
100
AcDbLine
 10
44.5
 20
188.696275
 30
0.05
 11
48.5
 21
188.696275
 31
0.05
  0
ARC
  5
480
330
70
100
AcDbEntity
  8
Visible
100
AcDbCircle
 10
-44.5
 20
188.196275
 30
-0.05
 40
0.5000000000000427
210
0.0
220
0.0
230
-1.0
100
AcDbArc
 50
0.0
 51
90.0
  0
LINE
  5
481
330
70
100
AcDbEntity
  8
Visible
100
AcDbLine
 10
44.0
 20
172.696275
 30
0.05
 11
44.0
 21
188.196275
 31
0.05
  0
ARC
  5
482
330
70
100
AcDbEntity
  8
Visible
100
AcDbCircle
 10
-44.5
 20
172.696275
 30
-0.05
 40
0.499999999999865
210
0.0
220
0.0
230
-1.0
100
AcDbArc
 50
270.0
 51
0.0
  0
LINE
  5
483
330
70
100
AcDbEntity
  8
Visible
100
AcDbLine
 10
48.5
 20
172.196275
 30
0.05
 11
44.5
 21
172.196275
 31
0.05
  0
ARC
  5
484
330
70
100
AcDbEntity
  8
Visible
100
AcDbCircle
 10
-48.5
 20
172.696275
 30
-0.05
 40
0.4999999999999716
210
0.0
220
0.0
230
-1.0
100
AcDbArc
 50
90.0
 51
270.0
  0
LINE
  5
485
330
70
100
AcDbEntity
  8
Visible
100
AcDbLine
 10
45.500016
 20
173.205282
 30
0.05
 11
48.5
 21
173.196275
 31
0.05
  0
ARC
  5
486
330
70
100
AcDbEntity
  8
Visible
100
AcDbCircle
 10
45.5
 20
173.705282
 30
0.05
 40
0.4999999999999007
100
AcDbArc
 50
179.975787
 51
270.001827
  0
LINE
  5
487
330
70
100
AcDbEntity
  8
Visible
100
AcDbLine
 10
44.985621
 20
187.443919
 30
0.05
 11
45.0
 21
173.705493
 31
0.05
  0
ARC
  5
488
330
70
100
AcDbEntity
  8
Visible
100
AcDbCircle
 10
-66.5
 20
172.696275
 30
-0.05
 40
0.5000000000001137
210
0.0
220
0.0
230
-1.0
100
AcDbArc
 50
180.0
 51
270.0
  0
LINE
  5
489
330
70
100
AcDbEntity
  8
Visible
100
AcDbLine
 10
67.0
 20
188.196275
 30
0.05
 11
67.0
 21
172.696275
 31
0.05
  0
ARC
  5
48A
330
70
100
AcDbEntity
  8
Visible
100
AcDbCircle
 10
-66.5
 20
188.196275
 30
-0.05
 40
0.5000000000000782
210
0.0
220
0.0
230
-1.0
100
AcDbArc
 50
90.0
 51
180.0
  0
LINE
  5
48B
330
70
100
AcDbEntity
  8
Visible
100
AcDbLine
 10
62.5
 20
188.696275
 30
0.05
 11
66.5
 21
188.696275
 31
0.05
  0
ARC
  5
48C
330
70
100
AcDbEntity
  8
Visible
100
AcDbCircle
 10
-62.5
 20
188.196275
 30
-0.05
 40
0.5000000000000427
210
0.0
220
0.0
230
-1.0
100
AcDbArc
 50
270.0
 51
90.0
  0
LINE
  5
48D
330
70
100
AcDbEntity
  8
Visible
100
AcDbLine
 10
65.5
 20
187.696275
 30
0.05
 11
62.5
 21
187.696275
 31
0.05
  0
ARC
  5
48E
330
70
100
AcDbEntity
  8
Visible
100
AcDbCircle
 10
65.5
 20
187.196275
 30
0.05
 40
0.4999999999999716
100
AcDbArc
 50
0.0
 51
90.0
  0
LINE
  5
48F
330
70
100
AcDbEntity
  8
Visible
100
AcDbLine
 10
66.0
 20
173.696275
 30
0.05
 11
66.0
 21
187.196275
 31
0.05
  0
ARC
  5
490
330
70
100
AcDbEntity
  8
Visible
100
AcDbCircle
 10
65.5
 20
173.696275
 30
0.05
 40
0.5000000000000427
100
AcDbArc
 50
270.0
 51
0.0
  0
LINE
  5
491
330
70
100
AcDbEntity
  8
Visible
100
AcDbLine
 10
62.5
 20
173.196275
 30
0.05
 11
65.5
 21
173.196275
 31
0.05
  0
ARC
  5
492
330
70
100
AcDbEntity
  8
Visible
100
AcDbCircle
 10
-62.5
 20
172.696275
 30
-0.05
 40
0.4999999999999716
210
0.0
220
0.0
230
-1.0
100
AcDbArc
 50
270.0
 51
90.0
  0
LINE
  5
493
330
70
100
AcDbEntity
  8
Visible
100
AcDbLine
 10
66.5
 20
172.196275
 30
0.05
 11
62.5
 21
172.196275
 31
0.05
  0
ARC
  5
494
330
70
100
AcDbEntity
  8
Visible
100
AcDbCircle
 10
-62.5
 20
37.196275
 30
-0.05
 40
0.5000000000000427
210
0.0
220
0.0
230
-1.0
100
AcDbArc
 50
270.0
 51
90.0
  0
LINE
  5
495
330
70
100
AcDbEntity
  8
Visible
100
AcDbLine
 10
65.5
 20
36.696275
 30
0.05
 11
62.5
 21
36.696275
 31
0.05
  0
ARC
  5
496
330
70
100
AcDbEntity
  8
Visible
100
AcDbCircle
 10
65.5
 20
36.196275
 30
0.05
 40
0.4999999999999716
100
AcDbArc
 50
0.0
 51
90.0
  0
LINE
  5
497
330
70
100
AcDbEntity
  8
Visible
100
AcDbLine
 10
66.0
 20
22.696275
 30
0.05
 11
66.0
 21
36.196275
 31
0.05
  0
ARC
  5
498
330
70
100
AcDbEntity
  8
Visible
100
AcDbCircle
 10
65.5
 20
22.696275
 30
0.05
 40
0.5000000000000249
100
AcDbArc
 50
270.0
 51
0.0
  0
LINE
  5
499
330
70
100
AcDbEntity
  8
Visible
100
AcDbLine
 10
62.5
 20
22.196275
 30
0.05
 11
65.5
 21
22.196275
 31
0.05
  0
ARC
  5
49A
330
70
100
AcDbEntity
  8
Visible
100
AcDbCircle
 10
-62.5
 20
21.696275
 30
-0.05
 40
0.4999999999999716
210
0.0
220
0.0
230
-1.0
100
AcDbArc
 50
270.0
 51
90.0
  0
LINE
  5
49B
330
70
100
AcDbEntity
  8
Visible
100
AcDbLine
 10
66.5
 20
21.196275
 30
0.05
 11
62.5
 21
21.196275
 31
0.05
  0
ARC
  5
49C
330
70
100
AcDbEntity
  8
Visible
100
AcDbCircle
 10
-66.5
 20
21.696275
 30
-0.05
 40
0.5000000000001137
210
0.0
220
0.0
230
-1.0
100
AcDbArc
 50
180.0
 51
270.0
  0
LINE
  5
49D
330
70
100
AcDbEntity
  8
Visible
100
AcDbLine
 10
67.0
 20
37.196275
 30
0.05
 11
67.0
 21
21.696275
 31
0.05
  0
ARC
  5
49E
330
70
100
AcDbEntity
  8
Visible
100
AcDbCircle
 10
-66.5
 20
37.196275
 30
-0.05
 40
0.4999999999998917
210
0.0
220
0.0
230
-1.0
100
AcDbArc
 50
90.0
 51
180.0
  0
LINE
  5
49F
330
70
100
AcDbEntity
  8
Visible
100
AcDbLine
 10
62.5
 20
37.696275
 30
0.05
 11
66.5
 21
37.696275
 31
0.05
  0
ARC
  5
4A0
330
70
100
AcDbEntity
  8
Visible
100
AcDbCircle
 10
-64.248778
 20
6.946276
 30
-0.05
 40
1.249999999999993
210
0.0
220
0.0
230
-1.0
100
AcDbArc
 50
78.520214
 51
2.533956
  0
LINE
  5
4A1
330
70
100
AcDbEntity
  8
Visible
100
AcDbLine
 10
64.0
 20
10.739169
 30
0.05
 11
64.0
 21
8.17127
 31
0.05
  0
ARC
  5
4A2
330
70
100
AcDbEntity
  8
Visible
100
AcDbCircle
 10
64.5
 20
10.739169
 30
0.05
 40
0.5000000000002501
100
AcDbArc
 50
135.0
 51
180.0
  0
LINE
  5
4A3
330
70
100
AcDbEntity
  8
Visible
100
AcDbLine
 10
68.792893
 20
15.739169
 30
0.05
 11
64.146447
 21
11.092722
 31
0.05
  0
ARC
  5
4A4
330
70
100
AcDbEntity
  8
Visible
100
AcDbCircle
 10
69.5
 20
15.032062
 30
0.05
 40
0.9999999999999431
100
AcDbArc
 50
0.0
 51
135.0
  0
LINE
  5
4A5
330
70
100
AcDbEntity
  8
Visible
100
AcDbLine
 10
70.5
 20
4.946275
 30
0.05
 11
70.5
 21
15.032062
 31
0.05
  0
ARC
  5
4A6
330
70
100
AcDbEntity
  8
Visible
100
AcDbCircle
 10
65.5
 20
4.946275
 30
0.05
 40
5.000000000000028
100
AcDbArc
 50
270.0
 51
0.0
  0
LINE
  5
4A7
330
70
100
AcDbEntity
  8
Visible
100
AcDbLine
 10
45.5
 20
-0.053725
 30
0.05
 11
65.5
 21
-0.053725
 31
0.05
  0
ARC
  5
4A8
330
70
100
AcDbEntity
  8
Visible
100
AcDbCircle
 10
45.5
 20
4.946275
 30
0.05
 40
5.000000000000142
100
AcDbArc
 50
180.0
 51
270.0
  0
LINE
  5
4A9
330
70
100
AcDbEntity
  8
Visible
100
AcDbLine
 10
40.5
 20
15.032062
 30
0.05
 11
40.5
 21
4.946275
 31
0.05
  0
ARC
  5
4AA
330
70
100
AcDbEntity
  8
Visible
100
AcDbCircle
 10
41.5
 20
15.032062
 30
0.05
 40
1.00000000000007
100
AcDbArc
 50
45.0
 51
180.0
  0
LINE
  5
4AB
330
70
100
AcDbEntity
  8
Visible
100
AcDbLine
 10
46.853553
 20
11.092722
 30
0.05
 11
42.207107
 21
15.739169
 31
0.05
  0
ARC
  5
4AC
330
70
100
AcDbEntity
  8
Visible
100
AcDbCircle
 10
46.5
 20
10.739169
 30
0.05
 40
0.4999999999997585
100
AcDbArc
 50
0.0
 51
45.0
  0
LINE
  5
4AD
330
70
100
AcDbEntity
  8
Visible
100
AcDbLine
 10
47.0
 20
8.171021
 30
0.05
 11
47.0
 21
10.739169
 31
0.05
  0
ARC
  5
4AE
330
70
100
AcDbEntity
  8
Visible
100
AcDbCircle
 10
-46.75
 20
6.946276
 30
-0.05
 40
1.25000000000003
210
0.0
220
0.0
230
-1.0
100
AcDbArc
 50
180.000023
 51
101.536959
  0
LINE
  5
4AF
330
70
100
AcDbEntity
  8
Visible
100
AcDbLine
 10
48.0
 20
10.739169
 30
0.05
 11
48.0
 21
6.946275
 31
0.05
  0
ARC
  5
4B0
330
70
100
AcDbEntity
  8
Visible
100
AcDbCircle
 10
-47.5
 20
10.739169
 30
-0.05
 40
0.4999999999999739
210
0.0
220
0.0
230
-1.0
100
AcDbArc
 50
135.0
 51
180.0
  0
LINE
  5
4B1
330
70
100
AcDbEntity
  8
Visible
100
AcDbLine
 10
40.792893
 20
18.153382
 30
0.05
 11
47.853553
 21
11.092722
 31
0.05
  0
ARC
  5
4B2
330
70
100
AcDbEntity
  8
Visible
100
AcDbCircle
 10
41.5
 20
18.860489
 30
0.05
 40
1.000000000000227
100
AcDbArc
 50
180.0
 51
225.0
  0
LINE
  5
4B3
330
70
100
AcDbEntity
  8
Visible
100
AcDbLine
 10
40.5
 20
191.032062
 30
0.05
 11
40.5
 21
18.860489
 31
0.05
  0
ARC
  5
4B4
330
70
100
AcDbEntity
  8
Visible
100
AcDbCircle
 10
41.5
 20
191.032062
 30
0.05
 40
1.000000000000073
100
AcDbArc
 50
135.0
 51
180.0
  0
LINE
  5
4B5
330
70
100
AcDbEntity
  8
Visible
100
AcDbLine
 10
47.853553
 20
198.799829
 30
0.05
 11
40.792893
 21
191.739169
 31
0.05
  0
ARC
  5
4B6
330
70
100
AcDbEntity
  8
Visible
100
AcDbCircle
 10
-47.5
 20
199.153382
 30
-0.05
 40
0.5000000000000427
210
0.0
220
0.0
230
-1.0
100
AcDbArc
 50
180.0
 51
225.0
  0
LINE
  5
4B7
330
70
100
AcDbEntity
  8
Visible
100
AcDbLine
 10
48.0
 20
202.946275
 30
0.05
 11
48.0
 21
199.153382
 31
0.05
  0
ARC
  5
4B8
330
70
100
AcDbEntity
  8
Visible
100
AcDbCircle
 10
-46.75
 20
202.946275
 30
-0.05
 40
1.249999999999966
210
0.0
220
0.0
230
-1.0
100
AcDbArc
 50
258.463041
 51
180.0
  0
LINE
  5
4B9
330
70
100
AcDbEntity
  8
Visible
100
AcDbLine
 10
47.0
 20
199.153382
 30
0.05
 11
47.0
 21
201.721531
 31
0.05
  0
ARC
  5
4BA
330
70
100
AcDbEntity
  8
Visible
100
AcDbCircle
 10
46.5
 20
199.153382
 30
0.05
 40
0.5000000000002503
100
AcDbArc
 50
315.0
 51
0.0
  0
LINE
  5
4BB
330
70
100
AcDbEntity
  8
Visible
100
AcDbLine
 10
42.207107
 20
194.153382
 30
0.05
 11
46.853553
 21
198.799829
 31
0.05
  0
ARC
  5
4BC
330
70
100
AcDbEntity
  8
Visible
100
AcDbCircle
 10
41.5
 20
194.860489
 30
0.05
 40
1.000000000000085
100
AcDbArc
 50
180.0
 51
315.0
  0
LINE
  5
4BD
330
70
100
AcDbEntity
  8
Visible
100
AcDbLine
 10
40.5
 20
204.946275
 30
0.05
 11
40.5
 21
194.860489
 31
0.05
  0
ARC
  5
4BE
330
70
100
AcDbEntity
  8
Visible
100
AcDbCircle
 10
45.5
 20
204.946276
 30
0.05
 40
5.0000000101488
100
AcDbArc
 50
90.007003
 51
180.0
  0
LINE
  5
4BF
330
70
100
AcDbEntity
  8
Visible
100
AcDbLine
 10
65.499389
 20
209.946275
 30
0.05
 11
45.499389
 21
209.946275
 31
0.05
  0
ARC
  5
4C0
330
70
100
AcDbEntity
  8
Visible
100
AcDbCircle
 10
65.5
 20
204.946275
 30
0.05
 40
4.999999999999928
100
AcDbArc
 50
0.0
 51
90.007003
  0
LINE
  5
4C1
330
70
100
AcDbEntity
  8
Visible
100
AcDbLine
 10
70.5
 20
194.860489
 30
0.05
 11
70.5
 21
204.946275
 31
0.05
  0
ARC
  5
4C2
330
70
100
AcDbEntity
  8
Visible
100
AcDbCircle
 10
69.5
 20
194.860489
 30
0.05
 40
0.9999999999999729
100
AcDbArc
 50
225.0
 51
0.0
  0
LINE
  5
4C3
330
70
100
AcDbEntity
  8
Visible
100
AcDbLine
 10
64.146447
 20
198.799829
 30
0.05
 11
68.792893
 21
194.153382
 31
0.05
  0
ARC
  5
4C4
330
70
100
AcDbEntity
  8
Visible
100
AcDbCircle
 10
64.5
 20
199.153382
 30
0.05
 40
0.4999999999999716
100
AcDbArc
 50
180.0
 51
225.0
  0
LINE
  5
4C5
330
70
100
AcDbEntity
  8
Visible
100
AcDbLine
 10
64.0
 20
201.721282
 30
0.05
 11
64.0
 21
199.153382
 31
0.05
  0
ARC
  5
4C6
330
70
100
AcDbEntity
  8
Visible
100
AcDbCircle
 10
-64.248778
 20
202.946275
 30
-0.05
 40
1.250000000000022
210
0.0
220
0.0
230
-1.0
100
AcDbArc
 50
357.466044
 51
281.479786
  0
LINE
  5
4C7
330
70
100
AcDbEntity
  8
Visible
100
AcDbLine
 10
63.0
 20
199.153382
 30
0.05
 11
63.0
 21
202.891011
 31
0.05
  0
ARC
  5
4C8
330
70
100
AcDbEntity
  8
Visible
100
AcDbCircle
 10
-63.5
 20
199.153382
 30
-0.05
 40
0.5000000000000241
210
0.0
220
0.0
230
-1.0
100
AcDbArc
 50
315.0
 51
0.0
  0
LINE
  5
4C9
330
70
100
AcDbEntity
  8
Visible
100
AcDbLine
 10
70.207107
 20
191.739169
 30
0.05
 11
63.146447
 21
198.799829
 31
0.05
  0
ARC
  5
4CA
330
70
100
AcDbEntity
  8
Visible
100
AcDbCircle
 10
69.5
 20
191.032062
 30
0.05
 40
1.00000000000018
100
AcDbArc
 50
0.000013
 51
45.0
  0
LINE
  5
4CB
330
70
100
AcDbEntity
  8
Visible
100
AcDbLine
 10
70.5
 20
18.860489
 30
0.05
 11
70.5
 21
191.032062
 31
0.05
  0
ARC
  5
4CC
330
70
100
AcDbEntity
  8
Visible
100
AcDbCircle
 10
69.5
 20
18.860489
 30
0.05
 40
1.000000000000126
100
AcDbArc
 50
315.0
 51
0.000016
  0
LINE
  5
4CD
330
70
100
AcDbEntity
  8
Visible
100
AcDbLine
 10
63.146447
 20
11.092722
 30
0.05
 11
70.207107
 21
18.153382
 31
0.05
  0
ARC
  5
4CE
330
70
100
AcDbEntity
  8
Visible
100
AcDbCircle
 10
-63.5
 20
10.739169
 30
-0.05
 40
0.4999999999998295
210
0.0
220
0.0
230
-1.0
100
AcDbArc
 50
0.0
 51
45.0
  0
LINE
  5
4CF
330
70
100
AcDbEntity
  8
Visible
100
AcDbLine
 10
63.0
 20
7.00154
 30
0.05
 11
63.0
 21
10.739169
 31
0.05
  0
ARC
  5
4D0
330
70
100
AcDbEntity
  8
Visible
100
AcDbCircle
 10
-79.5
 20
37.196275
 30
-0.05
 40
0.5000000000000427
210
0.0
220
0.0
230
-1.0
100
AcDbArc
 50
90.0
 51
270.0
  0
LINE
  5
4D1
330
70
100
AcDbEntity
  8
Visible
100
AcDbLine
 10
75.5
 20
37.696275
 30
0.05
 11
79.5
 21
37.696275
 31
0.05
  0
ARC
  5
4D2
330
70
100
AcDbEntity
  8
Visible
100
AcDbCircle
 10
-75.5
 20
37.196275
 30
-0.05
 40
0.5000000000000427
210
0.0
220
0.0
230
-1.0
100
AcDbArc
 50
0.0
 51
90.0
  0
LINE
  5
4D3
330
70
100
AcDbEntity
  8
Visible
100
AcDbLine
 10
75.0
 20
21.696275
 30
0.05
 11
75.0
 21
37.196275
 31
0.05
  0
ARC
  5
4D4
330
70
100
AcDbEntity
  8
Visible
100
AcDbCircle
 10
-75.5
 20
21.696275
 30
-0.05
 40
0.5000000000001359
210
0.0
220
0.0
230
-1.0
100
AcDbArc
 50
270.0
 51
0.0
  0
LINE
  5
4D5
330
70
100
AcDbEntity
  8
Visible
100
AcDbLine
 10
79.5
 20
21.196275
 30
0.05
 11
75.5
 21
21.196275
 31
0.05
  0
ARC
  5
4D6
330
70
100
AcDbEntity
  8
Visible
100
AcDbCircle
 10
-79.5
 20
21.696275
 30
-0.05
 40
0.5000000000000427
210
0.0
220
0.0
230
-1.0
100
AcDbArc
 50
90.0
 51
270.0
  0
LINE
  5
4D7
330
70
100
AcDbEntity
  8
Visible
100
AcDbLine
 10
76.249841
 20
22.198388
 30
0.05
 11
79.5
 21
22.196275
 31
0.05
  0
ARC
  5
4D8
330
70
100
AcDbEntity
  8
Visible
100
AcDbCircle
 10
76.25
 20
22.448388
 30
0.05
 40
0.2499999999999147
100
AcDbArc
 50
180.0
 51
269.963598
  0
LINE
  5
4D9
330
70
100
AcDbEntity
  8
Visible
100
AcDbLine
 10
76.0
 20
36.196275
 30
0.05
 11
76.0
 21
22.448388
 31
0.05
  0
ARC
  5
4DA
330
70
100
AcDbEntity
  8
Visible
100
AcDbCircle
 10
76.5
 20
36.196275
 30
0.05
 40
0.5000000000000249
100
AcDbArc
 50
90.0
 51
180.0
  0
LINE
  5
4DB
330
70
100
AcDbEntity
  8
Visible
100
AcDbLine
 10
79.5
 20
36.696275
 30
0.05
 11
76.5
 21
36.696275
 31
0.05
  0
ARC
  5
4DC
330
70
100
AcDbEntity
  8
Visible
100
AcDbCircle
 10
76.235621
 20
187.44418
 30
0.05
 40
0.2499999999999858
100
AcDbArc
 50
90.0
 51
180.059966
  0
LINE
  5
4DD
330
70
100
AcDbEntity
  8
Visible
100
AcDbLine
 10
77.498116
 20
187.69418
 30
0.05
 11
76.235621
 21
187.69418
 31
0.05
  0
LINE
  5
4DE
330
70
100
AcDbEntity
  8
Visible
100
AcDbLine
 10
79.5
 20
187.696275
 30
0.05
 11
77.498116
 21
187.69418
 31
0.05
  0
ARC
  5
4DF
330
70
100
AcDbEntity
  8
Visible
100
AcDbCircle
 10
-79.5
 20
188.196275
 30
-0.05
 40
0.4999999999999716
210
0.0
220
0.0
230
-1.0
100
AcDbArc
 50
90.0
 51
270.0
  0
LINE
  5
4E0
330
70
100
AcDbEntity
  8
Visible
100
AcDbLine
 10
75.5
 20
188.696275
 30
0.05
 11
79.5
 21
188.696275
 31
0.05
  0
ARC
  5
4E1
330
70
100
AcDbEntity
  8
Visible
100
AcDbCircle
 10
-75.5
 20
188.196275
 30
-0.05
 40
0.5000000000000427
210
0.0
220
0.0
230
-1.0
100
AcDbArc
 50
0.0
 51
90.0
  0
LINE
  5
4E2
330
70
100
AcDbEntity
  8
Visible
100
AcDbLine
 10
75.0
 20
172.696275
 30
0.05
 11
75.0
 21
188.196275
 31
0.05
  0
ARC
  5
4E3
330
70
100
AcDbEntity
  8
Visible
100
AcDbCircle
 10
-75.5
 20
172.696275
 30
-0.05
 40
0.4999999999998295
210
0.0
220
0.0
230
-1.0
100
AcDbArc
 50
270.0
 51
0.0
  0
LINE
  5
4E4
330
70
100
AcDbEntity
  8
Visible
100
AcDbLine
 10
79.5
 20
172.196275
 30
0.05
 11
75.5
 21
172.196275
 31
0.05
  0
ARC
  5
4E5
330
70
100
AcDbEntity
  8
Visible
100
AcDbCircle
 10
-79.5
 20
172.696275
 30
-0.05
 40
0.4999999999999716
210
0.0
220
0.0
230
-1.0
100
AcDbArc
 50
90.0
 51
270.0
  0
LINE
  5
4E6
330
70
100
AcDbEntity
  8
Visible
100
AcDbLine
 10
76.500016
 20
173.205282
 30
0.05
 11
79.5
 21
173.196275
 31
0.05
  0
ARC
  5
4E7
330
70
100
AcDbEntity
  8
Visible
100
AcDbCircle
 10
76.5
 20
173.705282
 30
0.05
 40
0.4999999999999007
100
AcDbArc
 50
179.975787
 51
270.001827
  0
LINE
  5
4E8
330
70
100
AcDbEntity
  8
Visible
100
AcDbLine
 10
75.985621
 20
187.443919
 30
0.05
 11
76.0
 21
173.705493
 31
0.05
  0
ARC
  5
4E9
330
70
100
AcDbEntity
  8
Visible
100
AcDbCircle
 10
-97.5
 20
172.696275
 30
-0.05
 40
0.5000000000001137
210
0.0
220
0.0
230
-1.0
100
AcDbArc
 50
180.0
 51
270.0
  0
LINE
  5
4EA
330
70
100
AcDbEntity
  8
Visible
100
AcDbLine
 10
98.0
 20
188.196275
 30
0.05
 11
98.0
 21
172.696275
 31
0.05
  0
ARC
  5
4EB
330
70
100
AcDbEntity
  8
Visible
100
AcDbCircle
 10
-97.5
 20
188.196275
 30
-0.05
 40
0.5000000000000782
210
0.0
220
0.0
230
-1.0
100
AcDbArc
 50
90.0
 51
180.0
  0
LINE
  5
4EC
330
70
100
AcDbEntity
  8
Visible
100
AcDbLine
 10
93.5
 20
188.696275
 30
0.05
 11
97.5
 21
188.696275
 31
0.05
  0
ARC
  5
4ED
330
70
100
AcDbEntity
  8
Visible
100
AcDbCircle
 10
-93.5
 20
188.196275
 30
-0.05
 40
0.5000000000000427
210
0.0
220
0.0
230
-1.0
100
AcDbArc
 50
270.0
 51
90.0
  0
LINE
  5
4EE
330
70
100
AcDbEntity
  8
Visible
100
AcDbLine
 10
96.5
 20
187.696275
 30
0.05
 11
93.5
 21
187.696275
 31
0.05
  0
ARC
  5
4EF
330
70
100
AcDbEntity
  8
Visible
100
AcDbCircle
 10
96.5
 20
187.196275
 30
0.05
 40
0.4999999999999716
100
AcDbArc
 50
0.0
 51
90.0
  0
LINE
  5
4F0
330
70
100
AcDbEntity
  8
Visible
100
AcDbLine
 10
97.0
 20
173.696275
 30
0.05
 11
97.0
 21
187.196275
 31
0.05
  0
ARC
  5
4F1
330
70
100
AcDbEntity
  8
Visible
100
AcDbCircle
 10
96.5
 20
173.696275
 30
0.05
 40
0.5000000000000782
100
AcDbArc
 50
270.0
 51
0.0
  0
LINE
  5
4F2
330
70
100
AcDbEntity
  8
Visible
100
AcDbLine
 10
93.5
 20
173.196275
 30
0.05
 11
96.5
 21
173.196275
 31
0.05
  0
ARC
  5
4F3
330
70
100
AcDbEntity
  8
Visible
100
AcDbCircle
 10
-93.5
 20
172.696275
 30
-0.05
 40
0.4999999999999716
210
0.0
220
0.0
230
-1.0
100
AcDbArc
 50
270.0
 51
90.0
  0
LINE
  5
4F4
330
70
100
AcDbEntity
  8
Visible
100
AcDbLine
 10
97.5
 20
172.196275
 30
0.05
 11
93.5
 21
172.196275
 31
0.05
  0
ARC
  5
4F5
330
70
100
AcDbEntity
  8
Visible
100
AcDbCircle
 10
-93.5
 20
37.196275
 30
-0.05
 40
0.5000000000000427
210
0.0
220
0.0
230
-1.0
100
AcDbArc
 50
270.0
 51
90.0
  0
LINE
  5
4F6
330
70
100
AcDbEntity
  8
Visible
100
AcDbLine
 10
96.5
 20
36.696275
 30
0.05
 11
93.5
 21
36.696275
 31
0.05
  0
ARC
  5
4F7
330
70
100
AcDbEntity
  8
Visible
100
AcDbCircle
 10
96.5
 20
36.196275
 30
0.05
 40
0.4999999999999716
100
AcDbArc
 50
0.0
 51
90.0
  0
LINE
  5
4F8
330
70
100
AcDbEntity
  8
Visible
100
AcDbLine
 10
97.0
 20
22.696275
 30
0.05
 11
97.0
 21
36.196275
 31
0.05
  0
ARC
  5
4F9
330
70
100
AcDbEntity
  8
Visible
100
AcDbCircle
 10
96.5
 20
22.696275
 30
0.05
 40
0.5000000000000249
100
AcDbArc
 50
270.0
 51
0.0
  0
LINE
  5
4FA
330
70
100
AcDbEntity
  8
Visible
100
AcDbLine
 10
93.5
 20
22.196275
 30
0.05
 11
96.5
 21
22.196275
 31
0.05
  0
ARC
  5
4FB
330
70
100
AcDbEntity
  8
Visible
100
AcDbCircle
 10
-93.5
 20
21.696275
 30
-0.05
 40
0.4999999999999716
210
0.0
220
0.0
230
-1.0
100
AcDbArc
 50
270.0
 51
90.0
  0
LINE
  5
4FC
330
70
100
AcDbEntity
  8
Visible
100
AcDbLine
 10
97.5
 20
21.196275
 30
0.05
 11
93.5
 21
21.196275
 31
0.05
  0
ARC
  5
4FD
330
70
100
AcDbEntity
  8
Visible
100
AcDbCircle
 10
-97.5
 20
21.696275
 30
-0.05
 40
0.5000000000001137
210
0.0
220
0.0
230
-1.0
100
AcDbArc
 50
180.0
 51
270.0
  0
LINE
  5
4FE
330
70
100
AcDbEntity
  8
Visible
100
AcDbLine
 10
98.0
 20
37.196275
 30
0.05
 11
98.0
 21
21.696275
 31
0.05
  0
ARC
  5
4FF
330
70
100
AcDbEntity
  8
Visible
100
AcDbCircle
 10
-97.5
 20
37.196275
 30
-0.05
 40
0.4999999999999316
210
0.0
220
0.0
230
-1.0
100
AcDbArc
 50
90.0
 51
180.0
  0
LINE
  5
500
330
70
100
AcDbEntity
  8
Visible
100
AcDbLine
 10
93.5
 20
37.696275
 30
0.05
 11
97.5
 21
37.696275
 31
0.05
  0
ARC
  5
501
330
70
100
AcDbEntity
  8
Visible
100
AcDbCircle
 10
-95.248778
 20
6.946276
 30
-0.05
 40
1.249999999999993
210
0.0
220
0.0
230
-1.0
100
AcDbArc
 50
78.520214
 51
2.533956
  0
LINE
  5
502
330
70
100
AcDbEntity
  8
Visible
100
AcDbLine
 10
95.0
 20
10.739169
 30
0.05
 11
95.0
 21
8.17127
 31
0.05
  0
ARC
  5
503
330
70
100
AcDbEntity
  8
Visible
100
AcDbCircle
 10
95.5
 20
10.739169
 30
0.05
 40
0.5000000000001858
100
AcDbArc
 50
135.0
 51
180.0
  0
LINE
  5
504
330
70
100
AcDbEntity
  8
Visible
100
AcDbLine
 10
99.792893
 20
15.739169
 30
0.05
 11
95.146447
 21
11.092722
 31
0.05
  0
ARC
  5
505
330
70
100
AcDbEntity
  8
Visible
100
AcDbCircle
 10
100.5
 20
15.032062
 30
0.05
 40
0.9999999999999431
100
AcDbArc
 50
0.0
 51
135.0
  0
LINE
  5
506
330
70
100
AcDbEntity
  8
Visible
100
AcDbLine
 10
101.5
 20
4.946275
 30
0.05
 11
101.5
 21
15.032062
 31
0.05
  0
ARC
  5
507
330
70
100
AcDbEntity
  8
Visible
100
AcDbCircle
 10
96.5
 20
4.946275
 30
0.05
 40
5.00000000000003
100
AcDbArc
 50
270.0
 51
0.0
  0
LINE
  5
508
330
70
100
AcDbEntity
  8
Visible
100
AcDbLine
 10
76.5
 20
-0.053725
 30
0.05
 11
96.5
 21
-0.053725
 31
0.05
  0
ARC
  5
509
330
70
100
AcDbEntity
  8
Visible
100
AcDbCircle
 10
76.5
 20
4.946275
 30
0.05
 40
5.000000000000071
100
AcDbArc
 50
180.0
 51
270.0
  0
LINE
  5
50A
330
70
100
AcDbEntity
  8
Visible
100
AcDbLine
 10
71.5
 20
15.032062
 30
0.05
 11
71.5
 21
4.946275
 31
0.05
  0
ARC
  5
50B
330
70
100
AcDbEntity
  8
Visible
100
AcDbCircle
 10
72.5
 20
15.032062
 30
0.05
 40
1.00000000000007
100
AcDbArc
 50
45.0
 51
180.0
  0
LINE
  5
50C
330
70
100
AcDbEntity
  8
Visible
100
AcDbLine
 10
77.853553
 20
11.092722
 30
0.05
 11
73.207107
 21
15.739169
 31
0.05
  0
ARC
  5
50D
330
70
100
AcDbEntity
  8
Visible
100
AcDbCircle
 10
77.5
 20
10.739169
 30
0.05
 40
0.4999999999996874
100
AcDbArc
 50
0.0
 51
45.0
  0
LINE
  5
50E
330
70
100
AcDbEntity
  8
Visible
100
AcDbLine
 10
78.0
 20
8.171021
 30
0.05
 11
78.0
 21
10.739169
 31
0.05
  0
ARC
  5
50F
330
70
100
AcDbEntity
  8
Visible
100
AcDbCircle
 10
-77.75
 20
6.946276
 30
-0.05
 40
1.249999999999959
210
0.0
220
0.0
230
-1.0
100
AcDbArc
 50
180.000023
 51
101.536959
  0
LINE
  5
510
330
70
100
AcDbEntity
  8
Visible
100
AcDbLine
 10
79.0
 20
10.739169
 30
0.05
 11
79.0
 21
6.946275
 31
0.05
  0
ARC
  5
511
330
70
100
AcDbEntity
  8
Visible
100
AcDbCircle
 10
-78.5
 20
10.739169
 30
-0.05
 40
0.5000000000000241
210
0.0
220
0.0
230
-1.0
100
AcDbArc
 50
135.0
 51
180.0
  0
LINE
  5
512
330
70
100
AcDbEntity
  8
Visible
100
AcDbLine
 10
71.792893
 20
18.153382
 30
0.05
 11
78.853553
 21
11.092722
 31
0.05
  0
ARC
  5
513
330
70
100
AcDbEntity
  8
Visible
100
AcDbCircle
 10
72.5
 20
18.860489
 30
0.05
 40
1.000000000000298
100
AcDbArc
 50
180.0
 51
225.0
  0
LINE
  5
514
330
70
100
AcDbEntity
  8
Visible
100
AcDbLine
 10
71.5
 20
191.032062
 30
0.05
 11
71.5
 21
18.860489
 31
0.05
  0
ARC
  5
515
330
70
100
AcDbEntity
  8
Visible
100
AcDbCircle
 10
72.5
 20
191.032062
 30
0.05
 40
0.9999999999999477
100
AcDbArc
 50
135.0
 51
180.0
  0
LINE
  5
516
330
70
100
AcDbEntity
  8
Visible
100
AcDbLine
 10
78.853553
 20
198.799829
 30
0.05
 11
71.792893
 21
191.739169
 31
0.05
  0
ARC
  5
517
330
70
100
AcDbEntity
  8
Visible
100
AcDbCircle
 10
-78.5
 20
199.153382
 30
-0.05
 40
0.4999999999999006
210
0.0
220
0.0
230
-1.0
100
AcDbArc
 50
180.0
 51
225.0
  0
LINE
  5
518
330
70
100
AcDbEntity
  8
Visible
100
AcDbLine
 10
79.0
 20
202.946275
 30
0.05
 11
79.0
 21
199.153382
 31
0.05
  0
ARC
  5
519
330
70
100
AcDbEntity
  8
Visible
100
AcDbCircle
 10
-77.75
 20
202.946275
 30
-0.05
 40
1.249999999999952
210
0.0
220
0.0
230
-1.0
100
AcDbArc
 50
258.463041
 51
180.0
  0
LINE
  5
51A
330
70
100
AcDbEntity
  8
Visible
100
AcDbLine
 10
78.0
 20
199.153382
 30
0.05
 11
78.0
 21
201.721531
 31
0.05
  0
ARC
  5
51B
330
70
100
AcDbEntity
  8
Visible
100
AcDbCircle
 10
77.5
 20
199.153382
 30
0.05
 40
0.5000000000001246
100
AcDbArc
 50
315.0
 51
0.0
  0
LINE
  5
51C
330
70
100
AcDbEntity
  8
Visible
100
AcDbLine
 10
73.207107
 20
194.153382
 30
0.05
 11
77.853553
 21
198.799829
 31
0.05
  0
ARC
  5
51D
330
70
100
AcDbEntity
  8
Visible
100
AcDbCircle
 10
72.5
 20
194.860489
 30
0.05
 40
1.000000000000085
100
AcDbArc
 50
180.0
 51
315.0
  0
LINE
  5
51E
330
70
100
AcDbEntity
  8
Visible
100
AcDbLine
 10
71.5
 20
204.946275
 30
0.05
 11
71.5
 21
194.860489
 31
0.05
  0
ARC
  5
51F
330
70
100
AcDbEntity
  8
Visible
100
AcDbCircle
 10
76.5
 20
204.946275
 30
0.05
 40
5.000000010148658
100
AcDbArc
 50
90.007003
 51
180.0
  0
LINE
  5
520
330
70
100
AcDbEntity
  8
Visible
100
AcDbLine
 10
96.499389
 20
209.946275
 30
0.05
 11
76.499389
 21
209.946275
 31
0.05
  0
ARC
  5
521
330
70
100
AcDbEntity
  8
Visible
100
AcDbCircle
 10
96.5
 20
204.946275
 30
0.05
 40
5.0
100
AcDbArc
 50
0.0
 51
90.007003
  0
LINE
  5
522
330
70
100
AcDbEntity
  8
Visible
100
AcDbLine
 10
101.5
 20
194.860489
 30
0.05
 11
101.5
 21
204.946275
 31
0.05
  0
ARC
  5
523
330
70
100
AcDbEntity
  8
Visible
100
AcDbCircle
 10
100.5
 20
194.860489
 30
0.05
 40
0.9999999999999978
100
AcDbArc
 50
225.0
 51
0.0
  0
LINE
  5
524
330
70
100
AcDbEntity
  8
Visible
100
AcDbLine
 10
95.146447
 20
198.799829
 30
0.05
 11
99.792893
 21
194.153382
 31
0.05
  0
ARC
  5
525
330
70
100
AcDbEntity
  8
Visible
100
AcDbCircle
 10
95.5
 20
199.153382
 30
0.05
 40
0.4999999999999716
100
AcDbArc
 50
180.0
 51
225.0
  0
LINE
  5
526
330
70
100
AcDbEntity
  8
Visible
100
AcDbLine
 10
95.0
 20
201.721282
 30
0.05
 11
95.0
 21
199.153382
 31
0.05
  0
ARC
  5
527
330
70
100
AcDbEntity
  8
Visible
100
AcDbCircle
 10
-95.248778
 20
202.946275
 30
-0.05
 40
1.250000000000024
210
0.0
220
0.0
230
-1.0
100
AcDbArc
 50
357.466044
 51
281.479786
  0
LINE
  5
528
330
70
100
AcDbEntity
  8
Visible
100
AcDbLine
 10
94.0
 20
199.153382
 30
0.05
 11
94.0
 21
202.891011
 31
0.05
  0
ARC
  5
529
330
70
100
AcDbEntity
  8
Visible
100
AcDbCircle
 10
-94.5
 20
199.153382
 30
-0.05
 40
0.4999999999998986
210
0.0
220
0.0
230
-1.0
100
AcDbArc
 50
315.0
 51
0.0
  0
LINE
  5
52A
330
70
100
AcDbEntity
  8
Visible
100
AcDbLine
 10
101.207107
 20
191.739169
 30
0.05
 11
94.146447
 21
198.799829
 31
0.05
  0
ARC
  5
52B
330
70
100
AcDbEntity
  8
Visible
100
AcDbCircle
 10
100.5
 20
191.032062
 30
0.05
 40
1.000000000000251
100
AcDbArc
 50
0.000013
 51
45.0
  0
LINE
  5
52C
330
70
100
AcDbEntity
  8
Visible
100
AcDbLine
 10
101.5
 20
18.860489
 30
0.05
 11
101.5
 21
191.032062
 31
0.05
  0
ARC
  5
52D
330
70
100
AcDbEntity
  8
Visible
100
AcDbCircle
 10
100.5
 20
18.860489
 30
0.05
 40
1.000000000000076
100
AcDbArc
 50
315.0
 51
0.000016
  0
LINE
  5
52E
330
70
100
AcDbEntity
  8
Visible
100
AcDbLine
 10
94.146447
 20
11.092722
 30
0.05
 11
101.207107
 21
18.153382
 31
0.05
  0
ARC
  5
52F
330
70
100
AcDbEntity
  8
Visible
100
AcDbCircle
 10
-94.5
 20
10.739169
 30
-0.05
 40
0.4999999999999006
210
0.0
220
0.0
230
-1.0
100
AcDbArc
 50
0.0
 51
45.0
  0
LINE
  5
530
330
70
100
AcDbEntity
  8
Visible
100
AcDbLine
 10
94.0
 20
7.00154
 30
0.05
 11
94.0
 21
10.739169
 31
0.05
  0
ARC
  5
531
330
70
100
AcDbEntity
  8
Visible
100
AcDbCircle
 10
-110.5
 20
37.196275
 30
-0.05
 40
0.5000000000000427
210
0.0
220
0.0
230
-1.0
100
AcDbArc
 50
90.0
 51
270.0
  0
LINE
  5
532
330
70
100
AcDbEntity
  8
Visible
100
AcDbLine
 10
106.5
 20
37.696275
 30
0.05
 11
110.5
 21
37.696275
 31
0.05
  0
ARC
  5
533
330
70
100
AcDbEntity
  8
Visible
100
AcDbCircle
 10
-106.5
 20
37.196275
 30
-0.05
 40
0.5000000000000427
210
0.0
220
0.0
230
-1.0
100
AcDbArc
 50
0.0
 51
90.0
  0
LINE
  5
534
330
70
100
AcDbEntity
  8
Visible
100
AcDbLine
 10
106.0
 20
21.696275
 30
0.05
 11
106.0
 21
37.196275
 31
0.05
  0
ARC
  5
535
330
70
100
AcDbEntity
  8
Visible
100
AcDbCircle
 10
-106.5
 20
21.696275
 30
-0.05
 40
0.5000000000001359
210
0.0
220
0.0
230
-1.0
100
AcDbArc
 50
270.0
 51
0.0
  0
LINE
  5
536
330
70
100
AcDbEntity
  8
Visible
100
AcDbLine
 10
110.5
 20
21.196275
 30
0.05
 11
106.5
 21
21.196275
 31
0.05
  0
ARC
  5
537
330
70
100
AcDbEntity
  8
Visible
100
AcDbCircle
 10
-110.5
 20
21.696275
 30
-0.05
 40
0.5000000000000427
210
0.0
220
0.0
230
-1.0
100
AcDbArc
 50
90.0
 51
270.0
  0
LINE
  5
538
330
70
100
AcDbEntity
  8
Visible
100
AcDbLine
 10
107.249841
 20
22.198388
 30
0.05
 11
110.5
 21
22.196275
 31
0.05
  0
ARC
  5
539
330
70
100
AcDbEntity
  8
Visible
100
AcDbCircle
 10
107.25
 20
22.448388
 30
0.05
 40
0.2499999999999858
100
AcDbArc
 50
180.0
 51
269.963598
  0
LINE
  5
53A
330
70
100
AcDbEntity
  8
Visible
100
AcDbLine
 10
107.0
 20
36.196275
 30
0.05
 11
107.0
 21
22.448388
 31
0.05
  0
ARC
  5
53B
330
70
100
AcDbEntity
  8
Visible
100
AcDbCircle
 10
107.5
 20
36.196275
 30
0.05
 40
0.5000000000000249
100
AcDbArc
 50
90.0
 51
180.0
  0
LINE
  5
53C
330
70
100
AcDbEntity
  8
Visible
100
AcDbLine
 10
110.5
 20
36.696275
 30
0.05
 11
107.5
 21
36.696275
 31
0.05
  0
ARC
  5
53D
330
70
100
AcDbEntity
  8
Visible
100
AcDbCircle
 10
107.235621
 20
187.44418
 30
0.05
 40
0.2500000000000924
100
AcDbArc
 50
90.0
 51
180.059966
  0
LINE
  5
53E
330
70
100
AcDbEntity
  8
Visible
100
AcDbLine
 10
108.498116
 20
187.69418
 30
0.05
 11
107.235621
 21
187.69418
 31
0.05
  0
LINE
  5
53F
330
70
100
AcDbEntity
  8
Visible
100
AcDbLine
 10
110.5
 20
187.696275
 30
0.05
 11
108.498116
 21
187.69418
 31
0.05
  0
ARC
  5
540
330
70
100
AcDbEntity
  8
Visible
100
AcDbCircle
 10
-110.5
 20
188.196275
 30
-0.05
 40
0.4999999999999716
210
0.0
220
0.0
230
-1.0
100
AcDbArc
 50
90.0
 51
270.0
  0
LINE
  5
541
330
70
100
AcDbEntity
  8
Visible
100
AcDbLine
 10
106.5
 20
188.696275
 30
0.05
 11
110.5
 21
188.696275
 31
0.05
  0
ARC
  5
542
330
70
100
AcDbEntity
  8
Visible
100
AcDbCircle
 10
-106.5
 20
188.196275
 30
-0.05
 40
0.5000000000000427
210
0.0
220
0.0
230
-1.0
100
AcDbArc
 50
0.0
 51
90.0
  0
LINE
  5
543
330
70
100
AcDbEntity
  8
Visible
100
AcDbLine
 10
106.0
 20
172.696275
 30
0.05
 11
106.0
 21
188.196275
 31
0.05
  0
ARC
  5
544
330
70
100
AcDbEntity
  8
Visible
100
AcDbCircle
 10
-106.5
 20
172.696275
 30
-0.05
 40
0.4999999999998295
210
0.0
220
0.0
230
-1.0
100
AcDbArc
 50
270.0
 51
0.0
  0
LINE
  5
545
330
70
100
AcDbEntity
  8
Visible
100
AcDbLine
 10
110.5
 20
172.196275
 30
0.05
 11
106.5
 21
172.196275
 31
0.05
  0
ARC
  5
546
330
70
100
AcDbEntity
  8
Visible
100
AcDbCircle
 10
-110.5
 20
172.696275
 30
-0.05
 40
0.4999999999999716
210
0.0
220
0.0
230
-1.0
100
AcDbArc
 50
90.0
 51
270.0
  0
LINE
  5
547
330
70
100
AcDbEntity
  8
Visible
100
AcDbLine
 10
107.500016
 20
173.205282
 30
0.05
 11
110.5
 21
173.196275
 31
0.05
  0
ARC
  5
548
330
70
100
AcDbEntity
  8
Visible
100
AcDbCircle
 10
107.5
 20
173.705282
 30
0.05
 40
0.4999999999999007
100
AcDbArc
 50
179.975787
 51
270.001827
  0
LINE
  5
549
330
70
100
AcDbEntity
  8
Visible
100
AcDbLine
 10
106.985621
 20
187.443919
 30
0.05
 11
107.0
 21
173.705493
 31
0.05
  0
ARC
  5
54A
330
70
100
AcDbEntity
  8
Visible
100
AcDbCircle
 10
-128.5
 20
172.696275
 30
-0.05
 40
0.5000000000001137
210
0.0
220
0.0
230
-1.0
100
AcDbArc
 50
180.0
 51
270.0
  0
LINE
  5
54B
330
70
100
AcDbEntity
  8
Visible
100
AcDbLine
 10
129.0
 20
188.196275
 30
0.05
 11
129.0
 21
172.696275
 31
0.05
  0
ARC
  5
54C
330
70
100
AcDbEntity
  8
Visible
100
AcDbCircle
 10
-128.5
 20
188.196275
 30
-0.05
 40
0.5000000000000782
210
0.0
220
0.0
230
-1.0
100
AcDbArc
 50
90.0
 51
180.0
  0
LINE
  5
54D
330
70
100
AcDbEntity
  8
Visible
100
AcDbLine
 10
124.5
 20
188.696275
 30
0.05
 11
128.5
 21
188.696275
 31
0.05
  0
ARC
  5
54E
330
70
100
AcDbEntity
  8
Visible
100
AcDbCircle
 10
-124.5
 20
188.196275
 30
-0.05
 40
0.5000000000000427
210
0.0
220
0.0
230
-1.0
100
AcDbArc
 50
270.0
 51
90.0
  0
LINE
  5
54F
330
70
100
AcDbEntity
  8
Visible
100
AcDbLine
 10
127.5
 20
187.696275
 30
0.05
 11
124.5
 21
187.696275
 31
0.05
  0
ARC
  5
550
330
70
100
AcDbEntity
  8
Visible
100
AcDbCircle
 10
127.5
 20
187.196275
 30
0.05
 40
0.4999999999999716
100
AcDbArc
 50
0.0
 51
90.0
  0
LINE
  5
551
330
70
100
AcDbEntity
  8
Visible
100
AcDbLine
 10
128.0
 20
173.696275
 30
0.05
 11
128.0
 21
187.196275
 31
0.05
  0
ARC
  5
552
330
70
100
AcDbEntity
  8
Visible
100
AcDbCircle
 10
127.5
 20
173.696275
 30
0.05
 40
0.5000000000000427
100
AcDbArc
 50
270.0
 51
0.0
  0
LINE
  5
553
330
70
100
AcDbEntity
  8
Visible
100
AcDbLine
 10
124.5
 20
173.196275
 30
0.05
 11
127.5
 21
173.196275
 31
0.05
  0
ARC
  5
554
330
70
100
AcDbEntity
  8
Visible
100
AcDbCircle
 10
-124.5
 20
172.696275
 30
-0.05
 40
0.4999999999999716
210
0.0
220
0.0
230
-1.0
100
AcDbArc
 50
270.0
 51
90.0
  0
LINE
  5
555
330
70
100
AcDbEntity
  8
Visible
100
AcDbLine
 10
128.5
 20
172.196275
 30
0.05
 11
124.5
 21
172.196275
 31
0.05
  0
ARC
  5
556
330
70
100
AcDbEntity
  8
Visible
100
AcDbCircle
 10
-124.5
 20
37.196275
 30
-0.05
 40
0.5000000000000427
210
0.0
220
0.0
230
-1.0
100
AcDbArc
 50
270.0
 51
90.0
  0
LINE
  5
557
330
70
100
AcDbEntity
  8
Visible
100
AcDbLine
 10
127.5
 20
36.696275
 30
0.05
 11
124.5
 21
36.696275
 31
0.05
  0
ARC
  5
558
330
70
100
AcDbEntity
  8
Visible
100
AcDbCircle
 10
127.5
 20
36.196275
 30
0.05
 40
0.4999999999999716
100
AcDbArc
 50
0.0
 51
90.0
  0
LINE
  5
559
330
70
100
AcDbEntity
  8
Visible
100
AcDbLine
 10
128.0
 20
22.696275
 30
0.05
 11
128.0
 21
36.196275
 31
0.05
  0
ARC
  5
55A
330
70
100
AcDbEntity
  8
Visible
100
AcDbCircle
 10
127.5
 20
22.696275
 30
0.05
 40
0.5000000000000249
100
AcDbArc
 50
270.0
 51
0.0
  0
LINE
  5
55B
330
70
100
AcDbEntity
  8
Visible
100
AcDbLine
 10
124.5
 20
22.196275
 30
0.05
 11
127.5
 21
22.196275
 31
0.05
  0
ARC
  5
55C
330
70
100
AcDbEntity
  8
Visible
100
AcDbCircle
 10
-124.5
 20
21.696275
 30
-0.05
 40
0.4999999999999716
210
0.0
220
0.0
230
-1.0
100
AcDbArc
 50
270.0
 51
90.0
  0
LINE
  5
55D
330
70
100
AcDbEntity
  8
Visible
100
AcDbLine
 10
128.5
 20
21.196275
 30
0.05
 11
124.5
 21
21.196275
 31
0.05
  0
ARC
  5
55E
330
70
100
AcDbEntity
  8
Visible
100
AcDbCircle
 10
-128.5
 20
21.696275
 30
-0.05
 40
0.5000000000001137
210
0.0
220
0.0
230
-1.0
100
AcDbArc
 50
180.0
 51
270.0
  0
LINE
  5
55F
330
70
100
AcDbEntity
  8
Visible
100
AcDbLine
 10
129.0
 20
37.196275
 30
0.05
 11
129.0
 21
21.696275
 31
0.05
  0
ARC
  5
560
330
70
100
AcDbEntity
  8
Visible
100
AcDbCircle
 10
-128.5
 20
37.196275
 30
-0.05
 40
0.4999999999998961
210
0.0
220
0.0
230
-1.0
100
AcDbArc
 50
90.0
 51
180.0
  0
LINE
  5
561
330
70
100
AcDbEntity
  8
Visible
100
AcDbLine
 10
124.5
 20
37.696275
 30
0.05
 11
128.5
 21
37.696275
 31
0.05
  0
ARC
  5
562
330
70
100
AcDbEntity
  8
Visible
100
AcDbCircle
 10
-126.248778
 20
6.946276
 30
-0.05
 40
1.249999999999991
210
0.0
220
0.0
230
-1.0
100
AcDbArc
 50
78.520214
 51
2.533956
  0
LINE
  5
563
330
70
100
AcDbEntity
  8
Visible
100
AcDbLine
 10
126.0
 20
10.739169
 30
0.05
 11
126.0
 21
8.17127
 31
0.05
  0
ARC
  5
564
330
70
100
AcDbEntity
  8
Visible
100
AcDbCircle
 10
126.5
 20
10.739169
 30
0.05
 40
0.5000000000002518
100
AcDbArc
 50
135.0
 51
180.0
  0
LINE
  5
565
330
70
100
AcDbEntity
  8
Visible
100
AcDbLine
 10
130.792893
 20
15.739169
 30
0.05
 11
126.146447
 21
11.092722
 31
0.05
  0
ARC
  5
566
330
70
100
AcDbEntity
  8
Visible
100
AcDbCircle
 10
131.5
 20
15.032062
 30
0.05
 40
0.9999999999999431
100
AcDbArc
 50
0.0
 51
135.0
  0
LINE
  5
567
330
70
100
AcDbEntity
  8
Visible
100
AcDbLine
 10
132.5
 20
4.946275
 30
0.05
 11
132.5
 21
15.032062
 31
0.05
  0
ARC
  5
568
330
70
100
AcDbEntity
  8
Visible
100
AcDbCircle
 10
127.5
 20
4.946275
 30
0.05
 40
5.00000000000003
100
AcDbArc
 50
270.0
 51
0.0
  0
LINE
  5
569
330
70
100
AcDbEntity
  8
Visible
100
AcDbLine
 10
107.5
 20
-0.053725
 30
0.05
 11
127.5
 21
-0.053725
 31
0.05
  0
ARC
  5
56A
330
70
100
AcDbEntity
  8
Visible
100
AcDbCircle
 10
107.5
 20
4.946275
 30
0.05
 40
5.000000000000142
100
AcDbArc
 50
180.0
 51
270.0
  0
LINE
  5
56B
330
70
100
AcDbEntity
  8
Visible
100
AcDbLine
 10
102.5
 20
15.032062
 30
0.05
 11
102.5
 21
4.946275
 31
0.05
  0
ARC
  5
56C
330
70
100
AcDbEntity
  8
Visible
100
AcDbCircle
 10
103.5
 20
15.032062
 30
0.05
 40
1.00000000000007
100
AcDbArc
 50
45.0
 51
180.0
  0
LINE
  5
56D
330
70
100
AcDbEntity
  8
Visible
100
AcDbLine
 10
108.853553
 20
11.092722
 30
0.05
 11
104.207107
 21
15.739169
 31
0.05
  0
ARC
  5
56E
330
70
100
AcDbEntity
  8
Visible
100
AcDbCircle
 10
108.5
 20
10.739169
 30
0.05
 40
0.4999999999997585
100
AcDbArc
 50
0.0
 51
45.0
  0
LINE
  5
56F
330
70
100
AcDbEntity
  8
Visible
100
AcDbLine
 10
109.0
 20
8.171021
 30
0.05
 11
109.0
 21
10.739169
 31
0.05
  0
ARC
  5
570
330
70
100
AcDbEntity
  8
Visible
100
AcDbCircle
 10
-108.75
 20
6.946276
 30
-0.05
 40
1.25000000000003
210
0.0
220
0.0
230
-1.0
100
AcDbArc
 50
180.000023
 51
101.536959
  0
LINE
  5
571
330
70
100
AcDbEntity
  8
Visible
100
AcDbLine
 10
110.0
 20
10.739169
 30
0.05
 11
110.0
 21
6.946275
 31
0.05
  0
ARC
  5
572
330
70
100
AcDbEntity
  8
Visible
100
AcDbCircle
 10
-109.5
 20
10.739169
 30
-0.05
 40
0.5000000000000274
210
0.0
220
0.0
230
-1.0
100
AcDbArc
 50
135.0
 51
180.0
  0
LINE
  5
573
330
70
100
AcDbEntity
  8
Visible
100
AcDbLine
 10
102.792893
 20
18.153382
 30
0.05
 11
109.853553
 21
11.092722
 31
0.05
  0
ARC
  5
574
330
70
100
AcDbEntity
  8
Visible
100
AcDbCircle
 10
103.5
 20
18.860489
 30
0.05
 40
1.000000000000227
100
AcDbArc
 50
180.0
 51
225.0
  0
LINE
  5
575
330
70
100
AcDbEntity
  8
Visible
100
AcDbLine
 10
102.5
 20
191.032062
 30
0.05
 11
102.5
 21
18.860489
 31
0.05
  0
ARC
  5
576
330
70
100
AcDbEntity
  8
Visible
100
AcDbCircle
 10
103.5
 20
191.032062
 30
0.05
 40
1.000000000000023
100
AcDbArc
 50
135.0
 51
180.0
  0
LINE
  5
577
330
70
100
AcDbEntity
  8
Visible
100
AcDbLine
 10
109.853553
 20
198.799829
 30
0.05
 11
102.792893
 21
191.739169
 31
0.05
  0
ARC
  5
578
330
70
100
AcDbEntity
  8
Visible
100
AcDbCircle
 10
-109.5
 20
199.153382
 30
-0.05
 40
0.4999999999999006
210
0.0
220
0.0
230
-1.0
100
AcDbArc
 50
180.0
 51
225.0
  0
LINE
  5
579
330
70
100
AcDbEntity
  8
Visible
100
AcDbLine
 10
110.0
 20
202.946275
 30
0.05
 11
110.0
 21
199.153382
 31
0.05
  0
ARC
  5
57A
330
70
100
AcDbEntity
  8
Visible
100
AcDbCircle
 10
-108.75
 20
202.946275
 30
-0.05
 40
1.249999999999987
210
0.0
220
0.0
230
-1.0
100
AcDbArc
 50
258.463041
 51
180.0
  0
LINE
  5
57B
330
70
100
AcDbEntity
  8
Visible
100
AcDbLine
 10
109.0
 20
199.153382
 30
0.05
 11
109.0
 21
201.72153
 31
0.05
  0
ARC
  5
57C
330
70
100
AcDbEntity
  8
Visible
100
AcDbCircle
 10
108.5
 20
199.153382
 30
0.05
 40
0.5000000000000492
100
AcDbArc
 50
315.0
 51
0.0
  0
LINE
  5
57D
330
70
100
AcDbEntity
  8
Visible
100
AcDbLine
 10
104.207107
 20
194.153382
 30
0.05
 11
108.853553
 21
198.799829
 31
0.05
  0
ARC
  5
57E
330
70
100
AcDbEntity
  8
Visible
100
AcDbCircle
 10
103.5
 20
194.860489
 30
0.05
 40
1.000000000000085
100
AcDbArc
 50
180.0
 51
315.0
  0
LINE
  5
57F
330
70
100
AcDbEntity
  8
Visible
100
AcDbLine
 10
102.5
 20
204.946275
 30
0.05
 11
102.5
 21
194.860489
 31
0.05
  0
ARC
  5
580
330
70
100
AcDbEntity
  8
Visible
100
AcDbCircle
 10
107.5
 20
204.946275
 30
0.05
 40
5.000000010148836
100
AcDbArc
 50
90.007003
 51
180.0
  0
LINE
  5
581
330
70
100
AcDbEntity
  8
Visible
100
AcDbLine
 10
127.499389
 20
209.946275
 30
0.05
 11
107.499389
 21
209.946275
 31
0.05
  0
ARC
  5
582
330
70
100
AcDbEntity
  8
Visible
100
AcDbCircle
 10
127.5
 20
204.946275
 30
0.05
 40
4.999999999999857
100
AcDbArc
 50
0.0
 51
90.007003
  0
LINE
  5
583
330
70
100
AcDbEntity
  8
Visible
100
AcDbLine
 10
132.5
 20
194.860489
 30
0.05
 11
132.5
 21
204.946275
 31
0.05
  0
ARC
  5
584
330
70
100
AcDbEntity
  8
Visible
100
AcDbCircle
 10
131.5
 20
194.860489
 30
0.05
 40
1.000000000000023
100
AcDbArc
 50
225.0
 51
0.0
  0
LINE
  5
585
330
70
100
AcDbEntity
  8
Visible
100
AcDbLine
 10
126.146447
 20
198.799829
 30
0.05
 11
130.792893
 21
194.153382
 31
0.05
  0
ARC
  5
586
330
70
100
AcDbEntity
  8
Visible
100
AcDbCircle
 10
126.5
 20
199.153382
 30
0.05
 40
0.4999999999999716
100
AcDbArc
 50
180.0
 51
225.0
  0
LINE
  5
587
330
70
100
AcDbEntity
  8
Visible
100
AcDbLine
 10
126.0
 20
201.721282
 30
0.05
 11
126.0
 21
199.153382
 31
0.05
  0
ARC
  5
588
330
70
100
AcDbEntity
  8
Visible
100
AcDbCircle
 10
-126.248778
 20
202.946275
 30
-0.05
 40
1.250000000000024
210
0.0
220
0.0
230
-1.0
100
AcDbArc
 50
357.466044
 51
281.479786
  0
LINE
  5
589
330
70
100
AcDbEntity
  8
Visible
100
AcDbLine
 10
125.0
 20
199.153382
 30
0.05
 11
125.0
 21
202.891011
 31
0.05
  0
ARC
  5
58A
330
70
100
AcDbEntity
  8
Visible
100
AcDbCircle
 10
-125.5
 20
199.153382
 30
-0.05
 40
0.4999999999999237
210
0.0
220
0.0
230
-1.0
100
AcDbArc
 50
315.0
 51
0.0
  0
LINE
  5
58B
330
70
100
AcDbEntity
  8
Visible
100
AcDbLine
 10
132.207107
 20
191.739169
 30
0.05
 11
125.146447
 21
198.799829
 31
0.05
  0
ARC
  5
58C
330
70
100
AcDbEntity
  8
Visible
100
AcDbCircle
 10
131.5
 20
191.032062
 30
0.05
 40
1.000000000000322
100
AcDbArc
 50
0.000013
 51
45.0
  0
LINE
  5
58D
330
70
100
AcDbEntity
  8
Visible
100
AcDbLine
 10
132.5
 20
18.860489
 30
0.05
 11
132.5
 21
191.032062
 31
0.05
  0
ARC
  5
58E
330
70
100
AcDbEntity
  8
Visible
100
AcDbCircle
 10
131.5
 20
18.860489
 30
0.05
 40
1.000000000000123
100
AcDbArc
 50
315.0
 51
0.000016
  0
LINE
  5
58F
330
70
100
AcDbEntity
  8
Visible
100
AcDbLine
 10
125.146447
 20
11.092722
 30
0.05
 11
132.207107
 21
18.153382
 31
0.05
  0
ARC
  5
590
330
70
100
AcDbEntity
  8
Visible
100
AcDbCircle
 10
-125.5
 20
10.739169
 30
-0.05
 40
0.4999999999998295
210
0.0
220
0.0
230
-1.0
100
AcDbArc
 50
0.0
 51
45.0
  0
LINE
  5
591
330
70
100
AcDbEntity
  8
Visible
100
AcDbLine
 10
125.0
 20
7.00154
 30
0.05
 11
125.0
 21
10.739169
 31
0.05
  0
ARC
  5
592
330
70
100
AcDbEntity
  8
Visible
100
AcDbCircle
 10
-141.5
 20
37.196275
 30
-0.05
 40
0.5000000000000427
210
0.0
220
0.0
230
-1.0
100
AcDbArc
 50
90.0
 51
270.0
  0
LINE
  5
593
330
70
100
AcDbEntity
  8
Visible
100
AcDbLine
 10
137.5
 20
37.696275
 30
0.05
 11
141.5
 21
37.696275
 31
0.05
  0
ARC
  5
594
330
70
100
AcDbEntity
  8
Visible
100
AcDbCircle
 10
-137.5
 20
37.196275
 30
-0.05
 40
0.5000000000000427
210
0.0
220
0.0
230
-1.0
100
AcDbArc
 50
0.0
 51
90.0
  0
LINE
  5
595
330
70
100
AcDbEntity
  8
Visible
100
AcDbLine
 10
137.0
 20
21.696275
 30
0.05
 11
137.0
 21
37.196275
 31
0.05
  0
ARC
  5
596
330
70
100
AcDbEntity
  8
Visible
100
AcDbCircle
 10
-137.5
 20
21.696275
 30
-0.05
 40
0.5000000000001359
210
0.0
220
0.0
230
-1.0
100
AcDbArc
 50
270.0
 51
0.0
  0
LINE
  5
597
330
70
100
AcDbEntity
  8
Visible
100
AcDbLine
 10
141.5
 20
21.196275
 30
0.05
 11
137.5
 21
21.196275
 31
0.05
  0
ARC
  5
598
330
70
100
AcDbEntity
  8
Visible
100
AcDbCircle
 10
-141.5
 20
21.696275
 30
-0.05
 40
0.5000000000000427
210
0.0
220
0.0
230
-1.0
100
AcDbArc
 50
90.0
 51
270.0
  0
LINE
  5
599
330
70
100
AcDbEntity
  8
Visible
100
AcDbLine
 10
138.249841
 20
22.198388
 30
0.05
 11
141.5
 21
22.196275
 31
0.05
  0
ARC
  5
59A
330
70
100
AcDbEntity
  8
Visible
100
AcDbCircle
 10
138.25
 20
22.448388
 30
0.05
 40
0.2499999999999858
100
AcDbArc
 50
180.0
 51
269.963598
  0
LINE
  5
59B
330
70
100
AcDbEntity
  8
Visible
100
AcDbLine
 10
138.0
 20
36.196275
 30
0.05
 11
138.0
 21
22.448388
 31
0.05
  0
ARC
  5
59C
330
70
100
AcDbEntity
  8
Visible
100
AcDbCircle
 10
138.5
 20
36.196275
 30
0.05
 40
0.5000000000000249
100
AcDbArc
 50
90.0
 51
180.0
  0
LINE
  5
59D
330
70
100
AcDbEntity
  8
Visible
100
AcDbLine
 10
141.5
 20
36.696275
 30
0.05
 11
138.5
 21
36.696275
 31
0.05
  0
ARC
  5
59E
330
70
100
AcDbEntity
  8
Visible
100
AcDbCircle
 10
138.235621
 20
187.44418
 30
0.05
 40
0.2500000000000924
100
AcDbArc
 50
90.0
 51
180.059966
  0
LINE
  5
59F
330
70
100
AcDbEntity
  8
Visible
100
AcDbLine
 10
139.498116
 20
187.69418
 30
0.05
 11
138.235621
 21
187.69418
 31
0.05
  0
LINE
  5
5A0
330
70
100
AcDbEntity
  8
Visible
100
AcDbLine
 10
141.5
 20
187.696275
 30
0.05
 11
139.498116
 21
187.69418
 31
0.05
  0
ARC
  5
5A1
330
70
100
AcDbEntity
  8
Visible
100
AcDbCircle
 10
-141.5
 20
188.196275
 30
-0.05
 40
0.4999999999999716
210
0.0
220
0.0
230
-1.0
100
AcDbArc
 50
90.0
 51
270.0
  0
LINE
  5
5A2
330
70
100
AcDbEntity
  8
Visible
100
AcDbLine
 10
137.5
 20
188.696275
 30
0.05
 11
141.5
 21
188.696275
 31
0.05
  0
ARC
  5
5A3
330
70
100
AcDbEntity
  8
Visible
100
AcDbCircle
 10
-137.5
 20
188.196275
 30
-0.05
 40
0.5000000000000427
210
0.0
220
0.0
230
-1.0
100
AcDbArc
 50
0.0
 51
90.0
  0
LINE
  5
5A4
330
70
100
AcDbEntity
  8
Visible
100
AcDbLine
 10
137.0
 20
172.696275
 30
0.05
 11
137.0
 21
188.196275
 31
0.05
  0
ARC
  5
5A5
330
70
100
AcDbEntity
  8
Visible
100
AcDbCircle
 10
-137.5
 20
172.696275
 30
-0.05
 40
0.499999999999865
210
0.0
220
0.0
230
-1.0
100
AcDbArc
 50
270.0
 51
0.0
  0
LINE
  5
5A6
330
70
100
AcDbEntity
  8
Visible
100
AcDbLine
 10
141.5
 20
172.196275
 30
0.05
 11
137.5
 21
172.196275
 31
0.05
  0
ARC
  5
5A7
330
70
100
AcDbEntity
  8
Visible
100
AcDbCircle
 10
-141.5
 20
172.696275
 30
-0.05
 40
0.4999999999999716
210
0.0
220
0.0
230
-1.0
100
AcDbArc
 50
90.0
 51
270.0
  0
LINE
  5
5A8
330
70
100
AcDbEntity
  8
Visible
100
AcDbLine
 10
138.500016
 20
173.205282
 30
0.05
 11
141.5
 21
173.196275
 31
0.05
  0
ARC
  5
5A9
330
70
100
AcDbEntity
  8
Visible
100
AcDbCircle
 10
138.5
 20
173.705282
 30
0.05
 40
0.4999999999999007
100
AcDbArc
 50
179.975787
 51
270.001827
  0
LINE
  5
5AA
330
70
100
AcDbEntity
  8
Visible
100
AcDbLine
 10
137.985621
 20
187.443918
 30
0.05
 11
138.0
 21
173.705493
 31
0.05
  0
ARC
  5
5AB
330
70
100
AcDbEntity
  8
Visible
100
AcDbCircle
 10
-159.5
 20
172.696275
 30
-0.05
 40
0.5000000000001137
210
0.0
220
0.0
230
-1.0
100
AcDbArc
 50
180.0
 51
270.0
  0
LINE
  5
5AC
330
70
100
AcDbEntity
  8
Visible
100
AcDbLine
 10
160.0
 20
188.196275
 30
0.05
 11
160.0
 21
172.696275
 31
0.05
  0
ARC
  5
5AD
330
70
100
AcDbEntity
  8
Visible
100
AcDbCircle
 10
-159.5
 20
188.196275
 30
-0.05
 40
0.5000000000000782
210
0.0
220
0.0
230
-1.0
100
AcDbArc
 50
90.0
 51
180.0
  0
LINE
  5
5AE
330
70
100
AcDbEntity
  8
Visible
100
AcDbLine
 10
155.5
 20
188.696275
 30
0.05
 11
159.5
 21
188.696275
 31
0.05
  0
ARC
  5
5AF
330
70
100
AcDbEntity
  8
Visible
100
AcDbCircle
 10
-155.5
 20
188.196275
 30
-0.05
 40
0.5000000000000427
210
0.0
220
0.0
230
-1.0
100
AcDbArc
 50
270.0
 51
90.0
  0
LINE
  5
5B0
330
70
100
AcDbEntity
  8
Visible
100
AcDbLine
 10
158.5
 20
187.696275
 30
0.05
 11
155.5
 21
187.696275
 31
0.05
  0
ARC
  5
5B1
330
70
100
AcDbEntity
  8
Visible
100
AcDbCircle
 10
158.5
 20
187.196275
 30
0.05
 40
0.4999999999999716
100
AcDbArc
 50
0.0
 51
90.0
  0
LINE
  5
5B2
330
70
100
AcDbEntity
  8
Visible
100
AcDbLine
 10
159.0
 20
173.696275
 30
0.05
 11
159.0
 21
187.196275
 31
0.05
  0
ARC
  5
5B3
330
70
100
AcDbEntity
  8
Visible
100
AcDbCircle
 10
158.5
 20
173.696275
 30
0.05
 40
0.5000000000000071
100
AcDbArc
 50
270.0
 51
0.0
  0
LINE
  5
5B4
330
70
100
AcDbEntity
  8
Visible
100
AcDbLine
 10
155.5
 20
173.196275
 30
0.05
 11
158.5
 21
173.196275
 31
0.05
  0
ARC
  5
5B5
330
70
100
AcDbEntity
  8
Visible
100
AcDbCircle
 10
-155.5
 20
172.696275
 30
-0.05
 40
0.4999999999999716
210
0.0
220
0.0
230
-1.0
100
AcDbArc
 50
270.0
 51
90.0
  0
LINE
  5
5B6
330
70
100
AcDbEntity
  8
Visible
100
AcDbLine
 10
159.5
 20
172.196275
 30
0.05
 11
155.5
 21
172.196275
 31
0.05
  0
ARC
  5
5B7
330
70
100
AcDbEntity
  8
Visible
100
AcDbCircle
 10
-155.5
 20
37.196275
 30
-0.05
 40
0.5000000000000427
210
0.0
220
0.0
230
-1.0
100
AcDbArc
 50
270.0
 51
90.0
  0
LINE
  5
5B8
330
70
100
AcDbEntity
  8
Visible
100
AcDbLine
 10
158.5
 20
36.696275
 30
0.05
 11
155.5
 21
36.696275
 31
0.05
  0
ARC
  5
5B9
330
70
100
AcDbEntity
  8
Visible
100
AcDbCircle
 10
158.5
 20
36.196275
 30
0.05
 40
0.4999999999999716
100
AcDbArc
 50
0.0
 51
90.0
  0
LINE
  5
5BA
330
70
100
AcDbEntity
  8
Visible
100
AcDbLine
 10
159.0
 20
22.696275
 30
0.05
 11
159.0
 21
36.196275
 31
0.05
  0
ARC
  5
5BB
330
70
100
AcDbEntity
  8
Visible
100
AcDbCircle
 10
158.5
 20
22.696275
 30
0.05
 40
0.5000000000000249
100
AcDbArc
 50
270.0
 51
0.0
  0
LINE
  5
5BC
330
70
100
AcDbEntity
  8
Visible
100
AcDbLine
 10
155.5
 20
22.196275
 30
0.05
 11
158.5
 21
22.196275
 31
0.05
  0
ARC
  5
5BD
330
70
100
AcDbEntity
  8
Visible
100
AcDbCircle
 10
-155.5
 20
21.696275
 30
-0.05
 40
0.4999999999999716
210
0.0
220
0.0
230
-1.0
100
AcDbArc
 50
270.0
 51
90.0
  0
LINE
  5
5BE
330
70
100
AcDbEntity
  8
Visible
100
AcDbLine
 10
159.5
 20
21.196275
 30
0.05
 11
155.5
 21
21.196275
 31
0.05
  0
ARC
  5
5BF
330
70
100
AcDbEntity
  8
Visible
100
AcDbCircle
 10
-159.5
 20
21.696275
 30
-0.05
 40
0.5000000000001137
210
0.0
220
0.0
230
-1.0
100
AcDbArc
 50
180.0
 51
270.0
  0
LINE
  5
5C0
330
70
100
AcDbEntity
  8
Visible
100
AcDbLine
 10
160.0
 20
37.196275
 30
0.05
 11
160.0
 21
21.696275
 31
0.05
  0
ARC
  5
5C1
330
70
100
AcDbEntity
  8
Visible
100
AcDbCircle
 10
-159.5
 20
37.196275
 30
-0.05
 40
0.4999999999998961
210
0.0
220
0.0
230
-1.0
100
AcDbArc
 50
90.0
 51
180.0
  0
LINE
  5
5C2
330
70
100
AcDbEntity
  8
Visible
100
AcDbLine
 10
155.5
 20
37.696275
 30
0.05
 11
159.5
 21
37.696275
 31
0.05
  0
ARC
  5
5C3
330
70
100
AcDbEntity
  8
Visible
100
AcDbCircle
 10
-157.248778
 20
6.946276
 30
-0.05
 40
1.249999999999991
210
0.0
220
0.0
230
-1.0
100
AcDbArc
 50
78.520214
 51
2.533956
  0
LINE
  5
5C4
330
70
100
AcDbEntity
  8
Visible
100
AcDbLine
 10
157.0
 20
10.739169
 30
0.05
 11
157.0
 21
8.17127
 31
0.05
  0
ARC
  5
5C5
330
70
100
AcDbEntity
  8
Visible
100
AcDbCircle
 10
157.5
 20
10.739169
 30
0.05
 40
0.5000000000002501
100
AcDbArc
 50
135.0
 51
180.0
  0
LINE
  5
5C6
330
70
100
AcDbEntity
  8
Visible
100
AcDbLine
 10
161.792893
 20
15.739169
 30
0.05
 11
157.146447
 21
11.092722
 31
0.05
  0
ARC
  5
5C7
330
70
100
AcDbEntity
  8
Visible
100
AcDbCircle
 10
162.5
 20
15.032062
 30
0.05
 40
0.9999999999999431
100
AcDbArc
 50
0.0
 51
135.0
  0
LINE
  5
5C8
330
70
100
AcDbEntity
  8
Visible
100
AcDbLine
 10
163.5
 20
4.946275
 30
0.05
 11
163.5
 21
15.032062
 31
0.05
  0
ARC
  5
5C9
330
70
100
AcDbEntity
  8
Visible
100
AcDbCircle
 10
158.5
 20
4.946275
 30
0.05
 40
5.000000000000028
100
AcDbArc
 50
270.0
 51
0.0
  0
LINE
  5
5CA
330
70
100
AcDbEntity
  8
Visible
100
AcDbLine
 10
138.5
 20
-0.053725
 30
0.05
 11
158.5
 21
-0.053725
 31
0.05
  0
ARC
  5
5CB
330
70
100
AcDbEntity
  8
Visible
100
AcDbCircle
 10
138.5
 20
4.946275
 30
0.05
 40
5.000000000000142
100
AcDbArc
 50
180.0
 51
270.0
  0
LINE
  5
5CC
330
70
100
AcDbEntity
  8
Visible
100
AcDbLine
 10
133.5
 20
15.032062
 30
0.05
 11
133.5
 21
4.946275
 31
0.05
  0
ARC
  5
5CD
330
70
100
AcDbEntity
  8
Visible
100
AcDbCircle
 10
134.5
 20
15.032062
 30
0.05
 40
1.00000000000007
100
AcDbArc
 50
45.0
 51
180.0
  0
LINE
  5
5CE
330
70
100
AcDbEntity
  8
Visible
100
AcDbLine
 10
139.853553
 20
11.092722
 30
0.05
 11
135.207107
 21
15.739169
 31
0.05
  0
ARC
  5
5CF
330
70
100
AcDbEntity
  8
Visible
100
AcDbCircle
 10
139.5
 20
10.739169
 30
0.05
 40
0.4999999999997585
100
AcDbArc
 50
0.0
 51
45.0
  0
LINE
  5
5D0
330
70
100
AcDbEntity
  8
Visible
100
AcDbLine
 10
140.0
 20
8.171021
 30
0.05
 11
140.0
 21
10.739169
 31
0.05
  0
ARC
  5
5D1
330
70
100
AcDbEntity
  8
Visible
100
AcDbCircle
 10
-139.75
 20
6.946276
 30
-0.05
 40
1.249999999999959
210
0.0
220
0.0
230
-1.0
100
AcDbArc
 50
180.000023
 51
101.536959
  0
LINE
  5
5D2
330
70
100
AcDbEntity
  8
Visible
100
AcDbLine
 10
141.0
 20
10.739169
 30
0.05
 11
141.0
 21
6.946275
 31
0.05
  0
ARC
  5
5D3
330
70
100
AcDbEntity
  8
Visible
100
AcDbCircle
 10
-140.5
 20
10.739169
 30
-0.05
 40
0.4999999999999739
210
0.0
220
0.0
230
-1.0
100
AcDbArc
 50
135.0
 51
180.0
  0
LINE
  5
5D4
330
70
100
AcDbEntity
  8
Visible
100
AcDbLine
 10
133.792893
 20
18.153382
 30
0.05
 11
140.853553
 21
11.092722
 31
0.05
  0
ARC
  5
5D5
330
70
100
AcDbEntity
  8
Visible
100
AcDbCircle
 10
134.5
 20
18.860489
 30
0.05
 40
1.000000000000227
100
AcDbArc
 50
180.0
 51
225.0
  0
LINE
  5
5D6
330
70
100
AcDbEntity
  8
Visible
100
AcDbLine
 10
133.5
 20
191.032062
 30
0.05
 11
133.5
 21
18.860489
 31
0.05
  0
ARC
  5
5D7
330
70
100
AcDbEntity
  8
Visible
100
AcDbCircle
 10
134.5
 20
191.032062
 30
0.05
 40
1.000000000000023
100
AcDbArc
 50
135.0
 51
180.0
  0
LINE
  5
5D8
330
70
100
AcDbEntity
  8
Visible
100
AcDbLine
 10
140.853553
 20
198.799829
 30
0.05
 11
133.792893
 21
191.739169
 31
0.05
  0
ARC
  5
5D9
330
70
100
AcDbEntity
  8
Visible
100
AcDbCircle
 10
-140.5
 20
199.153382
 30
-0.05
 40
0.5000000000000427
210
0.0
220
0.0
230
-1.0
100
AcDbArc
 50
180.0
 51
225.0
  0
LINE
  5
5DA
330
70
100
AcDbEntity
  8
Visible
100
AcDbLine
 10
141.0
 20
202.946275
 30
0.05
 11
141.0
 21
199.153382
 31
0.05
  0
ARC
  5
5DB
330
70
100
AcDbEntity
  8
Visible
100
AcDbCircle
 10
-139.75
 20
202.946275
 30
-0.05
 40
1.250000000000001
210
0.0
220
0.0
230
-1.0
100
AcDbArc
 50
258.463041
 51
180.0
  0
LINE
  5
5DC
330
70
100
AcDbEntity
  8
Visible
100
AcDbLine
 10
140.0
 20
199.153382
 30
0.05
 11
140.0
 21
201.72153
 31
0.05
  0
ARC
  5
5DD
330
70
100
AcDbEntity
  8
Visible
100
AcDbCircle
 10
139.5
 20
199.153382
 30
0.05
 40
0.5000000000001498
100
AcDbArc
 50
315.0
 51
0.0
  0
LINE
  5
5DE
330
70
100
AcDbEntity
  8
Visible
100
AcDbLine
 10
135.207107
 20
194.153382
 30
0.05
 11
139.853553
 21
198.799829
 31
0.05
  0
ARC
  5
5DF
330
70
100
AcDbEntity
  8
Visible
100
AcDbCircle
 10
134.5
 20
194.860489
 30
0.05
 40
1.000000000000085
100
AcDbArc
 50
180.0
 51
315.0
  0
LINE
  5
5E0
330
70
100
AcDbEntity
  8
Visible
100
AcDbLine
 10
133.5
 20
204.946275
 30
0.05
 11
133.5
 21
194.860489
 31
0.05
  0
ARC
  5
5E1
330
70
100
AcDbEntity
  8
Visible
100
AcDbCircle
 10
138.5
 20
204.946275
 30
0.05
 40
5.000000010148694
100
AcDbArc
 50
90.007003
 51
180.0
  0
LINE
  5
5E2
330
70
100
AcDbEntity
  8
Visible
100
AcDbLine
 10
158.499389
 20
209.946275
 30
0.05
 11
138.499389
 21
209.946275
 31
0.05
  0
ARC
  5
5E3
330
70
100
AcDbEntity
  8
Visible
100
AcDbCircle
 10
158.5
 20
204.946275
 30
0.05
 40
4.999999999999857
100
AcDbArc
 50
0.0
 51
90.007003
  0
LINE
  5
5E4
330
70
100
AcDbEntity
  8
Visible
100
AcDbLine
 10
163.5
 20
194.860489
 30
0.05
 11
163.5
 21
204.946275
 31
0.05
  0
ARC
  5
5E5
330
70
100
AcDbEntity
  8
Visible
100
AcDbCircle
 10
162.5
 20
194.860489
 30
0.05
 40
0.9999999999999729
100
AcDbArc
 50
225.0
 51
0.0
  0
LINE
  5
5E6
330
70
100
AcDbEntity
  8
Visible
100
AcDbLine
 10
157.146447
 20
198.799829
 30
0.05
 11
161.792893
 21
194.153382
 31
0.05
  0
ARC
  5
5E7
330
70
100
AcDbEntity
  8
Visible
100
AcDbCircle
 10
157.5
 20
199.153382
 30
0.05
 40
0.4999999999999716
100
AcDbArc
 50
180.0
 51
225.0
  0
LINE
  5
5E8
330
70
100
AcDbEntity
  8
Visible
100
AcDbLine
 10
157.0
 20
201.721282
 30
0.05
 11
157.0
 21
199.153382
 31
0.05
  0
ARC
  5
5E9
330
70
100
AcDbEntity
  8
Visible
100
AcDbCircle
 10
-157.248778
 20
202.946275
 30
-0.05
 40
1.250000000000022
210
0.0
220
0.0
230
-1.0
100
AcDbArc
 50
357.466044
 51
281.479786
  0
LINE
  5
5EA
330
70
100
AcDbEntity
  8
Visible
100
AcDbLine
 10
156.0
 20
199.153382
 30
0.05
 11
156.0
 21
202.891011
 31
0.05
  0
ARC
  5
5EB
330
70
100
AcDbEntity
  8
Visible
100
AcDbCircle
 10
-156.5
 20
199.153382
 30
-0.05
 40
0.5000000000000492
210
0.0
220
0.0
230
-1.0
100
AcDbArc
 50
315.0
 51
0.0
  0
LINE
  5
5EC
330
70
100
AcDbEntity
  8
Visible
100
AcDbLine
 10
163.207107
 20
191.739169
 30
0.05
 11
156.146447
 21
198.799829
 31
0.05
  0
ARC
  5
5ED
330
70
100
AcDbEntity
  8
Visible
100
AcDbCircle
 10
162.5
 20
191.032062
 30
0.05
 40
1.000000000000251
100
AcDbArc
 50
0.000013
 51
45.0
  0
LINE
  5
5EE
330
70
100
AcDbEntity
  8
Visible
100
AcDbLine
 10
163.5
 20
18.860489
 30
0.05
 11
163.5
 21
191.032062
 31
0.05
  0
ARC
  5
5EF
330
70
100
AcDbEntity
  8
Visible
100
AcDbCircle
 10
162.5
 20
18.860489
 30
0.05
 40
1.000000000000126
100
AcDbArc
 50
315.0
 51
0.000016
  0
LINE
  5
5F0
330
70
100
AcDbEntity
  8
Visible
100
AcDbLine
 10
156.146447
 20
11.092722
 30
0.05
 11
163.207107
 21
18.153382
 31
0.05
  0
ARC
  5
5F1
330
70
100
AcDbEntity
  8
Visible
100
AcDbCircle
 10
-156.5
 20
10.739169
 30
-0.05
 40
0.4999999999998295
210
0.0
220
0.0
230
-1.0
100
AcDbArc
 50
0.0
 51
45.0
  0
LINE
  5
5F2
330
70
100
AcDbEntity
  8
Visible
100
AcDbLine
 10
156.0
 20
7.00154
 30
0.05
 11
156.0
 21
10.739169
 31
0.05
  0
ARC
  5
5F3
330
70
100
AcDbEntity
  8
Visible
100
AcDbCircle
 10
-172.5
 20
37.196275
 30
-0.05
 40
0.5000000000000427
210
0.0
220
0.0
230
-1.0
100
AcDbArc
 50
90.0
 51
270.0
  0
LINE
  5
5F4
330
70
100
AcDbEntity
  8
Visible
100
AcDbLine
 10
168.5
 20
37.696275
 30
0.05
 11
172.5
 21
37.696275
 31
0.05
  0
ARC
  5
5F5
330
70
100
AcDbEntity
  8
Visible
100
AcDbCircle
 10
-168.5
 20
37.196275
 30
-0.05
 40
0.5000000000000427
210
0.0
220
0.0
230
-1.0
100
AcDbArc
 50
0.0
 51
90.0
  0
LINE
  5
5F6
330
70
100
AcDbEntity
  8
Visible
100
AcDbLine
 10
168.0
 20
21.696275
 30
0.05
 11
168.0
 21
37.196275
 31
0.05
  0
ARC
  5
5F7
330
70
100
AcDbEntity
  8
Visible
100
AcDbCircle
 10
-168.5
 20
21.696275
 30
-0.05
 40
0.5000000000001404
210
0.0
220
0.0
230
-1.0
100
AcDbArc
 50
270.0
 51
0.0
  0
LINE
  5
5F8
330
70
100
AcDbEntity
  8
Visible
100
AcDbLine
 10
172.5
 20
21.196275
 30
0.05
 11
168.5
 21
21.196275
 31
0.05
  0
ARC
  5
5F9
330
70
100
AcDbEntity
  8
Visible
100
AcDbCircle
 10
-172.5
 20
21.696275
 30
-0.05
 40
0.5000000000000427
210
0.0
220
0.0
230
-1.0
100
AcDbArc
 50
90.0
 51
270.0
  0
LINE
  5
5FA
330
70
100
AcDbEntity
  8
Visible
100
AcDbLine
 10
169.249841
 20
22.198388
 30
0.05
 11
172.5
 21
22.196275
 31
0.05
  0
ARC
  5
5FB
330
70
100
AcDbEntity
  8
Visible
100
AcDbCircle
 10
169.25
 20
22.448388
 30
0.05
 40
0.2499999999999147
100
AcDbArc
 50
180.0
 51
269.963598
  0
LINE
  5
5FC
330
70
100
AcDbEntity
  8
Visible
100
AcDbLine
 10
169.0
 20
36.196275
 30
0.05
 11
169.0
 21
22.448388
 31
0.05
  0
ARC
  5
5FD
330
70
100
AcDbEntity
  8
Visible
100
AcDbCircle
 10
169.5
 20
36.196275
 30
0.05
 40
0.5000000000000249
100
AcDbArc
 50
90.0
 51
180.0
  0
LINE
  5
5FE
330
70
100
AcDbEntity
  8
Visible
100
AcDbLine
 10
172.5
 20
36.696275
 30
0.05
 11
169.5
 21
36.696275
 31
0.05
  0
ARC
  5
5FF
330
70
100
AcDbEntity
  8
Visible
100
AcDbCircle
 10
169.235621
 20
187.44418
 30
0.05
 40
0.2500000000000213
100
AcDbArc
 50
90.0
 51
180.059966
  0
LINE
  5
600
330
70
100
AcDbEntity
  8
Visible
100
AcDbLine
 10
170.498116
 20
187.69418
 30
0.05
 11
169.235621
 21
187.69418
 31
0.05
  0
LINE
  5
601
330
70
100
AcDbEntity
  8
Visible
100
AcDbLine
 10
172.5
 20
187.696275
 30
0.05
 11
170.498116
 21
187.69418
 31
0.05
  0
ARC
  5
602
330
70
100
AcDbEntity
  8
Visible
100
AcDbCircle
 10
-172.5
 20
188.196275
 30
-0.05
 40
0.4999999999999716
210
0.0
220
0.0
230
-1.0
100
AcDbArc
 50
90.0
 51
270.0
  0
LINE
  5
603
330
70
100
AcDbEntity
  8
Visible
100
AcDbLine
 10
168.5
 20
188.696275
 30
0.05
 11
172.5
 21
188.696275
 31
0.05
  0
ARC
  5
604
330
70
100
AcDbEntity
  8
Visible
100
AcDbCircle
 10
-168.5
 20
188.196275
 30
-0.05
 40
0.5000000000000427
210
0.0
220
0.0
230
-1.0
100
AcDbArc
 50
0.0
 51
90.0
  0
LINE
  5
605
330
70
100
AcDbEntity
  8
Visible
100
AcDbLine
 10
168.0
 20
172.696275
 30
0.05
 11
168.0
 21
188.196275
 31
0.05
  0
ARC
  5
606
330
70
100
AcDbEntity
  8
Visible
100
AcDbCircle
 10
-168.5
 20
172.696275
 30
-0.05
 40
0.4999999999998295
210
0.0
220
0.0
230
-1.0
100
AcDbArc
 50
270.0
 51
0.0
  0
LINE
  5
607
330
70
100
AcDbEntity
  8
Visible
100
AcDbLine
 10
172.5
 20
172.196275
 30
0.05
 11
168.5
 21
172.196275
 31
0.05
  0
ARC
  5
608
330
70
100
AcDbEntity
  8
Visible
100
AcDbCircle
 10
-172.5
 20
172.696275
 30
-0.05
 40
0.4999999999999716
210
0.0
220
0.0
230
-1.0
100
AcDbArc
 50
90.0
 51
270.0
  0
LINE
  5
609
330
70
100
AcDbEntity
  8
Visible
100
AcDbLine
 10
169.500016
 20
173.205282
 30
0.05
 11
172.5
 21
173.196275
 31
0.05
  0
ARC
  5
60A
330
70
100
AcDbEntity
  8
Visible
100
AcDbCircle
 10
169.5
 20
173.705282
 30
0.05
 40
0.4999999999999007
100
AcDbArc
 50
179.975787
 51
270.001827
  0
LINE
  5
60B
330
70
100
AcDbEntity
  8
Visible
100
AcDbLine
 10
168.985621
 20
187.443918
 30
0.05
 11
169.0
 21
173.705493
 31
0.05
  0
ARC
  5
60C
330
70
100
AcDbEntity
  8
Visible
100
AcDbCircle
 10
-190.5
 20
172.696275
 30
-0.05
 40
0.5000000000001137
210
0.0
220
0.0
230
-1.0
100
AcDbArc
 50
180.0
 51
270.0
  0
LINE
  5
60D
330
70
100
AcDbEntity
  8
Visible
100
AcDbLine
 10
191.0
 20
188.196275
 30
0.05
 11
191.0
 21
172.696275
 31
0.05
  0
ARC
  5
60E
330
70
100
AcDbEntity
  8
Visible
100
AcDbCircle
 10
-190.5
 20
188.196275
 30
-0.05
 40
0.5000000000000782
210
0.0
220
0.0
230
-1.0
100
AcDbArc
 50
90.0
 51
180.0
  0
LINE
  5
60F
330
70
100
AcDbEntity
  8
Visible
100
AcDbLine
 10
186.5
 20
188.696275
 30
0.05
 11
190.5
 21
188.696275
 31
0.05
  0
ARC
  5
610
330
70
100
AcDbEntity
  8
Visible
100
AcDbCircle
 10
-186.5
 20
188.196275
 30
-0.05
 40
0.5000000000000427
210
0.0
220
0.0
230
-1.0
100
AcDbArc
 50
270.0
 51
90.0
  0
LINE
  5
611
330
70
100
AcDbEntity
  8
Visible
100
AcDbLine
 10
189.5
 20
187.696275
 30
0.05
 11
186.5
 21
187.696275
 31
0.05
  0
ARC
  5
612
330
70
100
AcDbEntity
  8
Visible
100
AcDbCircle
 10
189.5
 20
187.196275
 30
0.05
 40
0.4999999999999716
100
AcDbArc
 50
0.0
 51
90.0
  0
LINE
  5
613
330
70
100
AcDbEntity
  8
Visible
100
AcDbLine
 10
190.0
 20
173.696275
 30
0.05
 11
190.0
 21
187.196275
 31
0.05
  0
ARC
  5
614
330
70
100
AcDbEntity
  8
Visible
100
AcDbCircle
 10
189.5
 20
173.696275
 30
0.05
 40
0.5000000000000427
100
AcDbArc
 50
270.0
 51
0.0
  0
LINE
  5
615
330
70
100
AcDbEntity
  8
Visible
100
AcDbLine
 10
186.5
 20
173.196275
 30
0.05
 11
189.5
 21
173.196275
 31
0.05
  0
ARC
  5
616
330
70
100
AcDbEntity
  8
Visible
100
AcDbCircle
 10
-186.5
 20
172.696275
 30
-0.05
 40
0.4999999999999716
210
0.0
220
0.0
230
-1.0
100
AcDbArc
 50
270.0
 51
90.0
  0
LINE
  5
617
330
70
100
AcDbEntity
  8
Visible
100
AcDbLine
 10
190.5
 20
172.196275
 30
0.05
 11
186.5
 21
172.196275
 31
0.05
  0
ARC
  5
618
330
70
100
AcDbEntity
  8
Visible
100
AcDbCircle
 10
-186.5
 20
37.196275
 30
-0.05
 40
0.5000000000000427
210
0.0
220
0.0
230
-1.0
100
AcDbArc
 50
270.0
 51
90.0
  0
LINE
  5
619
330
70
100
AcDbEntity
  8
Visible
100
AcDbLine
 10
189.5
 20
36.696275
 30
0.05
 11
186.5
 21
36.696275
 31
0.05
  0
ARC
  5
61A
330
70
100
AcDbEntity
  8
Visible
100
AcDbCircle
 10
189.5
 20
36.196275
 30
0.05
 40
0.4999999999999716
100
AcDbArc
 50
0.0
 51
90.0
  0
LINE
  5
61B
330
70
100
AcDbEntity
  8
Visible
100
AcDbLine
 10
190.0
 20
22.696275
 30
0.05
 11
190.0
 21
36.196275
 31
0.05
  0
ARC
  5
61C
330
70
100
AcDbEntity
  8
Visible
100
AcDbCircle
 10
189.5
 20
22.696275
 30
0.05
 40
0.5000000000000249
100
AcDbArc
 50
270.0
 51
0.0
  0
LINE
  5
61D
330
70
100
AcDbEntity
  8
Visible
100
AcDbLine
 10
186.5
 20
22.196275
 30
0.05
 11
189.5
 21
22.196275
 31
0.05
  0
ARC
  5
61E
330
70
100
AcDbEntity
  8
Visible
100
AcDbCircle
 10
-186.5
 20
21.696275
 30
-0.05
 40
0.4999999999999716
210
0.0
220
0.0
230
-1.0
100
AcDbArc
 50
270.0
 51
90.0
  0
LINE
  5
61F
330
70
100
AcDbEntity
  8
Visible
100
AcDbLine
 10
190.5
 20
21.196275
 30
0.05
 11
186.5
 21
21.196275
 31
0.05
  0
ARC
  5
620
330
70
100
AcDbEntity
  8
Visible
100
AcDbCircle
 10
-190.5
 20
21.696275
 30
-0.05
 40
0.5000000000001137
210
0.0
220
0.0
230
-1.0
100
AcDbArc
 50
180.0
 51
270.0
  0
LINE
  5
621
330
70
100
AcDbEntity
  8
Visible
100
AcDbLine
 10
191.0
 20
37.196275
 30
0.05
 11
191.0
 21
21.696275
 31
0.05
  0
ARC
  5
622
330
70
100
AcDbEntity
  8
Visible
100
AcDbCircle
 10
-190.5
 20
37.196275
 30
-0.05
 40
0.4999999999999272
210
0.0
220
0.0
230
-1.0
100
AcDbArc
 50
90.0
 51
180.0
  0
LINE
  5
623
330
70
100
AcDbEntity
  8
Visible
100
AcDbLine
 10
186.5
 20
37.696275
 30
0.05
 11
190.5
 21
37.696275
 31
0.05
  0
ARC
  5
624
330
70
100
AcDbEntity
  8
Visible
100
AcDbCircle
 10
-188.248778
 20
6.946276
 30
-0.05
 40
1.249999999999993
210
0.0
220
0.0
230
-1.0
100
AcDbArc
 50
78.520214
 51
2.533956
  0
LINE
  5
625
330
70
100
AcDbEntity
  8
Visible
100
AcDbLine
 10
188.0
 20
10.739168
 30
0.05
 11
188.0
 21
8.171269
 31
0.05
  0
ARC
  5
626
330
70
100
AcDbEntity
  8
Visible
100
AcDbCircle
 10
188.5
 20
10.739168
 30
0.05
 40
0.5000000000001874
100
AcDbArc
 50
135.0
 51
180.0
  0
LINE
  5
627
330
70
100
AcDbEntity
  8
Visible
100
AcDbLine
 10
192.792893
 20
15.739168
 30
0.05
 11
188.146447
 21
11.092722
 31
0.05
  0
ARC
  5
628
330
70
100
AcDbEntity
  8
Visible
100
AcDbCircle
 10
193.5
 20
15.032062
 30
0.05
 40
0.9999999999999431
100
AcDbArc
 50
0.0
 51
135.0
  0
LINE
  5
629
330
70
100
AcDbEntity
  8
Visible
100
AcDbLine
 10
194.5
 20
4.946275
 30
0.05
 11
194.5
 21
15.032062
 31
0.05
  0
ARC
  5
62A
330
70
100
AcDbEntity
  8
Visible
100
AcDbCircle
 10
189.5
 20
4.946275
 30
0.05
 40
5.00000000000003
100
AcDbArc
 50
270.0
 51
0.0
  0
LINE
  5
62B
330
70
100
AcDbEntity
  8
Visible
100
AcDbLine
 10
169.5
 20
-0.053725
 30
0.05
 11
189.5
 21
-0.053725
 31
0.05
  0
ARC
  5
62C
330
70
100
AcDbEntity
  8
Visible
100
AcDbCircle
 10
169.5
 20
4.946275
 30
0.05
 40
5.000000000000071
100
AcDbArc
 50
180.0
 51
270.0
  0
LINE
  5
62D
330
70
100
AcDbEntity
  8
Visible
100
AcDbLine
 10
164.5
 20
15.032062
 30
0.05
 11
164.5
 21
4.946275
 31
0.05
  0
ARC
  5
62E
330
70
100
AcDbEntity
  8
Visible
100
AcDbCircle
 10
165.5
 20
15.032062
 30
0.05
 40
1.00000000000007
100
AcDbArc
 50
45.0
 51
180.0
  0
LINE
  5
62F
330
70
100
AcDbEntity
  8
Visible
100
AcDbLine
 10
170.853553
 20
11.092722
 30
0.05
 11
166.207107
 21
15.739168
 31
0.05
  0
ARC
  5
630
330
70
100
AcDbEntity
  8
Visible
100
AcDbCircle
 10
170.5
 20
10.739168
 30
0.05
 40
0.4999999999996874
100
AcDbArc
 50
0.0
 51
45.0
  0
LINE
  5
631
330
70
100
AcDbEntity
  8
Visible
100
AcDbLine
 10
171.0
 20
8.171021
 30
0.05
 11
171.0
 21
10.739168
 31
0.05
  0
ARC
  5
632
330
70
100
AcDbEntity
  8
Visible
100
AcDbCircle
 10
-170.75
 20
6.946276
 30
-0.05
 40
1.25000000000003
210
0.0
220
0.0
230
-1.0
100
AcDbArc
 50
180.000023
 51
101.536959
  0
LINE
  5
633
330
70
100
AcDbEntity
  8
Visible
100
AcDbLine
 10
172.0
 20
10.739168
 30
0.05
 11
172.0
 21
6.946275
 31
0.05
  0
ARC
  5
634
330
70
100
AcDbEntity
  8
Visible
100
AcDbCircle
 10
-171.5
 20
10.739168
 30
-0.05
 40
0.5000000000000274
210
0.0
220
0.0
230
-1.0
100
AcDbArc
 50
135.0
 51
180.0
  0
LINE
  5
635
330
70
100
AcDbEntity
  8
Visible
100
AcDbLine
 10
164.792893
 20
18.153382
 30
0.05
 11
171.853553
 21
11.092722
 31
0.05
  0
ARC
  5
636
330
70
100
AcDbEntity
  8
Visible
100
AcDbCircle
 10
165.5
 20
18.860489
 30
0.05
 40
1.000000000000298
100
AcDbArc
 50
180.0
 51
225.0
  0
LINE
  5
637
330
70
100
AcDbEntity
  8
Visible
100
AcDbLine
 10
164.5
 20
191.032062
 30
0.05
 11
164.5
 21
18.860489
 31
0.05
  0
ARC
  5
638
330
70
100
AcDbEntity
  8
Visible
100
AcDbCircle
 10
165.5
 20
191.032062
 30
0.05
 40
0.9999999999998975
100
AcDbArc
 50
135.0
 51
180.0
  0
LINE
  5
639
330
70
100
AcDbEntity
  8
Visible
100
AcDbLine
 10
171.853553
 20
198.799829
 30
0.05
 11
164.792893
 21
191.739168
 31
0.05
  0
ARC
  5
63A
330
70
100
AcDbEntity
  8
Visible
100
AcDbCircle
 10
-171.5
 20
199.153382
 30
-0.05
 40
0.4999999999999006
210
0.0
220
0.0
230
-1.0
100
AcDbArc
 50
180.0
 51
225.0
  0
LINE
  5
63B
330
70
100
AcDbEntity
  8
Visible
100
AcDbLine
 10
172.0
 20
202.946275
 30
0.05
 11
172.0
 21
199.153382
 31
0.05
  0
ARC
  5
63C
330
70
100
AcDbEntity
  8
Visible
100
AcDbCircle
 10
-170.75
 20
202.946275
 30
-0.05
 40
1.249999999999987
210
0.0
220
0.0
230
-1.0
100
AcDbArc
 50
258.463041
 51
180.0
  0
LINE
  5
63D
330
70
100
AcDbEntity
  8
Visible
100
AcDbLine
 10
171.0
 20
199.153382
 30
0.05
 11
171.0
 21
201.72153
 31
0.05
  0
ARC
  5
63E
330
70
100
AcDbEntity
  8
Visible
100
AcDbCircle
 10
170.5
 20
199.153382
 30
0.05
 40
0.5000000000000492
100
AcDbArc
 50
315.0
 51
0.0
  0
LINE
  5
63F
330
70
100
AcDbEntity
  8
Visible
100
AcDbLine
 10
166.207107
 20
194.153382
 30
0.05
 11
170.853553
 21
198.799829
 31
0.05
  0
ARC
  5
640
330
70
100
AcDbEntity
  8
Visible
100
AcDbCircle
 10
165.5
 20
194.860489
 30
0.05
 40
1.000000000000085
100
AcDbArc
 50
180.0
 51
315.0
  0
LINE
  5
641
330
70
100
AcDbEntity
  8
Visible
100
AcDbLine
 10
164.5
 20
204.946275
 30
0.05
 11
164.5
 21
194.860489
 31
0.05
  0
ARC
  5
642
330
70
100
AcDbEntity
  8
Visible
100
AcDbCircle
 10
169.5
 20
204.946275
 30
0.05
 40
5.000000010148694
100
AcDbArc
 50
90.007003
 51
180.0
  0
LINE
  5
643
330
70
100
AcDbEntity
  8
Visible
100
AcDbLine
 10
189.499389
 20
209.946275
 30
0.05
 11
169.499389
 21
209.946275
 31
0.05
  0
ARC
  5
644
330
70
100
AcDbEntity
  8
Visible
100
AcDbCircle
 10
189.5
 20
204.946275
 30
0.05
 40
5.0
100
AcDbArc
 50
0.0
 51
90.007003
  0
LINE
  5
645
330
70
100
AcDbEntity
  8
Visible
100
AcDbLine
 10
194.5
 20
194.860489
 30
0.05
 11
194.5
 21
204.946275
 31
0.05
  0
ARC
  5
646
330
70
100
AcDbEntity
  8
Visible
100
AcDbCircle
 10
193.5
 20
194.860489
 30
0.05
 40
1.000000000000023
100
AcDbArc
 50
225.0
 51
0.0
  0
LINE
  5
647
330
70
100
AcDbEntity
  8
Visible
100
AcDbLine
 10
188.146447
 20
198.799829
 30
0.05
 11
192.792893
 21
194.153382
 31
0.05
  0
ARC
  5
648
330
70
100
AcDbEntity
  8
Visible
100
AcDbCircle
 10
188.5
 20
199.153382
 30
0.05
 40
0.4999999999999716
100
AcDbArc
 50
180.0
 51
225.0
  0
LINE
  5
649
330
70
100
AcDbEntity
  8
Visible
100
AcDbLine
 10
188.0
 20
201.721282
 30
0.05
 11
188.0
 21
199.153382
 31
0.05
  0
ARC
  5
64A
330
70
100
AcDbEntity
  8
Visible
100
AcDbCircle
 10
-188.248778
 20
202.946275
 30
-0.05
 40
1.250000000000024
210
0.0
220
0.0
230
-1.0
100
AcDbArc
 50
357.466044
 51
281.479786
  0
LINE
  5
64B
330
70
100
AcDbEntity
  8
Visible
100
AcDbLine
 10
187.0
 20
199.153382
 30
0.05
 11
187.0
 21
202.891011
 31
0.05
  0
ARC
  5
64C
330
70
100
AcDbEntity
  8
Visible
100
AcDbCircle
 10
-187.5
 20
199.153382
 30
-0.05
 40
0.4999999999999237
210
0.0
220
0.0
230
-1.0
100
AcDbArc
 50
315.0
 51
0.0
  0
LINE
  5
64D
330
70
100
AcDbEntity
  8
Visible
100
AcDbLine
 10
194.207107
 20
191.739168
 30
0.05
 11
187.146447
 21
198.799829
 31
0.05
  0
ARC
  5
64E
330
70
100
AcDbEntity
  8
Visible
100
AcDbCircle
 10
193.5
 20
191.032062
 30
0.05
 40
1.000000000000322
100
AcDbArc
 50
0.000013
 51
45.0
  0
LINE
  5
64F
330
70
100
AcDbEntity
  8
Visible
100
AcDbLine
 10
194.5
 20
18.860489
 30
0.05
 11
194.5
 21
191.032062
 31
0.05
  0
ARC
  5
650
330
70
100
AcDbEntity
  8
Visible
100
AcDbCircle
 10
193.5
 20
18.860489
 30
0.05
 40
1.000000000000073
100
AcDbArc
 50
315.0
 51
0.000016
  0
LINE
  5
651
330
70
100
AcDbEntity
  8
Visible
100
AcDbLine
 10
187.146447
 20
11.092722
 30
0.05
 11
194.207107
 21
18.153382
 31
0.05
  0
ARC
  5
652
330
70
100
AcDbEntity
  8
Visible
100
AcDbCircle
 10
-187.5
 20
10.739168
 30
-0.05
 40
0.4999999999999006
210
0.0
220
0.0
230
-1.0
100
AcDbArc
 50
0.0
 51
45.0
  0
LINE
  5
653
330
70
100
AcDbEntity
  8
Visible
100
AcDbLine
 10
187.0
 20
7.00154
 30
0.05
 11
187.0
 21
10.739168
 31
0.05
  0
ARC
  5
654
330
70
100
AcDbEntity
  8
Visible
100
AcDbCircle
 10
-203.5
 20
37.196275
 30
-0.05
 40
0.5000000000000427
210
0.0
220
0.0
230
-1.0
100
AcDbArc
 50
90.0
 51
270.0
  0
LINE
  5
655
330
70
100
AcDbEntity
  8
Visible
100
AcDbLine
 10
199.5
 20
37.696275
 30
0.05
 11
203.5
 21
37.696275
 31
0.05
  0
ARC
  5
656
330
70
100
AcDbEntity
  8
Visible
100
AcDbCircle
 10
-199.5
 20
37.196275
 30
-0.05
 40
0.5000000000000427
210
0.0
220
0.0
230
-1.0
100
AcDbArc
 50
0.0
 51
90.0
  0
LINE
  5
657
330
70
100
AcDbEntity
  8
Visible
100
AcDbLine
 10
199.0
 20
21.696275
 30
0.05
 11
199.0
 21
37.196275
 31
0.05
  0
ARC
  5
658
330
70
100
AcDbEntity
  8
Visible
100
AcDbCircle
 10
-199.5
 20
21.696275
 30
-0.05
 40
0.5000000000001404
210
0.0
220
0.0
230
-1.0
100
AcDbArc
 50
270.0
 51
0.0
  0
LINE
  5
659
330
70
100
AcDbEntity
  8
Visible
100
AcDbLine
 10
203.5
 20
21.196275
 30
0.05
 11
199.5
 21
21.196275
 31
0.05
  0
ARC
  5
65A
330
70
100
AcDbEntity
  8
Visible
100
AcDbCircle
 10
-203.5
 20
21.696275
 30
-0.05
 40
0.5000000000000427
210
0.0
220
0.0
230
-1.0
100
AcDbArc
 50
90.0
 51
270.0
  0
LINE
  5
65B
330
70
100
AcDbEntity
  8
Visible
100
AcDbLine
 10
200.249841
 20
22.198388
 30
0.05
 11
203.5
 21
22.196275
 31
0.05
  0
ARC
  5
65C
330
70
100
AcDbEntity
  8
Visible
100
AcDbCircle
 10
200.25
 20
22.448388
 30
0.05
 40
0.2499999999999858
100
AcDbArc
 50
180.0
 51
269.963598
  0
LINE
  5
65D
330
70
100
AcDbEntity
  8
Visible
100
AcDbLine
 10
200.0
 20
36.196275
 30
0.05
 11
200.0
 21
22.448388
 31
0.05
  0
ARC
  5
65E
330
70
100
AcDbEntity
  8
Visible
100
AcDbCircle
 10
200.5
 20
36.196275
 30
0.05
 40
0.5000000000000249
100
AcDbArc
 50
90.0
 51
180.0
  0
LINE
  5
65F
330
70
100
AcDbEntity
  8
Visible
100
AcDbLine
 10
203.5
 20
36.696275
 30
0.05
 11
200.5
 21
36.696275
 31
0.05
  0
ARC
  5
660
330
70
100
AcDbEntity
  8
Visible
100
AcDbCircle
 10
200.235621
 20
187.44418
 30
0.05
 40
0.2500000000000924
100
AcDbArc
 50
90.0
 51
180.059966
  0
LINE
  5
661
330
70
100
AcDbEntity
  8
Visible
100
AcDbLine
 10
201.498116
 20
187.69418
 30
0.05
 11
200.235621
 21
187.69418
 31
0.05
  0
LINE
  5
662
330
70
100
AcDbEntity
  8
Visible
100
AcDbLine
 10
203.5
 20
187.696275
 30
0.05
 11
201.498116
 21
187.69418
 31
0.05
  0
ARC
  5
663
330
70
100
AcDbEntity
  8
Visible
100
AcDbCircle
 10
-203.5
 20
188.196275
 30
-0.05
 40
0.4999999999999716
210
0.0
220
0.0
230
-1.0
100
AcDbArc
 50
90.0
 51
270.0
  0
LINE
  5
664
330
70
100
AcDbEntity
  8
Visible
100
AcDbLine
 10
199.5
 20
188.696275
 30
0.05
 11
203.5
 21
188.696275
 31
0.05
  0
ARC
  5
665
330
70
100
AcDbEntity
  8
Visible
100
AcDbCircle
 10
-199.5
 20
188.196275
 30
-0.05
 40
0.5000000000000427
210
0.0
220
0.0
230
-1.0
100
AcDbArc
 50
0.0
 51
90.0
  0
LINE
  5
666
330
70
100
AcDbEntity
  8
Visible
100
AcDbLine
 10
199.0
 20
172.696275
 30
0.05
 11
199.0
 21
188.196275
 31
0.05
  0
ARC
  5
667
330
70
100
AcDbEntity
  8
Visible
100
AcDbCircle
 10
-199.5
 20
172.696275
 30
-0.05
 40
0.499999999999865
210
0.0
220
0.0
230
-1.0
100
AcDbArc
 50
270.0
 51
0.0
  0
LINE
  5
668
330
70
100
AcDbEntity
  8
Visible
100
AcDbLine
 10
203.5
 20
172.196275
 30
0.05
 11
199.5
 21
172.196275
 31
0.05
  0
ARC
  5
669
330
70
100
AcDbEntity
  8
Visible
100
AcDbCircle
 10
-203.5
 20
172.696275
 30
-0.05
 40
0.4999999999999716
210
0.0
220
0.0
230
-1.0
100
AcDbArc
 50
90.0
 51
270.0
  0
LINE
  5
66A
330
70
100
AcDbEntity
  8
Visible
100
AcDbLine
 10
200.500016
 20
173.205282
 30
0.05
 11
203.5
 21
173.196275
 31
0.05
  0
ARC
  5
66B
330
70
100
AcDbEntity
  8
Visible
100
AcDbCircle
 10
200.5
 20
173.705282
 30
0.05
 40
0.4999999999999007
100
AcDbArc
 50
179.975787
 51
270.001827
  0
LINE
  5
66C
330
70
100
AcDbEntity
  8
Visible
100
AcDbLine
 10
199.985621
 20
187.443918
 30
0.05
 11
200.0
 21
173.705493
 31
0.05
  0
ARC
  5
66D
330
70
100
AcDbEntity
  8
Visible
100
AcDbCircle
 10
-221.5
 20
172.696275
 30
-0.05
 40
0.5000000000001137
210
0.0
220
0.0
230
-1.0
100
AcDbArc
 50
180.0
 51
270.0
  0
LINE
  5
66E
330
70
100
AcDbEntity
  8
Visible
100
AcDbLine
 10
222.0
 20
188.196275
 30
0.05
 11
222.0
 21
172.696275
 31
0.05
  0
ARC
  5
66F
330
70
100
AcDbEntity
  8
Visible
100
AcDbCircle
 10
-221.5
 20
188.196275
 30
-0.05
 40
0.5000000000000782
210
0.0
220
0.0
230
-1.0
100
AcDbArc
 50
90.0
 51
180.0
  0
LINE
  5
670
330
70
100
AcDbEntity
  8
Visible
100
AcDbLine
 10
217.5
 20
188.696275
 30
0.05
 11
221.5
 21
188.696275
 31
0.05
  0
ARC
  5
671
330
70
100
AcDbEntity
  8
Visible
100
AcDbCircle
 10
-217.5
 20
188.196275
 30
-0.05
 40
0.5000000000000427
210
0.0
220
0.0
230
-1.0
100
AcDbArc
 50
270.0
 51
90.0
  0
LINE
  5
672
330
70
100
AcDbEntity
  8
Visible
100
AcDbLine
 10
220.5
 20
187.696275
 30
0.05
 11
217.5
 21
187.696275
 31
0.05
  0
ARC
  5
673
330
70
100
AcDbEntity
  8
Visible
100
AcDbCircle
 10
220.5
 20
187.196275
 30
0.05
 40
0.4999999999999716
100
AcDbArc
 50
0.0
 51
90.0
  0
LINE
  5
674
330
70
100
AcDbEntity
  8
Visible
100
AcDbLine
 10
221.0
 20
173.696275
 30
0.05
 11
221.0
 21
187.196275
 31
0.05
  0
ARC
  5
675
330
70
100
AcDbEntity
  8
Visible
100
AcDbCircle
 10
220.5
 20
173.696275
 30
0.05
 40
0.5000000000000071
100
AcDbArc
 50
270.0
 51
0.0
  0
LINE
  5
676
330
70
100
AcDbEntity
  8
Visible
100
AcDbLine
 10
217.5
 20
173.196275
 30
0.05
 11
220.5
 21
173.196275
 31
0.05
  0
ARC
  5
677
330
70
100
AcDbEntity
  8
Visible
100
AcDbCircle
 10
-217.5
 20
172.696275
 30
-0.05
 40
0.4999999999999716
210
0.0
220
0.0
230
-1.0
100
AcDbArc
 50
270.0
 51
90.0
  0
LINE
  5
678
330
70
100
AcDbEntity
  8
Visible
100
AcDbLine
 10
221.5
 20
172.196275
 30
0.05
 11
217.5
 21
172.196275
 31
0.05
  0
ARC
  5
679
330
70
100
AcDbEntity
  8
Visible
100
AcDbCircle
 10
-217.5
 20
37.196275
 30
-0.05
 40
0.5000000000000427
210
0.0
220
0.0
230
-1.0
100
AcDbArc
 50
270.0
 51
90.0
  0
LINE
  5
67A
330
70
100
AcDbEntity
  8
Visible
100
AcDbLine
 10
220.5
 20
36.696275
 30
0.05
 11
217.5
 21
36.696275
 31
0.05
  0
ARC
  5
67B
330
70
100
AcDbEntity
  8
Visible
100
AcDbCircle
 10
220.5
 20
36.196275
 30
0.05
 40
0.4999999999999716
100
AcDbArc
 50
0.0
 51
90.0
  0
LINE
  5
67C
330
70
100
AcDbEntity
  8
Visible
100
AcDbLine
 10
221.0
 20
22.696275
 30
0.05
 11
221.0
 21
36.196275
 31
0.05
  0
ARC
  5
67D
330
70
100
AcDbEntity
  8
Visible
100
AcDbCircle
 10
220.5
 20
22.696275
 30
0.05
 40
0.5000000000000249
100
AcDbArc
 50
270.0
 51
0.0
  0
LINE
  5
67E
330
70
100
AcDbEntity
  8
Visible
100
AcDbLine
 10
217.5
 20
22.196275
 30
0.05
 11
220.5
 21
22.196275
 31
0.05
  0
ARC
  5
67F
330
70
100
AcDbEntity
  8
Visible
100
AcDbCircle
 10
-217.5
 20
21.696275
 30
-0.05
 40
0.4999999999999716
210
0.0
220
0.0
230
-1.0
100
AcDbArc
 50
270.0
 51
90.0
  0
LINE
  5
680
330
70
100
AcDbEntity
  8
Visible
100
AcDbLine
 10
221.5
 20
21.196275
 30
0.05
 11
217.5
 21
21.196275
 31
0.05
  0
ARC
  5
681
330
70
100
AcDbEntity
  8
Visible
100
AcDbCircle
 10
-221.5
 20
21.696275
 30
-0.05
 40
0.5000000000001137
210
0.0
220
0.0
230
-1.0
100
AcDbArc
 50
180.0
 51
270.0
  0
LINE
  5
682
330
70
100
AcDbEntity
  8
Visible
100
AcDbLine
 10
222.0
 20
37.196275
 30
0.05
 11
222.0
 21
21.696275
 31
0.05
  0
ARC
  5
683
330
70
100
AcDbEntity
  8
Visible
100
AcDbCircle
 10
-221.5
 20
37.196275
 30
-0.05
 40
0.4999999999998917
210
0.0
220
0.0
230
-1.0
100
AcDbArc
 50
90.0
 51
180.0
  0
LINE
  5
684
330
70
100
AcDbEntity
  8
Visible
100
AcDbLine
 10
217.5
 20
37.696275
 30
0.05
 11
221.5
 21
37.696275
 31
0.05
  0
ARC
  5
685
330
70
100
AcDbEntity
  8
Visible
100
AcDbCircle
 10
-219.248778
 20
6.946276
 30
-0.05
 40
1.249999999999991
210
0.0
220
0.0
230
-1.0
100
AcDbArc
 50
78.520214
 51
2.533956
  0
LINE
  5
686
330
70
100
AcDbEntity
  8
Visible
100
AcDbLine
 10
219.0
 20
10.739168
 30
0.05
 11
219.0
 21
8.171269
 31
0.05
  0
ARC
  5
687
330
70
100
AcDbEntity
  8
Visible
100
AcDbCircle
 10
219.5
 20
10.739168
 30
0.05
 40
0.5000000000002518
100
AcDbArc
 50
135.0
 51
180.0
  0
LINE
  5
688
330
70
100
AcDbEntity
  8
Visible
100
AcDbLine
 10
223.792893
 20
15.739168
 30
0.05
 11
219.146447
 21
11.092722
 31
0.05
  0
ARC
  5
689
330
70
100
AcDbEntity
  8
Visible
100
AcDbCircle
 10
224.5
 20
15.032062
 30
0.05
 40
0.9999999999999431
100
AcDbArc
 50
0.0
 51
135.0
  0
LINE
  5
68A
330
70
100
AcDbEntity
  8
Visible
100
AcDbLine
 10
225.5
 20
4.946275
 30
0.05
 11
225.5
 21
15.032062
 31
0.05
  0
ARC
  5
68B
330
70
100
AcDbEntity
  8
Visible
100
AcDbCircle
 10
220.5
 20
4.946275
 30
0.05
 40
5.000000000000028
100
AcDbArc
 50
270.0
 51
0.0
  0
LINE
  5
68C
330
70
100
AcDbEntity
  8
Visible
100
AcDbLine
 10
200.5
 20
-0.053725
 30
0.05
 11
220.5
 21
-0.053725
 31
0.05
  0
ARC
  5
68D
330
70
100
AcDbEntity
  8
Visible
100
AcDbCircle
 10
200.5
 20
4.946275
 30
0.05
 40
5.000000000000142
100
AcDbArc
 50
180.0
 51
270.0
  0
LINE
  5
68E
330
70
100
AcDbEntity
  8
Visible
100
AcDbLine
 10
195.5
 20
15.032062
 30
0.05
 11
195.5
 21
4.946275
 31
0.05
  0
ARC
  5
68F
330
70
100
AcDbEntity
  8
Visible
100
AcDbCircle
 10
196.5
 20
15.032062
 30
0.05
 40
1.00000000000007
100
AcDbArc
 50
45.0
 51
180.0
  0
LINE
  5
690
330
70
100
AcDbEntity
  8
Visible
100
AcDbLine
 10
201.853553
 20
11.092722
 30
0.05
 11
197.207107
 21
15.739168
 31
0.05
  0
ARC
  5
691
330
70
100
AcDbEntity
  8
Visible
100
AcDbCircle
 10
201.5
 20
10.739168
 30
0.05
 40
0.4999999999997585
100
AcDbArc
 50
0.0
 51
45.0
  0
LINE
  5
692
330
70
100
AcDbEntity
  8
Visible
100
AcDbLine
 10
202.0
 20
8.171021
 30
0.05
 11
202.0
 21
10.739168
 31
0.05
  0
ARC
  5
693
330
70
100
AcDbEntity
  8
Visible
100
AcDbCircle
 10
-201.75
 20
6.946276
 30
-0.05
 40
1.25000000000003
210
0.0
220
0.0
230
-1.0
100
AcDbArc
 50
180.000023
 51
101.536959
  0
LINE
  5
694
330
70
100
AcDbEntity
  8
Visible
100
AcDbLine
 10
203.0
 20
10.739168
 30
0.05
 11
203.0
 21
6.946275
 31
0.05
  0
ARC
  5
695
330
70
100
AcDbEntity
  8
Visible
100
AcDbCircle
 10
-202.5
 20
10.739168
 30
-0.05
 40
0.499999999999977
210
0.0
220
0.0
230
-1.0
100
AcDbArc
 50
135.0
 51
180.0
  0
LINE
  5
696
330
70
100
AcDbEntity
  8
Visible
100
AcDbLine
 10
195.792893
 20
18.153382
 30
0.05
 11
202.853553
 21
11.092722
 31
0.05
  0
ARC
  5
697
330
70
100
AcDbEntity
  8
Visible
100
AcDbCircle
 10
196.5
 20
18.860489
 30
0.05
 40
1.000000000000227
100
AcDbArc
 50
180.0
 51
225.0
  0
LINE
  5
698
330
70
100
AcDbEntity
  8
Visible
100
AcDbLine
 10
195.5
 20
191.032062
 30
0.05
 11
195.5
 21
18.860489
 31
0.05
  0
ARC
  5
699
330
70
100
AcDbEntity
  8
Visible
100
AcDbCircle
 10
196.5
 20
191.032062
 30
0.05
 40
1.000000000000023
100
AcDbArc
 50
135.0
 51
180.0
  0
LINE
  5
69A
330
70
100
AcDbEntity
  8
Visible
100
AcDbLine
 10
202.853553
 20
198.799829
 30
0.05
 11
195.792893
 21
191.739168
 31
0.05
  0
ARC
  5
69B
330
70
100
AcDbEntity
  8
Visible
100
AcDbCircle
 10
-202.5
 20
199.153382
 30
-0.05
 40
0.5000000000000427
210
0.0
220
0.0
230
-1.0
100
AcDbArc
 50
180.0
 51
225.0
  0
LINE
  5
69C
330
70
100
AcDbEntity
  8
Visible
100
AcDbLine
 10
203.0
 20
202.946275
 30
0.05
 11
203.0
 21
199.153382
 31
0.05
  0
ARC
  5
69D
330
70
100
AcDbEntity
  8
Visible
100
AcDbCircle
 10
-201.75
 20
202.946275
 30
-0.05
 40
1.250000000000001
210
0.0
220
0.0
230
-1.0
100
AcDbArc
 50
258.463041
 51
180.0
  0
LINE
  5
69E
330
70
100
AcDbEntity
  8
Visible
100
AcDbLine
 10
202.0
 20
199.153382
 30
0.05
 11
202.0
 21
201.72153
 31
0.05
  0
ARC
  5
69F
330
70
100
AcDbEntity
  8
Visible
100
AcDbCircle
 10
201.5
 20
199.153382
 30
0.05
 40
0.5000000000001498
100
AcDbArc
 50
315.0
 51
0.0
  0
LINE
  5
6A0
330
70
100
AcDbEntity
  8
Visible
100
AcDbLine
 10
197.207107
 20
194.153382
 30
0.05
 11
201.853553
 21
198.799829
 31
0.05
  0
ARC
  5
6A1
330
70
100
AcDbEntity
  8
Visible
100
AcDbCircle
 10
196.5
 20
194.860489
 30
0.05
 40
1.000000000000085
100
AcDbArc
 50
180.0
 51
315.0
  0
LINE
  5
6A2
330
70
100
AcDbEntity
  8
Visible
100
AcDbLine
 10
195.5
 20
204.946275
 30
0.05
 11
195.5
 21
194.860489
 31
0.05
  0
ARC
  5
6A3
330
70
100
AcDbEntity
  8
Visible
100
AcDbCircle
 10
200.5
 20
204.946275
 30
0.05
 40
5.000000010148694
100
AcDbArc
 50
90.007003
 51
180.0
  0
LINE
  5
6A4
330
70
100
AcDbEntity
  8
Visible
100
AcDbLine
 10
220.499389
 20
209.946275
 30
0.05
 11
200.499389
 21
209.946275
 31
0.05
  0
ARC
  5
6A5
330
70
100
AcDbEntity
  8
Visible
100
AcDbCircle
 10
220.5
 20
204.946275
 30
0.05
 40
4.999999999999857
100
AcDbArc
 50
0.0
 51
90.007003
  0
LINE
  5
6A6
330
70
100
AcDbEntity
  8
Visible
100
AcDbLine
 10
225.5
 20
194.860489
 30
0.05
 11
225.5
 21
204.946275
 31
0.05
  0
ARC
  5
6A7
330
70
100
AcDbEntity
  8
Visible
100
AcDbCircle
 10
224.5
 20
194.860489
 30
0.05
 40
0.9999999999999729
100
AcDbArc
 50
225.0
 51
0.0
  0
LINE
  5
6A8
330
70
100
AcDbEntity
  8
Visible
100
AcDbLine
 10
219.146447
 20
198.799829
 30
0.05
 11
223.792893
 21
194.153382
 31
0.05
  0
ARC
  5
6A9
330
70
100
AcDbEntity
  8
Visible
100
AcDbCircle
 10
219.5
 20
199.153382
 30
0.05
 40
0.4999999999999716
100
AcDbArc
 50
180.0
 51
225.0
  0
LINE
  5
6AA
330
70
100
AcDbEntity
  8
Visible
100
AcDbLine
 10
219.0
 20
201.721281
 30
0.05
 11
219.0
 21
199.153382
 31
0.05
  0
ARC
  5
6AB
330
70
100
AcDbEntity
  8
Visible
100
AcDbCircle
 10
-219.248778
 20
202.946275
 30
-0.05
 40
1.250000000000022
210
0.0
220
0.0
230
-1.0
100
AcDbArc
 50
357.466044
 51
281.479786
  0
LINE
  5
6AC
330
70
100
AcDbEntity
  8
Visible
100
AcDbLine
 10
218.0
 20
199.153382
 30
0.05
 11
218.0
 21
202.891011
 31
0.05
  0
ARC
  5
6AD
330
70
100
AcDbEntity
  8
Visible
100
AcDbCircle
 10
-218.5
 20
199.153382
 30
-0.05
 40
0.5000000000000492
210
0.0
220
0.0
230
-1.0
100
AcDbArc
 50
315.0
 51
0.0
  0
LINE
  5
6AE
330
70
100
AcDbEntity
  8
Visible
100
AcDbLine
 10
225.207107
 20
191.739168
 30
0.05
 11
218.146447
 21
198.799829
 31
0.05
  0
ARC
  5
6AF
330
70
100
AcDbEntity
  8
Visible
100
AcDbCircle
 10
224.5
 20
191.032062
 30
0.05
 40
1.000000000000251
100
AcDbArc
 50
0.000013
 51
45.0
  0
LINE
  5
6B0
330
70
100
AcDbEntity
  8
Visible
100
AcDbLine
 10
225.5
 20
18.860489
 30
0.05
 11
225.5
 21
191.032062
 31
0.05
  0
ARC
  5
6B1
330
70
100
AcDbEntity
  8
Visible
100
AcDbCircle
 10
224.5
 20
18.860489
 30
0.05
 40
1.000000000000123
100
AcDbArc
 50
315.0
 51
0.000016
  0
LINE
  5
6B2
330
70
100
AcDbEntity
  8
Visible
100
AcDbLine
 10
218.146447
 20
11.092722
 30
0.05
 11
225.207107
 21
18.153382
 31
0.05
  0
ARC
  5
6B3
330
70
100
AcDbEntity
  8
Visible
100
AcDbCircle
 10
-218.5
 20
10.739168
 30
-0.05
 40
0.4999999999998295
210
0.0
220
0.0
230
-1.0
100
AcDbArc
 50
0.0
 51
45.0
  0
LINE
  5
6B4
330
70
100
AcDbEntity
  8
Visible
100
AcDbLine
 10
218.0
 20
7.00154
 30
0.05
 11
218.0
 21
10.739168
 31
0.05
  0
ARC
  5
6B5
330
70
100
AcDbEntity
  8
Visible
100
AcDbCircle
 10
-234.5
 20
37.196275
 30
-0.05
 40
0.5000000000000427
210
0.0
220
0.0
230
-1.0
100
AcDbArc
 50
90.0
 51
270.0
  0
LINE
  5
6B6
330
70
100
AcDbEntity
  8
Visible
100
AcDbLine
 10
230.5
 20
37.696275
 30
0.05
 11
234.5
 21
37.696275
 31
0.05
  0
ARC
  5
6B7
330
70
100
AcDbEntity
  8
Visible
100
AcDbCircle
 10
-230.5
 20
37.196275
 30
-0.05
 40
0.5000000000000427
210
0.0
220
0.0
230
-1.0
100
AcDbArc
 50
0.0
 51
90.0
  0
LINE
  5
6B8
330
70
100
AcDbEntity
  8
Visible
100
AcDbLine
 10
230.0
 20
21.696275
 30
0.05
 11
230.0
 21
37.196275
 31
0.05
  0
ARC
  5
6B9
330
70
100
AcDbEntity
  8
Visible
100
AcDbCircle
 10
-230.5
 20
21.696275
 30
-0.05
 40
0.5000000000001404
210
0.0
220
0.0
230
-1.0
100
AcDbArc
 50
270.0
 51
0.0
  0
LINE
  5
6BA
330
70
100
AcDbEntity
  8
Visible
100
AcDbLine
 10
234.5
 20
21.196275
 30
0.05
 11
230.5
 21
21.196275
 31
0.05
  0
ARC
  5
6BB
330
70
100
AcDbEntity
  8
Visible
100
AcDbCircle
 10
-234.5
 20
21.696275
 30
-0.05
 40
0.5000000000000427
210
0.0
220
0.0
230
-1.0
100
AcDbArc
 50
90.0
 51
270.0
  0
LINE
  5
6BC
330
70
100
AcDbEntity
  8
Visible
100
AcDbLine
 10
231.249841
 20
22.198388
 30
0.05
 11
234.5
 21
22.196275
 31
0.05
  0
ARC
  5
6BD
330
70
100
AcDbEntity
  8
Visible
100
AcDbCircle
 10
231.25
 20
22.448388
 30
0.05
 40
0.2499999999999858
100
AcDbArc
 50
180.0
 51
269.963598
  0
LINE
  5
6BE
330
70
100
AcDbEntity
  8
Visible
100
AcDbLine
 10
231.0
 20
36.196275
 30
0.05
 11
231.0
 21
22.448388
 31
0.05
  0
ARC
  5
6BF
330
70
100
AcDbEntity
  8
Visible
100
AcDbCircle
 10
231.5
 20
36.196275
 30
0.05
 40
0.5000000000000249
100
AcDbArc
 50
90.0
 51
180.0
  0
LINE
  5
6C0
330
70
100
AcDbEntity
  8
Visible
100
AcDbLine
 10
234.5
 20
36.696275
 30
0.05
 11
231.5
 21
36.696275
 31
0.05
  0
ARC
  5
6C1
330
70
100
AcDbEntity
  8
Visible
100
AcDbCircle
 10
231.235621
 20
187.44418
 30
0.05
 40
0.2500000000000924
100
AcDbArc
 50
90.0
 51
180.059966
  0
LINE
  5
6C2
330
70
100
AcDbEntity
  8
Visible
100
AcDbLine
 10
232.498116
 20
187.69418
 30
0.05
 11
231.235621
 21
187.69418
 31
0.05
  0
LINE
  5
6C3
330
70
100
AcDbEntity
  8
Visible
100
AcDbLine
 10
234.5
 20
187.696275
 30
0.05
 11
232.498116
 21
187.69418
 31
0.05
  0
ARC
  5
6C4
330
70
100
AcDbEntity
  8
Visible
100
AcDbCircle
 10
-234.5
 20
188.196275
 30
-0.05
 40
0.4999999999999716
210
0.0
220
0.0
230
-1.0
100
AcDbArc
 50
90.0
 51
270.0
  0
LINE
  5
6C5
330
70
100
AcDbEntity
  8
Visible
100
AcDbLine
 10
230.5
 20
188.696275
 30
0.05
 11
234.5
 21
188.696275
 31
0.05
  0
ARC
  5
6C6
330
70
100
AcDbEntity
  8
Visible
100
AcDbCircle
 10
-230.5
 20
188.196275
 30
-0.05
 40
0.5000000000000427
210
0.0
220
0.0
230
-1.0
100
AcDbArc
 50
0.0
 51
90.0
  0
LINE
  5
6C7
330
70
100
AcDbEntity
  8
Visible
100
AcDbLine
 10
230.0
 20
172.696275
 30
0.05
 11
230.0
 21
188.196275
 31
0.05
  0
ARC
  5
6C8
330
70
100
AcDbEntity
  8
Visible
100
AcDbCircle
 10
-230.5
 20
172.696275
 30
-0.05
 40
0.4999999999998295
210
0.0
220
0.0
230
-1.0
100
AcDbArc
 50
270.0
 51
0.0
  0
LINE
  5
6C9
330
70
100
AcDbEntity
  8
Visible
100
AcDbLine
 10
234.5
 20
172.196275
 30
0.05
 11
230.5
 21
172.196275
 31
0.05
  0
ARC
  5
6CA
330
70
100
AcDbEntity
  8
Visible
100
AcDbCircle
 10
-234.5
 20
172.696275
 30
-0.05
 40
0.4999999999999716
210
0.0
220
0.0
230
-1.0
100
AcDbArc
 50
90.0
 51
270.0
  0
LINE
  5
6CB
330
70
100
AcDbEntity
  8
Visible
100
AcDbLine
 10
231.500016
 20
173.205281
 30
0.05
 11
234.5
 21
173.196275
 31
0.05
  0
ARC
  5
6CC
330
70
100
AcDbEntity
  8
Visible
100
AcDbCircle
 10
231.5
 20
173.705281
 30
0.05
 40
0.4999999999999007
100
AcDbArc
 50
179.975787
 51
270.001827
  0
LINE
  5
6CD
330
70
100
AcDbEntity
  8
Visible
100
AcDbLine
 10
230.985621
 20
187.443918
 30
0.05
 11
231.0
 21
173.705493
 31
0.05
  0
ARC
  5
6CE
330
70
100
AcDbEntity
  8
Visible
100
AcDbCircle
 10
-252.5
 20
172.696275
 30
-0.05
 40
0.5000000000001137
210
0.0
220
0.0
230
-1.0
100
AcDbArc
 50
180.0
 51
270.0
  0
LINE
  5
6CF
330
70
100
AcDbEntity
  8
Visible
100
AcDbLine
 10
253.0
 20
188.196275
 30
0.05
 11
253.0
 21
172.696275
 31
0.05
  0
ARC
  5
6D0
330
70
100
AcDbEntity
  8
Visible
100
AcDbCircle
 10
-252.5
 20
188.196275
 30
-0.05
 40
0.5000000000000782
210
0.0
220
0.0
230
-1.0
100
AcDbArc
 50
90.0
 51
180.0
  0
LINE
  5
6D1
330
70
100
AcDbEntity
  8
Visible
100
AcDbLine
 10
248.5
 20
188.696275
 30
0.05
 11
252.5
 21
188.696275
 31
0.05
  0
ARC
  5
6D2
330
70
100
AcDbEntity
  8
Visible
100
AcDbCircle
 10
-248.5
 20
188.196275
 30
-0.05
 40
0.5000000000000427
210
0.0
220
0.0
230
-1.0
100
AcDbArc
 50
270.0
 51
90.0
  0
LINE
  5
6D3
330
70
100
AcDbEntity
  8
Visible
100
AcDbLine
 10
251.5
 20
187.696275
 30
0.05
 11
248.5
 21
187.696275
 31
0.05
  0
ARC
  5
6D4
330
70
100
AcDbEntity
  8
Visible
100
AcDbCircle
 10
251.5
 20
187.196275
 30
0.05
 40
0.4999999999999716
100
AcDbArc
 50
0.0
 51
90.0
  0
LINE
  5
6D5
330
70
100
AcDbEntity
  8
Visible
100
AcDbLine
 10
252.0
 20
173.696275
 30
0.05
 11
252.0
 21
187.196275
 31
0.05
  0
ARC
  5
6D6
330
70
100
AcDbEntity
  8
Visible
100
AcDbCircle
 10
251.5
 20
173.696275
 30
0.05
 40
0.5000000000000427
100
AcDbArc
 50
270.0
 51
0.0
  0
LINE
  5
6D7
330
70
100
AcDbEntity
  8
Visible
100
AcDbLine
 10
248.5
 20
173.196275
 30
0.05
 11
251.5
 21
173.196275
 31
0.05
  0
ARC
  5
6D8
330
70
100
AcDbEntity
  8
Visible
100
AcDbCircle
 10
-248.5
 20
172.696275
 30
-0.05
 40
0.4999999999999716
210
0.0
220
0.0
230
-1.0
100
AcDbArc
 50
270.0
 51
90.0
  0
LINE
  5
6D9
330
70
100
AcDbEntity
  8
Visible
100
AcDbLine
 10
252.5
 20
172.196275
 30
0.05
 11
248.5
 21
172.196275
 31
0.05
  0
ARC
  5
6DA
330
70
100
AcDbEntity
  8
Visible
100
AcDbCircle
 10
-248.5
 20
37.196275
 30
-0.05
 40
0.5000000000000427
210
0.0
220
0.0
230
-1.0
100
AcDbArc
 50
270.0
 51
90.0
  0
LINE
  5
6DB
330
70
100
AcDbEntity
  8
Visible
100
AcDbLine
 10
251.5
 20
36.696275
 30
0.05
 11
248.5
 21
36.696275
 31
0.05
  0
ARC
  5
6DC
330
70
100
AcDbEntity
  8
Visible
100
AcDbCircle
 10
251.5
 20
36.196275
 30
0.05
 40
0.4999999999999716
100
AcDbArc
 50
0.0
 51
90.0
  0
LINE
  5
6DD
330
70
100
AcDbEntity
  8
Visible
100
AcDbLine
 10
252.0
 20
22.696275
 30
0.05
 11
252.0
 21
36.196275
 31
0.05
  0
ARC
  5
6DE
330
70
100
AcDbEntity
  8
Visible
100
AcDbCircle
 10
251.5
 20
22.696275
 30
0.05
 40
0.5000000000000249
100
AcDbArc
 50
270.0
 51
0.0
  0
LINE
  5
6DF
330
70
100
AcDbEntity
  8
Visible
100
AcDbLine
 10
248.5
 20
22.196275
 30
0.05
 11
251.5
 21
22.196275
 31
0.05
  0
ARC
  5
6E0
330
70
100
AcDbEntity
  8
Visible
100
AcDbCircle
 10
-248.5
 20
21.696275
 30
-0.05
 40
0.4999999999999716
210
0.0
220
0.0
230
-1.0
100
AcDbArc
 50
270.0
 51
90.0
  0
LINE
  5
6E1
330
70
100
AcDbEntity
  8
Visible
100
AcDbLine
 10
252.5
 20
21.196275
 30
0.05
 11
248.5
 21
21.196275
 31
0.05
  0
ARC
  5
6E2
330
70
100
AcDbEntity
  8
Visible
100
AcDbCircle
 10
-252.5
 20
21.696275
 30
-0.05
 40
0.5000000000001137
210
0.0
220
0.0
230
-1.0
100
AcDbArc
 50
180.0
 51
270.0
  0
LINE
  5
6E3
330
70
100
AcDbEntity
  8
Visible
100
AcDbLine
 10
253.0
 20
37.196275
 30
0.05
 11
253.0
 21
21.696275
 31
0.05
  0
ARC
  5
6E4
330
70
100
AcDbEntity
  8
Visible
100
AcDbCircle
 10
-252.5
 20
37.196275
 30
-0.05
 40
0.4999999999998917
210
0.0
220
0.0
230
-1.0
100
AcDbArc
 50
90.0
 51
180.0
  0
LINE
  5
6E5
330
70
100
AcDbEntity
  8
Visible
100
AcDbLine
 10
248.5
 20
37.696275
 30
0.05
 11
252.5
 21
37.696275
 31
0.05
  0
ARC
  5
6E6
330
70
100
AcDbEntity
  8
Visible
100
AcDbCircle
 10
-250.248778
 20
6.946276
 30
-0.05
 40
1.249999999999991
210
0.0
220
0.0
230
-1.0
100
AcDbArc
 50
78.520214
 51
2.533956
  0
LINE
  5
6E7
330
70
100
AcDbEntity
  8
Visible
100
AcDbLine
 10
250.0
 20
10.739168
 30
0.05
 11
250.0
 21
8.171269
 31
0.05
  0
ARC
  5
6E8
330
70
100
AcDbEntity
  8
Visible
100
AcDbCircle
 10
250.5
 20
10.739168
 30
0.05
 40
0.5000000000002501
100
AcDbArc
 50
135.0
 51
180.0
  0
LINE
  5
6E9
330
70
100
AcDbEntity
  8
Visible
100
AcDbLine
 10
254.792893
 20
15.739168
 30
0.05
 11
250.146447
 21
11.092722
 31
0.05
  0
ARC
  5
6EA
330
70
100
AcDbEntity
  8
Visible
100
AcDbCircle
 10
255.5
 20
15.032062
 30
0.05
 40
0.9999999999999431
100
AcDbArc
 50
0.0
 51
135.0
  0
LINE
  5
6EB
330
70
100
AcDbEntity
  8
Visible
100
AcDbLine
 10
256.5
 20
4.946275
 30
0.05
 11
256.5
 21
15.032062
 31
0.05
  0
ARC
  5
6EC
330
70
100
AcDbEntity
  8
Visible
100
AcDbCircle
 10
251.5
 20
4.946275
 30
0.05
 40
5.00000000000003
100
AcDbArc
 50
270.0
 51
0.0
  0
LINE
  5
6ED
330
70
100
AcDbEntity
  8
Visible
100
AcDbLine
 10
231.5
 20
-0.053725
 30
0.05
 11
251.5
 21
-0.053725
 31
0.05
  0
ARC
  5
6EE
330
70
100
AcDbEntity
  8
Visible
100
AcDbCircle
 10
231.5
 20
4.946275
 30
0.05
 40
5.000000000000142
100
AcDbArc
 50
180.0
 51
270.0
  0
LINE
  5
6EF
330
70
100
AcDbEntity
  8
Visible
100
AcDbLine
 10
226.5
 20
15.032062
 30
0.05
 11
226.5
 21
4.946275
 31
0.05
  0
ARC
  5
6F0
330
70
100
AcDbEntity
  8
Visible
100
AcDbCircle
 10
227.5
 20
15.032062
 30
0.05
 40
1.00000000000007
100
AcDbArc
 50
45.0
 51
180.0
  0
LINE
  5
6F1
330
70
100
AcDbEntity
  8
Visible
100
AcDbLine
 10
232.853553
 20
11.092722
 30
0.05
 11
228.207107
 21
15.739168
 31
0.05
  0
ARC
  5
6F2
330
70
100
AcDbEntity
  8
Visible
100
AcDbCircle
 10
232.5
 20
10.739168
 30
0.05
 40
0.4999999999997585
100
AcDbArc
 50
0.0
 51
45.0
  0
LINE
  5
6F3
330
70
100
AcDbEntity
  8
Visible
100
AcDbLine
 10
233.0
 20
8.171021
 30
0.05
 11
233.0
 21
10.739168
 31
0.05
  0
ARC
  5
6F4
330
70
100
AcDbEntity
  8
Visible
100
AcDbCircle
 10
-232.75
 20
6.946276
 30
-0.05
 40
1.249999999999959
210
0.0
220
0.0
230
-1.0
100
AcDbArc
 50
180.000023
 51
101.536959
  0
LINE
  5
6F5
330
70
100
AcDbEntity
  8
Visible
100
AcDbLine
 10
234.0
 20
10.739168
 30
0.05
 11
234.0
 21
6.946275
 31
0.05
  0
ARC
  5
6F6
330
70
100
AcDbEntity
  8
Visible
100
AcDbCircle
 10
-233.5
 20
10.739168
 30
-0.05
 40
0.5000000000000241
210
0.0
220
0.0
230
-1.0
100
AcDbArc
 50
135.0
 51
180.0
  0
LINE
  5
6F7
330
70
100
AcDbEntity
  8
Visible
100
AcDbLine
 10
226.792893
 20
18.153382
 30
0.05
 11
233.853553
 21
11.092722
 31
0.05
  0
ARC
  5
6F8
330
70
100
AcDbEntity
  8
Visible
100
AcDbCircle
 10
227.5
 20
18.860489
 30
0.05
 40
1.000000000000227
100
AcDbArc
 50
180.0
 51
225.0
  0
LINE
  5
6F9
330
70
100
AcDbEntity
  8
Visible
100
AcDbLine
 10
226.5
 20
191.032062
 30
0.05
 11
226.5
 21
18.860489
 31
0.05
  0
ARC
  5
6FA
330
70
100
AcDbEntity
  8
Visible
100
AcDbCircle
 10
227.5
 20
191.032062
 30
0.05
 40
1.000000000000023
100
AcDbArc
 50
135.0
 51
180.0
  0
LINE
  5
6FB
330
70
100
AcDbEntity
  8
Visible
100
AcDbLine
 10
233.853553
 20
198.799829
 30
0.05
 11
226.792893
 21
191.739168
 31
0.05
  0
ARC
  5
6FC
330
70
100
AcDbEntity
  8
Visible
100
AcDbCircle
 10
-233.5
 20
199.153382
 30
-0.05
 40
0.4999999999999006
210
0.0
220
0.0
230
-1.0
100
AcDbArc
 50
180.0
 51
225.0
  0
LINE
  5
6FD
330
70
100
AcDbEntity
  8
Visible
100
AcDbLine
 10
234.0
 20
202.946275
 30
0.05
 11
234.0
 21
199.153382
 31
0.05
  0
ARC
  5
6FE
330
70
100
AcDbEntity
  8
Visible
100
AcDbCircle
 10
-232.75
 20
202.946275
 30
-0.05
 40
1.249999999999987
210
0.0
220
0.0
230
-1.0
100
AcDbArc
 50
258.463041
 51
180.0
  0
LINE
  5
6FF
330
70
100
AcDbEntity
  8
Visible
100
AcDbLine
 10
233.0
 20
199.153382
 30
0.05
 11
233.0
 21
201.72153
 31
0.05
  0
ARC
  5
700
330
70
100
AcDbEntity
  8
Visible
100
AcDbCircle
 10
232.5
 20
199.153382
 30
0.05
 40
0.5000000000000492
100
AcDbArc
 50
315.0
 51
0.0
  0
LINE
  5
701
330
70
100
AcDbEntity
  8
Visible
100
AcDbLine
 10
228.207107
 20
194.153382
 30
0.05
 11
232.853553
 21
198.799829
 31
0.05
  0
ARC
  5
702
330
70
100
AcDbEntity
  8
Visible
100
AcDbCircle
 10
227.5
 20
194.860489
 30
0.05
 40
1.000000000000085
100
AcDbArc
 50
180.0
 51
315.0
  0
LINE
  5
703
330
70
100
AcDbEntity
  8
Visible
100
AcDbLine
 10
226.5
 20
204.946275
 30
0.05
 11
226.5
 21
194.860489
 31
0.05
  0
ARC
  5
704
330
70
100
AcDbEntity
  8
Visible
100
AcDbCircle
 10
231.5
 20
204.946275
 30
0.05
 40
5.000000010148694
100
AcDbArc
 50
90.007003
 51
180.0
  0
LINE
  5
705
330
70
100
AcDbEntity
  8
Visible
100
AcDbLine
 10
251.499389
 20
209.946275
 30
0.05
 11
231.499389
 21
209.946275
 31
0.05
  0
ARC
  5
706
330
70
100
AcDbEntity
  8
Visible
100
AcDbCircle
 10
251.5
 20
204.946275
 30
0.05
 40
4.999999999999857
100
AcDbArc
 50
0.0
 51
90.007003
  0
LINE
  5
707
330
70
100
AcDbEntity
  8
Visible
100
AcDbLine
 10
256.5
 20
194.860489
 30
0.05
 11
256.5
 21
204.946275
 31
0.05
  0
ARC
  5
708
330
70
100
AcDbEntity
  8
Visible
100
AcDbCircle
 10
255.5
 20
194.860489
 30
0.05
 40
1.000000000000023
100
AcDbArc
 50
225.0
 51
0.0
  0
LINE
  5
709
330
70
100
AcDbEntity
  8
Visible
100
AcDbLine
 10
250.146447
 20
198.799829
 30
0.05
 11
254.792893
 21
194.153382
 31
0.05
  0
ARC
  5
70A
330
70
100
AcDbEntity
  8
Visible
100
AcDbCircle
 10
250.5
 20
199.153382
 30
0.05
 40
0.4999999999999716
100
AcDbArc
 50
180.0
 51
225.0
  0
LINE
  5
70B
330
70
100
AcDbEntity
  8
Visible
100
AcDbLine
 10
250.0
 20
201.721281
 30
0.05
 11
250.0
 21
199.153382
 31
0.05
  0
ARC
  5
70C
330
70
100
AcDbEntity
  8
Visible
100
AcDbCircle
 10
-250.248778
 20
202.946275
 30
-0.05
 40
1.250000000000024
210
0.0
220
0.0
230
-1.0
100
AcDbArc
 50
357.466044
 51
281.479786
  0
LINE
  5
70D
330
70
100
AcDbEntity
  8
Visible
100
AcDbLine
 10
249.0
 20
199.153382
 30
0.05
 11
249.0
 21
202.891011
 31
0.05
  0
ARC
  5
70E
330
70
100
AcDbEntity
  8
Visible
100
AcDbCircle
 10
-249.5
 20
199.153382
 30
-0.05
 40
0.4999999999999237
210
0.0
220
0.0
230
-1.0
100
AcDbArc
 50
315.0
 51
0.0
  0
LINE
  5
70F
330
70
100
AcDbEntity
  8
Visible
100
AcDbLine
 10
256.207107
 20
191.739168
 30
0.05
 11
249.146447
 21
198.799829
 31
0.05
  0
ARC
  5
710
330
70
100
AcDbEntity
  8
Visible
100
AcDbCircle
 10
255.5
 20
191.032062
 30
0.05
 40
1.000000000000322
100
AcDbArc
 50
0.000013
 51
45.0
  0
LINE
  5
711
330
70
100
AcDbEntity
  8
Visible
100
AcDbLine
 10
256.5
 20
18.860489
 30
0.05
 11
256.5
 21
191.032062
 31
0.05
  0
ARC
  5
712
330
70
100
AcDbEntity
  8
Visible
100
AcDbCircle
 10
255.5
 20
18.860489
 30
0.05
 40
1.000000000000126
100
AcDbArc
 50
315.0
 51
0.000016
  0
LINE
  5
713
330
70
100
AcDbEntity
  8
Visible
100
AcDbLine
 10
249.146447
 20
11.092722
 30
0.05
 11
256.207107
 21
18.153382
 31
0.05
  0
ARC
  5
714
330
70
100
AcDbEntity
  8
Visible
100
AcDbCircle
 10
-249.5
 20
10.739168
 30
-0.05
 40
0.4999999999998295
210
0.0
220
0.0
230
-1.0
100
AcDbArc
 50
0.0
 51
45.0
  0
LINE
  5
715
330
70
100
AcDbEntity
  8
Visible
100
AcDbLine
 10
249.0
 20
7.00154
 30
0.05
 11
249.0
 21
10.739168
 31
0.05
  0
ARC
  5
716
330
70
100
AcDbEntity
  8
Visible
100
AcDbCircle
 10
-265.5
 20
37.196275
 30
-0.05
 40
0.5000000000000427
210
0.0
220
0.0
230
-1.0
100
AcDbArc
 50
90.0
 51
270.0
  0
LINE
  5
717
330
70
100
AcDbEntity
  8
Visible
100
AcDbLine
 10
261.5
 20
37.696275
 30
0.05
 11
265.5
 21
37.696275
 31
0.05
  0
ARC
  5
718
330
70
100
AcDbEntity
  8
Visible
100
AcDbCircle
 10
-261.5
 20
37.196275
 30
-0.05
 40
0.5000000000000427
210
0.0
220
0.0
230
-1.0
100
AcDbArc
 50
0.0
 51
90.0
  0
LINE
  5
719
330
70
100
AcDbEntity
  8
Visible
100
AcDbLine
 10
261.0
 20
21.696275
 30
0.05
 11
261.0
 21
37.196275
 31
0.05
  0
ARC
  5
71A
330
70
100
AcDbEntity
  8
Visible
100
AcDbCircle
 10
-261.5
 20
21.696275
 30
-0.05
 40
0.5000000000001359
210
0.0
220
0.0
230
-1.0
100
AcDbArc
 50
270.0
 51
0.0
  0
LINE
  5
71B
330
70
100
AcDbEntity
  8
Visible
100
AcDbLine
 10
265.5
 20
21.196275
 30
0.05
 11
261.5
 21
21.196275
 31
0.05
  0
ARC
  5
71C
330
70
100
AcDbEntity
  8
Visible
100
AcDbCircle
 10
-265.5
 20
21.696275
 30
-0.05
 40
0.5000000000000427
210
0.0
220
0.0
230
-1.0
100
AcDbArc
 50
90.0
 51
270.0
  0
LINE
  5
71D
330
70
100
AcDbEntity
  8
Visible
100
AcDbLine
 10
262.249841
 20
22.198388
 30
0.05
 11
265.5
 21
22.196275
 31
0.05
  0
ARC
  5
71E
330
70
100
AcDbEntity
  8
Visible
100
AcDbCircle
 10
262.25
 20
22.448388
 30
0.05
 40
0.2499999999999858
100
AcDbArc
 50
180.0
 51
269.963598
  0
LINE
  5
71F
330
70
100
AcDbEntity
  8
Visible
100
AcDbLine
 10
262.0
 20
36.196275
 30
0.05
 11
262.0
 21
22.448388
 31
0.05
  0
ARC
  5
720
330
70
100
AcDbEntity
  8
Visible
100
AcDbCircle
 10
262.5
 20
36.196275
 30
0.05
 40
0.5000000000000249
100
AcDbArc
 50
90.0
 51
180.0
  0
LINE
  5
721
330
70
100
AcDbEntity
  8
Visible
100
AcDbLine
 10
265.5
 20
36.696275
 30
0.05
 11
262.5
 21
36.696275
 31
0.05
  0
ARC
  5
722
330
70
100
AcDbEntity
  8
Visible
100
AcDbCircle
 10
262.235621
 20
187.44418
 30
0.05
 40
0.2500000000000568
100
AcDbArc
 50
90.0
 51
180.059966
  0
LINE
  5
723
330
70
100
AcDbEntity
  8
Visible
100
AcDbLine
 10
263.498116
 20
187.69418
 30
0.05
 11
262.235621
 21
187.69418
 31
0.05
  0
LINE
  5
724
330
70
100
AcDbEntity
  8
Visible
100
AcDbLine
 10
265.5
 20
187.696275
 30
0.05
 11
263.498116
 21
187.69418
 31
0.05
  0
ARC
  5
725
330
70
100
AcDbEntity
  8
Visible
100
AcDbCircle
 10
-265.5
 20
188.196275
 30
-0.05
 40
0.4999999999999716
210
0.0
220
0.0
230
-1.0
100
AcDbArc
 50
90.0
 51
270.0
  0
LINE
  5
726
330
70
100
AcDbEntity
  8
Visible
100
AcDbLine
 10
261.5
 20
188.696275
 30
0.05
 11
265.5
 21
188.696275
 31
0.05
  0
ARC
  5
727
330
70
100
AcDbEntity
  8
Visible
100
AcDbCircle
 10
-261.5
 20
188.196275
 30
-0.05
 40
0.5000000000000427
210
0.0
220
0.0
230
-1.0
100
AcDbArc
 50
0.0
 51
90.0
  0
LINE
  5
728
330
70
100
AcDbEntity
  8
Visible
100
AcDbLine
 10
261.0
 20
172.696275
 30
0.05
 11
261.0
 21
188.196275
 31
0.05
  0
ARC
  5
729
330
70
100
AcDbEntity
  8
Visible
100
AcDbCircle
 10
-261.5
 20
172.696275
 30
-0.05
 40
0.4999999999998295
210
0.0
220
0.0
230
-1.0
100
AcDbArc
 50
270.0
 51
0.0
  0
LINE
  5
72A
330
70
100
AcDbEntity
  8
Visible
100
AcDbLine
 10
265.5
 20
172.196275
 30
0.05
 11
261.5
 21
172.196275
 31
0.05
  0
ARC
  5
72B
330
70
100
AcDbEntity
  8
Visible
100
AcDbCircle
 10
-265.5
 20
172.696275
 30
-0.05
 40
0.4999999999999716
210
0.0
220
0.0
230
-1.0
100
AcDbArc
 50
90.0
 51
270.0
  0
LINE
  5
72C
330
70
100
AcDbEntity
  8
Visible
100
AcDbLine
 10
262.500016
 20
173.205281
 30
0.05
 11
265.5
 21
173.196275
 31
0.05
  0
ARC
  5
72D
330
70
100
AcDbEntity
  8
Visible
100
AcDbCircle
 10
262.5
 20
173.705281
 30
0.05
 40
0.4999999999999007
100
AcDbArc
 50
179.975787
 51
270.001827
  0
LINE
  5
72E
330
70
100
AcDbEntity
  8
Visible
100
AcDbLine
 10
261.985621
 20
187.443918
 30
0.05
 11
262.0
 21
173.705493
 31
0.05
  0
ARC
  5
72F
330
70
100
AcDbEntity
  8
Visible
100
AcDbCircle
 10
-283.5
 20
172.696275
 30
-0.05
 40
0.5000000000001137
210
0.0
220
0.0
230
-1.0
100
AcDbArc
 50
180.0
 51
270.0
  0
LINE
  5
730
330
70
100
AcDbEntity
  8
Visible
100
AcDbLine
 10
284.0
 20
188.196275
 30
0.05
 11
284.0
 21
172.696275
 31
0.05
  0
ARC
  5
731
330
70
100
AcDbEntity
  8
Visible
100
AcDbCircle
 10
-283.5
 20
188.196275
 30
-0.05
 40
0.5000000000000782
210
0.0
220
0.0
230
-1.0
100
AcDbArc
 50
90.0
 51
180.0
  0
LINE
  5
732
330
70
100
AcDbEntity
  8
Visible
100
AcDbLine
 10
279.5
 20
188.696275
 30
0.05
 11
283.5
 21
188.696275
 31
0.05
  0
ARC
  5
733
330
70
100
AcDbEntity
  8
Visible
100
AcDbCircle
 10
-279.5
 20
188.196275
 30
-0.05
 40
0.5000000000000427
210
0.0
220
0.0
230
-1.0
100
AcDbArc
 50
270.0
 51
90.0
  0
LINE
  5
734
330
70
100
AcDbEntity
  8
Visible
100
AcDbLine
 10
282.5
 20
187.696275
 30
0.05
 11
279.5
 21
187.696275
 31
0.05
  0
ARC
  5
735
330
70
100
AcDbEntity
  8
Visible
100
AcDbCircle
 10
282.5
 20
187.196275
 30
0.05
 40
0.4999999999999716
100
AcDbArc
 50
0.0
 51
90.0
  0
LINE
  5
736
330
70
100
AcDbEntity
  8
Visible
100
AcDbLine
 10
283.0
 20
173.696275
 30
0.05
 11
283.0
 21
187.196275
 31
0.05
  0
ARC
  5
737
330
70
100
AcDbEntity
  8
Visible
100
AcDbCircle
 10
282.5
 20
173.696275
 30
0.05
 40
0.5000000000000782
100
AcDbArc
 50
270.0
 51
0.0
  0
LINE
  5
738
330
70
100
AcDbEntity
  8
Visible
100
AcDbLine
 10
279.5
 20
173.196275
 30
0.05
 11
282.5
 21
173.196275
 31
0.05
  0
ARC
  5
739
330
70
100
AcDbEntity
  8
Visible
100
AcDbCircle
 10
-279.5
 20
172.696275
 30
-0.05
 40
0.4999999999999716
210
0.0
220
0.0
230
-1.0
100
AcDbArc
 50
270.0
 51
90.0
  0
LINE
  5
73A
330
70
100
AcDbEntity
  8
Visible
100
AcDbLine
 10
283.5
 20
172.196275
 30
0.05
 11
279.5
 21
172.196275
 31
0.05
  0
ARC
  5
73B
330
70
100
AcDbEntity
  8
Visible
100
AcDbCircle
 10
-279.5
 20
37.196275
 30
-0.05
 40
0.5000000000000427
210
0.0
220
0.0
230
-1.0
100
AcDbArc
 50
270.0
 51
90.0
  0
LINE
  5
73C
330
70
100
AcDbEntity
  8
Visible
100
AcDbLine
 10
282.5
 20
36.696275
 30
0.05
 11
279.5
 21
36.696275
 31
0.05
  0
ARC
  5
73D
330
70
100
AcDbEntity
  8
Visible
100
AcDbCircle
 10
282.5
 20
36.196275
 30
0.05
 40
0.4999999999999716
100
AcDbArc
 50
0.0
 51
90.0
  0
LINE
  5
73E
330
70
100
AcDbEntity
  8
Visible
100
AcDbLine
 10
283.0
 20
22.696275
 30
0.05
 11
283.0
 21
36.196275
 31
0.05
  0
ARC
  5
73F
330
70
100
AcDbEntity
  8
Visible
100
AcDbCircle
 10
282.5
 20
22.696275
 30
0.05
 40
0.5000000000000249
100
AcDbArc
 50
270.0
 51
0.0
  0
LINE
  5
740
330
70
100
AcDbEntity
  8
Visible
100
AcDbLine
 10
279.5
 20
22.196275
 30
0.05
 11
282.5
 21
22.196275
 31
0.05
  0
ARC
  5
741
330
70
100
AcDbEntity
  8
Visible
100
AcDbCircle
 10
-279.5
 20
21.696275
 30
-0.05
 40
0.4999999999999716
210
0.0
220
0.0
230
-1.0
100
AcDbArc
 50
270.0
 51
90.0
  0
LINE
  5
742
330
70
100
AcDbEntity
  8
Visible
100
AcDbLine
 10
283.5
 20
21.196275
 30
0.05
 11
279.5
 21
21.196275
 31
0.05
  0
ARC
  5
743
330
70
100
AcDbEntity
  8
Visible
100
AcDbCircle
 10
-283.5
 20
21.696275
 30
-0.05
 40
0.5000000000001137
210
0.0
220
0.0
230
-1.0
100
AcDbArc
 50
180.0
 51
270.0
  0
LINE
  5
744
330
70
100
AcDbEntity
  8
Visible
100
AcDbLine
 10
284.0
 20
37.196275
 30
0.05
 11
284.0
 21
21.696275
 31
0.05
  0
ARC
  5
745
330
70
100
AcDbEntity
  8
Visible
100
AcDbCircle
 10
-283.5
 20
37.196275
 30
-0.05
 40
0.4999999999998961
210
0.0
220
0.0
230
-1.0
100
AcDbArc
 50
90.0
 51
180.0
  0
LINE
  5
746
330
70
100
AcDbEntity
  8
Visible
100
AcDbLine
 10
279.5
 20
37.696275
 30
0.05
 11
283.5
 21
37.696275
 31
0.05
  0
ARC
  5
747
330
70
100
AcDbEntity
  8
Visible
100
AcDbCircle
 10
-281.248778
 20
6.946276
 30
-0.05
 40
1.249999999999993
210
0.0
220
0.0
230
-1.0
100
AcDbArc
 50
78.520214
 51
2.533956
  0
LINE
  5
748
330
70
100
AcDbEntity
  8
Visible
100
AcDbLine
 10
281.0
 20
10.739168
 30
0.05
 11
281.0
 21
8.171269
 31
0.05
  0
ARC
  5
749
330
70
100
AcDbEntity
  8
Visible
100
AcDbCircle
 10
281.5
 20
10.739168
 30
0.05
 40
0.5000000000002518
100
AcDbArc
 50
135.0
 51
180.0
  0
LINE
  5
74A
330
70
100
AcDbEntity
  8
Visible
100
AcDbLine
 10
285.792893
 20
15.739168
 30
0.05
 11
281.146447
 21
11.092722
 31
0.05
  0
ARC
  5
74B
330
70
100
AcDbEntity
  8
Visible
100
AcDbCircle
 10
286.5
 20
15.032062
 30
0.05
 40
0.9999999999999431
100
AcDbArc
 50
0.0
 51
135.0
  0
LINE
  5
74C
330
70
100
AcDbEntity
  8
Visible
100
AcDbLine
 10
287.5
 20
4.946275
 30
0.05
 11
287.5
 21
15.032062
 31
0.05
  0
ARC
  5
74D
330
70
100
AcDbEntity
  8
Visible
100
AcDbCircle
 10
282.5
 20
4.946275
 30
0.05
 40
5.000000000000028
100
AcDbArc
 50
270.0
 51
0.0
  0
LINE
  5
74E
330
70
100
AcDbEntity
  8
Visible
100
AcDbLine
 10
262.5
 20
-0.053725
 30
0.05
 11
282.5
 21
-0.053725
 31
0.05
  0
ARC
  5
74F
330
70
100
AcDbEntity
  8
Visible
100
AcDbCircle
 10
262.5
 20
4.946275
 30
0.05
 40
5.000000000000142
100
AcDbArc
 50
180.0
 51
270.0
  0
LINE
  5
750
330
70
100
AcDbEntity
  8
Visible
100
AcDbLine
 10
257.5
 20
15.032062
 30
0.05
 11
257.5
 21
4.946275
 31
0.05
  0
ARC
  5
751
330
70
100
AcDbEntity
  8
Visible
100
AcDbCircle
 10
258.5
 20
15.032062
 30
0.05
 40
1.00000000000007
100
AcDbArc
 50
45.0
 51
180.0
  0
LINE
  5
752
330
70
100
AcDbEntity
  8
Visible
100
AcDbLine
 10
263.853553
 20
11.092722
 30
0.05
 11
259.207107
 21
15.739168
 31
0.05
  0
ARC
  5
753
330
70
100
AcDbEntity
  8
Visible
100
AcDbCircle
 10
263.5
 20
10.739168
 30
0.05
 40
0.4999999999997585
100
AcDbArc
 50
0.0
 51
45.0
  0
LINE
  5
754
330
70
100
AcDbEntity
  8
Visible
100
AcDbLine
 10
264.0
 20
8.17102
 30
0.05
 11
264.0
 21
10.739168
 31
0.05
  0
ARC
  5
755
330
70
100
AcDbEntity
  8
Visible
100
AcDbCircle
 10
-263.75
 20
6.946276
 30
-0.05
 40
1.25000000000003
210
0.0
220
0.0
230
-1.0
100
AcDbArc
 50
180.000023
 51
101.536959
  0
LINE
  5
756
330
70
100
AcDbEntity
  8
Visible
100
AcDbLine
 10
265.0
 20
10.739168
 30
0.05
 11
265.0
 21
6.946275
 31
0.05
  0
ARC
  5
757
330
70
100
AcDbEntity
  8
Visible
100
AcDbCircle
 10
-264.5
 20
10.739168
 30
-0.05
 40
0.5000000000000274
210
0.0
220
0.0
230
-1.0
100
AcDbArc
 50
135.0
 51
180.0
  0
LINE
  5
758
330
70
100
AcDbEntity
  8
Visible
100
AcDbLine
 10
257.792893
 20
18.153382
 30
0.05
 11
264.853553
 21
11.092722
 31
0.05
  0
ARC
  5
759
330
70
100
AcDbEntity
  8
Visible
100
AcDbCircle
 10
258.5
 20
18.860489
 30
0.05
 40
1.000000000000227
100
AcDbArc
 50
180.0
 51
225.0
  0
LINE
  5
75A
330
70
100
AcDbEntity
  8
Visible
100
AcDbLine
 10
257.5
 20
191.032062
 30
0.05
 11
257.5
 21
18.860489
 31
0.05
  0
ARC
  5
75B
330
70
100
AcDbEntity
  8
Visible
100
AcDbCircle
 10
258.5
 20
191.032062
 30
0.05
 40
1.000000000000073
100
AcDbArc
 50
135.0
 51
180.0
  0
LINE
  5
75C
330
70
100
AcDbEntity
  8
Visible
100
AcDbLine
 10
264.853553
 20
198.799828
 30
0.05
 11
257.792893
 21
191.739168
 31
0.05
  0
ARC
  5
75D
330
70
100
AcDbEntity
  8
Visible
100
AcDbCircle
 10
-264.5
 20
199.153382
 30
-0.05
 40
0.4999999999999006
210
0.0
220
0.0
230
-1.0
100
AcDbArc
 50
180.0
 51
225.0
  0
LINE
  5
75E
330
70
100
AcDbEntity
  8
Visible
100
AcDbLine
 10
265.0
 20
202.946275
 30
0.05
 11
265.0
 21
199.153382
 31
0.05
  0
ARC
  5
75F
330
70
100
AcDbEntity
  8
Visible
100
AcDbCircle
 10
-263.75
 20
202.946275
 30
-0.05
 40
1.249999999999952
210
0.0
220
0.0
230
-1.0
100
AcDbArc
 50
258.463041
 51
180.0
  0
LINE
  5
760
330
70
100
AcDbEntity
  8
Visible
100
AcDbLine
 10
264.0
 20
199.153382
 30
0.05
 11
264.0
 21
201.72153
 31
0.05
  0
ARC
  5
761
330
70
100
AcDbEntity
  8
Visible
100
AcDbCircle
 10
263.5
 20
199.153382
 30
0.05
 40
0.5000000000001246
100
AcDbArc
 50
315.0
 51
0.0
  0
LINE
  5
762
330
70
100
AcDbEntity
  8
Visible
100
AcDbLine
 10
259.207107
 20
194.153382
 30
0.05
 11
263.853553
 21
198.799828
 31
0.05
  0
ARC
  5
763
330
70
100
AcDbEntity
  8
Visible
100
AcDbCircle
 10
258.5
 20
194.860489
 30
0.05
 40
1.000000000000085
100
AcDbArc
 50
180.0
 51
315.0
  0
LINE
  5
764
330
70
100
AcDbEntity
  8
Visible
100
AcDbLine
 10
257.5
 20
204.946275
 30
0.05
 11
257.5
 21
194.860489
 31
0.05
  0
ARC
  5
765
330
70
100
AcDbEntity
  8
Visible
100
AcDbCircle
 10
262.5
 20
204.946275
 30
0.05
 40
5.0000000101488
100
AcDbArc
 50
90.007003
 51
180.0
  0
LINE
  5
766
330
70
100
AcDbEntity
  8
Visible
100
AcDbLine
 10
282.499389
 20
209.946275
 30
0.05
 11
262.499389
 21
209.946275
 31
0.05
  0
ARC
  5
767
330
70
100
AcDbEntity
  8
Visible
100
AcDbCircle
 10
282.5
 20
204.946275
 30
0.05
 40
4.999999999999928
100
AcDbArc
 50
0.0
 51
90.007003
  0
LINE
  5
768
330
70
100
AcDbEntity
  8
Visible
100
AcDbLine
 10
287.5
 20
194.860489
 30
0.05
 11
287.5
 21
204.946275
 31
0.05
  0
ARC
  5
769
330
70
100
AcDbEntity
  8
Visible
100
AcDbCircle
 10
286.5
 20
194.860489
 30
0.05
 40
0.9999999999999978
100
AcDbArc
 50
225.0
 51
0.0
  0
LINE
  5
76A
330
70
100
AcDbEntity
  8
Visible
100
AcDbLine
 10
281.146447
 20
198.799828
 30
0.05
 11
285.792893
 21
194.153382
 31
0.05
  0
ARC
  5
76B
330
70
100
AcDbEntity
  8
Visible
100
AcDbCircle
 10
281.5
 20
199.153382
 30
0.05
 40
0.4999999999999716
100
AcDbArc
 50
180.0
 51
225.0
  0
LINE
  5
76C
330
70
100
AcDbEntity
  8
Visible
100
AcDbLine
 10
281.0
 20
201.721281
 30
0.05
 11
281.0
 21
199.153382
 31
0.05
  0
ARC
  5
76D
330
70
100
AcDbEntity
  8
Visible
100
AcDbCircle
 10
-281.248778
 20
202.946275
 30
-0.05
 40
1.250000000000024
210
0.0
220
0.0
230
-1.0
100
AcDbArc
 50
357.466044
 51
281.479786
  0
LINE
  5
76E
330
70
100
AcDbEntity
  8
Visible
100
AcDbLine
 10
280.0
 20
199.153382
 30
0.05
 11
280.0
 21
202.891011
 31
0.05
  0
ARC
  5
76F
330
70
100
AcDbEntity
  8
Visible
100
AcDbCircle
 10
-280.5
 20
199.153382
 30
-0.05
 40
0.4999999999998986
210
0.0
220
0.0
230
-1.0
100
AcDbArc
 50
315.0
 51
0.0
  0
LINE
  5
770
330
70
100
AcDbEntity
  8
Visible
100
AcDbLine
 10
287.207107
 20
191.739168
 30
0.05
 11
280.146447
 21
198.799828
 31
0.05
  0
ARC
  5
771
330
70
100
AcDbEntity
  8
Visible
100
AcDbCircle
 10
286.5
 20
191.032062
 30
0.05
 40
1.000000000000251
100
AcDbArc
 50
0.000013
 51
45.0
  0
LINE
  5
772
330
70
100
AcDbEntity
  8
Visible
100
AcDbLine
 10
287.5
 20
18.860489
 30
0.05
 11
287.5
 21
191.032062
 31
0.05
  0
ARC
  5
773
330
70
100
AcDbEntity
  8
Visible
100
AcDbCircle
 10
286.5
 20
18.860489
 30
0.05
 40
1.000000000000123
100
AcDbArc
 50
315.0
 51
0.000016
  0
LINE
  5
774
330
70
100
AcDbEntity
  8
Visible
100
AcDbLine
 10
280.146447
 20
11.092722
 30
0.05
 11
287.207107
 21
18.153382
 31
0.05
  0
ARC
  5
775
330
70
100
AcDbEntity
  8
Visible
100
AcDbCircle
 10
-280.5
 20
10.739168
 30
-0.05
 40
0.4999999999998295
210
0.0
220
0.0
230
-1.0
100
AcDbArc
 50
0.0
 51
45.0
  0
LINE
  5
776
330
70
100
AcDbEntity
  8
Visible
100
AcDbLine
 10
280.0
 20
7.00154
 30
0.05
 11
280.0
 21
10.739168
 31
0.05
  0
ENDSEC
  0
SECTION
  2
OBJECTS
  0
DICTIONARY
  5
C
330
0
100
AcDbDictionary
281
     1
  3
ACAD_COLOR
350
63
  3
ACAD_DETAILVIEWSTYLE
350
6A
  3
ACAD_GROUP
350
D
  3
ACAD_LAYOUT
350
62
  3
ACAD_MATERIAL
350
10
  3
ACAD_MLEADERSTYLE
350
66
  3
ACAD_MLINESTYLE
350
5F
  3
ACAD_PLOTSETTINGS
350
61
  3
ACAD_PLOTSTYLENAME
350
E
  3
ACAD_SCALELIST
350
42
  3
ACAD_SECTIONVIEWSTYLE
350
68
  3
ACAD_TABLESTYLE
350
64
  3
ACAD_VISUALSTYLE
350
29
  3
ACDB_RECOMPOSE_DATA
350
781
  3
AcDbVariableDictionary
350
778
  0
DICTIONARY
  5
9D
330
70
100
AcDbDictionary
280
     1
281
     1
  3
ACAD_SORTENTS
360
9E
  0
DICTIONARY
  5
63
102
{ACAD_REACTORS
330
C
102
}
330
C
100
AcDbDictionary
281
     1
  0
DICTIONARY
  5
6A
102
{ACAD_REACTORS
330
C
102
}
330
C
100
AcDbDictionary
281
     1
  3
Imperial24
350
6B
  0
DICTIONARY
  5
D
102
{ACAD_REACTORS
330
C
102
}
330
C
100
AcDbDictionary
281
     1
  0
DICTIONARY
  5
62
102
{ACAD_REACTORS
330
C
102
}
330
C
100
AcDbDictionary
281
     1
  3
Model
350
73
  3
Sheet1
350
6F
  3
Sheet2
350
77
  0
DICTIONARY
  5
10
102
{ACAD_REACTORS
330
C
102
}
330
C
100
AcDbDictionary
281
     1
  3
ByBlock
350
19
  3
ByLayer
350
11
  3
Global
350
21
  0
DICTIONARY
  5
66
102
{ACAD_REACTORS
330
C
102
}
330
C
100
AcDbDictionary
281
     1
  3
Standard
350
67
  0
DICTIONARY
  5
5F
102
{ACAD_REACTORS
330
C
102
}
330
C
100
AcDbDictionary
281
     1
  3
Standard
350
60
  0
DICTIONARY
  5
61
102
{ACAD_REACTORS
330
C
102
}
330
C
100
AcDbDictionary
281
     1
  0
ACDBDICTIONARYWDFLT
  5
E
102
{ACAD_REACTORS
330
C
102
}
330
C
100
AcDbDictionary
281
     1
  3
Normal
350
F
100
AcDbDictionaryWithDefault
340
F
  0
DICTIONARY
  5
42
102
{ACAD_REACTORS
330
C
102
}
330
C
100
AcDbDictionary
281
     1
  3
A0
350
43
  3
A1
350
44
  3
A2
350
45
  3
A3
350
46
  3
A4
350
47
  3
A5
350
48
  3
A6
350
49
  3
A7
350
4A
  3
A8
350
4B
  3
A9
350
4C
  3
B0
350
4D
  3
B1
350
4E
  3
B2
350
4F
  3
B3
350
50
  3
B4
350
51
  3
B5
350
52
  3
B6
350
53
  0
DICTIONARY
  5
68
102
{ACAD_REACTORS
330
C
102
}
330
C
100
AcDbDictionary
281
     1
  3
Imperial24
350
69
  0
DICTIONARY
  5
64
102
{ACAD_REACTORS
330
C
102
}
330
C
100
AcDbDictionary
281
     1
  3
Standard
350
65
  0
DICTIONARY
  5
29
102
{ACAD_REACTORS
330
C
102
}
330
C
100
AcDbDictionary
281
     1
  3
2dWireframe
350
2F
  3
Basic
350
2E
  3
Brighten
350
35
  3
ColorChange
350
39
  3
Conceptual
350
32
  3
Dim
350
34
  3
EdgeColorOff
350
41
  3
Facepattern
350
38
  3
Flat
350
2A
  3
FlatWithEdges
350
2B
  3
Gouraud
350
2C
  3
GouraudWithEdges
350
2D
  3
Hidden
350
31
  3
JitterOff
350
3F
  3
Linepattern
350
37
  3
OverhangOff
350
40
  3
Realistic
350
33
  3
Shaded
350
3E
  3
Shaded with edges
350
3D
  3
Shades of Gray
350
3A
  3
Sketchy
350
3B
  3
Thicken
350
36
  3
Wireframe
350
30
  3
X-Ray
350
3C
  0
XRECORD
  5
781
102
{ACAD_REACTORS
330
C
102
}
330
C
100
AcDbXrecord
280
     1
 90
        1
330
65
  0
DICTIONARY
  5
778
102
{ACAD_REACTORS
330
C
102
}
330
C
100
AcDbDictionary
281
     1
  3
ANNOALLVISIBLE
350
77D
  3
CANNOSCALE
350
77E
  3
CMLEADERSTYLE
350
77A
  3
CTABLESTYLE
350
779
  3
CVIEWDETAILSTYLE
350
77B
  3
CVIEWSECTIONSTYLE
350
77C
  0
SORTENTSTABLE
  5
9E
102
{ACAD_REACTORS
330
9D
102
}
330
9D
100
AcDbSortentsTable
330
70
  0
ACDBDETAILVIEWSTYLE
  5
6B
102
{ACAD_XDICTIONARY
360
784
102
}
102
{ACAD_REACTORS
330
6A
102
}
330
6A
100
AcDbModelDocViewStyle
 70
     0
  3
Imperial24
290
     0
100
AcDbDetailViewStyle
 70
     0
 71
     0
 90
        3
 71
     1
340
55
 62
   256
 40
0.24
340
0
 62
   256
 40
0.24
300

 40
0.36
280
     3
 71
     2
340
5D
 90
       25
 62
   256
 71
     3
340
55
 62
   256
 40
0.24
 90
        1
 40
0.75
 90
        1
300
%<\AcVar ViewType \f "%tc1">% %<\AcVar ViewDetailId>%\PSCALE %<\AcVar ViewScale \f "%sn">%
 71
     4
340
5D
 90
       25
 62
   256
340
5D
 90
       25
 62
   256
280
     0
  0
LAYOUT
  5
73
102
{ACAD_REACTORS
330
62
102
}
330
62
100
AcDbPlotSettings
  1

  2
AutoCAD PDF (High Quality Print).pc3
  4
ISO_full_bleed_A4_(297.00_x_210.00_MM)
  6

 40
0.0
 41
0.0
 42
0.0
 43
0.0
 44
297.0
 45
210.0
 46
0.0
 47
0.0
 48
0.0
 49
0.0
140
0.0
141
0.0
142
1.0
143
1.68934
 70
 11952
 72
     1
 73
     0
 74
     0
  7

 75
     0
147
0.591947
 76
     0
 77
     2
 78
   300
148
50.903535
149
59.447528
100
AcDbLayout
  1
Model
 70
     1
 71
     0
 10
0.0
 20
0.0
 11
12.0
 21
9.0
 12
0.0
 22
0.0
 32
0.0
 14
0.0
 24
0.0
 34
0.0
 15
0.0
 25
0.0
 35
0.0
146
0.0
 13
0.0
 23
0.0
 33
0.0
 16
1.0
 26
0.0
 36
0.0
 17
0.0
 27
1.0
 37
0.0
 76
     0
330
70
1001
ACAD_PSEXT
1000
AutoCAD PDF (High Quality Print).pc3
1000
DWG To PDF
1000
File
1000

1070
     0
  0
LAYOUT
  5
6F
102
{ACAD_REACTORS
330
62
102
}
330
62
100
AcDbPlotSettings
  1

  2

  4

  6

 40
0.0
 41
0.0
 42
0.0
 43
0.0
 44
0.0
 45
0.0
 46
0.0
 47
0.0
 48
0.0
 49
0.0
140
0.0
141
0.0
142
1.0
143
1.0
 70
   688
 72
     0
 73
     0
 74
     5
  7

 75
    16
147
1.0
 76
     0
 77
     2
 78
   300
148
0.0
149
0.0
100
AcDbLayout
  1
Sheet1
 70
     1
 71
     1
 10
0.0
 20
0.0
 11
12.0
 21
9.0
 12
0.0
 22
0.0
 32
0.0
 14
0.0
 24
0.0
 34
0.0
 15
0.0
 25
0.0
 35
0.0
146
0.0
 13
0.0
 23
0.0
 33
0.0
 16
1.0
 26
0.0
 36
0.0
 17
0.0
 27
1.0
 37
0.0
 76
     0
330
6C
  0
LAYOUT
  5
77
102
{ACAD_REACTORS
330
62
102
}
330
62
100
AcDbPlotSettings
  1

  2

  4

  6

 40
0.0
 41
0.0
 42
0.0
 43
0.0
 44
0.0
 45
0.0
 46
0.0
 47
0.0
 48
0.0
 49
0.0
140
0.0
141
0.0
142
1.0
143
1.0
 70
   688
 72
     0
 73
     0
 74
     5
  7

 75
    16
147
1.0
 76
     0
 77
     2
 78
   300
148
0.0
149
0.0
100
AcDbLayout
  1
Sheet2
 70
     1
 71
     2
 10
0.0
 20
0.0
 11
12.0
 21
9.0
 12
0.0
 22
0.0
 32
0.0
 14
0.0
 24
0.0
 34
0.0
 15
0.0
 25
0.0
 35
0.0
146
0.0
 13
0.0
 23
0.0
 33
0.0
 16
1.0
 26
0.0
 36
0.0
 17
0.0
 27
1.0
 37
0.0
 76
     0
330
74
  0
MATERIAL
  5
19
102
{ACAD_XDICTIONARY
360
1A
102
}
102
{ACAD_REACTORS
330
10
102
}
330
10
100
AcDbMaterial
  1
ByBlock
 72
     0
 43
0.020833
 43
0.0
 43
0.0
 43
0.0
 43
0.0
 43
0.020833
 43
0.0
 43
0.0
 43
0.0
 43
0.0
 43
1.0
 43
0.0
 43
0.0
 43
0.0
 43
0.0
 43
1.0
 77
     0
 47
0.020833
 47
0.0
 47
0.0
 47
0.0
 47
0.0
 47
0.020833
 47
0.0
 47
0.0
 47
0.0
 47
0.0
 47
1.0
 47
0.0
 47
0.0
 47
0.0
 47
0.0
 47
1.0
171
     0
 49
0.020833
 49
0.0
 49
0.0
 49
0.0
 49
0.0
 49
0.020833
 49
0.0
 49
0.0
 49
0.0
 49
0.0
 49
1.0
 49
0.0
 49
0.0
 49
0.0
 49
0.0
 49
1.0
175
     0
142
0.020833
142
0.0
142
0.0
142
0.0
142
0.0
142
0.020833
142
0.0
142
0.0
142
0.0
142
0.0
142
1.0
142
0.0
142
0.0
142
0.0
142
0.0
142
1.0
179
     0
144
0.020833
144
0.0
144
0.0
144
0.0
144
0.0
144
0.020833
144
0.0
144
0.0
144
0.0
144
0.0
144
1.0
144
0.0
144
0.0
144
0.0
144
0.0
144
1.0
147
0.020833
147
0.0
147
0.0
147
0.0
147
0.0
147
0.020833
147
0.0
147
0.0
147
0.0
147
0.0
147
1.0
147
0.0
147
0.0
147
0.0
147
0.0
147
1.0
  0
MATERIAL
  5
11
102
{ACAD_XDICTIONARY
360
12
102
}
102
{ACAD_REACTORS
330
10
102
}
330
10
100
AcDbMaterial
  1
ByLayer
 72
     0
 43
0.020833
 43
0.0
 43
0.0
 43
0.0
 43
0.0
 43
0.020833
 43
0.0
 43
0.0
 43
0.0
 43
0.0
 43
1.0
 43
0.0
 43
0.0
 43
0.0
 43
0.0
 43
1.0
 77
     0
 47
0.020833
 47
0.0
 47
0.0
 47
0.0
 47
0.0
 47
0.020833
 47
0.0
 47
0.0
 47
0.0
 47
0.0
 47
1.0
 47
0.0
 47
0.0
 47
0.0
 47
0.0
 47
1.0
171
     0
 49
0.020833
 49
0.0
 49
0.0
 49
0.0
 49
0.0
 49
0.020833
 49
0.0
 49
0.0
 49
0.0
 49
0.0
 49
1.0
 49
0.0
 49
0.0
 49
0.0
 49
0.0
 49
1.0
175
     0
142
0.020833
142
0.0
142
0.0
142
0.0
142
0.0
142
0.020833
142
0.0
142
0.0
142
0.0
142
0.0
142
1.0
142
0.0
142
0.0
142
0.0
142
0.0
142
1.0
179
     0
144
0.020833
144
0.0
144
0.0
144
0.0
144
0.0
144
0.020833
144
0.0
144
0.0
144
0.0
144
0.0
144
1.0
144
0.0
144
0.0
144
0.0
144
0.0
144
1.0
147
0.020833
147
0.0
147
0.0
147
0.0
147
0.0
147
0.020833
147
0.0
147
0.0
147
0.0
147
0.0
147
1.0
147
0.0
147
0.0
147
0.0
147
0.0
147
1.0
  0
MATERIAL
  5
21
102
{ACAD_XDICTIONARY
360
22
102
}
102
{ACAD_REACTORS
330
10
102
}
330
10
100
AcDbMaterial
  1
Global
 72
     0
 43
0.020833
 43
0.0
 43
0.0
 43
0.0
 43
0.0
 43
0.020833
 43
0.0
 43
0.0
 43
0.0
 43
0.0
 43
1.0
 43
0.0
 43
0.0
 43
0.0
 43
0.0
 43
1.0
 77
     0
 47
0.020833
 47
0.0
 47
0.0
 47
0.0
 47
0.0
 47
0.020833
 47
0.0
 47
0.0
 47
0.0
 47
0.0
 47
1.0
 47
0.0
 47
0.0
 47
0.0
 47
0.0
 47
1.0
171
     0
 49
0.020833
 49
0.0
 49
0.0
 49
0.0
 49
0.0
 49
0.020833
 49
0.0
 49
0.0
 49
0.0
 49
0.0
 49
1.0
 49
0.0
 49
0.0
 49
0.0
 49
0.0
 49
1.0
175
     0
142
0.020833
142
0.0
142
0.0
142
0.0
142
0.0
142
0.020833
142
0.0
142
0.0
142
0.0
142
0.0
142
1.0
142
0.0
142
0.0
142
0.0
142
0.0
142
1.0
179
     0
144
0.020833
144
0.0
144
0.0
144
0.0
144
0.0
144
0.020833
144
0.0
144
0.0
144
0.0
144
0.0
144
1.0
144
0.0
144
0.0
144
0.0
144
0.0
144
1.0
147
0.020833
147
0.0
147
0.0
147
0.0
147
0.0
147
0.020833
147
0.0
147
0.0
147
0.0
147
0.0
147
1.0
147
0.0
147
0.0
147
0.0
147
0.0
147
1.0
  0
MLEADERSTYLE
  5
67
102
{ACAD_REACTORS
330
66
102
}
330
66
100
AcDbMLeaderStyle
179
     2
170
     2
171
     1
172
     0
 90
        2
 40
0.0
 41
0.0
173
     1
 91
-1056964608
340
5B
 92
       -2
290
     1
 42
0.09
291
     1
 43
0.36
  3
Standard
 44
0.18
300

342
55
174
     1
178
     6
175
     1
176
     0
 93
-1056964608
 45
0.18
292
     0
297
     0
 46
0.18
 94
-1056964608
 47
1.0
 49
1.0
140
1.0
293
     1
141
0.0
294
     1
177
     0
142
1.0
295
     0
296
     0
143
0.125
271
     0
272
     9
273
     9
298
     1
  0
MLINESTYLE
  5
60
102
{ACAD_REACTORS
330
5F
102
}
330
5F
100
AcDbMlineStyle
  2
STANDARD
 70
     0
  3

 62
   256
 51
90.0
 52
90.0
 71
     0
  0
ACDBPLACEHOLDER
  5
F
102
{ACAD_REACTORS
330
E
102
}
330
E
  0
SCALE
  5
43
102
{ACAD_REACTORS
330
42
102
}
330
42
100
AcDbScale
 70
     0
300
1:1
140
1.0
141
1.0
290
     1
  0
SCALE
  5
44
102
{ACAD_REACTORS
330
42
102
}
330
42
100
AcDbScale
 70
     0
300
1:2
140
1.0
141
2.0
290
     0
  0
SCALE
  5
45
102
{ACAD_REACTORS
330
42
102
}
330
42
100
AcDbScale
 70
     0
300
1:4
140
1.0
141
4.0
290
     0
  0
SCALE
  5
46
102
{ACAD_REACTORS
330
42
102
}
330
42
100
AcDbScale
 70
     0
300
1:5
140
1.0
141
5.0
290
     0
  0
SCALE
  5
47
102
{ACAD_REACTORS
330
42
102
}
330
42
100
AcDbScale
 70
     0
300
1:8
140
1.0
141
8.0
290
     0
  0
SCALE
  5
48
102
{ACAD_REACTORS
330
42
102
}
330
42
100
AcDbScale
 70
     0
300
1:10
140
1.0
141
10.0
290
     0
  0
SCALE
  5
49
102
{ACAD_REACTORS
330
42
102
}
330
42
100
AcDbScale
 70
     0
300
1:16
140
1.0
141
16.0
290
     0
  0
SCALE
  5
4A
102
{ACAD_REACTORS
330
42
102
}
330
42
100
AcDbScale
 70
     0
300
1:20
140
1.0
141
20.0
290
     0
  0
SCALE
  5
4B
102
{ACAD_REACTORS
330
42
102
}
330
42
100
AcDbScale
 70
     0
300
1:30
140
1.0
141
30.0
290
     0
  0
SCALE
  5
4C
102
{ACAD_REACTORS
330
42
102
}
330
42
100
AcDbScale
 70
     0
300
1:40
140
1.0
141
40.0
290
     0
  0
SCALE
  5
4D
102
{ACAD_REACTORS
330
42
102
}
330
42
100
AcDbScale
 70
     0
300
1:50
140
1.0
141
50.0
290
     0
  0
SCALE
  5
4E
102
{ACAD_REACTORS
330
42
102
}
330
42
100
AcDbScale
 70
     0
300
1:100
140
1.0
141
100.0
290
     0
  0
SCALE
  5
4F
102
{ACAD_REACTORS
330
42
102
}
330
42
100
AcDbScale
 70
     0
300
2:1
140
2.0
141
1.0
290
     0
  0
SCALE
  5
50
102
{ACAD_REACTORS
330
42
102
}
330
42
100
AcDbScale
 70
     0
300
4:1
140
4.0
141
1.0
290
     0
  0
SCALE
  5
51
102
{ACAD_REACTORS
330
42
102
}
330
42
100
AcDbScale
 70
     0
300
8:1
140
8.0
141
1.0
290
     0
  0
SCALE
  5
52
102
{ACAD_REACTORS
330
42
102
}
330
42
100
AcDbScale
 70
     0
300
10:1
140
10.0
141
1.0
290
     0
  0
SCALE
  5
53
102
{ACAD_REACTORS
330
42
102
}
330
42
100
AcDbScale
 70
     0
300
100:1
140
100.0
141
1.0
290
     0
  0
ACDBSECTIONVIEWSTYLE
  5
69
102
{ACAD_XDICTIONARY
360
782
102
}
102
{ACAD_REACTORS
330
68
102
}
330
68
100
AcDbModelDocViewStyle
 70
     0
  3
Imperial24
290
     0
100
AcDbSectionViewStyle
 70
     0
 71
     0
 90
       78
 71
     1
340
55
 62
   256
 40
0.24
340
0
340
0
 62
   256
 40
0.24
300
I, O, Q, S, X, Z
 40
0.48
 90
        3
 40
0.18
 90
        1
 71
     2
340
5D
 90
       25
 62
   256
340
5D
 90
       50
 62
   256
 40
0.24
 40
0.0
 40
0.24
 71
     3
340
55
 62
   256
 40
0.24
 90
        1
 40
0.75
 90
        1
300
%<\AcVar ViewType \f "%tc1">% %<\AcVar ViewSectionStartId>%-%<\AcVar ViewSectionEndId>%\PSCALE %<\AcVar ViewScale \f "%sn">%
 71
     4
 62
   256
 62
   257
300
ANSI31
 40
1.0
 90
        0
290
     0
290
     0
 90
        6
 40
0.0
 40
1.570796
 40
0.261799
 40
1.308997
 40
-0.261799
 40
1.832596
  0
TABLESTYLE
  5
65
102
{ACAD_XDICTIONARY
360
77F
102
}
102
{ACAD_REACTORS
330
64
102
}
330
64
100
AcDbTableStyle
280
     0
  3
Standard
 70
     0
 71
     0
 40
1.5
 41
1.5
280
     0
281
     0
  7
Standard
140
0.18
170
     2
 62
     0
 63
     7
283
     0
 90
      512
 91
        0
  1

274
    -2
284
     1
 64
     0
275
    -2
285
     1
 65
     0
276
    -2
286
     1
 66
     0
277
    -2
287
     1
 67
     0
278
    -2
288
     1
 68
     0
279
    -2
289
     1
 69
     0
  7
Standard
140
0.25
170
     5
 62
     0
 63
     7
283
     0
 90
      512
 91
        0
  1

274
    -2
284
     1
 64
     0
275
    -2
285
     1
 65
     0
276
    -2
286
     1
 66
     0
277
    -2
287
     1
 67
     0
278
    -2
288
     1
 68
     0
279
    -2
289
     1
 69
     0
  7
Standard
140
0.18
170
     5
 62
     0
 63
     7
283
     0
 90
      512
 91
        0
  1

274
    -2
284
     1
 64
     0
275
    -2
285
     1
 65
     0
276
    -2
286
     1
 66
     0
277
    -2
287
     1
 67
     0
278
    -2
288
     1
 68
     0
279
    -2
289
     1
 69
     0
  0
VISUALSTYLE
  5
2F
102
{ACAD_REACTORS
330
29
102
}
330
29
100
AcDbVisualStyle
  2
2dWireframe
 70
     4
177
     3
291
     0
 70
    58
 90
        0
176
     1
 90
        2
176
     1
 90
        0
176
     1
 90
        0
176
     1
 40
0.6
176
     1
 40
30.0
176
     1
 62
     7
420
 16777215
176
     1
 90
        1
176
     1
 90
        4
176
     1
 62
     7
176
     1
 62
   257
176
     1
 90
        1
176
     1
 90
        1
176
     1
 40
1.0
176
     1
 90
        0
176
     1
 62
   257
176
     1
 40
1.0
176
     1
 90
        1
176
     1
 90
        6
176
     1
 90
        2
176
     1
 62
     7
176
     1
 90
        5
176
     1
 90
        0
176
     1
 90
        0
176
     1
290
     0
176
     1
 90
        1
176
     1
 40
0.0
176
     1
 90
        0
176
     1
290
     1
176
     1
290
     1
176
     1
290
     0
176
     1
290
     0
176
     1
290
     0
176
     1
290
     0
176
     1
290
     0
176
     1
290
     0
176
     1
290
     0
176
     1
 90
       50
176
     1
 40
0.0
176
     1
 40
1.0
176
     1
 90
        0
176
     1
 62
    18
420
        0
176
     1
 90
       50
176
     1
 90
        3
176
     1
 62
     5
420
      255
176
     1
290
     0
176
     1
 90
       50
176
     1
 90
       50
176
     1
 90
       50
176
     1
290
     0
176
     1
 90
       50
176
     1
 62
   256
176
     0
 40
1.0
176
     0
 90
        2
176
     1
  1
strokes_ogs.tif
176
     1
290
     0
176
     1
 40
1.0
176
     1
 40
1.0
176
     1
1001
ACAD
1000
AcDbSavedByObjectVersion
1070
     0
  0
VISUALSTYLE
  5
2E
102
{ACAD_REACTORS
330
29
102
}
330
29
100
AcDbVisualStyle
  2
Basic
 70
     7
177
     3
291
     1
 70
    58
 90
        1
176
     1
 90
        0
176
     1
 90
        1
176
     1
 90
        0
176
     1
 40
0.6
176
     1
 40
30.0
176
     1
 62
     7
420
 16777215
176
     1
 90
        0
176
     1
 90
        4
176
     1
 62
     7
176
     1
 62
   257
176
     1
 90
        1
176
     1
 90
        1
176
     1
 40
1.0
176
     1
 90
        8
176
     1
 62
     7
176
     1
 40
1.0
176
     1
 90
        1
176
     1
 90
        6
176
     1
 90
        2
176
     1
 62
     7
176
     1
 90
        5
176
     1
 90
        0
176
     1
 90
        0
176
     1
290
     0
176
     1
 90
        1
176
     1
 40
0.0
176
     1
 90
        0
176
     1
290
     0
176
     1
290
     1
176
     1
290
     1
176
     1
290
     0
176
     1
290
     0
176
     1
290
     0
176
     1
290
     0
176
     1
290
     0
176
     1
290
     0
176
     1
 90
       50
176
     1
 40
0.0
176
     1
 40
1.0
176
     1
 90
        0
176
     1
 62
    18
420
        0
176
     1
 90
       50
176
     1
 90
        3
176
     1
 62
     5
420
      255
176
     1
290
     0
176
     1
 90
       50
176
     1
 90
       50
176
     1
 90
       50
176
     1
290
     0
176
     1
 90
       50
176
     1
 62
   256
176
     0
 40
1.0
176
     0
 90
        2
176
     1
  1
strokes_ogs.tif
176
     1
290
     0
176
     1
 40
1.0
176
     1
 40
1.0
176
     1
1001
ACAD
1000
AcDbSavedByObjectVersion
1070
     0
  0
VISUALSTYLE
  5
35
102
{ACAD_REACTORS
330
29
102
}
330
29
100
AcDbVisualStyle
  2
Brighten
 70
    12
177
     3
291
     1
 70
    58
 90
        2
176
     1
 90
        2
176
     1
 90
        0
176
     1
 90
        0
176
     1
 40
0.6
176
     1
 40
30.0
176
     1
 62
     7
420
 16777215
176
     1
 90
        1
176
     1
 90
        4
176
     1
 62
     7
176
     1
 62
   257
176
     1
 90
        1
176
     1
 90
        1
176
     1
 40
1.0
176
     1
 90
        8
176
     1
 62
     7
176
     1
 40
1.0
176
     1
 90
        1
176
     1
 90
        6
176
     1
 90
        2
176
     1
 62
     7
176
     1
 90
        5
176
     1
 90
        0
176
     1
 90
        0
176
     1
290
     0
176
     1
 90
        1
176
     1
 40
50.0
176
     1
 90
        0
176
     1
290
     0
176
     1
290
     1
176
     1
290
     1
176
     1
290
     0
176
     1
290
     0
176
     1
290
     0
176
     1
290
     0
176
     1
290
     0
176
     1
290
     0
176
     1
 90
       50
176
     1
 40
0.0
176
     1
 40
1.0
176
     1
 90
        0
176
     1
 62
    18
420
        0
176
     1
 90
       50
176
     1
 90
        3
176
     1
 62
     5
420
      255
176
     1
290
     0
176
     1
 90
       50
176
     1
 90
       50
176
     1
 90
       50
176
     1
290
     0
176
     1
 90
       50
176
     1
 62
   256
176
     0
 40
1.0
176
     0
 90
        2
176
     1
  1
strokes_ogs.tif
176
     1
290
     0
176
     1
 40
1.0
176
     1
 40
1.0
176
     1
1001
ACAD
1000
AcDbSavedByObjectVersion
1070
     0
  0
VISUALSTYLE
  5
39
102
{ACAD_REACTORS
330
29
102
}
330
29
100
AcDbVisualStyle
  2
ColorChange
 70
    16
177
     3
291
     1
 70
    58
 90
        2
176
     1
 90
        2
176
     1
 90
        3
176
     1
 90
        0
176
     1
 40
0.6
176
     1
 40
30.0
176
     1
 62
     8
420
  8421504
176
     1
 90
        1
176
     1
 90
        4
176
     1
 62
     7
176
     1
 62
   257
176
     1
 90
        1
176
     1
 90
        1
176
     1
 40
1.0
176
     1
 90
        8
176
     1
 62
     8
420
  8421504
176
     1
 40
1.0
176
     1
 90
        1
176
     1
 90
        6
176
     1
 90
        2
176
     1
 62
     7
176
     1
 90
        5
176
     1
 90
        0
176
     1
 90
        0
176
     1
290
     0
176
     1
 90
        1
176
     1
 40
0.0
176
     1
 90
        0
176
     1
290
     0
176
     1
290
     1
176
     1
290
     1
176
     1
290
     0
176
     1
290
     0
176
     1
290
     0
176
     1
290
     0
176
     1
290
     0
176
     1
290
     0
176
     1
 90
       50
176
     1
 40
0.0
176
     1
 40
1.0
176
     1
 90
        0
176
     1
 62
    18
420
        0
176
     1
 90
       50
176
     1
 90
        3
176
     1
 62
     5
420
      255
176
     1
290
     0
176
     1
 90
       50
176
     1
 90
       50
176
     1
 90
       50
176
     1
290
     0
176
     1
 90
       50
176
     1
 62
   256
176
     0
 40
1.0
176
     0
 90
        2
176
     1
  1
strokes_ogs.tif
176
     1
290
     0
176
     1
 40
1.0
176
     1
 40
1.0
176
     1
1001
ACAD
1000
AcDbSavedByObjectVersion
1070
     0
  0
VISUALSTYLE
  5
32
102
{ACAD_REACTORS
330
29
102
}
330
29
100
AcDbVisualStyle
  2
Conceptual
 70
     9
177
     3
291
     0
 70
    58
 90
        3
176
     1
 90
        2
176
     1
 90
        0
176
     1
 90
        0
176
     1
 40
0.6
176
     1
 40
30.0
176
     1
 62
     7
420
 16777215
176
     1
 90
        2
176
     1
 90
        2
176
     1
 62
     7
176
     1
 62
   257
176
     1
 90
        1
176
     1
 90
        1
176
     1
 40
179.0
176
     1
 90
        8
176
     1
 62
     7
176
     1
 40
1.0
176
     1
 90
        1
176
     1
 90
        6
176
     1
 90
        2
176
     1
 62
     7
176
     1
 90
        3
176
     1
 90
        0
176
     1
 90
        0
176
     1
290
     0
176
     1
 90
        1
176
     1
 40
0.0
176
     1
 90
        0
176
     1
290
     0
176
     1
290
     1
176
     1
290
     1
176
     1
290
     0
176
     1
290
     0
176
     1
290
     0
176
     1
290
     0
176
     1
290
     0
176
     1
290
     0
176
     1
 90
       50
176
     1
 40
0.0
176
     1
 40
1.0
176
     1
 90
        0
176
     1
 62
    18
420
        0
176
     1
 90
       50
176
     1
 90
        3
176
     1
 62
     5
420
      255
176
     1
290
     0
176
     1
 90
       50
176
     1
 90
       50
176
     1
 90
       50
176
     1
290
     0
176
     1
 90
       50
176
     1
 62
   256
176
     0
 40
1.0
176
     0
 90
        2
176
     1
  1
strokes_ogs.tif
176
     1
290
     0
176
     1
 40
1.0
176
     1
 40
1.0
176
     1
1001
ACAD
1000
AcDbSavedByObjectVersion
1070
     0
  0
VISUALSTYLE
  5
34
102
{ACAD_REACTORS
330
29
102
}
330
29
100
AcDbVisualStyle
  2
Dim
 70
    11
177
     3
291
     1
 70
    58
 90
        2
176
     1
 90
        2
176
     1
 90
        0
176
     1
 90
        0
176
     1
 40
0.6
176
     1
 40
30.0
176
     1
 62
     7
420
 16777215
176
     1
 90
        1
176
     1
 90
        4
176
     1
 62
     7
176
     1
 62
   257
176
     1
 90
        1
176
     1
 90
        1
176
     1
 40
1.0
176
     1
 90
        8
176
     1
 62
     7
176
     1
 40
1.0
176
     1
 90
        1
176
     1
 90
        6
176
     1
 90
        2
176
     1
 62
     7
176
     1
 90
        5
176
     1
 90
        0
176
     1
 90
        0
176
     1
290
     0
176
     1
 90
        1
176
     1
 40
-50.0
176
     1
 90
        0
176
     1
290
     0
176
     1
290
     1
176
     1
290
     1
176
     1
290
     0
176
     1
290
     0
176
     1
290
     0
176
     1
290
     0
176
     1
290
     0
176
     1
290
     0
176
     1
 90
       50
176
     1
 40
0.0
176
     1
 40
1.0
176
     1
 90
        0
176
     1
 62
    18
420
        0
176
     1
 90
       50
176
     1
 90
        3
176
     1
 62
     5
420
      255
176
     1
290
     0
176
     1
 90
       50
176
     1
 90
       50
176
     1
 90
       50
176
     1
290
     0
176
     1
 90
       50
176
     1
 62
   256
176
     0
 40
1.0
176
     0
 90
        2
176
     1
  1
strokes_ogs.tif
176
     1
290
     0
176
     1
 40
1.0
176
     1
 40
1.0
176
     1
1001
ACAD
1000
AcDbSavedByObjectVersion
1070
     0
  0
VISUALSTYLE
  5
41
102
{ACAD_REACTORS
330
29
102
}
330
29
100
AcDbVisualStyle
  2
EdgeColorOff
 70
    22
177
     3
291
     1
 70
    58
 90
        2
176
     0
 90
        2
176
     0
 90
        0
176
     0
 90
        0
176
     0
 40
0.6
176
     0
 40
30.0
176
     0
 62
     7
420
 16777215
176
     0
 90
        1
176
     0
 90
        4
176
     0
 62
     7
176
     0
 62
   257
176
     0
 90
        1
176
     0
 90
        1
176
     0
 40
1.0
176
     0
 90
        8
176
     2
 62
     7
176
     0
 40
1.0
176
     0
 90
        1
176
     0
 90
        6
176
     0
 90
        2
176
     0
 62
     7
176
     0
 90
        5
176
     0
 90
        0
176
     0
 90
        0
176
     0
290
     0
176
     0
 90
        1
176
     0
 40
0.0
176
     0
 90
        0
176
     0
290
     0
176
     0
290
     1
176
     0
290
     1
176
     0
290
     0
176
     0
290
     0
176
     0
290
     0
176
     0
290
     0
176
     0
290
     0
176
     0
290
     0
176
     0
 90
       50
176
     0
 40
0.0
176
     0
 40
1.0
176
     0
 90
        0
176
     0
 62
    18
420
        0
176
     0
 90
       50
176
     0
 90
        3
176
     0
 62
     5
420
      255
176
     0
290
     0
176
     0
 90
       50
176
     0
 90
       50
176
     0
 90
       50
176
     0
290
     0
176
     0
 90
       50
176
     0
 62
   256
176
     0
 40
1.0
176
     0
 90
        2
176
     0
  1
strokes_ogs.tif
176
     0
290
     0
176
     0
 40
1.0
176
     0
 40
1.0
176
     0
1001
ACAD
1000
AcDbSavedByObjectVersion
1070
     0
  0
VISUALSTYLE
  5
38
102
{ACAD_REACTORS
330
29
102
}
330
29
100
AcDbVisualStyle
  2
Facepattern
 70
    15
177
     3
291
     1
 70
    58
 90
        2
176
     1
 90
        2
176
     1
 90
        0
176
     1
 90
        0
176
     1
 40
0.6
176
     1
 40
30.0
176
     1
 62
     7
420
 16777215
176
     1
 90
        1
176
     1
 90
        4
176
     1
 62
     7
176
     1
 62
   257
176
     1
 90
        1
176
     1
 90
        1
176
     1
 40
1.0
176
     1
 90
        8
176
     1
 62
     7
176
     1
 40
1.0
176
     1
 90
        1
176
     1
 90
        6
176
     1
 90
        2
176
     1
 62
     7
176
     1
 90
        5
176
     1
 90
        0
176
     1
 90
        0
176
     1
290
     0
176
     1
 90
        1
176
     1
 40
0.0
176
     1
 90
        0
176
     1
290
     0
176
     1
290
     1
176
     1
290
     1
176
     1
290
     0
176
     1
290
     0
176
     1
290
     0
176
     1
290
     0
176
     1
290
     0
176
     1
290
     0
176
     1
 90
       50
176
     1
 40
0.0
176
     1
 40
1.0
176
     1
 90
        0
176
     1
 62
    18
420
        0
176
     1
 90
       50
176
     1
 90
        3
176
     1
 62
     5
420
      255
176
     1
290
     0
176
     1
 90
       50
176
     1
 90
       50
176
     1
 90
       50
176
     1
290
     0
176
     1
 90
       50
176
     1
 62
   256
176
     0
 40
1.0
176
     0
 90
        2
176
     1
  1
strokes_ogs.tif
176
     1
290
     0
176
     1
 40
1.0
176
     1
 40
1.0
176
     1
1001
ACAD
1000
AcDbSavedByObjectVersion
1070
     0
  0
VISUALSTYLE
  5
2A
102
{ACAD_REACTORS
330
29
102
}
330
29
100
AcDbVisualStyle
  2
Flat
 70
     0
177
     3
291
     1
 70
    58
 90
        2
176
     1
 90
        1
176
     1
 90
        1
176
     1
 90
        2
176
     1
 40
0.6
176
     1
 40
30.0
176
     1
 62
     7
420
 16777215
176
     1
 90
        0
176
     1
 90
        0
176
     1
 62
     7
176
     1
 62
   257
176
     1
 90
        1
176
     1
 90
        1
176
     1
 40
1.0
176
     1
 90
        8
176
     1
 62
     7
176
     1
 40
1.0
176
     1
 90
        1
176
     1
 90
        6
176
     1
 90
        2
176
     1
 62
     7
176
     1
 90
        5
176
     1
 90
        0
176
     1
 90
        0
176
     1
290
     0
176
     1
 90
       13
176
     1
 40
0.0
176
     1
 90
        0
176
     1
290
     0
176
     1
290
     1
176
     1
290
     1
176
     1
290
     0
176
     1
290
     0
176
     1
290
     0
176
     1
290
     0
176
     1
290
     0
176
     1
290
     0
176
     1
 90
       50
176
     1
 40
0.0
176
     1
 40
1.0
176
     1
 90
        0
176
     1
 62
    18
420
        0
176
     1
 90
       50
176
     1
 90
        3
176
     1
 62
     5
420
      255
176
     1
290
     0
176
     1
 90
       50
176
     1
 90
       50
176
     1
 90
       50
176
     1
290
     0
176
     1
 90
       50
176
     1
 62
   256
176
     0
 40
1.0
176
     0
 90
        2
176
     1
  1
strokes_ogs.tif
176
     1
290
     0
176
     1
 40
1.0
176
     1
 40
1.0
176
     1
1001
ACAD
1000
AcDbSavedByObjectVersion
1070
     0
  0
VISUALSTYLE
  5
2B
102
{ACAD_REACTORS
330
29
102
}
330
29
100
AcDbVisualStyle
  2
FlatWithEdges
 70
     1
177
     3
291
     1
 70
    58
 90
        2
176
     1
 90
        1
176
     1
 90
        1
176
     1
 90
        2
176
     1
 40
0.6
176
     1
 40
30.0
176
     1
 62
     7
420
 16777215
176
     1
 90
        1
176
     1
 90
        0
176
     1
 62
     7
176
     1
 62
   257
176
     1
 90
        1
176
     1
 90
        1
176
     1
 40
1.0
176
     1
 90
        0
176
     1
 62
   257
176
     1
 40
1.0
176
     1
 90
        1
176
     1
 90
        6
176
     1
 90
        2
176
     1
 62
     7
176
     1
 90
        5
176
     1
 90
        0
176
     1
 90
        0
176
     1
290
     0
176
     1
 90
       13
176
     1
 40
0.0
176
     1
 90
        0
176
     1
290
     0
176
     1
290
     1
176
     1
290
     1
176
     1
290
     0
176
     1
290
     0
176
     1
290
     0
176
     1
290
     0
176
     1
290
     0
176
     1
290
     0
176
     1
 90
       50
176
     1
 40
0.0
176
     1
 40
1.0
176
     1
 90
        0
176
     1
 62
    18
420
        0
176
     1
 90
       50
176
     1
 90
        3
176
     1
 62
     5
420
      255
176
     1
290
     0
176
     1
 90
       50
176
     1
 90
       50
176
     1
 90
       50
176
     1
290
     0
176
     1
 90
       50
176
     1
 62
   256
176
     0
 40
1.0
176
     0
 90
        2
176
     1
  1
strokes_ogs.tif
176
     1
290
     0
176
     1
 40
1.0
176
     1
 40
1.0
176
     1
1001
ACAD
1000
AcDbSavedByObjectVersion
1070
     0
  0
VISUALSTYLE
  5
2C
102
{ACAD_REACTORS
330
29
102
}
330
29
100
AcDbVisualStyle
  2
Gouraud
 70
     2
177
     3
291
     1
 70
    58
 90
        2
176
     1
 90
        2
176
     1
 90
        1
176
     1
 90
        2
176
     1
 40
0.6
176
     1
 40
30.0
176
     1
 62
     7
420
 16777215
176
     1
 90
        0
176
     1
 90
        0
176
     1
 62
     7
176
     1
 62
   257
176
     1
 90
        1
176
     1
 90
        1
176
     1
 40
1.0
176
     1
 90
        0
176
     1
 62
     7
176
     1
 40
1.0
176
     1
 90
        1
176
     1
 90
        6
176
     1
 90
        2
176
     1
 62
     7
176
     1
 90
        5
176
     1
 90
        0
176
     1
 90
        0
176
     1
290
     0
176
     1
 90
       13
176
     1
 40
0.0
176
     1
 90
        0
176
     1
290
     0
176
     1
290
     1
176
     1
290
     1
176
     1
290
     0
176
     1
290
     0
176
     1
290
     0
176
     1
290
     0
176
     1
290
     0
176
     1
290
     0
176
     1
 90
       50
176
     1
 40
0.0
176
     1
 40
1.0
176
     1
 90
        0
176
     1
 62
    18
420
        0
176
     1
 90
       50
176
     1
 90
        3
176
     1
 62
     5
420
      255
176
     1
290
     0
176
     1
 90
       50
176
     1
 90
       50
176
     1
 90
       50
176
     1
290
     0
176
     1
 90
       50
176
     1
 62
   256
176
     0
 40
1.0
176
     0
 90
        2
176
     1
  1
strokes_ogs.tif
176
     1
290
     0
176
     1
 40
1.0
176
     1
 40
1.0
176
     1
1001
ACAD
1000
AcDbSavedByObjectVersion
1070
     0
  0
VISUALSTYLE
  5
2D
102
{ACAD_REACTORS
330
29
102
}
330
29
100
AcDbVisualStyle
  2
GouraudWithEdges
 70
     3
177
     3
291
     1
 70
    58
 90
        2
176
     1
 90
        2
176
     1
 90
        1
176
     1
 90
        2
176
     1
 40
0.6
176
     1
 40
30.0
176
     1
 62
     7
420
 16777215
176
     1
 90
        1
176
     1
 90
        0
176
     1
 62
     7
176
     1
 62
   257
176
     1
 90
        1
176
     1
 90
        1
176
     1
 40
1.0
176
     1
 90
        0
176
     1
 62
   257
176
     1
 40
1.0
176
     1
 90
        1
176
     1
 90
        6
176
     1
 90
        2
176
     1
 62
     7
176
     1
 90
        5
176
     1
 90
        0
176
     1
 90
        0
176
     1
290
     0
176
     1
 90
       13
176
     1
 40
0.0
176
     1
 90
        0
176
     1
290
     0
176
     1
290
     1
176
     1
290
     1
176
     1
290
     0
176
     1
290
     0
176
     1
290
     0
176
     1
290
     0
176
     1
290
     0
176
     1
290
     0
176
     1
 90
       50
176
     1
 40
0.0
176
     1
 40
1.0
176
     1
 90
        0
176
     1
 62
    18
420
        0
176
     1
 90
       50
176
     1
 90
        3
176
     1
 62
     5
420
      255
176
     1
290
     0
176
     1
 90
       50
176
     1
 90
       50
176
     1
 90
       50
176
     1
290
     0
176
     1
 90
       50
176
     1
 62
   256
176
     0
 40
1.0
176
     0
 90
        2
176
     1
  1
strokes_ogs.tif
176
     1
290
     0
176
     1
 40
1.0
176
     1
 40
1.0
176
     1
1001
ACAD
1000
AcDbSavedByObjectVersion
1070
     0
  0
VISUALSTYLE
  5
31
102
{ACAD_REACTORS
330
29
102
}
330
29
100
AcDbVisualStyle
  2
Hidden
 70
     6
177
     3
291
     0
 70
    58
 90
        1
176
     1
 90
        2
176
     1
 90
        2
176
     1
 90
        0
176
     1
 40
0.6
176
     1
 40
30.0
176
     1
 62
     7
420
 16777215
176
     1
 90
        2
176
     1
 90
        2
176
     1
 62
     7
176
     1
 62
   257
176
     1
 90
        2
176
     1
 90
        1
176
     1
 40
40.0
176
     1
 90
        0
176
     1
 62
   257
176
     1
 40
1.0
176
     1
 90
        1
176
     1
 90
        6
176
     1
 90
        2
176
     1
 62
     7
176
     1
 90
        3
176
     1
 90
        0
176
     1
 90
        0
176
     1
290
     0
176
     1
 90
        1
176
     1
 40
0.0
176
     1
 90
        0
176
     1
290
     0
176
     1
290
     1
176
     1
290
     1
176
     1
290
     0
176
     1
290
     0
176
     1
290
     0
176
     1
290
     0
176
     1
290
     0
176
     1
290
     0
176
     1
 90
       50
176
     1
 40
0.0
176
     1
 40
1.0
176
     1
 90
        0
176
     1
 62
    18
420
        0
176
     1
 90
       50
176
     1
 90
        3
176
     1
 62
     5
420
      255
176
     1
290
     0
176
     1
 90
       50
176
     1
 90
       50
176
     1
 90
       50
176
     1
290
     0
176
     1
 90
       50
176
     1
 62
   256
176
     0
 40
1.0
176
     0
 90
        2
176
     1
  1
strokes_ogs.tif
176
     1
290
     0
176
     1
 40
1.0
176
     1
 40
1.0
176
     1
1001
ACAD
1000
AcDbSavedByObjectVersion
1070
     0
  0
VISUALSTYLE
  5
3F
102
{ACAD_REACTORS
330
29
102
}
330
29
100
AcDbVisualStyle
  2
JitterOff
 70
    20
177
     3
291
     1
 70
    58
 90
        2
176
     0
 90
        2
176
     0
 90
        0
176
     0
 90
        0
176
     0
 40
0.6
176
     0
 40
30.0
176
     0
 62
     7
420
 16777215
176
     0
 90
        1
176
     0
 90
        4
176
     0
 62
     7
176
     0
 62
   257
176
     0
 90
        1
176
     0
 90
        1
176
     0
 40
1.0
176
     0
 90
       10
176
     2
 62
     7
176
     0
 40
1.0
176
     0
 90
        1
176
     0
 90
        6
176
     0
 90
        2
176
     0
 62
     7
176
     0
 90
        5
176
     0
 90
        0
176
     0
 90
        0
176
     0
290
     0
176
     0
 90
        1
176
     0
 40
0.0
176
     0
 90
        0
176
     0
290
     0
176
     0
290
     1
176
     0
290
     1
176
     0
290
     0
176
     0
290
     0
176
     0
290
     0
176
     0
290
     0
176
     0
290
     0
176
     0
290
     0
176
     0
 90
       50
176
     0
 40
0.0
176
     0
 40
1.0
176
     0
 90
        0
176
     0
 62
    18
420
        0
176
     0
 90
       50
176
     0
 90
        3
176
     0
 62
     5
420
      255
176
     0
290
     0
176
     0
 90
       50
176
     0
 90
       50
176
     0
 90
       50
176
     0
290
     0
176
     0
 90
       50
176
     0
 62
   256
176
     0
 40
1.0
176
     0
 90
        2
176
     0
  1
strokes_ogs.tif
176
     0
290
     0
176
     0
 40
1.0
176
     0
 40
1.0
176
     0
1001
ACAD
1000
AcDbSavedByObjectVersion
1070
     0
  0
VISUALSTYLE
  5
37
102
{ACAD_REACTORS
330
29
102
}
330
29
100
AcDbVisualStyle
  2
Linepattern
 70
    14
177
     3
291
     1
 70
    58
 90
        2
176
     1
 90
        2
176
     1
 90
        0
176
     1
 90
        0
176
     1
 40
0.6
176
     1
 40
30.0
176
     1
 62
     7
420
 16777215
176
     1
 90
        1
176
     1
 90
        4
176
     1
 62
     7
176
     1
 62
   257
176
     1
 90
        7
176
     1
 90
        7
176
     1
 40
1.0
176
     1
 90
        8
176
     1
 62
     7
176
     1
 40
1.0
176
     1
 90
        1
176
     1
 90
        6
176
     1
 90
        2
176
     1
 62
     7
176
     1
 90
        5
176
     1
 90
        0
176
     1
 90
        0
176
     1
290
     0
176
     1
 90
        1
176
     1
 40
0.0
176
     1
 90
        0
176
     1
290
     0
176
     1
290
     1
176
     1
290
     1
176
     1
290
     0
176
     1
290
     0
176
     1
290
     0
176
     1
290
     0
176
     1
290
     0
176
     1
290
     0
176
     1
 90
       50
176
     1
 40
0.0
176
     1
 40
1.0
176
     1
 90
        0
176
     1
 62
    18
420
        0
176
     1
 90
       50
176
     1
 90
        3
176
     1
 62
     5
420
      255
176
     1
290
     0
176
     1
 90
       50
176
     1
 90
       50
176
     1
 90
       50
176
     1
290
     0
176
     1
 90
       50
176
     1
 62
   256
176
     0
 40
1.0
176
     0
 90
        2
176
     1
  1
strokes_ogs.tif
176
     1
290
     0
176
     1
 40
1.0
176
     1
 40
1.0
176
     1
1001
ACAD
1000
AcDbSavedByObjectVersion
1070
     0
  0
VISUALSTYLE
  5
40
102
{ACAD_REACTORS
330
29
102
}
330
29
100
AcDbVisualStyle
  2
OverhangOff
 70
    21
177
     3
291
     1
 70
    58
 90
        2
176
     0
 90
        2
176
     0
 90
        0
176
     0
 90
        0
176
     0
 40
0.6
176
     0
 40
30.0
176
     0
 62
     7
420
 16777215
176
     0
 90
        1
176
     0
 90
        4
176
     0
 62
     7
176
     0
 62
   257
176
     0
 90
        1
176
     0
 90
        1
176
     0
 40
1.0
176
     0
 90
        9
176
     2
 62
     7
176
     0
 40
1.0
176
     0
 90
        1
176
     0
 90
        6
176
     0
 90
        2
176
     0
 62
     7
176
     0
 90
        5
176
     0
 90
        0
176
     0
 90
        0
176
     0
290
     0
176
     0
 90
        1
176
     0
 40
0.0
176
     0
 90
        0
176
     0
290
     0
176
     0
290
     1
176
     0
290
     1
176
     0
290
     0
176
     0
290
     0
176
     0
290
     0
176
     0
290
     0
176
     0
290
     0
176
     0
290
     0
176
     0
 90
       50
176
     0
 40
0.0
176
     0
 40
1.0
176
     0
 90
        0
176
     0
 62
    18
420
        0
176
     0
 90
       50
176
     0
 90
        3
176
     0
 62
     5
420
      255
176
     0
290
     0
176
     0
 90
       50
176
     0
 90
       50
176
     0
 90
       50
176
     0
290
     0
176
     0
 90
       50
176
     0
 62
   256
176
     0
 40
1.0
176
     0
 90
        2
176
     0
  1
strokes_ogs.tif
176
     0
290
     0
176
     0
 40
1.0
176
     0
 40
1.0
176
     0
1001
ACAD
1000
AcDbSavedByObjectVersion
1070
     0
  0
VISUALSTYLE
  5
33
102
{ACAD_REACTORS
330
29
102
}
330
29
100
AcDbVisualStyle
  2
Realistic
 70
     8
177
     3
291
     0
 70
    58
 90
        2
176
     1
 90
        3
176
     1
 90
        0
176
     1
 90
        2
176
     1
 40
0.6
176
     1
 40
30.0
176
     1
 62
     7
420
 16777215
176
     1
 90
        0
176
     1
 90
        0
176
     1
 62
     7
176
     1
 62
   257
176
     1
 90
        1
176
     1
 90
        1
176
     1
 40
1.0
176
     1
 90
        8
176
     1
 62
   257
176
     1
 40
1.0
176
     1
 90
        1
176
     1
 90
        6
176
     1
 90
        2
176
     1
 62
     7
176
     1
 90
        3
176
     1
 90
        0
176
     1
 90
        0
176
     1
290
     0
176
     1
 90
       13
176
     1
 40
0.0
176
     1
 90
        0
176
     1
290
     0
176
     1
290
     1
176
     1
290
     1
176
     1
290
     0
176
     1
290
     0
176
     1
290
     0
176
     1
290
     0
176
     1
290
     0
176
     1
290
     0
176
     1
 90
       50
176
     1
 40
0.0
176
     1
 40
1.0
176
     1
 90
        0
176
     1
 62
    18
420
        0
176
     1
 90
       50
176
     1
 90
        3
176
     1
 62
     5
420
      255
176
     1
290
     0
176
     1
 90
       50
176
     1
 90
       50
176
     1
 90
       50
176
     1
290
     0
176
     1
 90
       50
176
     1
 62
   256
176
     0
 40
1.0
176
     0
 90
        2
176
     1
  1
strokes_ogs.tif
176
     1
290
     0
176
     1
 40
1.0
176
     1
 40
1.0
176
     1
1001
ACAD
1000
AcDbSavedByObjectVersion
1070
     0
  0
VISUALSTYLE
  5
3E
102
{ACAD_REACTORS
330
29
102
}
330
29
100
AcDbVisualStyle
  2
Shaded
 70
    27
177
     3
291
     0
 70
    58
 90
        2
176
     1
 90
        2
176
     1
 90
        1
176
     1
 90
        2
176
     1
 40
0.6
176
     1
 40
30.0
176
     1
 62
     7
420
 16777215
176
     1
 90
        0
176
     1
 90
        4
176
     1
 62
     7
176
     1
 62
   257
176
     1
 90
        1
176
     1
 90
        1
176
     1
 40
1.0
176
     1
 90
        8
176
     1
 62
   257
176
     1
 40
1.0
176
     1
 90
        1
176
     1
 90
        6
176
     1
 90
        2
176
     1
 62
     8
420
  7895160
176
     1
 90
        3
176
     1
 90
        0
176
     1
 90
        0
176
     1
290
     0
176
     1
 90
        5
176
     1
 40
0.0
176
     1
 90
        0
176
     1
290
     0
176
     1
290
     1
176
     1
290
     1
176
     1
290
     0
176
     1
290
     0
176
     1
290
     0
176
     1
290
     0
176
     1
290
     0
176
     1
290
     0
176
     1
 90
       50
176
     1
 40
0.0
176
     1
 40
1.0
176
     1
 90
        0
176
     1
 62
    18
420
        0
176
     1
 90
       50
176
     1
 90
        3
176
     1
 62
     5
420
      255
176
     1
290
     0
176
     1
 90
       50
176
     1
 90
       50
176
     1
 90
       50
176
     1
290
     0
176
     1
 90
       50
176
     1
 62
   256
176
     0
 40
1.0
176
     0
 90
        2
176
     1
  1
strokes_ogs.tif
176
     1
290
     0
176
     1
 40
1.0
176
     1
 40
1.0
176
     1
1001
ACAD
1000
AcDbSavedByObjectVersion
1070
     0
  0
VISUALSTYLE
  5
3D
102
{ACAD_REACTORS
330
29
102
}
330
29
100
AcDbVisualStyle
  2
Shaded with edges
 70
    26
177
     3
291
     0
 70
    58
 90
        2
176
     1
 90
        2
176
     1
 90
        1
176
     1
 90
        2
176
     1
 40
0.6
176
     1
 40
30.0
176
     1
 62
     7
420
 16777215
176
     1
 90
        1
176
     1
 90
        2
176
     1
 62
     7
176
     1
 62
   257
176
     1
 90
        2
176
     1
 90
        1
176
     1
 40
1.0
176
     1
 90
        8
176
     1
 62
   257
176
     1
 40
1.0
176
     1
 90
        1
176
     1
 90
        6
176
     1
 90
        2
176
     1
 62
     7
176
     1
 90
        3
176
     1
 90
        0
176
     1
 90
        0
176
     1
290
     0
176
     1
 90
        5
176
     1
 40
0.0
176
     1
 90
        0
176
     1
290
     0
176
     1
290
     1
176
     1
290
     1
176
     1
290
     0
176
     1
290
     0
176
     1
290
     0
176
     1
290
     0
176
     1
290
     0
176
     1
290
     0
176
     1
 90
       50
176
     1
 40
0.0
176
     1
 40
1.0
176
     1
 90
        0
176
     1
 62
    18
420
        0
176
     1
 90
       50
176
     1
 90
        3
176
     1
 62
     5
420
      255
176
     1
290
     0
176
     1
 90
       50
176
     1
 90
       50
176
     1
 90
       50
176
     1
290
     0
176
     1
 90
       50
176
     1
 62
   256
176
     0
 40
1.0
176
     0
 90
        2
176
     1
  1
strokes_ogs.tif
176
     1
290
     0
176
     1
 40
1.0
176
     1
 40
1.0
176
     1
1001
ACAD
1000
AcDbSavedByObjectVersion
1070
     0
  0
VISUALSTYLE
  5
3A
102
{ACAD_REACTORS
330
29
102
}
330
29
100
AcDbVisualStyle
  2
Shades of Gray
 70
    23
177
     3
291
     0
 70
    58
 90
        2
176
     1
 90
        2
176
     1
 90
        3
176
     1
 90
        0
176
     1
 40
0.6
176
     1
 40
30.0
176
     1
 62
     7
420
 16777215
176
     1
 90
        2
176
     1
 90
        2
176
     1
 62
     7
176
     1
 62
     7
176
     1
 90
        1
176
     1
 90
        1
176
     1
 40
40.0
176
     1
 90
        8
176
     1
 62
     7
176
     1
 40
1.0
176
     1
 90
        1
176
     1
 90
        6
176
     1
 90
        2
176
     1
 62
     7
176
     1
 90
        3
176
     1
 90
        0
176
     1
 90
        0
176
     1
290
     0
176
     1
 90
        1
176
     1
 40
0.0
176
     1
 90
        0
176
     1
290
     0
176
     1
290
     1
176
     1
290
     1
176
     1
290
     0
176
     1
290
     0
176
     1
290
     0
176
     1
290
     0
176
     1
290
     0
176
     1
290
     0
176
     1
 90
       50
176
     1
 40
0.0
176
     1
 40
1.0
176
     1
 90
        0
176
     1
 62
    18
420
        0
176
     1
 90
       50
176
     1
 90
        3
176
     1
 62
     5
420
      255
176
     1
290
     0
176
     1
 90
       50
176
     1
 90
       50
176
     1
 90
       50
176
     1
290
     0
176
     1
 90
       50
176
     1
 62
   256
176
     0
 40
1.0
176
     0
 90
        2
176
     1
  1
strokes_ogs.tif
176
     1
290
     0
176
     1
 40
1.0
176
     1
 40
1.0
176
     1
1001
ACAD
1000
AcDbSavedByObjectVersion
1070
     0
  0
VISUALSTYLE
  5
3B
102
{ACAD_REACTORS
330
29
102
}
330
29
100
AcDbVisualStyle
  2
Sketchy
 70
    24
177
     3
291
     0
 70
    58
 90
        1
176
     1
 90
        2
176
     1
 90
        2
176
     1
 90
        0
176
     1
 40
0.6
176
     1
 40
30.0
176
     1
 62
     7
420
 16777215
176
     1
 90
        2
176
     1
 90
        2
176
     1
 62
     7
176
     1
 62
     7
176
     1
 90
        1
176
     1
 90
        1
176
     1
 40
40.0
176
     1
 90
       11
176
     1
 62
     7
176
     1
 40
1.0
176
     1
 90
        1
176
     1
 90
        6
176
     1
 90
        2
176
     1
 62
     7
176
     1
 90
        6
176
     1
 90
        0
176
     1
 90
        0
176
     1
290
     0
176
     1
 90
        1
176
     1
 40
0.0
176
     1
 90
        0
176
     1
290
     0
176
     1
290
     1
176
     1
290
     1
176
     1
290
     0
176
     1
290
     0
176
     1
290
     0
176
     1
290
     0
176
     1
290
     0
176
     1
290
     0
176
     1
 90
       50
176
     1
 40
0.0
176
     1
 40
1.0
176
     1
 90
        0
176
     1
 62
    18
420
        0
176
     1
 90
       50
176
     1
 90
        3
176
     1
 62
     5
420
      255
176
     1
290
     0
176
     1
 90
       50
176
     1
 90
       50
176
     1
 90
       50
176
     1
290
     0
176
     1
 90
       50
176
     1
 62
   256
176
     0
 40
1.0
176
     0
 90
        2
176
     1
  1
strokes_ogs.tif
176
     1
290
     0
176
     1
 40
1.0
176
     1
 40
1.0
176
     1
1001
ACAD
1000
AcDbSavedByObjectVersion
1070
     0
  0
VISUALSTYLE
  5
36
102
{ACAD_REACTORS
330
29
102
}
330
29
100
AcDbVisualStyle
  2
Thicken
 70
    13
177
     3
291
     1
 70
    58
 90
        2
176
     1
 90
        2
176
     1
 90
        0
176
     1
 90
        0
176
     1
 40
0.6
176
     1
 40
30.0
176
     1
 62
     7
420
 16777215
176
     1
 90
        1
176
     1
 90
        4
176
     1
 62
     7
176
     1
 62
   257
176
     1
 90
        1
176
     1
 90
        1
176
     1
 40
1.0
176
     1
 90
       12
176
     1
 62
     7
176
     1
 40
1.0
176
     1
 90
        1
176
     1
 90
        6
176
     1
 90
        2
176
     1
 62
     7
176
     1
 90
        5
176
     1
 90
        0
176
     1
 90
        0
176
     1
290
     0
176
     1
 90
        1
176
     1
 40
0.0
176
     1
 90
        0
176
     1
290
     0
176
     1
290
     1
176
     1
290
     1
176
     1
290
     0
176
     1
290
     0
176
     1
290
     0
176
     1
290
     0
176
     1
290
     0
176
     1
290
     0
176
     1
 90
       50
176
     1
 40
0.0
176
     1
 40
1.0
176
     1
 90
        0
176
     1
 62
    18
420
        0
176
     1
 90
       50
176
     1
 90
        3
176
     1
 62
     5
420
      255
176
     1
290
     0
176
     1
 90
       50
176
     1
 90
       50
176
     1
 90
       50
176
     1
290
     0
176
     1
 90
       50
176
     1
 62
   256
176
     0
 40
1.0
176
     0
 90
        2
176
     1
  1
strokes_ogs.tif
176
     1
290
     0
176
     1
 40
1.0
176
     1
 40
1.0
176
     1
1001
ACAD
1000
AcDbSavedByObjectVersion
1070
     0
  0
VISUALSTYLE
  5
30
102
{ACAD_REACTORS
330
29
102
}
330
29
100
AcDbVisualStyle
  2
Wireframe
 70
     5
177
     3
291
     0
 70
    58
 90
        0
176
     1
 90
        2
176
     1
 90
        0
176
     1
 90
        0
176
     1
 40
0.6
176
     1
 40
30.0
176
     1
 62
     7
420
 16777215
176
     1
 90
        1
176
     1
 90
        4
176
     1
 62
     7
176
     1
 62
   257
176
     1
 90
        1
176
     1
 90
        1
176
     1
 40
1.0
176
     1
 90
        0
176
     1
 62
   257
176
     1
 40
1.0
176
     1
 90
        1
176
     1
 90
        6
176
     1
 90
        2
176
     1
 62
     7
176
     1
 90
        3
176
     1
 90
        0
176
     1
 90
        0
176
     1
290
     0
176
     1
 90
        1
176
     1
 40
0.0
176
     1
 90
        0
176
     1
290
     0
176
     1
290
     1
176
     1
290
     1
176
     1
290
     0
176
     1
290
     0
176
     1
290
     0
176
     1
290
     0
176
     1
290
     0
176
     1
290
     0
176
     1
 90
       50
176
     1
 40
0.0
176
     1
 40
1.0
176
     1
 90
        0
176
     1
 62
    18
420
        0
176
     1
 90
       50
176
     1
 90
        3
176
     1
 62
     5
420
      255
176
     1
290
     0
176
     1
 90
       50
176
     1
 90
       50
176
     1
 90
       50
176
     1
290
     0
176
     1
 90
       50
176
     1
 62
   256
176
     0
 40
1.0
176
     0
 90
        2
176
     1
  1
strokes_ogs.tif
176
     1
290
     0
176
     1
 40
1.0
176
     1
 40
1.0
176
     1
1001
ACAD
1000
AcDbSavedByObjectVersion
1070
     0
  0
VISUALSTYLE
  5
3C
102
{ACAD_REACTORS
330
29
102
}
330
29
100
AcDbVisualStyle
  2
X-Ray
 70
    25
177
     3
291
     0
 70
    58
 90
        2
176
     1
 90
        2
176
     1
 90
        1
176
     1
 90
        1
176
     1
 40
0.5
176
     1
 40
30.0
176
     1
 62
     7
420
 16777215
176
     1
 90
        1
176
     1
 90
        0
176
     1
 62
     7
176
     1
 62
   257
176
     1
 90
        1
176
     1
 90
        1
176
     1
 40
1.0
176
     1
 90
        8
176
     1
 62
     7
176
     1
 40
1.0
176
     1
 90
        1
176
     1
 90
        6
176
     1
 90
        2
176
     1
 62
     7
176
     1
 90
        3
176
     1
 90
        0
176
     1
 90
        0
176
     1
290
     0
176
     1
 90
       13
176
     1
 40
0.0
176
     1
 90
        0
176
     1
290
     0
176
     1
290
     1
176
     1
290
     1
176
     1
290
     0
176
     1
290
     0
176
     1
290
     0
176
     1
290
     0
176
     1
290
     0
176
     1
290
     0
176
     1
 90
       50
176
     1
 40
0.0
176
     1
 40
1.0
176
     1
 90
        0
176
     1
 62
    18
420
        0
176
     1
 90
       50
176
     1
 90
        3
176
     1
 62
     5
420
      255
176
     1
290
     0
176
     1
 90
       50
176
     1
 90
       50
176
     1
 90
       50
176
     1
290
     0
176
     1
 90
       50
176
     1
 62
   256
176
     0
 40
1.0
176
     0
 90
        2
176
     1
  1
strokes_ogs.tif
176
     1
290
     0
176
     1
 40
1.0
176
     1
 40
1.0
176
     1
1001
ACAD
1000
AcDbSavedByObjectVersion
1070
     0
  0
DICTIONARYVAR
  5
77D
102
{ACAD_REACTORS
330
778
102
}
330
778
100
DictionaryVariables
280
     0
  1
0
  0
DICTIONARYVAR
  5
77E
102
{ACAD_REACTORS
330
778
102
}
330
778
100
DictionaryVariables
280
     0
  1
1:1
  0
DICTIONARYVAR
  5
77A
102
{ACAD_REACTORS
330
778
102
}
330
778
100
DictionaryVariables
280
     0
  1
STANDARD
  0
DICTIONARYVAR
  5
779
102
{ACAD_REACTORS
330
778
102
}
330
778
100
DictionaryVariables
280
     0
  1
STANDARD
  0
DICTIONARYVAR
  5
77B
102
{ACAD_REACTORS
330
778
102
}
330
778
100
DictionaryVariables
280
     0
  1
Imperial24
  0
DICTIONARYVAR
  5
77C
102
{ACAD_REACTORS
330
778
102
}
330
778
100
DictionaryVariables
280
     0
  1
Imperial24
  0
DICTIONARY
  5
784
330
6B
100
AcDbDictionary
280
     1
281
     1
  3
ACAD_XREC_ROUNDTRIP
360
785
  0
DICTIONARY
  5
1A
330
19
100
AcDbDictionary
280
     1
281
     1
  3
BUMPTILE
360
1C
  3
DIFFUSETILE
360
1B
  3
OPACITYTILE
360
1F
  3
REFLECTIONTILE
360
1E
  3
REFRACTIONTILE
360
20
  3
SPECULARTILE
360
1D
  0
DICTIONARY
  5
12
330
11
100
AcDbDictionary
280
     1
281
     1
  3
BUMPTILE
360
14
  3
DIFFUSETILE
360
13
  3
OPACITYTILE
360
17
  3
REFLECTIONTILE
360
16
  3
REFRACTIONTILE
360
18
  3
SPECULARTILE
360
15
  0
DICTIONARY
  5
22
330
21
100
AcDbDictionary
280
     1
281
     1
  3
BUMPTILE
360
24
  3
DIFFUSETILE
360
23
  3
OPACITYTILE
360
27
  3
REFLECTIONTILE
360
26
  3
REFRACTIONTILE
360
28
  3
SPECULARTILE
360
25
  0
DICTIONARY
  5
782
330
69
100
AcDbDictionary
280
     1
281
     1
  3
ACAD_XREC_ROUNDTRIP
360
783
  0
DICTIONARY
  5
77F
330
65
100
AcDbDictionary
280
     1
281
     1
  3
ACAD_ROUNDTRIP_2008_TABLESTYLE_CELLSTYLEMAP
360
780
  0
XRECORD
  5
785
102
{ACAD_REACTORS
330
784
102
}
330
784
100
AcDbXrecord
280
     1
102
DISPLAYNAME
  1
Imperial24
102
FLAGS
 90
        0
  0
XRECORD
  5
1C
102
{ACAD_REACTORS
330
1A
102
}
330
1A
100
AcDbXrecord
280
     1
270
     1
271
     1
  0
XRECORD
  5
1B
102
{ACAD_REACTORS
330
1A
102
}
330
1A
100
AcDbXrecord
280
     1
270
     1
271
     1
  0
XRECORD
  5
1F
102
{ACAD_REACTORS
330
1A
102
}
330
1A
100
AcDbXrecord
280
     1
270
     1
271
     1
  0
XRECORD
  5
1E
102
{ACAD_REACTORS
330
1A
102
}
330
1A
100
AcDbXrecord
280
     1
270
     1
271
     1
  0
XRECORD
  5
20
102
{ACAD_REACTORS
330
1A
102
}
330
1A
100
AcDbXrecord
280
     1
270
     1
271
     1
  0
XRECORD
  5
1D
102
{ACAD_REACTORS
330
1A
102
}
330
1A
100
AcDbXrecord
280
     1
270
     1
271
     1
  0
XRECORD
  5
14
102
{ACAD_REACTORS
330
12
102
}
330
12
100
AcDbXrecord
280
     1
270
     1
271
     1
  0
XRECORD
  5
13
102
{ACAD_REACTORS
330
12
102
}
330
12
100
AcDbXrecord
280
     1
270
     1
271
     1
  0
XRECORD
  5
17
102
{ACAD_REACTORS
330
12
102
}
330
12
100
AcDbXrecord
280
     1
270
     1
271
     1
  0
XRECORD
  5
16
102
{ACAD_REACTORS
330
12
102
}
330
12
100
AcDbXrecord
280
     1
270
     1
271
     1
  0
XRECORD
  5
18
102
{ACAD_REACTORS
330
12
102
}
330
12
100
AcDbXrecord
280
     1
270
     1
271
     1
  0
XRECORD
  5
15
102
{ACAD_REACTORS
330
12
102
}
330
12
100
AcDbXrecord
280
     1
270
     1
271
     1
  0
XRECORD
  5
24
102
{ACAD_REACTORS
330
22
102
}
330
22
100
AcDbXrecord
280
     1
270
     1
271
     1
  0
XRECORD
  5
23
102
{ACAD_REACTORS
330
22
102
}
330
22
100
AcDbXrecord
280
     1
270
     1
271
     1
  0
XRECORD
  5
27
102
{ACAD_REACTORS
330
22
102
}
330
22
100
AcDbXrecord
280
     1
270
     1
271
     1
  0
XRECORD
  5
26
102
{ACAD_REACTORS
330
22
102
}
330
22
100
AcDbXrecord
280
     1
270
     1
271
     1
  0
XRECORD
  5
28
102
{ACAD_REACTORS
330
22
102
}
330
22
100
AcDbXrecord
280
     1
270
     1
271
     1
  0
XRECORD
  5
25
102
{ACAD_REACTORS
330
22
102
}
330
22
100
AcDbXrecord
280
     1
270
     1
271
     1
  0
XRECORD
  5
783
102
{ACAD_REACTORS
330
782
102
}
330
782
100
AcDbXrecord
280
     1
102
DISPLAYNAME
  1
Imperial24
102
FLAGS
 90
        0
  0
CELLSTYLEMAP
  5
780
102
{ACAD_REACTORS
330
77F
102
}
330
77F
100
AcDbCellStyleMap
 90
        3
300
CELLSTYLE
  1
TABLEFORMAT_BEGIN
 90
        5
170
     1
 91
        0
 92
    32768
 62
   257
 93
        1
300
CONTENTFORMAT
  1
CONTENTFORMAT_BEGIN
 90
        0
 91
        0
 92
      512
 93
        0
300

 40
0.0
140
1.0
 94
        5
 62
     0
340
55
144
0.25
309
CONTENTFORMAT_END
171
     1
301
MARGIN
  1
CELLMARGIN_BEGIN
 40
1.5
 40
1.5
 40
1.5
 40
1.5
 40
0.18
 40
0.18
309
CELLMARGIN_END
 94
        0
309
TABLEFORMAT_END
  1
CELLSTYLE_BEGIN
 90
        1
 91
        1
300
_TITLE
309
CELLSTYLE_END
300
CELLSTYLE
  1
TABLEFORMAT_BEGIN
 90
        5
170
     1
 91
        0
 92
        0
 62
   257
 93
        1
300
CONTENTFORMAT
  1
CONTENTFORMAT_BEGIN
 90
        0
 91
        0
 92
      512
 93
        0
300

 40
0.0
140
1.0
 94
        5
 62
     0
340
55
144
0.18
309
CONTENTFORMAT_END
171
     1
301
MARGIN
  1
CELLMARGIN_BEGIN
 40
1.5
 40
1.5
 40
1.5
 40
1.5
 40
0.18
 40
0.18
309
CELLMARGIN_END
 94
        0
309
TABLEFORMAT_END
  1
CELLSTYLE_BEGIN
 90
        2
 91
        1
300
_HEADER
309
CELLSTYLE_END
300
CELLSTYLE
  1
TABLEFORMAT_BEGIN
 90
        5
170
     1
 91
        0
 92
        0
 62
   257
 93
        1
300
CONTENTFORMAT
  1
CONTENTFORMAT_BEGIN
 90
        0
 91
        0
 92
      512
 93
        0
300

 40
0.0
140
1.0
 94
        2
 62
     0
340
55
144
0.18
309
CONTENTFORMAT_END
171
     1
301
MARGIN
  1
CELLMARGIN_BEGIN
 40
1.5
 40
1.5
 40
1.5
 40
1.5
 40
0.18
 40
0.18
309
CELLMARGIN_END
 94
        0
309
TABLEFORMAT_END
  1
CELLSTYLE_BEGIN
 90
        3
 91
        2
300
_DATA
309
CELLSTYLE_END
  0
ENDSEC
  0
EOF
