  0
SECTION
  2
HEADER
  9
$ACADVER
  1
AC1021
  9
$ACADMAINTVER
 70
    25
  9
$DWGCODEPAGE
  3
ANSI_1252
  9
$INSBASE
 10
0.0
 20
0.0
 30
0.0
  9
$EXTMIN
 10
43.61771653543307
 20
-2.396196850393701
 30
0.0
  9
$EXTMAX
 10
52.6206220472441
 20
7.606803149606299
 30
0.0
  9
$LIMMIN
 10
0.0
 20
0.0
  9
$LIMMAX
 10
12.0
 20
9.0
  9
$ORTHOMODE
 70
     0
  9
$REGENMODE
 70
     1
  9
$FILLMODE
 70
     1
  9
$QTEXTMODE
 70
     0
  9
$MIRRTEXT
 70
     1
  9
$LTSCALE
 40
1.0
  9
$ATTMODE
 70
     1
  9
$TEXTSIZE
 40
0.2
  9
$TRACEWID
 40
0.05
  9
$TEXTSTYLE
  7
Standard
  9
$CLAYER
  8
0
  9
$CELTYPE
  6
ByLayer
  9
$CECOLOR
 62
   256
  9
$CELTSCALE
 40
1.0
  9
$DISPSILH
 70
     0
  9
$DIMSCALE
 40
1.0
  9
$DIMASZ
 40
0.18
  9
$DIMEXO
 40
0.0625
  9
$DIMDLI
 40
0.38
  9
$DIMRND
 40
0.0
  9
$DIMDLE
 40
0.0
  9
$DIMEXE
 40
0.18
  9
$DIMTP
 40
0.0
  9
$DIMTM
 40
0.0
  9
$DIMTXT
 40
0.18
  9
$DIMCEN
 40
0.09
  9
$DIMTSZ
 40
0.0
  9
$DIMTOL
 70
     0
  9
$DIMLIM
 70
     0
  9
$DIMTIH
 70
     1
  9
$DIMTOH
 70
     1
  9
$DIMSE1
 70
     0
  9
$DIMSE2
 70
     0
  9
$DIMTAD
 70
     0
  9
$DIMZIN
 70
     0
  9
$DIMBLK
  1

  9
$DIMASO
 70
     1
  9
$DIMSHO
 70
     1
  9
$DIMPOST
  1

  9
$DIMAPOST
  1

  9
$DIMALT
 70
     0
  9
$DIMALTD
 70
     2
  9
$DIMALTF
 40
25.4
  9
$DIMLFAC
 40
1.0
  9
$DIMTOFL
 70
     0
  9
$DIMTVP
 40
0.0
  9
$DIMTIX
 70
     0
  9
$DIMSOXD
 70
     0
  9
$DIMSAH
 70
     0
  9
$DIMBLK1
  1

  9
$DIMBLK2
  1

  9
$DIMSTYLE
  2
Standard
  9
$DIMCLRD
 70
     0
  9
$DIMCLRE
 70
     0
  9
$DIMCLRT
 70
     0
  9
$DIMTFAC
 40
1.0
  9
$DIMGAP
 40
0.09
  9
$DIMJUST
 70
     0
  9
$DIMSD1
 70
     0
  9
$DIMSD2
 70
     0
  9
$DIMTOLJ
 70
     1
  9
$DIMTZIN
 70
     0
  9
$DIMALTZ
 70
     0
  9
$DIMALTTZ
 70
     0
  9
$DIMUPT
 70
     0
  9
$DIMDEC
 70
     4
  9
$DIMTDEC
 70
     4
  9
$DIMALTU
 70
     2
  9
$DIMALTTD
 70
     2
  9
$DIMTXSTY
  7
Standard
  9
$DIMAUNIT
 70
     0
  9
$DIMADEC
 70
     0
  9
$DIMALTRND
 40
0.0
  9
$DIMAZIN
 70
     0
  9
$DIMDSEP
 70
    46
  9
$DIMATFIT
 70
     3
  9
$DIMFRAC
 70
     0
  9
$DIMLDRBLK
  1

  9
$DIMLUNIT
 70
     2
  9
$DIMLWD
 70
    -2
  9
$DIMLWE
 70
    -2
  9
$DIMTMOVE
 70
     0
  9
$DIMFXL
 40
1.0
  9
$DIMFXLON
 70
     0
  9
$DIMJOGANG
 40
0.7853981633974483
  9
$DIMTFILL
 70
     0
  9
$DIMTFILLCLR
 70
     0
  9
$DIMARCSYM
 70
     0
  9
$DIMLTYPE
  6

  9
$DIMLTEX1
  6

  9
$DIMLTEX2
  6

  9
$LUNITS
 70
     2
  9
$LUPREC
 70
     4
  9
$SKETCHINC
 40
0.1
  9
$FILLETRAD
 40
0.5
  9
$AUNITS
 70
     0
  9
$AUPREC
 70
     0
  9
$MENU
  1
.
  9
$ELEVATION
 40
0.0
  9
$PELEVATION
 40
0.0
  9
$THICKNESS
 40
0.0
  9
$LIMCHECK
 70
     0
  9
$CHAMFERA
 40
0.0
  9
$CHAMFERB
 40
0.0
  9
$CHAMFERC
 40
0.0
  9
$CHAMFERD
 40
0.0
  9
$SKPOLY
 70
     0
  9
$TDCREATE
 40
2458992.436562361
  9
$TDUCREATE
 40
2458992.728229028
  9
$TDUPDATE
 40
2458992.436562419
  9
$TDUUPDATE
 40
2458992.728229085
  9
$TDINDWG
 40
0.0000000116
  9
$TDUSRTIMER
 40
0.0000000116
  9
$USRTIMER
 70
     1
  9
$ANGBASE
 50
0.0
  9
$ANGDIR
 70
     0
  9
$PDMODE
 70
     0
  9
$PDSIZE
 40
0.0
  9
$PLINEWID
 40
0.0
  9
$SPLFRAME
 70
     0
  9
$SPLINETYPE
 70
     6
  9
$SPLINESEGS
 70
     8
  9
$HANDSEED
  5
B7
  9
$SURFTAB1
 70
     6
  9
$SURFTAB2
 70
     6
  9
$SURFTYPE
 70
     6
  9
$SURFU
 70
     6
  9
$SURFV
 70
     6
  9
$UCSBASE
  2

  9
$UCSNAME
  2

  9
$UCSORG
 10
0.0
 20
0.0
 30
0.0
  9
$UCSXDIR
 10
1.0
 20
0.0
 30
0.0
  9
$UCSYDIR
 10
0.0
 20
1.0
 30
0.0
  9
$UCSORTHOREF
  2

  9
$UCSORTHOVIEW
 70
     0
  9
$UCSORGTOP
 10
0.0
 20
0.0
 30
0.0
  9
$UCSORGBOTTOM
 10
0.0
 20
0.0
 30
0.0
  9
$UCSORGLEFT
 10
0.0
 20
0.0
 30
0.0
  9
$UCSORGRIGHT
 10
0.0
 20
0.0
 30
0.0
  9
$UCSORGFRONT
 10
0.0
 20
0.0
 30
0.0
  9
$UCSORGBACK
 10
0.0
 20
0.0
 30
0.0
  9
$PUCSBASE
  2

  9
$PUCSNAME
  2

  9
$PUCSORG
 10
0.0
 20
0.0
 30
0.0
  9
$PUCSXDIR
 10
1.0
 20
0.0
 30
0.0
  9
$PUCSYDIR
 10
0.0
 20
1.0
 30
0.0
  9
$PUCSORTHOREF
  2

  9
$PUCSORTHOVIEW
 70
     0
  9
$PUCSORGTOP
 10
0.0
 20
0.0
 30
0.0
  9
$PUCSORGBOTTOM
 10
0.0
 20
0.0
 30
0.0
  9
$PUCSORGLEFT
 10
0.0
 20
0.0
 30
0.0
  9
$PUCSORGRIGHT
 10
0.0
 20
0.0
 30
0.0
  9
$PUCSORGFRONT
 10
0.0
 20
0.0
 30
0.0
  9
$PUCSORGBACK
 10
0.0
 20
0.0
 30
0.0
  9
$USERI1
 70
     0
  9
$USERI2
 70
     0
  9
$USERI3
 70
     0
  9
$USERI4
 70
     0
  9
$USERI5
 70
     0
  9
$USERR1
 40
0.0
  9
$USERR2
 40
0.0
  9
$USERR3
 40
0.0
  9
$USERR4
 40
0.0
  9
$USERR5
 40
0.0
  9
$WORLDVIEW
 70
     1
  9
$SHADEDGE
 70
     3
  9
$SHADEDIF
 70
    70
  9
$TILEMODE
 70
     1
  9
$MAXACTVP
 70
    64
  9
$PINSBASE
 10
0.0
 20
0.0
 30
0.0
  9
$PLIMCHECK
 70
     0
  9
$PEXTMIN
 10
1.000000000000000E+20
 20
1.000000000000000E+20
 30
1.000000000000000E+20
  9
$PEXTMAX
 10
-1.000000000000000E+20
 20
-1.000000000000000E+20
 30
-1.000000000000000E+20
  9
$PLIMMIN
 10
0.0
 20
0.0
  9
$PLIMMAX
 10
12.0
 20
9.0
  9
$UNITMODE
 70
     0
  9
$VISRETAIN
 70
     1
  9
$PLINEGEN
 70
     0
  9
$PSLTSCALE
 70
     1
  9
$TREEDEPTH
 70
  3020
  9
$CMLSTYLE
  2
Standard
  9
$CMLJUST
 70
     0
  9
$CMLSCALE
 40
1.0
  9
$PROXYGRAPHICS
 70
     1
  9
$MEASUREMENT
 70
     0
  9
$CELWEIGHT
370
    -1
  9
$ENDCAPS
280
     0
  9
$JOINSTYLE
280
     0
  9
$LWDISPLAY
290
     0
  9
$INSUNITS
 70
     1
  9
$HYPERLINKBASE
  1

  9
$STYLESHEET
  1

  9
$XEDIT
290
     1
  9
$CEPSNTYPE
380
     0
  9
$PSTYLEMODE
290
     1
  9
$FINGERPRINTGUID
  2
{3601292a-6d1b-4cc1-936e-61a34ab335b7}
  9
$VERSIONGUID
  2
{FAEB1C32-E019-11D5-929B-00C0DF256EC4}
  9
$EXTNAMES
290
     1
  9
$PSVPSCALE
 40
0.0
  9
$OLESTARTUP
290
     0
  9
$SORTENTS
280
   127
  9
$INDEXCTL
280
     0
  9
$HIDETEXT
280
     1
  9
$XCLIPFRAME
290
     0
  9
$HALOGAP
280
     0
  9
$OBSCOLOR
 70
   257
  9
$OBSLTYPE
280
     0
  9
$INTERSECTIONDISPLAY
280
     0
  9
$INTERSECTIONCOLOR
 70
   257
  9
$DIMASSOC
280
     2
  9
$PROJECTNAME
  1

  9
$CAMERADISPLAY
290
     0
  9
$LENSLENGTH
 40
50.0
  9
$CAMERAHEIGHT
 40
0.0
  9
$STEPSPERSEC
 40
2.0
  9
$STEPSIZE
 40
6.0
  9
$3DDWFPREC
 40
2.0
  9
$PSOLWIDTH
 40
0.25
  9
$PSOLHEIGHT
 40
4.0
  9
$LOFTANG1
 40
1.570796326794897
  9
$LOFTANG2
 40
1.570796326794897
  9
$LOFTMAG1
 40
0.0
  9
$LOFTMAG2
 40
0.0
  9
$LOFTPARAM
 70
     7
  9
$LOFTNORMALS
280
     1
  9
$LATITUDE
 40
37.795
  9
$LONGITUDE
 40
-122.394
  9
$NORTHDIRECTION
 40
0.0
  9
$TIMEZONE
 70
 -8000
  9
$LIGHTGLYPHDISPLAY
280
     1
  9
$TILEMODELIGHTSYNCH
280
     1
  9
$CMATERIAL
347
44
  9
$SOLIDHIST
280
     0
  9
$SHOWHIST
280
     1
  9
$DWFFRAME
280
     2
  9
$DGNFRAME
280
     2
  9
$REALWORLDSCALE
290
     1
  9
$INTERFERECOLOR
 62
   256
  9
$CSHADOW
280
     0
  9
$SHADOWPLANELOCATION
 40
0.0
  0
ENDSEC
  0
SECTION
  2
CLASSES
  0
CLASS
  1
ACDBDICTIONARYWDFLT
  2
AcDbDictionaryWithDefault
  3
ObjectDBX Classes
 90
        0
 91
        3
280
     0
281
     0
  0
CLASS
  1
VISUALSTYLE
  2
AcDbVisualStyle
  3
ObjectDBX Classes
 90
     4095
 91
        3
280
     0
281
     0
  0
CLASS
  1
MATERIAL
  2
AcDbMaterial
  3
ObjectDBX Classes
 90
     1153
 91
        3
280
     0
281
     0
  0
CLASS
  1
SCALE
  2
AcDbScale
  3
ObjectDBX Classes
 90
     1153
 91
        3
280
     0
281
     0
  0
CLASS
  1
TABLESTYLE
  2
AcDbTableStyle
  3
ObjectDBX Classes
 90
     4095
 91
        3
280
     0
281
     0
  0
CLASS
  1
MLEADERSTYLE
  2
AcDbMLeaderStyle
  3
ACDB_MLEADERSTYLE_CLASS
 90
     4095
 91
        3
280
     0
281
     0
  0
CLASS
  1
SUN
  2
AcDbSun
  3
SCENEOE
 90
     1153
 91
        3
280
     0
281
     0
  0
CLASS
  1
DICTIONARYVAR
  2
AcDbDictionaryVar
  3
ObjectDBX Classes
 90
        0
 91
        3
280
     0
281
     0
  0
CLASS
  1
CELLSTYLEMAP
  2
AcDbCellStyleMap
  3
ObjectDBX Classes
 90
     1152
 91
        3
280
     0
281
     0
  0
ENDSEC
  0
SECTION
  2
TABLES
  0
TABLE
  2
VPORT
  5
8
330
0
100
AcDbSymbolTable
 70
     1
  0
VPORT
  5
29
330
8
100
AcDbSymbolTableRecord
100
AcDbViewportTableRecord
  2
*Active
 70
     0
 10
0.0
 20
0.0
 11
1.0
 21
1.0
 12
10.42990654205607
 22
4.5
 13
0.0
 23
0.0
 14
0.5
 24
0.5
 15
0.5
 25
0.5
 16
0.0
 26
0.0
 36
1.0
 17
0.0
 27
0.0
 37
0.0
 40
9.0
 41
1.972972972850329
 42
50.0
 43
0.0
 44
0.0
 50
0.0
 51
0.0
 71
     0
 72
   100
 73
     1
 74
     3
 75
     0
 76
     0
 77
     0
 78
     0
281
     0
 65
     1
110
0.0
120
0.0
130
0.0
111
1.0
121
0.0
131
0.0
112
0.0
122
1.0
132
0.0
 79
     0
146
0.0
348
2F
 60
     3
 61
     5
292
     1
282
     1
141
0.0
142
0.0
 63
   250
361
6D
  0
ENDTAB
  0
TABLE
  2
LTYPE
  5
5
330
0
100
AcDbSymbolTable
 70
     1
  0
LTYPE
  5
14
330
5
100
AcDbSymbolTableRecord
100
AcDbLinetypeTableRecord
  2
ByBlock
 70
     0
  3

 72
    65
 73
     0
 40
0.0
  0
LTYPE
  5
15
330
5
100
AcDbSymbolTableRecord
100
AcDbLinetypeTableRecord
  2
ByLayer
 70
     0
  3

 72
    65
 73
     0
 40
0.0
  0
LTYPE
  5
16
330
5
100
AcDbSymbolTableRecord
100
AcDbLinetypeTableRecord
  2
Continuous
 70
     0
  3
Solid line
 72
    65
 73
     0
 40
0.0
  0
ENDTAB
  0
TABLE
  2
LAYER
  5
2
330
0
100
AcDbSymbolTable
 70
     1
  0
LAYER
  5
10
330
2
100
AcDbSymbolTableRecord
100
AcDbLayerTableRecord
  2
0
 70
     0
 62
     7
  6
Continuous
370
    -3
390
F
347
46
  0
ENDTAB
  0
TABLE
  2
STYLE
  5
3
330
0
100
AcDbSymbolTable
 70
     1
  0
STYLE
  5
11
330
3
100
AcDbSymbolTableRecord
100
AcDbTextStyleTableRecord
  2
Standard
 70
     0
 40
0.0
 41
1.0
 50
0.0
 71
     0
 42
0.2
  3
txt
  4

  0
ENDTAB
  0
TABLE
  2
VIEW
  5
6
330
0
100
AcDbSymbolTable
 70
     0
  0
ENDTAB
  0
TABLE
  2
UCS
  5
7
330
0
100
AcDbSymbolTable
 70
     0
  0
ENDTAB
  0
TABLE
  2
APPID
  5
9
330
0
100
AcDbSymbolTable
 70
     3
  0
APPID
  5
12
330
9
100
AcDbSymbolTableRecord
100
AcDbRegAppTableRecord
  2
ACAD
 70
     0
  0
APPID
  5
6E
330
9
100
AcDbSymbolTableRecord
100
AcDbRegAppTableRecord
  2
ODA
 70
     0
  0
APPID
  5
AF
330
9
100
AcDbSymbolTableRecord
100
AcDbRegAppTableRecord
  2
ACAD_MLEADERVER
 70
     0
  0
ENDTAB
  0
TABLE
  2
DIMSTYLE
  5
A
330
0
100
AcDbSymbolTable
 70
     1
100
AcDbDimStyleTable
  0
DIMSTYLE
105
27
330
A
100
AcDbSymbolTableRecord
100
AcDbDimStyleTableRecord
  2
Standard
 70
     0
178
     0
340
11
  0
ENDTAB
  0
TABLE
  2
BLOCK_RECORD
  5
1
330
0
100
AcDbSymbolTable
 70
     1
  0
BLOCK_RECORD
  5
1F
330
1
100
AcDbSymbolTableRecord
100
AcDbBlockTableRecord
  2
*Model_Space
340
22
 70
     0
280
     1
281
     0
  0
BLOCK_RECORD
  5
1B
330
1
100
AcDbSymbolTableRecord
100
AcDbBlockTableRecord
  2
*Paper_Space
340
1E
 70
     0
280
     1
281
     0
  0
BLOCK_RECORD
  5
23
330
1
100
AcDbSymbolTableRecord
100
AcDbBlockTableRecord
  2
*Paper_Space0
340
26
 70
     0
280
     1
281
     0
  0
ENDTAB
  0
ENDSEC
  0
SECTION
  2
BLOCKS
  0
BLOCK
  5
20
330
1F
100
AcDbEntity
  8
0
100
AcDbBlockBegin
  2
*Model_Space
 70
     0
 10
0.0
 20
0.0
 30
0.0
  3
*Model_Space
  1

  0
ENDBLK
  5
21
330
1F
100
AcDbEntity
  8
0
100
AcDbBlockEnd
  0
BLOCK
  5
1C
330
1B
100
AcDbEntity
 67
     1
  8
0
100
AcDbBlockBegin
  2
*Paper_Space
 70
     0
 10
0.0
 20
0.0
 30
0.0
  3
*Paper_Space
  1

  0
ENDBLK
  5
1D
330
1B
100
AcDbEntity
 67
     1
  8
0
100
AcDbBlockEnd
  0
BLOCK
  5
24
330
23
100
AcDbEntity
  8
0
100
AcDbBlockBegin
  2
*Paper_Space0
 70
     0
 10
0.0
 20
0.0
 30
0.0
  3
*Paper_Space0
  1

  0
ENDBLK
  5
25
330
23
100
AcDbEntity
  8
0
100
AcDbBlockEnd
  0
ENDSEC
  0
SECTION
  2
ENTITIES
  0
SPLINE
  5
6F
330
1F
100
AcDbEntity
  8
0
 62
     1
370
     9
100
AcDbSpline
210
0.0
220
0.0
230
1.0
 70
    11
 71
     3
 72
    84
 73
    80
 74
     0
 42
0.000000001
 43
0.0000000001
 40
0.0
 40
0.0
 40
0.0
 40
0.0
 40
0.0476190476190476
 40
0.0476190476190476
 40
0.0476190476190476
 40
0.0476190476190476
 40
0.0952380952380952
 40
0.0952380952380952
 40
0.0952380952380952
 40
0.0952380952380952
 40
0.1428571428571428
 40
0.1428571428571428
 40
0.1428571428571428
 40
0.1428571428571428
 40
0.1904761904761905
 40
0.1904761904761905
 40
0.1904761904761905
 40
0.1904761904761905
 40
0.2380952380952381
 40
0.2380952380952381
 40
0.2380952380952381
 40
0.2380952380952381
 40
0.2857142857142857
 40
0.2857142857142857
 40
0.2857142857142857
 40
0.2857142857142857
 40
0.3333333333333333
 40
0.3333333333333333
 40
0.3333333333333333
 40
0.3333333333333333
 40
0.3809523809523809
 40
0.3809523809523809
 40
0.3809523809523809
 40
0.3809523809523809
 40
0.4285714285714285
 40
0.4285714285714285
 40
0.4285714285714285
 40
0.4285714285714285
 40
0.4761904761904762
 40
0.4761904761904762
 40
0.4761904761904762
 40
0.4761904761904762
 40
0.5238095238095238
 40
0.5238095238095238
 40
0.5238095238095238
 40
0.5238095238095238
 40
0.5714285714285714
 40
0.5714285714285714
 40
0.5714285714285714
 40
0.5714285714285714
 40
0.6190476190476191
 40
0.6190476190476191
 40
0.6190476190476191
 40
0.6190476190476191
 40
0.6666666666666666
 40
0.6666666666666666
 40
0.6666666666666666
 40
0.6666666666666666
 40
0.7142857142857143
 40
0.7142857142857143
 40
0.7142857142857143
 40
0.7142857142857143
 40
0.7619047619047619
 40
0.7619047619047619
 40
0.7619047619047619
 40
0.7619047619047619
 40
0.8095238095238095
 40
0.8095238095238095
 40
0.8095238095238095
 40
0.8095238095238095
 40
0.8571428571428571
 40
0.8571428571428571
 40
0.8571428571428571
 40
0.8571428571428571
 40
0.9047619047619048
 40
0.9047619047619048
 40
0.9047619047619048
 40
0.9047619047619048
 40
1.0
 40
1.0
 40
1.0
 40
1.0
 10
46.38703937007874
 20
2.941043307086614
 30
0.0
 10
46.38706299212598
 20
2.978984251968504
 30
0.0
 10
46.36422834645669
 20
3.013204724409449
 30
0.0
 10
46.32918110236221
 20
3.027748031496063
 30
0.0
 10
46.32918110236221
 20
3.027748031496063
 30
0.0
 10
46.29413779527559
 20
3.042291338582677
 30
0.0
 10
46.25378346456693
 20
3.034291338582677
 30
0.0
 10
46.22693700787401
 20
3.007476377952756
 30
0.0
 10
46.22693700787401
 20
3.007476377952756
 30
0.0
 10
46.20009055118111
 20
2.980665354330708
 30
0.0
 10
46.19203937007874
 20
2.940322834645669
 30
0.0
 10
46.20653937007874
 20
2.905259842519685
 30
0.0
 10
46.20653937007874
 20
2.905259842519685
 30
0.0
 10
46.22103543307087
 20
2.870192913385827
 30
0.0
 10
46.25534645669291
 20
2.847318897637795
 30
0.0
 10
46.2932874015748
 20
2.847291338582677
 30
0.0
 10
46.2932874015748
 20
2.847291338582677
 30
0.0
 10
46.2932874015748
 20
2.847291338582677
 30
0.0
 10
46.2932874015748
 20
2.394795275590551
 30
0.0
 10
46.2932874015748
 20
2.394795275590551
 30
0.0
 10
46.2932874015748
 20
2.394795275590551
 30
0.0
 10
46.25534645669291
 20
2.394818897637795
 30
0.0
 10
46.22112598425197
 20
2.371984251968504
 30
0.0
 10
46.20658267716536
 20
2.336937007874016
 30
0.0
 10
46.20658267716536
 20
2.336937007874016
 30
0.0
 10
46.19203937007874
 20
2.301893700787402
 30
0.0
 10
46.20004330708662
 20
2.26153937007874
 30
0.0
 10
46.22685433070866
 20
2.234692913385827
 30
0.0
 10
46.22685433070866
 20
2.234692913385827
 30
0.0
 10
46.25366535433071
 20
2.207846456692913
 30
0.0
 10
46.29401181102362
 20
2.199795275590551
 30
0.0
 10
46.32907480314961
 20
2.214291338582677
 30
0.0
 10
46.32907480314961
 20
2.214291338582677
 30
0.0
 10
46.36413779527559
 20
2.228791338582677
 30
0.0
 10
46.38701574803149
 20
2.263102362204724
 30
0.0
 10
46.38703937007874
 20
2.301043307086614
 30
0.0
 10
46.38703937007874
 20
2.301043307086614
 30
0.0
 10
46.38703937007874
 20
2.301043307086614
 30
0.0
 10
50.69953937007874
 20
2.301043307086614
 30
0.0
 10
50.69953937007874
 20
2.301043307086614
 30
0.0
 10
50.69953937007874
 20
2.301043307086614
 30
0.0
 10
50.69951574803149
 20
2.263102362204724
 30
0.0
 10
50.72235039370079
 20
2.228881889763779
 30
0.0
 10
50.7573937007874
 20
2.214338582677165
 30
0.0
 10
50.7573937007874
 20
2.214338582677165
 30
0.0
 10
50.79243700787401
 20
2.199795275590551
 30
0.0
 10
50.83279133858268
 20
2.207795275590551
 30
0.0
 10
50.85963779527559
 20
2.234610236220473
 30
0.0
 10
50.85963779527559
 20
2.234610236220473
 30
0.0
 10
50.8864842519685
 20
2.26142125984252
 30
0.0
 10
50.89453543307086
 20
2.301763779527559
 30
0.0
 10
50.88003937007874
 20
2.336826771653543
 30
0.0
 10
50.88003937007874
 20
2.336826771653543
 30
0.0
 10
50.86553937007874
 20
2.371893700787401
 30
0.0
 10
50.83123228346457
 20
2.394767716535433
 30
0.0
 10
50.7932874015748
 20
2.394795275590551
 30
0.0
 10
50.7932874015748
 20
2.394795275590551
 30
0.0
 10
50.7932874015748
 20
2.394795275590551
 30
0.0
 10
50.7932874015748
 20
2.847291338582677
 30
0.0
 10
50.7932874015748
 20
2.847291338582677
 30
0.0
 10
50.7932874015748
 20
2.847291338582677
 30
0.0
 10
50.83123228346457
 20
2.847267716535433
 30
0.0
 10
50.86545275590551
 20
2.870102362204725
 30
0.0
 10
50.87999212598425
 20
2.905149606299213
 30
0.0
 10
50.87999212598425
 20
2.905149606299213
 30
0.0
 10
50.89453543307086
 20
2.940192913385827
 30
0.0
 10
50.88653543307087
 20
2.980547244094488
 30
0.0
 10
50.85972440944882
 20
3.007393700787401
 30
0.0
 10
50.85972440944882
 20
3.007393700787401
 30
0.0
 10
50.8329094488189
 20
3.034240157480315
 30
0.0
 10
50.79256692913386
 20
3.042291338582677
 30
0.0
 10
50.75750393700788
 20
3.027795275590551
 30
0.0
 10
50.75750393700788
 20
3.027795275590551
 30
0.0
 10
50.72244094488189
 20
3.013295275590551
 30
0.0
 10
50.69956299212598
 20
2.978984251968504
 30
0.0
 10
50.69953937007874
 20
2.941043307086614
 30
0.0
 10
50.69953937007874
 20
2.941043307086614
 30
0.0
 10
50.69953937007874
 20
2.941043307086614
 30
0.0
 10
46.38703937007874
 20
2.941043307086614
 30
0.0
 10
46.38703937007874
 20
2.941043307086614
 30
0.0
  0
SPLINE
  5
70
330
1F
100
AcDbEntity
  8
0
 62
     1
370
     9
100
AcDbSpline
210
0.0
220
0.0
230
1.0
 70
    11
 71
     3
 72
    20
 73
    16
 74
     0
 42
0.000000001
 43
0.0000000001
 40
0.0
 40
0.0
 40
0.0
 40
0.0
 40
0.2
 40
0.2
 40
0.2
 40
0.2
 40
0.4
 40
0.4
 40
0.4
 40
0.4
 40
0.6
 40
0.6
 40
0.6
 40
0.6
 40
1.0
 40
1.0
 40
1.0
 40
1.0
 10
44.06921653543307
 20
4.983326771653544
 30
0.0
 10
44.06921653543307
 20
5.149011811023622
 30
0.0
 10
44.20353149606299
 20
5.283326771653543
 30
0.0
 10
44.36921653543307
 20
5.283326771653543
 30
0.0
 10
44.36921653543307
 20
5.283326771653543
 30
0.0
 10
44.53490157480315
 20
5.283326771653543
 30
0.0
 10
44.66921653543307
 20
5.149011811023622
 30
0.0
 10
44.66921653543307
 20
4.983326771653544
 30
0.0
 10
44.66921653543307
 20
4.983326771653544
 30
0.0
 10
44.66921653543307
 20
4.817641732283464
 30
0.0
 10
44.53490551181103
 20
4.683326771653543
 30
0.0
 10
44.36922047244094
 20
4.683326771653543
 30
0.0
 10
44.36922047244094
 20
4.683326771653543
 30
0.0
 10
44.20353149606299
 20
4.683326771653543
 30
0.0
 10
44.06921653543307
 20
4.817641732283464
 30
0.0
 10
44.06921653543307
 20
4.983326771653544
 30
0.0
  0
SPLINE
  5
71
330
1F
100
AcDbEntity
  8
0
 62
     1
370
     9
100
AcDbSpline
210
0.0
220
0.0
230
1.0
 70
    11
 71
     3
 72
    20
 73
    16
 74
     0
 42
0.000000001
 43
0.0000000001
 40
0.0
 40
0.0
 40
0.0
 40
0.0
 40
0.2
 40
0.2
 40
0.2
 40
0.2
 40
0.4
 40
0.4
 40
0.4
 40
0.4
 40
0.6
 40
0.6
 40
0.6
 40
0.6
 40
1.0
 40
1.0
 40
1.0
 40
1.0
 10
44.06921653543307
 20
0.258759842519685
 30
0.0
 10
44.06921653543307
 20
0.4244448818897638
 30
0.0
 10
44.20353149606299
 20
0.558759842519685
 30
0.0
 10
44.36921653543307
 20
0.558759842519685
 30
0.0
 10
44.36921653543307
 20
0.558759842519685
 30
0.0
 10
44.53490157480315
 20
0.558759842519685
 30
0.0
 10
44.66921653543307
 20
0.4244448818897638
 30
0.0
 10
44.66921653543307
 20
0.258759842519685
 30
0.0
 10
44.66921653543307
 20
0.258759842519685
 30
0.0
 10
44.66921653543307
 20
0.0930748031496063
 30
0.0
 10
44.53490551181103
 20
-0.041240157480315
 30
0.0
 10
44.36922047244094
 20
-0.041240157480315
 30
0.0
 10
44.36922047244094
 20
-0.041240157480315
 30
0.0
 10
44.20353149606299
 20
-0.041240157480315
 30
0.0
 10
44.06921653543307
 20
0.0930748031496063
 30
0.0
 10
44.06921653543307
 20
0.258759842519685
 30
0.0
  0
SPLINE
  5
72
330
1F
100
AcDbEntity
  8
0
 62
     1
370
     9
100
AcDbSpline
210
0.0
220
0.0
230
1.0
 70
    11
 71
     3
 72
    20
 73
    16
 74
     0
 42
0.000000001
 43
0.0000000001
 40
0.0
 40
0.0
 40
0.0
 40
0.0
 40
0.2
 40
0.2
 40
0.2
 40
0.2
 40
0.4
 40
0.4
 40
0.4
 40
0.4
 40
0.6
 40
0.6
 40
0.6
 40
0.6
 40
1.0
 40
1.0
 40
1.0
 40
1.0
 10
45.94047637795276
 20
6.541062992125984
 30
0.0
 10
45.94047637795276
 20
6.627358267716535
 30
0.0
 10
46.01043307086614
 20
6.697311023622047
 30
0.0
 10
46.09672440944882
 20
6.697311023622047
 30
0.0
 10
46.09672440944882
 20
6.697311023622047
 30
0.0
 10
46.18301968503937
 20
6.697311023622047
 30
0.0
 10
46.25297244094488
 20
6.627358267716535
 30
0.0
 10
46.25297244094488
 20
6.541062992125984
 30
0.0
 10
46.25297244094488
 20
6.541062992125984
 30
0.0
 10
46.25297244094488
 20
6.454771653543308
 30
0.0
 10
46.18301968503937
 20
6.384814960629921
 30
0.0
 10
46.09672440944882
 20
6.384814960629921
 30
0.0
 10
46.09672440944882
 20
6.384814960629921
 30
0.0
 10
46.01043307086614
 20
6.384814960629921
 30
0.0
 10
45.94047637795276
 20
6.454767716535433
 30
0.0
 10
45.94047637795276
 20
6.541062992125984
 30
0.0
  0
SPLINE
  5
73
330
1F
100
AcDbEntity
  8
0
 62
     1
370
     9
100
AcDbSpline
210
0.0
220
0.0
230
1.0
 70
    11
 71
     3
 72
    20
 73
    16
 74
     0
 42
0.000000001
 43
0.0000000001
 40
0.0
 40
0.0
 40
0.0
 40
0.0
 40
0.2
 40
0.2
 40
0.2
 40
0.2
 40
0.4
 40
0.4
 40
0.4
 40
0.4
 40
0.6
 40
0.6
 40
0.6
 40
0.6
 40
1.0
 40
1.0
 40
1.0
 40
1.0
 10
51.74422440944882
 20
4.983326771653544
 30
0.0
 10
51.74422440944882
 20
5.149011811023622
 30
0.0
 10
51.87853937007874
 20
5.283326771653543
 30
0.0
 10
52.04422440944882
 20
5.283326771653543
 30
0.0
 10
52.04422440944882
 20
5.283326771653543
 30
0.0
 10
52.2099094488189
 20
5.283326771653543
 30
0.0
 10
52.34422440944882
 20
5.149011811023622
 30
0.0
 10
52.34422440944882
 20
4.983326771653544
 30
0.0
 10
52.34422440944882
 20
4.983326771653544
 30
0.0
 10
52.34422440944882
 20
4.817641732283464
 30
0.0
 10
52.20991338582677
 20
4.683326771653543
 30
0.0
 10
52.04422834645669
 20
4.683326771653543
 30
0.0
 10
52.04422834645669
 20
4.683326771653543
 30
0.0
 10
51.87853937007874
 20
4.683326771653543
 30
0.0
 10
51.74422440944882
 20
4.817641732283464
 30
0.0
 10
51.74422440944882
 20
4.983326771653544
 30
0.0
  0
SPLINE
  5
74
330
1F
100
AcDbEntity
  8
0
 62
     1
370
     9
100
AcDbSpline
210
0.0
220
0.0
230
1.0
 70
    11
 71
     3
 72
    20
 73
    16
 74
     0
 42
0.000000001
 43
0.0000000001
 40
0.0
 40
0.0
 40
0.0
 40
0.0
 40
0.2
 40
0.2
 40
0.2
 40
0.2
 40
0.4
 40
0.4
 40
0.4
 40
0.4
 40
0.6
 40
0.6
 40
0.6
 40
0.6
 40
1.0
 40
1.0
 40
1.0
 40
1.0
 10
45.94072440944882
 20
-1.330456692913386
 30
0.0
 10
45.94072440944882
 20
-1.244299212598425
 30
0.0
 10
46.01056692913386
 20
-1.174456692913386
 30
0.0
 10
46.09672440944882
 20
-1.174456692913386
 30
0.0
 10
46.09672440944882
 20
-1.174456692913386
 30
0.0
 10
46.18288188976378
 20
-1.174456692913386
 30
0.0
 10
46.25272440944882
 20
-1.244299212598425
 30
0.0
 10
46.25272440944882
 20
-1.330456692913386
 30
0.0
 10
46.25272440944882
 20
-1.330456692913386
 30
0.0
 10
46.25272440944882
 20
-1.416614173228346
 30
0.0
 10
46.18288188976378
 20
-1.486456692913386
 30
0.0
 10
46.09672440944882
 20
-1.486456692913386
 30
0.0
 10
46.09672440944882
 20
-1.486456692913386
 30
0.0
 10
46.01057086614173
 20
-1.486456692913386
 30
0.0
 10
45.94072440944882
 20
-1.416614173228346
 30
0.0
 10
45.94072440944882
 20
-1.330456692913386
 30
0.0
  0
SPLINE
  5
75
330
1F
100
AcDbEntity
  8
0
 62
     1
370
     9
100
AcDbSpline
210
0.0
220
0.0
230
1.0
 70
    11
 71
     3
 72
    20
 73
    16
 74
     0
 42
0.000000001
 43
0.0000000001
 40
0.0
 40
0.0
 40
0.0
 40
0.0
 40
0.2
 40
0.2
 40
0.2
 40
0.2
 40
0.4
 40
0.4
 40
0.4
 40
0.4
 40
0.6
 40
0.6
 40
0.6
 40
0.6
 40
1.0
 40
1.0
 40
1.0
 40
1.0
 10
51.74422440944882
 20
0.258759842519685
 30
0.0
 10
51.74422440944882
 20
0.4244448818897638
 30
0.0
 10
51.87853937007874
 20
0.558759842519685
 30
0.0
 10
52.04422440944882
 20
0.558759842519685
 30
0.0
 10
52.04422440944882
 20
0.558759842519685
 30
0.0
 10
52.2099094488189
 20
0.558759842519685
 30
0.0
 10
52.34422440944882
 20
0.4244448818897638
 30
0.0
 10
52.34422440944882
 20
0.258759842519685
 30
0.0
 10
52.34422440944882
 20
0.258759842519685
 30
0.0
 10
52.34422440944882
 20
0.0930748031496063
 30
0.0
 10
52.20991338582677
 20
-0.041240157480315
 30
0.0
 10
52.04422834645669
 20
-0.041240157480315
 30
0.0
 10
52.04422834645669
 20
-0.041240157480315
 30
0.0
 10
51.87853937007874
 20
-0.041240157480315
 30
0.0
 10
51.74422440944882
 20
0.0930748031496063
 30
0.0
 10
51.74422440944882
 20
0.258759842519685
 30
0.0
  0
SPLINE
  5
76
330
1F
100
AcDbEntity
  8
0
 62
     1
370
     9
100
AcDbSpline
210
0.0
220
0.0
230
1.0
 70
    11
 71
     3
 72
    20
 73
    16
 74
     0
 42
0.000000001
 43
0.0000000001
 40
0.0
 40
0.0
 40
0.0
 40
0.0
 40
0.2
 40
0.2
 40
0.2
 40
0.2
 40
0.4
 40
0.4
 40
0.4
 40
0.4
 40
0.6
 40
0.6
 40
0.6
 40
0.6
 40
1.0
 40
1.0
 40
1.0
 40
1.0
 10
45.38940551181102
 20
2.621043307086614
 30
0.0
 10
45.38940551181102
 20
2.737574803149606
 30
0.0
 10
45.48387401574803
 20
2.832043307086614
 30
0.0
 10
45.60040551181103
 20
2.832043307086614
 30
0.0
 10
45.60040551181103
 20
2.832043307086614
 30
0.0
 10
45.71693700787402
 20
2.832043307086614
 30
0.0
 10
45.81140551181102
 20
2.737574803149606
 30
0.0
 10
45.81140551181102
 20
2.621043307086614
 30
0.0
 10
45.81140551181102
 20
2.621043307086614
 30
0.0
 10
45.81140551181102
 20
2.504511811023622
 30
0.0
 10
45.71694094488189
 20
2.410043307086614
 30
0.0
 10
45.60040551181103
 20
2.410043307086614
 30
0.0
 10
45.60040551181103
 20
2.410043307086614
 30
0.0
 10
45.48387401574803
 20
2.410043307086614
 30
0.0
 10
45.38940551181102
 20
2.504511811023622
 30
0.0
 10
45.38940551181102
 20
2.621043307086614
 30
0.0
  0
SPLINE
  5
77
330
1F
100
AcDbEntity
  8
0
 62
     1
370
     9
100
AcDbSpline
210
0.0
220
0.0
230
1.0
 70
    11
 71
     3
 72
    20
 73
    16
 74
     0
 42
0.000000001
 43
0.0000000001
 40
0.0
 40
0.0
 40
0.0
 40
0.0
 40
0.2
 40
0.2
 40
0.2
 40
0.2
 40
0.4
 40
0.4
 40
0.4
 40
0.4
 40
0.6
 40
0.6
 40
0.6
 40
0.6
 40
1.0
 40
1.0
 40
1.0
 40
1.0
 10
47.51597637795275
 20
-1.253956692913386
 30
0.0
 10
47.51597637795275
 20
-1.137425196850394
 30
0.0
 10
47.61044488188976
 20
-1.042956692913386
 30
0.0
 10
47.72697637795276
 20
-1.042956692913386
 30
0.0
 10
47.72697637795276
 20
-1.042956692913386
 30
0.0
 10
47.84350787401575
 20
-1.042956692913386
 30
0.0
 10
47.93797637795276
 20
-1.137425196850394
 30
0.0
 10
47.93797637795276
 20
-1.253956692913386
 30
0.0
 10
47.93797637795276
 20
-1.253956692913386
 30
0.0
 10
47.93797637795276
 20
-1.370488188976378
 30
0.0
 10
47.84351181102362
 20
-1.464956692913386
 30
0.0
 10
47.72697637795276
 20
-1.464956692913386
 30
0.0
 10
47.72697637795276
 20
-1.464956692913386
 30
0.0
 10
47.61044488188976
 20
-1.464956692913386
 30
0.0
 10
47.51597637795275
 20
-1.370488188976378
 30
0.0
 10
47.51597637795275
 20
-1.253956692913386
 30
0.0
  0
SPLINE
  5
78
330
1F
100
AcDbEntity
  8
0
 62
     1
370
     9
100
AcDbSpline
210
0.0
220
0.0
230
1.0
 70
    11
 71
     3
 72
    20
 73
    16
 74
     0
 42
0.000000001
 43
0.0000000001
 40
0.0
 40
0.0
 40
0.0
 40
0.0
 40
0.2
 40
0.2
 40
0.2
 40
0.2
 40
0.4
 40
0.4
 40
0.4
 40
0.4
 40
0.6
 40
0.6
 40
0.6
 40
0.6
 40
1.0
 40
1.0
 40
1.0
 40
1.0
 10
47.51597637795275
 20
6.496043307086614
 30
0.0
 10
47.51597637795275
 20
6.612574803149606
 30
0.0
 10
47.61044488188976
 20
6.707043307086614
 30
0.0
 10
47.72697637795276
 20
6.707043307086614
 30
0.0
 10
47.72697637795276
 20
6.707043307086614
 30
0.0
 10
47.84350787401575
 20
6.707043307086614
 30
0.0
 10
47.93797637795276
 20
6.612574803149606
 30
0.0
 10
47.93797637795276
 20
6.496043307086614
 30
0.0
 10
47.93797637795276
 20
6.496043307086614
 30
0.0
 10
47.93797637795276
 20
6.379511811023622
 30
0.0
 10
47.84351181102362
 20
6.285043307086614
 30
0.0
 10
47.72697637795276
 20
6.285043307086614
 30
0.0
 10
47.72697637795276
 20
6.285043307086614
 30
0.0
 10
47.61044488188976
 20
6.285043307086614
 30
0.0
 10
47.51597637795275
 20
6.379511811023622
 30
0.0
 10
47.51597637795275
 20
6.496043307086614
 30
0.0
  0
SPLINE
  5
79
330
1F
100
AcDbEntity
  8
0
 62
     1
370
     9
100
AcDbSpline
210
0.0
220
0.0
230
1.0
 70
    11
 71
     3
 72
  2168
 73
  2164
 74
     0
 42
0.000000001
 43
0.0000000001
 40
0.0
 40
0.0
 40
0.0
 40
0.0
 40
0.0018450184501845
 40
0.0018450184501845
 40
0.0018450184501845
 40
0.0018450184501845
 40
0.003690036900369
 40
0.003690036900369
 40
0.003690036900369
 40
0.003690036900369
 40
0.0055350553505535
 40
0.0055350553505535
 40
0.0055350553505535
 40
0.0055350553505535
 40
0.007380073800738
 40
0.007380073800738
 40
0.007380073800738
 40
0.007380073800738
 40
0.0092250922509225
 40
0.0092250922509225
 40
0.0092250922509225
 40
0.0092250922509225
 40
0.011070110701107
 40
0.011070110701107
 40
0.011070110701107
 40
0.011070110701107
 40
0.0129151291512915
 40
0.0129151291512915
 40
0.0129151291512915
 40
0.0129151291512915
 40
0.014760147601476
 40
0.014760147601476
 40
0.014760147601476
 40
0.014760147601476
 40
0.0166051660516605
 40
0.0166051660516605
 40
0.0166051660516605
 40
0.0166051660516605
 40
0.018450184501845
 40
0.018450184501845
 40
0.018450184501845
 40
0.018450184501845
 40
0.0202952029520295
 40
0.0202952029520295
 40
0.0202952029520295
 40
0.0202952029520295
 40
0.022140221402214
 40
0.022140221402214
 40
0.022140221402214
 40
0.022140221402214
 40
0.0239852398523985
 40
0.0239852398523985
 40
0.0239852398523985
 40
0.0239852398523985
 40
0.025830258302583
 40
0.025830258302583
 40
0.025830258302583
 40
0.025830258302583
 40
0.0276752767527675
 40
0.0276752767527675
 40
0.0276752767527675
 40
0.0276752767527675
 40
0.029520295202952
 40
0.029520295202952
 40
0.029520295202952
 40
0.029520295202952
 40
0.0313653136531365
 40
0.0313653136531365
 40
0.0313653136531365
 40
0.0313653136531365
 40
0.033210332103321
 40
0.033210332103321
 40
0.033210332103321
 40
0.033210332103321
 40
0.0350553505535055
 40
0.0350553505535055
 40
0.0350553505535055
 40
0.0350553505535055
 40
0.03690036900369
 40
0.03690036900369
 40
0.03690036900369
 40
0.03690036900369
 40
0.0387453874538745
 40
0.0387453874538745
 40
0.0387453874538745
 40
0.0387453874538745
 40
0.040590405904059
 40
0.040590405904059
 40
0.040590405904059
 40
0.040590405904059
 40
0.0424354243542435
 40
0.0424354243542435
 40
0.0424354243542435
 40
0.0424354243542435
 40
0.044280442804428
 40
0.044280442804428
 40
0.044280442804428
 40
0.044280442804428
 40
0.0461254612546125
 40
0.0461254612546125
 40
0.0461254612546125
 40
0.0461254612546125
 40
0.0479704797047971
 40
0.0479704797047971
 40
0.0479704797047971
 40
0.0479704797047971
 40
0.0498154981549815
 40
0.0498154981549815
 40
0.0498154981549815
 40
0.0498154981549815
 40
0.0516605166051661
 40
0.0516605166051661
 40
0.0516605166051661
 40
0.0516605166051661
 40
0.0535055350553506
 40
0.0535055350553506
 40
0.0535055350553506
 40
0.0535055350553506
 40
0.0553505535055351
 40
0.0553505535055351
 40
0.0553505535055351
 40
0.0553505535055351
 40
0.0571955719557196
 40
0.0571955719557196
 40
0.0571955719557196
 40
0.0571955719557196
 40
0.0590405904059041
 40
0.0590405904059041
 40
0.0590405904059041
 40
0.0590405904059041
 40
0.0608856088560886
 40
0.0608856088560886
 40
0.0608856088560886
 40
0.0608856088560886
 40
0.0627306273062731
 40
0.0627306273062731
 40
0.0627306273062731
 40
0.0627306273062731
 40
0.0645756457564576
 40
0.0645756457564576
 40
0.0645756457564576
 40
0.0645756457564576
 40
0.0664206642066421
 40
0.0664206642066421
 40
0.0664206642066421
 40
0.0664206642066421
 40
0.0682656826568266
 40
0.0682656826568266
 40
0.0682656826568266
 40
0.0682656826568266
 40
0.0701107011070111
 40
0.0701107011070111
 40
0.0701107011070111
 40
0.0701107011070111
 40
0.0719557195571956
 40
0.0719557195571956
 40
0.0719557195571956
 40
0.0719557195571956
 40
0.0738007380073801
 40
0.0738007380073801
 40
0.0738007380073801
 40
0.0738007380073801
 40
0.0756457564575646
 40
0.0756457564575646
 40
0.0756457564575646
 40
0.0756457564575646
 40
0.0774907749077491
 40
0.0774907749077491
 40
0.0774907749077491
 40
0.0774907749077491
 40
0.0793357933579336
 40
0.0793357933579336
 40
0.0793357933579336
 40
0.0793357933579336
 40
0.0811808118081181
 40
0.0811808118081181
 40
0.0811808118081181
 40
0.0811808118081181
 40
0.0830258302583026
 40
0.0830258302583026
 40
0.0830258302583026
 40
0.0830258302583026
 40
0.0848708487084871
 40
0.0848708487084871
 40
0.0848708487084871
 40
0.0848708487084871
 40
0.0867158671586716
 40
0.0867158671586716
 40
0.0867158671586716
 40
0.0867158671586716
 40
0.0885608856088561
 40
0.0885608856088561
 40
0.0885608856088561
 40
0.0885608856088561
 40
0.0904059040590406
 40
0.0904059040590406
 40
0.0904059040590406
 40
0.0904059040590406
 40
0.0922509225092251
 40
0.0922509225092251
 40
0.0922509225092251
 40
0.0922509225092251
 40
0.0940959409594096
 40
0.0940959409594096
 40
0.0940959409594096
 40
0.0940959409594096
 40
0.0959409594095941
 40
0.0959409594095941
 40
0.0959409594095941
 40
0.0959409594095941
 40
0.0977859778597786
 40
0.0977859778597786
 40
0.0977859778597786
 40
0.0977859778597786
 40
0.0996309963099631
 40
0.0996309963099631
 40
0.0996309963099631
 40
0.0996309963099631
 40
0.1014760147601476
 40
0.1014760147601476
 40
0.1014760147601476
 40
0.1014760147601476
 40
0.1033210332103321
 40
0.1033210332103321
 40
0.1033210332103321
 40
0.1033210332103321
 40
0.1051660516605166
 40
0.1051660516605166
 40
0.1051660516605166
 40
0.1051660516605166
 40
0.1070110701107011
 40
0.1070110701107011
 40
0.1070110701107011
 40
0.1070110701107011
 40
0.1088560885608856
 40
0.1088560885608856
 40
0.1088560885608856
 40
0.1088560885608856
 40
0.1107011070110701
 40
0.1107011070110701
 40
0.1107011070110701
 40
0.1107011070110701
 40
0.1125461254612546
 40
0.1125461254612546
 40
0.1125461254612546
 40
0.1125461254612546
 40
0.1143911439114391
 40
0.1143911439114391
 40
0.1143911439114391
 40
0.1143911439114391
 40
0.1162361623616236
 40
0.1162361623616236
 40
0.1162361623616236
 40
0.1162361623616236
 40
0.1180811808118081
 40
0.1180811808118081
 40
0.1180811808118081
 40
0.1180811808118081
 40
0.1199261992619926
 40
0.1199261992619926
 40
0.1199261992619926
 40
0.1199261992619926
 40
0.1217712177121771
 40
0.1217712177121771
 40
0.1217712177121771
 40
0.1217712177121771
 40
0.1236162361623616
 40
0.1236162361623616
 40
0.1236162361623616
 40
0.1236162361623616
 40
0.1254612546125461
 40
0.1254612546125461
 40
0.1254612546125461
 40
0.1254612546125461
 40
0.1273062730627306
 40
0.1273062730627306
 40
0.1273062730627306
 40
0.1273062730627306
 40
0.1291512915129151
 40
0.1291512915129151
 40
0.1291512915129151
 40
0.1291512915129151
 40
0.1309963099630996
 40
0.1309963099630996
 40
0.1309963099630996
 40
0.1309963099630996
 40
0.1328413284132841
 40
0.1328413284132841
 40
0.1328413284132841
 40
0.1328413284132841
 40
0.1346863468634686
 40
0.1346863468634686
 40
0.1346863468634686
 40
0.1346863468634686
 40
0.1365313653136531
 40
0.1365313653136531
 40
0.1365313653136531
 40
0.1365313653136531
 40
0.1383763837638377
 40
0.1383763837638377
 40
0.1383763837638377
 40
0.1383763837638377
 40
0.1402214022140221
 40
0.1402214022140221
 40
0.1402214022140221
 40
0.1402214022140221
 40
0.1420664206642066
 40
0.1420664206642066
 40
0.1420664206642066
 40
0.1420664206642066
 40
0.1439114391143911
 40
0.1439114391143911
 40
0.1439114391143911
 40
0.1439114391143911
 40
0.1457564575645756
 40
0.1457564575645756
 40
0.1457564575645756
 40
0.1457564575645756
 40
0.1476014760147601
 40
0.1476014760147601
 40
0.1476014760147601
 40
0.1476014760147601
 40
0.1494464944649447
 40
0.1494464944649447
 40
0.1494464944649447
 40
0.1494464944649447
 40
0.1512915129151292
 40
0.1512915129151292
 40
0.1512915129151292
 40
0.1512915129151292
 40
0.1531365313653137
 40
0.1531365313653137
 40
0.1531365313653137
 40
0.1531365313653137
 40
0.1549815498154982
 40
0.1549815498154982
 40
0.1549815498154982
 40
0.1549815498154982
 40
0.1568265682656827
 40
0.1568265682656827
 40
0.1568265682656827
 40
0.1568265682656827
 40
0.1586715867158671
 40
0.1586715867158671
 40
0.1586715867158671
 40
0.1586715867158671
 40
0.1605166051660517
 40
0.1605166051660517
 40
0.1605166051660517
 40
0.1605166051660517
 40
0.1623616236162362
 40
0.1623616236162362
 40
0.1623616236162362
 40
0.1623616236162362
 40
0.1642066420664207
 40
0.1642066420664207
 40
0.1642066420664207
 40
0.1642066420664207
 40
0.1660516605166052
 40
0.1660516605166052
 40
0.1660516605166052
 40
0.1660516605166052
 40
0.1678966789667897
 40
0.1678966789667897
 40
0.1678966789667897
 40
0.1678966789667897
 40
0.1697416974169742
 40
0.1697416974169742
 40
0.1697416974169742
 40
0.1697416974169742
 40
0.1715867158671587
 40
0.1715867158671587
 40
0.1715867158671587
 40
0.1715867158671587
 40
0.1734317343173432
 40
0.1734317343173432
 40
0.1734317343173432
 40
0.1734317343173432
 40
0.1752767527675277
 40
0.1752767527675277
 40
0.1752767527675277
 40
0.1752767527675277
 40
0.1771217712177122
 40
0.1771217712177122
 40
0.1771217712177122
 40
0.1771217712177122
 40
0.1789667896678967
 40
0.1789667896678967
 40
0.1789667896678967
 40
0.1789667896678967
 40
0.1808118081180812
 40
0.1808118081180812
 40
0.1808118081180812
 40
0.1808118081180812
 40
0.1826568265682657
 40
0.1826568265682657
 40
0.1826568265682657
 40
0.1826568265682657
 40
0.1845018450184502
 40
0.1845018450184502
 40
0.1845018450184502
 40
0.1845018450184502
 40
0.1863468634686347
 40
0.1863468634686347
 40
0.1863468634686347
 40
0.1863468634686347
 40
0.1881918819188192
 40
0.1881918819188192
 40
0.1881918819188192
 40
0.1881918819188192
 40
0.1900369003690037
 40
0.1900369003690037
 40
0.1900369003690037
 40
0.1900369003690037
 40
0.1918819188191882
 40
0.1918819188191882
 40
0.1918819188191882
 40
0.1918819188191882
 40
0.1937269372693727
 40
0.1937269372693727
 40
0.1937269372693727
 40
0.1937269372693727
 40
0.1955719557195572
 40
0.1955719557195572
 40
0.1955719557195572
 40
0.1955719557195572
 40
0.1974169741697417
 40
0.1974169741697417
 40
0.1974169741697417
 40
0.1974169741697417
 40
0.1992619926199262
 40
0.1992619926199262
 40
0.1992619926199262
 40
0.1992619926199262
 40
0.2011070110701107
 40
0.2011070110701107
 40
0.2011070110701107
 40
0.2011070110701107
 40
0.2029520295202952
 40
0.2029520295202952
 40
0.2029520295202952
 40
0.2029520295202952
 40
0.2047970479704797
 40
0.2047970479704797
 40
0.2047970479704797
 40
0.2047970479704797
 40
0.2066420664206642
 40
0.2066420664206642
 40
0.2066420664206642
 40
0.2066420664206642
 40
0.2084870848708487
 40
0.2084870848708487
 40
0.2084870848708487
 40
0.2084870848708487
 40
0.2103321033210332
 40
0.2103321033210332
 40
0.2103321033210332
 40
0.2103321033210332
 40
0.2121771217712177
 40
0.2121771217712177
 40
0.2121771217712177
 40
0.2121771217712177
 40
0.2140221402214022
 40
0.2140221402214022
 40
0.2140221402214022
 40
0.2140221402214022
 40
0.2158671586715867
 40
0.2158671586715867
 40
0.2158671586715867
 40
0.2158671586715867
 40
0.2177121771217712
 40
0.2177121771217712
 40
0.2177121771217712
 40
0.2177121771217712
 40
0.2195571955719557
 40
0.2195571955719557
 40
0.2195571955719557
 40
0.2195571955719557
 40
0.2214022140221402
 40
0.2214022140221402
 40
0.2214022140221402
 40
0.2214022140221402
 40
0.2232472324723247
 40
0.2232472324723247
 40
0.2232472324723247
 40
0.2232472324723247
 40
0.2250922509225092
 40
0.2250922509225092
 40
0.2250922509225092
 40
0.2250922509225092
 40
0.2269372693726937
 40
0.2269372693726937
 40
0.2269372693726937
 40
0.2269372693726937
 40
0.2287822878228782
 40
0.2287822878228782
 40
0.2287822878228782
 40
0.2287822878228782
 40
0.2306273062730627
 40
0.2306273062730627
 40
0.2306273062730627
 40
0.2306273062730627
 40
0.2324723247232472
 40
0.2324723247232472
 40
0.2324723247232472
 40
0.2324723247232472
 40
0.2343173431734317
 40
0.2343173431734317
 40
0.2343173431734317
 40
0.2343173431734317
 40
0.2361623616236162
 40
0.2361623616236162
 40
0.2361623616236162
 40
0.2361623616236162
 40
0.2380073800738007
 40
0.2380073800738007
 40
0.2380073800738007
 40
0.2380073800738007
 40
0.2398523985239852
 40
0.2398523985239852
 40
0.2398523985239852
 40
0.2398523985239852
 40
0.2416974169741697
 40
0.2416974169741697
 40
0.2416974169741697
 40
0.2416974169741697
 40
0.2435424354243542
 40
0.2435424354243542
 40
0.2435424354243542
 40
0.2435424354243542
 40
0.2453874538745388
 40
0.2453874538745388
 40
0.2453874538745388
 40
0.2453874538745388
 40
0.2472324723247233
 40
0.2472324723247233
 40
0.2472324723247233
 40
0.2472324723247233
 40
0.2490774907749078
 40
0.2490774907749078
 40
0.2490774907749078
 40
0.2490774907749078
 40
0.2509225092250922
 40
0.2509225092250922
 40
0.2509225092250922
 40
0.2509225092250922
 40
0.2527675276752768
 40
0.2527675276752768
 40
0.2527675276752768
 40
0.2527675276752768
 40
0.2546125461254612
 40
0.2546125461254612
 40
0.2546125461254612
 40
0.2546125461254612
 40
0.2564575645756458
 40
0.2564575645756458
 40
0.2564575645756458
 40
0.2564575645756458
 40
0.2583025830258303
 40
0.2583025830258303
 40
0.2583025830258303
 40
0.2583025830258303
 40
0.2601476014760147
 40
0.2601476014760147
 40
0.2601476014760147
 40
0.2601476014760147
 40
0.2619926199261993
 40
0.2619926199261993
 40
0.2619926199261993
 40
0.2619926199261993
 40
0.2638376383763837
 40
0.2638376383763837
 40
0.2638376383763837
 40
0.2638376383763837
 40
0.2656826568265683
 40
0.2656826568265683
 40
0.2656826568265683
 40
0.2656826568265683
 40
0.2675276752767528
 40
0.2675276752767528
 40
0.2675276752767528
 40
0.2675276752767528
 40
0.2693726937269373
 40
0.2693726937269373
 40
0.2693726937269373
 40
0.2693726937269373
 40
0.2712177121771218
 40
0.2712177121771218
 40
0.2712177121771218
 40
0.2712177121771218
 40
0.2730627306273063
 40
0.2730627306273063
 40
0.2730627306273063
 40
0.2730627306273063
 40
0.2749077490774908
 40
0.2749077490774908
 40
0.2749077490774908
 40
0.2749077490774908
 40
0.2767527675276753
 40
0.2767527675276753
 40
0.2767527675276753
 40
0.2767527675276753
 40
0.2785977859778598
 40
0.2785977859778598
 40
0.2785977859778598
 40
0.2785977859778598
 40
0.2804428044280443
 40
0.2804428044280443
 40
0.2804428044280443
 40
0.2804428044280443
 40
0.2822878228782288
 40
0.2822878228782288
 40
0.2822878228782288
 40
0.2822878228782288
 40
0.2841328413284133
 40
0.2841328413284133
 40
0.2841328413284133
 40
0.2841328413284133
 40
0.2859778597785978
 40
0.2859778597785978
 40
0.2859778597785978
 40
0.2859778597785978
 40
0.2878228782287823
 40
0.2878228782287823
 40
0.2878228782287823
 40
0.2878228782287823
 40
0.2896678966789668
 40
0.2896678966789668
 40
0.2896678966789668
 40
0.2896678966789668
 40
0.2915129151291513
 40
0.2915129151291513
 40
0.2915129151291513
 40
0.2915129151291513
 40
0.2933579335793358
 40
0.2933579335793358
 40
0.2933579335793358
 40
0.2933579335793358
 40
0.2952029520295203
 40
0.2952029520295203
 40
0.2952029520295203
 40
0.2952029520295203
 40
0.2970479704797048
 40
0.2970479704797048
 40
0.2970479704797048
 40
0.2970479704797048
 40
0.2988929889298893
 40
0.2988929889298893
 40
0.2988929889298893
 40
0.2988929889298893
 40
0.3007380073800738
 40
0.3007380073800738
 40
0.3007380073800738
 40
0.3007380073800738
 40
0.3025830258302583
 40
0.3025830258302583
 40
0.3025830258302583
 40
0.3025830258302583
 40
0.3044280442804428
 40
0.3044280442804428
 40
0.3044280442804428
 40
0.3044280442804428
 40
0.3062730627306273
 40
0.3062730627306273
 40
0.3062730627306273
 40
0.3062730627306273
 40
0.3081180811808118
 40
0.3081180811808118
 40
0.3081180811808118
 40
0.3081180811808118
 40
0.3099630996309963
 40
0.3099630996309963
 40
0.3099630996309963
 40
0.3099630996309963
 40
0.3118081180811808
 40
0.3118081180811808
 40
0.3118081180811808
 40
0.3118081180811808
 40
0.3136531365313653
 40
0.3136531365313653
 40
0.3136531365313653
 40
0.3136531365313653
 40
0.3154981549815498
 40
0.3154981549815498
 40
0.3154981549815498
 40
0.3154981549815498
 40
0.3173431734317343
 40
0.3173431734317343
 40
0.3173431734317343
 40
0.3173431734317343
 40
0.3191881918819188
 40
0.3191881918819188
 40
0.3191881918819188
 40
0.3191881918819188
 40
0.3210332103321033
 40
0.3210332103321033
 40
0.3210332103321033
 40
0.3210332103321033
 40
0.3228782287822878
 40
0.3228782287822878
 40
0.3228782287822878
 40
0.3228782287822878
 40
0.3247232472324723
 40
0.3247232472324723
 40
0.3247232472324723
 40
0.3247232472324723
 40
0.3265682656826568
 40
0.3265682656826568
 40
0.3265682656826568
 40
0.3265682656826568
 40
0.3284132841328413
 40
0.3284132841328413
 40
0.3284132841328413
 40
0.3284132841328413
 40
0.3302583025830259
 40
0.3302583025830259
 40
0.3302583025830259
 40
0.3302583025830259
 40
0.3321033210332103
 40
0.3321033210332103
 40
0.3321033210332103
 40
0.3321033210332103
 40
0.3339483394833948
 40
0.3339483394833948
 40
0.3339483394833948
 40
0.3339483394833948
 40
0.3357933579335793
 40
0.3357933579335793
 40
0.3357933579335793
 40
0.3357933579335793
 40
0.3376383763837638
 40
0.3376383763837638
 40
0.3376383763837638
 40
0.3376383763837638
 40
0.3394833948339483
 40
0.3394833948339483
 40
0.3394833948339483
 40
0.3394833948339483
 40
0.3413284132841328
 40
0.3413284132841328
 40
0.3413284132841328
 40
0.3413284132841328
 40
0.3431734317343174
 40
0.3431734317343174
 40
0.3431734317343174
 40
0.3431734317343174
 40
0.3450184501845018
 40
0.3450184501845018
 40
0.3450184501845018
 40
0.3450184501845018
 40
0.3468634686346864
 40
0.3468634686346864
 40
0.3468634686346864
 40
0.3468634686346864
 40
0.3487084870848708
 40
0.3487084870848708
 40
0.3487084870848708
 40
0.3487084870848708
 40
0.3505535055350554
 40
0.3505535055350554
 40
0.3505535055350554
 40
0.3505535055350554
 40
0.3523985239852399
 40
0.3523985239852399
 40
0.3523985239852399
 40
0.3523985239852399
 40
0.3542435424354243
 40
0.3542435424354243
 40
0.3542435424354243
 40
0.3542435424354243
 40
0.3560885608856089
 40
0.3560885608856089
 40
0.3560885608856089
 40
0.3560885608856089
 40
0.3579335793357933
 40
0.3579335793357933
 40
0.3579335793357933
 40
0.3579335793357933
 40
0.3597785977859779
 40
0.3597785977859779
 40
0.3597785977859779
 40
0.3597785977859779
 40
0.3616236162361623
 40
0.3616236162361623
 40
0.3616236162361623
 40
0.3616236162361623
 40
0.3634686346863469
 40
0.3634686346863469
 40
0.3634686346863469
 40
0.3634686346863469
 40
0.3653136531365314
 40
0.3653136531365314
 40
0.3653136531365314
 40
0.3653136531365314
 40
0.3671586715867159
 40
0.3671586715867159
 40
0.3671586715867159
 40
0.3671586715867159
 40
0.3690036900369004
 40
0.3690036900369004
 40
0.3690036900369004
 40
0.3690036900369004
 40
0.3708487084870848
 40
0.3708487084870848
 40
0.3708487084870848
 40
0.3708487084870848
 40
0.3726937269372694
 40
0.3726937269372694
 40
0.3726937269372694
 40
0.3726937269372694
 40
0.3745387453874539
 40
0.3745387453874539
 40
0.3745387453874539
 40
0.3745387453874539
 40
0.3763837638376384
 40
0.3763837638376384
 40
0.3763837638376384
 40
0.3763837638376384
 40
0.3782287822878229
 40
0.3782287822878229
 40
0.3782287822878229
 40
0.3782287822878229
 40
0.3800738007380074
 40
0.3800738007380074
 40
0.3800738007380074
 40
0.3800738007380074
 40
0.3819188191881919
 40
0.3819188191881919
 40
0.3819188191881919
 40
0.3819188191881919
 40
0.3837638376383764
 40
0.3837638376383764
 40
0.3837638376383764
 40
0.3837638376383764
 40
0.3856088560885609
 40
0.3856088560885609
 40
0.3856088560885609
 40
0.3856088560885609
 40
0.3874538745387454
 40
0.3874538745387454
 40
0.3874538745387454
 40
0.3874538745387454
 40
0.3892988929889299
 40
0.3892988929889299
 40
0.3892988929889299
 40
0.3892988929889299
 40
0.3911439114391144
 40
0.3911439114391144
 40
0.3911439114391144
 40
0.3911439114391144
 40
0.3929889298892989
 40
0.3929889298892989
 40
0.3929889298892989
 40
0.3929889298892989
 40
0.3948339483394834
 40
0.3948339483394834
 40
0.3948339483394834
 40
0.3948339483394834
 40
0.3966789667896679
 40
0.3966789667896679
 40
0.3966789667896679
 40
0.3966789667896679
 40
0.3985239852398524
 40
0.3985239852398524
 40
0.3985239852398524
 40
0.3985239852398524
 40
0.4003690036900369
 40
0.4003690036900369
 40
0.4003690036900369
 40
0.4003690036900369
 40
0.4022140221402214
 40
0.4022140221402214
 40
0.4022140221402214
 40
0.4022140221402214
 40
0.4040590405904059
 40
0.4040590405904059
 40
0.4040590405904059
 40
0.4040590405904059
 40
0.4059040590405904
 40
0.4059040590405904
 40
0.4059040590405904
 40
0.4059040590405904
 40
0.4077490774907749
 40
0.4077490774907749
 40
0.4077490774907749
 40
0.4077490774907749
 40
0.4095940959409594
 40
0.4095940959409594
 40
0.4095940959409594
 40
0.4095940959409594
 40
0.4114391143911439
 40
0.4114391143911439
 40
0.4114391143911439
 40
0.4114391143911439
 40
0.4132841328413284
 40
0.4132841328413284
 40
0.4132841328413284
 40
0.4132841328413284
 40
0.4151291512915129
 40
0.4151291512915129
 40
0.4151291512915129
 40
0.4151291512915129
 40
0.4169741697416974
 40
0.4169741697416974
 40
0.4169741697416974
 40
0.4169741697416974
 40
0.4188191881918819
 40
0.4188191881918819
 40
0.4188191881918819
 40
0.4188191881918819
 40
0.4206642066420664
 40
0.4206642066420664
 40
0.4206642066420664
 40
0.4206642066420664
 40
0.4225092250922509
 40
0.4225092250922509
 40
0.4225092250922509
 40
0.4225092250922509
 40
0.4243542435424354
 40
0.4243542435424354
 40
0.4243542435424354
 40
0.4243542435424354
 40
0.4261992619926199
 40
0.4261992619926199
 40
0.4261992619926199
 40
0.4261992619926199
 40
0.4280442804428044
 40
0.4280442804428044
 40
0.4280442804428044
 40
0.4280442804428044
 40
0.4298892988929889
 40
0.4298892988929889
 40
0.4298892988929889
 40
0.4298892988929889
 40
0.4317343173431734
 40
0.4317343173431734
 40
0.4317343173431734
 40
0.4317343173431734
 40
0.4335793357933579
 40
0.4335793357933579
 40
0.4335793357933579
 40
0.4335793357933579
 40
0.4354243542435424
 40
0.4354243542435424
 40
0.4354243542435424
 40
0.4354243542435424
 40
0.437269372693727
 40
0.437269372693727
 40
0.437269372693727
 40
0.437269372693727
 40
0.4391143911439114
 40
0.4391143911439114
 40
0.4391143911439114
 40
0.4391143911439114
 40
0.440959409594096
 40
0.440959409594096
 40
0.440959409594096
 40
0.440959409594096
 40
0.4428044280442804
 40
0.4428044280442804
 40
0.4428044280442804
 40
0.4428044280442804
 40
0.4446494464944649
 40
0.4446494464944649
 40
0.4446494464944649
 40
0.4446494464944649
 40
0.4464944649446494
 40
0.4464944649446494
 40
0.4464944649446494
 40
0.4464944649446494
 40
0.4483394833948339
 40
0.4483394833948339
 40
0.4483394833948339
 40
0.4483394833948339
 40
0.4501845018450185
 40
0.4501845018450185
 40
0.4501845018450185
 40
0.4501845018450185
 40
0.4520295202952029
 40
0.4520295202952029
 40
0.4520295202952029
 40
0.4520295202952029
 40
0.4538745387453875
 40
0.4538745387453875
 40
0.4538745387453875
 40
0.4538745387453875
 40
0.4557195571955719
 40
0.4557195571955719
 40
0.4557195571955719
 40
0.4557195571955719
 40
0.4575645756457565
 40
0.4575645756457565
 40
0.4575645756457565
 40
0.4575645756457565
 40
0.459409594095941
 40
0.459409594095941
 40
0.459409594095941
 40
0.459409594095941
 40
0.4612546125461255
 40
0.4612546125461255
 40
0.4612546125461255
 40
0.4612546125461255
 40
0.46309963099631
 40
0.46309963099631
 40
0.46309963099631
 40
0.46309963099631
 40
0.4649446494464944
 40
0.4649446494464944
 40
0.4649446494464944
 40
0.4649446494464944
 40
0.466789667896679
 40
0.466789667896679
 40
0.466789667896679
 40
0.466789667896679
 40
0.4686346863468634
 40
0.4686346863468634
 40
0.4686346863468634
 40
0.4686346863468634
 40
0.470479704797048
 40
0.470479704797048
 40
0.470479704797048
 40
0.470479704797048
 40
0.4723247232472325
 40
0.4723247232472325
 40
0.4723247232472325
 40
0.4723247232472325
 40
0.474169741697417
 40
0.474169741697417
 40
0.474169741697417
 40
0.474169741697417
 40
0.4760147601476015
 40
0.4760147601476015
 40
0.4760147601476015
 40
0.4760147601476015
 40
0.477859778597786
 40
0.477859778597786
 40
0.477859778597786
 40
0.477859778597786
 40
0.4797047970479705
 40
0.4797047970479705
 40
0.4797047970479705
 40
0.4797047970479705
 40
0.481549815498155
 40
0.481549815498155
 40
0.481549815498155
 40
0.481549815498155
 40
0.4833948339483395
 40
0.4833948339483395
 40
0.4833948339483395
 40
0.4833948339483395
 40
0.485239852398524
 40
0.485239852398524
 40
0.485239852398524
 40
0.485239852398524
 40
0.4870848708487085
 40
0.4870848708487085
 40
0.4870848708487085
 40
0.4870848708487085
 40
0.488929889298893
 40
0.488929889298893
 40
0.488929889298893
 40
0.488929889298893
 40
0.4907749077490775
 40
0.4907749077490775
 40
0.4907749077490775
 40
0.4907749077490775
 40
0.492619926199262
 40
0.492619926199262
 40
0.492619926199262
 40
0.492619926199262
 40
0.4944649446494465
 40
0.4944649446494465
 40
0.4944649446494465
 40
0.4944649446494465
 40
0.496309963099631
 40
0.496309963099631
 40
0.496309963099631
 40
0.496309963099631
 40
0.4981549815498155
 40
0.4981549815498155
 40
0.4981549815498155
 40
0.4981549815498155
 40
0.5
 40
0.5
 40
0.5
 40
0.5
 40
0.5018450184501845
 40
0.5018450184501845
 40
0.5018450184501845
 40
0.5018450184501845
 40
0.503690036900369
 40
0.503690036900369
 40
0.503690036900369
 40
0.503690036900369
 40
0.5055350553505535
 40
0.5055350553505535
 40
0.5055350553505535
 40
0.5055350553505535
 40
0.507380073800738
 40
0.507380073800738
 40
0.507380073800738
 40
0.507380073800738
 40
0.5092250922509225
 40
0.5092250922509225
 40
0.5092250922509225
 40
0.5092250922509225
 40
0.511070110701107
 40
0.511070110701107
 40
0.511070110701107
 40
0.511070110701107
 40
0.5129151291512916
 40
0.5129151291512916
 40
0.5129151291512916
 40
0.5129151291512916
 40
0.514760147601476
 40
0.514760147601476
 40
0.514760147601476
 40
0.514760147601476
 40
0.5166051660516605
 40
0.5166051660516605
 40
0.5166051660516605
 40
0.5166051660516605
 40
0.518450184501845
 40
0.518450184501845
 40
0.518450184501845
 40
0.518450184501845
 40
0.5202952029520295
 40
0.5202952029520295
 40
0.5202952029520295
 40
0.5202952029520295
 40
0.522140221402214
 40
0.522140221402214
 40
0.522140221402214
 40
0.522140221402214
 40
0.5239852398523985
 40
0.5239852398523985
 40
0.5239852398523985
 40
0.5239852398523985
 40
0.525830258302583
 40
0.525830258302583
 40
0.525830258302583
 40
0.525830258302583
 40
0.5276752767527675
 40
0.5276752767527675
 40
0.5276752767527675
 40
0.5276752767527675
 40
0.5295202952029521
 40
0.5295202952029521
 40
0.5295202952029521
 40
0.5295202952029521
 40
0.5313653136531366
 40
0.5313653136531366
 40
0.5313653136531366
 40
0.5313653136531366
 40
0.533210332103321
 40
0.533210332103321
 40
0.533210332103321
 40
0.533210332103321
 40
0.5350553505535055
 40
0.5350553505535055
 40
0.5350553505535055
 40
0.5350553505535055
 40
0.5369003690036901
 40
0.5369003690036901
 40
0.5369003690036901
 40
0.5369003690036901
 40
0.5387453874538746
 40
0.5387453874538746
 40
0.5387453874538746
 40
0.5387453874538746
 40
0.540590405904059
 40
0.540590405904059
 40
0.540590405904059
 40
0.540590405904059
 40
0.5424354243542435
 40
0.5424354243542435
 40
0.5424354243542435
 40
0.5424354243542435
 40
0.544280442804428
 40
0.544280442804428
 40
0.544280442804428
 40
0.544280442804428
 40
0.5461254612546126
 40
0.5461254612546126
 40
0.5461254612546126
 40
0.5461254612546126
 40
0.5479704797047971
 40
0.5479704797047971
 40
0.5479704797047971
 40
0.5479704797047971
 40
0.5498154981549815
 40
0.5498154981549815
 40
0.5498154981549815
 40
0.5498154981549815
 40
0.551660516605166
 40
0.551660516605166
 40
0.551660516605166
 40
0.551660516605166
 40
0.5535055350553506
 40
0.5535055350553506
 40
0.5535055350553506
 40
0.5535055350553506
 40
0.5553505535055351
 40
0.5553505535055351
 40
0.5553505535055351
 40
0.5553505535055351
 40
0.5571955719557196
 40
0.5571955719557196
 40
0.5571955719557196
 40
0.5571955719557196
 40
0.559040590405904
 40
0.559040590405904
 40
0.559040590405904
 40
0.559040590405904
 40
0.5608856088560885
 40
0.5608856088560885
 40
0.5608856088560885
 40
0.5608856088560885
 40
0.5627306273062731
 40
0.5627306273062731
 40
0.5627306273062731
 40
0.5627306273062731
 40
0.5645756457564576
 40
0.5645756457564576
 40
0.5645756457564576
 40
0.5645756457564576
 40
0.566420664206642
 40
0.566420664206642
 40
0.566420664206642
 40
0.566420664206642
 40
0.5682656826568265
 40
0.5682656826568265
 40
0.5682656826568265
 40
0.5682656826568265
 40
0.5701107011070111
 40
0.5701107011070111
 40
0.5701107011070111
 40
0.5701107011070111
 40
0.5719557195571956
 40
0.5719557195571956
 40
0.5719557195571956
 40
0.5719557195571956
 40
0.5738007380073801
 40
0.5738007380073801
 40
0.5738007380073801
 40
0.5738007380073801
 40
0.5756457564575646
 40
0.5756457564575646
 40
0.5756457564575646
 40
0.5756457564575646
 40
0.577490774907749
 40
0.577490774907749
 40
0.577490774907749
 40
0.577490774907749
 40
0.5793357933579336
 40
0.5793357933579336
 40
0.5793357933579336
 40
0.5793357933579336
 40
0.5811808118081181
 40
0.5811808118081181
 40
0.5811808118081181
 40
0.5811808118081181
 40
0.5830258302583026
 40
0.5830258302583026
 40
0.5830258302583026
 40
0.5830258302583026
 40
0.584870848708487
 40
0.584870848708487
 40
0.584870848708487
 40
0.584870848708487
 40
0.5867158671586716
 40
0.5867158671586716
 40
0.5867158671586716
 40
0.5867158671586716
 40
0.5885608856088561
 40
0.5885608856088561
 40
0.5885608856088561
 40
0.5885608856088561
 40
0.5904059040590406
 40
0.5904059040590406
 40
0.5904059040590406
 40
0.5904059040590406
 40
0.5922509225092251
 40
0.5922509225092251
 40
0.5922509225092251
 40
0.5922509225092251
 40
0.5940959409594095
 40
0.5940959409594095
 40
0.5940959409594095
 40
0.5940959409594095
 40
0.5959409594095941
 40
0.5959409594095941
 40
0.5959409594095941
 40
0.5959409594095941
 40
0.5977859778597786
 40
0.5977859778597786
 40
0.5977859778597786
 40
0.5977859778597786
 40
0.5996309963099631
 40
0.5996309963099631
 40
0.5996309963099631
 40
0.5996309963099631
 40
0.6014760147601476
 40
0.6014760147601476
 40
0.6014760147601476
 40
0.6014760147601476
 40
0.6033210332103321
 40
0.6033210332103321
 40
0.6033210332103321
 40
0.6033210332103321
 40
0.6051660516605166
 40
0.6051660516605166
 40
0.6051660516605166
 40
0.6051660516605166
 40
0.6070110701107011
 40
0.6070110701107011
 40
0.6070110701107011
 40
0.6070110701107011
 40
0.6088560885608856
 40
0.6088560885608856
 40
0.6088560885608856
 40
0.6088560885608856
 40
0.6107011070110702
 40
0.6107011070110702
 40
0.6107011070110702
 40
0.6107011070110702
 40
0.6125461254612546
 40
0.6125461254612546
 40
0.6125461254612546
 40
0.6125461254612546
 40
0.6143911439114391
 40
0.6143911439114391
 40
0.6143911439114391
 40
0.6143911439114391
 40
0.6162361623616236
 40
0.6162361623616236
 40
0.6162361623616236
 40
0.6162361623616236
 40
0.6180811808118081
 40
0.6180811808118081
 40
0.6180811808118081
 40
0.6180811808118081
 40
0.6199261992619927
 40
0.6199261992619927
 40
0.6199261992619927
 40
0.6199261992619927
 40
0.6217712177121771
 40
0.6217712177121771
 40
0.6217712177121771
 40
0.6217712177121771
 40
0.6236162361623616
 40
0.6236162361623616
 40
0.6236162361623616
 40
0.6236162361623616
 40
0.6254612546125461
 40
0.6254612546125461
 40
0.6254612546125461
 40
0.6254612546125461
 40
0.6273062730627307
 40
0.6273062730627307
 40
0.6273062730627307
 40
0.6273062730627307
 40
0.6291512915129152
 40
0.6291512915129152
 40
0.6291512915129152
 40
0.6291512915129152
 40
0.6309963099630996
 40
0.6309963099630996
 40
0.6309963099630996
 40
0.6309963099630996
 40
0.6328413284132841
 40
0.6328413284132841
 40
0.6328413284132841
 40
0.6328413284132841
 40
0.6346863468634686
 40
0.6346863468634686
 40
0.6346863468634686
 40
0.6346863468634686
 40
0.6365313653136532
 40
0.6365313653136532
 40
0.6365313653136532
 40
0.6365313653136532
 40
0.6383763837638377
 40
0.6383763837638377
 40
0.6383763837638377
 40
0.6383763837638377
 40
0.6402214022140221
 40
0.6402214022140221
 40
0.6402214022140221
 40
0.6402214022140221
 40
0.6420664206642066
 40
0.6420664206642066
 40
0.6420664206642066
 40
0.6420664206642066
 40
0.6439114391143912
 40
0.6439114391143912
 40
0.6439114391143912
 40
0.6439114391143912
 40
0.6457564575645757
 40
0.6457564575645757
 40
0.6457564575645757
 40
0.6457564575645757
 40
0.6476014760147601
 40
0.6476014760147601
 40
0.6476014760147601
 40
0.6476014760147601
 40
0.6494464944649446
 40
0.6494464944649446
 40
0.6494464944649446
 40
0.6494464944649446
 40
0.6512915129151291
 40
0.6512915129151291
 40
0.6512915129151291
 40
0.6512915129151291
 40
0.6531365313653137
 40
0.6531365313653137
 40
0.6531365313653137
 40
0.6531365313653137
 40
0.6549815498154982
 40
0.6549815498154982
 40
0.6549815498154982
 40
0.6549815498154982
 40
0.6568265682656826
 40
0.6568265682656826
 40
0.6568265682656826
 40
0.6568265682656826
 40
0.6586715867158671
 40
0.6586715867158671
 40
0.6586715867158671
 40
0.6586715867158671
 40
0.6605166051660517
 40
0.6605166051660517
 40
0.6605166051660517
 40
0.6605166051660517
 40
0.6623616236162362
 40
0.6623616236162362
 40
0.6623616236162362
 40
0.6623616236162362
 40
0.6642066420664207
 40
0.6642066420664207
 40
0.6642066420664207
 40
0.6642066420664207
 40
0.6660516605166051
 40
0.6660516605166051
 40
0.6660516605166051
 40
0.6660516605166051
 40
0.6678966789667896
 40
0.6678966789667896
 40
0.6678966789667896
 40
0.6678966789667896
 40
0.6697416974169742
 40
0.6697416974169742
 40
0.6697416974169742
 40
0.6697416974169742
 40
0.6715867158671587
 40
0.6715867158671587
 40
0.6715867158671587
 40
0.6715867158671587
 40
0.6734317343173432
 40
0.6734317343173432
 40
0.6734317343173432
 40
0.6734317343173432
 40
0.6752767527675276
 40
0.6752767527675276
 40
0.6752767527675276
 40
0.6752767527675276
 40
0.6771217712177122
 40
0.6771217712177122
 40
0.6771217712177122
 40
0.6771217712177122
 40
0.6789667896678967
 40
0.6789667896678967
 40
0.6789667896678967
 40
0.6789667896678967
 40
0.6808118081180812
 40
0.6808118081180812
 40
0.6808118081180812
 40
0.6808118081180812
 40
0.6826568265682657
 40
0.6826568265682657
 40
0.6826568265682657
 40
0.6826568265682657
 40
0.6845018450184502
 40
0.6845018450184502
 40
0.6845018450184502
 40
0.6845018450184502
 40
0.6863468634686347
 40
0.6863468634686347
 40
0.6863468634686347
 40
0.6863468634686347
 40
0.6881918819188192
 40
0.6881918819188192
 40
0.6881918819188192
 40
0.6881918819188192
 40
0.6900369003690037
 40
0.6900369003690037
 40
0.6900369003690037
 40
0.6900369003690037
 40
0.6918819188191881
 40
0.6918819188191881
 40
0.6918819188191881
 40
0.6918819188191881
 40
0.6937269372693727
 40
0.6937269372693727
 40
0.6937269372693727
 40
0.6937269372693727
 40
0.6955719557195572
 40
0.6955719557195572
 40
0.6955719557195572
 40
0.6955719557195572
 40
0.6974169741697417
 40
0.6974169741697417
 40
0.6974169741697417
 40
0.6974169741697417
 40
0.6992619926199262
 40
0.6992619926199262
 40
0.6992619926199262
 40
0.6992619926199262
 40
0.7011070110701108
 40
0.7011070110701108
 40
0.7011070110701108
 40
0.7011070110701108
 40
0.7029520295202952
 40
0.7029520295202952
 40
0.7029520295202952
 40
0.7029520295202952
 40
0.7047970479704797
 40
0.7047970479704797
 40
0.7047970479704797
 40
0.7047970479704797
 40
0.7066420664206642
 40
0.7066420664206642
 40
0.7066420664206642
 40
0.7066420664206642
 40
0.7084870848708487
 40
0.7084870848708487
 40
0.7084870848708487
 40
0.7084870848708487
 40
0.7103321033210332
 40
0.7103321033210332
 40
0.7103321033210332
 40
0.7103321033210332
 40
0.7121771217712177
 40
0.7121771217712177
 40
0.7121771217712177
 40
0.7121771217712177
 40
0.7140221402214022
 40
0.7140221402214022
 40
0.7140221402214022
 40
0.7140221402214022
 40
0.7158671586715867
 40
0.7158671586715867
 40
0.7158671586715867
 40
0.7158671586715867
 40
0.7177121771217713
 40
0.7177121771217713
 40
0.7177121771217713
 40
0.7177121771217713
 40
0.7195571955719557
 40
0.7195571955719557
 40
0.7195571955719557
 40
0.7195571955719557
 40
0.7214022140221402
 40
0.7214022140221402
 40
0.7214022140221402
 40
0.7214022140221402
 40
0.7232472324723247
 40
0.7232472324723247
 40
0.7232472324723247
 40
0.7232472324723247
 40
0.7250922509225092
 40
0.7250922509225092
 40
0.7250922509225092
 40
0.7250922509225092
 40
0.7269372693726938
 40
0.7269372693726938
 40
0.7269372693726938
 40
0.7269372693726938
 40
0.7287822878228782
 40
0.7287822878228782
 40
0.7287822878228782
 40
0.7287822878228782
 40
0.7306273062730627
 40
0.7306273062730627
 40
0.7306273062730627
 40
0.7306273062730627
 40
0.7324723247232472
 40
0.7324723247232472
 40
0.7324723247232472
 40
0.7324723247232472
 40
0.7343173431734318
 40
0.7343173431734318
 40
0.7343173431734318
 40
0.7343173431734318
 40
0.7361623616236163
 40
0.7361623616236163
 40
0.7361623616236163
 40
0.7361623616236163
 40
0.7380073800738007
 40
0.7380073800738007
 40
0.7380073800738007
 40
0.7380073800738007
 40
0.7398523985239852
 40
0.7398523985239852
 40
0.7398523985239852
 40
0.7398523985239852
 40
0.7416974169741697
 40
0.7416974169741697
 40
0.7416974169741697
 40
0.7416974169741697
 40
0.7435424354243543
 40
0.7435424354243543
 40
0.7435424354243543
 40
0.7435424354243543
 40
0.7453874538745388
 40
0.7453874538745388
 40
0.7453874538745388
 40
0.7453874538745388
 40
0.7472324723247232
 40
0.7472324723247232
 40
0.7472324723247232
 40
0.7472324723247232
 40
0.7490774907749077
 40
0.7490774907749077
 40
0.7490774907749077
 40
0.7490774907749077
 40
0.7509225092250923
 40
0.7509225092250923
 40
0.7509225092250923
 40
0.7509225092250923
 40
0.7527675276752768
 40
0.7527675276752768
 40
0.7527675276752768
 40
0.7527675276752768
 40
0.7546125461254612
 40
0.7546125461254612
 40
0.7546125461254612
 40
0.7546125461254612
 40
0.7564575645756457
 40
0.7564575645756457
 40
0.7564575645756457
 40
0.7564575645756457
 40
0.7583025830258303
 40
0.7583025830258303
 40
0.7583025830258303
 40
0.7583025830258303
 40
0.7601476014760148
 40
0.7601476014760148
 40
0.7601476014760148
 40
0.7601476014760148
 40
0.7619926199261993
 40
0.7619926199261993
 40
0.7619926199261993
 40
0.7619926199261993
 40
0.7638376383763837
 40
0.7638376383763837
 40
0.7638376383763837
 40
0.7638376383763837
 40
0.7656826568265682
 40
0.7656826568265682
 40
0.7656826568265682
 40
0.7656826568265682
 40
0.7675276752767528
 40
0.7675276752767528
 40
0.7675276752767528
 40
0.7675276752767528
 40
0.7693726937269373
 40
0.7693726937269373
 40
0.7693726937269373
 40
0.7693726937269373
 40
0.7712177121771218
 40
0.7712177121771218
 40
0.7712177121771218
 40
0.7712177121771218
 40
0.7730627306273062
 40
0.7730627306273062
 40
0.7730627306273062
 40
0.7730627306273062
 40
0.7749077490774908
 40
0.7749077490774908
 40
0.7749077490774908
 40
0.7749077490774908
 40
0.7767527675276753
 40
0.7767527675276753
 40
0.7767527675276753
 40
0.7767527675276753
 40
0.7785977859778598
 40
0.7785977859778598
 40
0.7785977859778598
 40
0.7785977859778598
 40
0.7804428044280443
 40
0.7804428044280443
 40
0.7804428044280443
 40
0.7804428044280443
 40
0.7822878228782287
 40
0.7822878228782287
 40
0.7822878228782287
 40
0.7822878228782287
 40
0.7841328413284133
 40
0.7841328413284133
 40
0.7841328413284133
 40
0.7841328413284133
 40
0.7859778597785978
 40
0.7859778597785978
 40
0.7859778597785978
 40
0.7859778597785978
 40
0.7878228782287823
 40
0.7878228782287823
 40
0.7878228782287823
 40
0.7878228782287823
 40
0.7896678966789668
 40
0.7896678966789668
 40
0.7896678966789668
 40
0.7896678966789668
 40
0.7915129151291513
 40
0.7915129151291513
 40
0.7915129151291513
 40
0.7915129151291513
 40
0.7933579335793358
 40
0.7933579335793358
 40
0.7933579335793358
 40
0.7933579335793358
 40
0.7952029520295203
 40
0.7952029520295203
 40
0.7952029520295203
 40
0.7952029520295203
 40
0.7970479704797048
 40
0.7970479704797048
 40
0.7970479704797048
 40
0.7970479704797048
 40
0.7988929889298892
 40
0.7988929889298892
 40
0.7988929889298892
 40
0.7988929889298892
 40
0.8007380073800738
 40
0.8007380073800738
 40
0.8007380073800738
 40
0.8007380073800738
 40
0.8025830258302583
 40
0.8025830258302583
 40
0.8025830258302583
 40
0.8025830258302583
 40
0.8044280442804428
 40
0.8044280442804428
 40
0.8044280442804428
 40
0.8044280442804428
 40
0.8062730627306273
 40
0.8062730627306273
 40
0.8062730627306273
 40
0.8062730627306273
 40
0.8081180811808119
 40
0.8081180811808119
 40
0.8081180811808119
 40
0.8081180811808119
 40
0.8099630996309963
 40
0.8099630996309963
 40
0.8099630996309963
 40
0.8099630996309963
 40
0.8118081180811808
 40
0.8118081180811808
 40
0.8118081180811808
 40
0.8118081180811808
 40
0.8136531365313653
 40
0.8136531365313653
 40
0.8136531365313653
 40
0.8136531365313653
 40
0.8154981549815498
 40
0.8154981549815498
 40
0.8154981549815498
 40
0.8154981549815498
 40
0.8173431734317343
 40
0.8173431734317343
 40
0.8173431734317343
 40
0.8173431734317343
 40
0.8191881918819188
 40
0.8191881918819188
 40
0.8191881918819188
 40
0.8191881918819188
 40
0.8210332103321033
 40
0.8210332103321033
 40
0.8210332103321033
 40
0.8210332103321033
 40
0.8228782287822878
 40
0.8228782287822878
 40
0.8228782287822878
 40
0.8228782287822878
 40
0.8247232472324724
 40
0.8247232472324724
 40
0.8247232472324724
 40
0.8247232472324724
 40
0.8265682656826568
 40
0.8265682656826568
 40
0.8265682656826568
 40
0.8265682656826568
 40
0.8284132841328413
 40
0.8284132841328413
 40
0.8284132841328413
 40
0.8284132841328413
 40
0.8302583025830258
 40
0.8302583025830258
 40
0.8302583025830258
 40
0.8302583025830258
 40
0.8321033210332104
 40
0.8321033210332104
 40
0.8321033210332104
 40
0.8321033210332104
 40
0.8339483394833949
 40
0.8339483394833949
 40
0.8339483394833949
 40
0.8339483394833949
 40
0.8357933579335793
 40
0.8357933579335793
 40
0.8357933579335793
 40
0.8357933579335793
 40
0.8376383763837638
 40
0.8376383763837638
 40
0.8376383763837638
 40
0.8376383763837638
 40
0.8394833948339483
 40
0.8394833948339483
 40
0.8394833948339483
 40
0.8394833948339483
 40
0.8413284132841329
 40
0.8413284132841329
 40
0.8413284132841329
 40
0.8413284132841329
 40
0.8431734317343174
 40
0.8431734317343174
 40
0.8431734317343174
 40
0.8431734317343174
 40
0.8450184501845018
 40
0.8450184501845018
 40
0.8450184501845018
 40
0.8450184501845018
 40
0.8468634686346863
 40
0.8468634686346863
 40
0.8468634686346863
 40
0.8468634686346863
 40
0.8487084870848709
 40
0.8487084870848709
 40
0.8487084870848709
 40
0.8487084870848709
 40
0.8505535055350554
 40
0.8505535055350554
 40
0.8505535055350554
 40
0.8505535055350554
 40
0.8523985239852399
 40
0.8523985239852399
 40
0.8523985239852399
 40
0.8523985239852399
 40
0.8542435424354243
 40
0.8542435424354243
 40
0.8542435424354243
 40
0.8542435424354243
 40
0.8560885608856088
 40
0.8560885608856088
 40
0.8560885608856088
 40
0.8560885608856088
 40
0.8579335793357934
 40
0.8579335793357934
 40
0.8579335793357934
 40
0.8579335793357934
 40
0.8597785977859779
 40
0.8597785977859779
 40
0.8597785977859779
 40
0.8597785977859779
 40
0.8616236162361623
 40
0.8616236162361623
 40
0.8616236162361623
 40
0.8616236162361623
 40
0.8634686346863468
 40
0.8634686346863468
 40
0.8634686346863468
 40
0.8634686346863468
 40
0.8653136531365314
 40
0.8653136531365314
 40
0.8653136531365314
 40
0.8653136531365314
 40
0.8671586715867159
 40
0.8671586715867159
 40
0.8671586715867159
 40
0.8671586715867159
 40
0.8690036900369004
 40
0.8690036900369004
 40
0.8690036900369004
 40
0.8690036900369004
 40
0.8708487084870848
 40
0.8708487084870848
 40
0.8708487084870848
 40
0.8708487084870848
 40
0.8726937269372693
 40
0.8726937269372693
 40
0.8726937269372693
 40
0.8726937269372693
 40
0.8745387453874539
 40
0.8745387453874539
 40
0.8745387453874539
 40
0.8745387453874539
 40
0.8763837638376384
 40
0.8763837638376384
 40
0.8763837638376384
 40
0.8763837638376384
 40
0.8782287822878229
 40
0.8782287822878229
 40
0.8782287822878229
 40
0.8782287822878229
 40
0.8800738007380073
 40
0.8800738007380073
 40
0.8800738007380073
 40
0.8800738007380073
 40
0.8819188191881919
 40
0.8819188191881919
 40
0.8819188191881919
 40
0.8819188191881919
 40
0.8837638376383764
 40
0.8837638376383764
 40
0.8837638376383764
 40
0.8837638376383764
 40
0.8856088560885609
 40
0.8856088560885609
 40
0.8856088560885609
 40
0.8856088560885609
 40
0.8874538745387454
 40
0.8874538745387454
 40
0.8874538745387454
 40
0.8874538745387454
 40
0.8892988929889298
 40
0.8892988929889298
 40
0.8892988929889298
 40
0.8892988929889298
 40
0.8911439114391144
 40
0.8911439114391144
 40
0.8911439114391144
 40
0.8911439114391144
 40
0.8929889298892989
 40
0.8929889298892989
 40
0.8929889298892989
 40
0.8929889298892989
 40
0.8948339483394834
 40
0.8948339483394834
 40
0.8948339483394834
 40
0.8948339483394834
 40
0.8966789667896679
 40
0.8966789667896679
 40
0.8966789667896679
 40
0.8966789667896679
 40
0.8985239852398524
 40
0.8985239852398524
 40
0.8985239852398524
 40
0.8985239852398524
 40
0.9003690036900369
 40
0.9003690036900369
 40
0.9003690036900369
 40
0.9003690036900369
 40
0.9022140221402214
 40
0.9022140221402214
 40
0.9022140221402214
 40
0.9022140221402214
 40
0.9040590405904059
 40
0.9040590405904059
 40
0.9040590405904059
 40
0.9040590405904059
 40
0.9059040590405905
 40
0.9059040590405905
 40
0.9059040590405905
 40
0.9059040590405905
 40
0.9077490774907749
 40
0.9077490774907749
 40
0.9077490774907749
 40
0.9077490774907749
 40
0.9095940959409594
 40
0.9095940959409594
 40
0.9095940959409594
 40
0.9095940959409594
 40
0.9114391143911439
 40
0.9114391143911439
 40
0.9114391143911439
 40
0.9114391143911439
 40
0.9132841328413284
 40
0.9132841328413284
 40
0.9132841328413284
 40
0.9132841328413284
 40
0.915129151291513
 40
0.915129151291513
 40
0.915129151291513
 40
0.915129151291513
 40
0.9169741697416974
 40
0.9169741697416974
 40
0.9169741697416974
 40
0.9169741697416974
 40
0.9188191881918819
 40
0.9188191881918819
 40
0.9188191881918819
 40
0.9188191881918819
 40
0.9206642066420664
 40
0.9206642066420664
 40
0.9206642066420664
 40
0.9206642066420664
 40
0.922509225092251
 40
0.922509225092251
 40
0.922509225092251
 40
0.922509225092251
 40
0.9243542435424354
 40
0.9243542435424354
 40
0.9243542435424354
 40
0.9243542435424354
 40
0.9261992619926199
 40
0.9261992619926199
 40
0.9261992619926199
 40
0.9261992619926199
 40
0.9280442804428044
 40
0.9280442804428044
 40
0.9280442804428044
 40
0.9280442804428044
 40
0.9298892988929889
 40
0.9298892988929889
 40
0.9298892988929889
 40
0.9298892988929889
 40
0.9317343173431735
 40
0.9317343173431735
 40
0.9317343173431735
 40
0.9317343173431735
 40
0.933579335793358
 40
0.933579335793358
 40
0.933579335793358
 40
0.933579335793358
 40
0.9354243542435424
 40
0.9354243542435424
 40
0.9354243542435424
 40
0.9354243542435424
 40
0.9372693726937269
 40
0.9372693726937269
 40
0.9372693726937269
 40
0.9372693726937269
 40
0.9391143911439115
 40
0.9391143911439115
 40
0.9391143911439115
 40
0.9391143911439115
 40
0.940959409594096
 40
0.940959409594096
 40
0.940959409594096
 40
0.940959409594096
 40
0.9428044280442804
 40
0.9428044280442804
 40
0.9428044280442804
 40
0.9428044280442804
 40
0.9446494464944649
 40
0.9446494464944649
 40
0.9446494464944649
 40
0.9446494464944649
 40
0.9464944649446494
 40
0.9464944649446494
 40
0.9464944649446494
 40
0.9464944649446494
 40
0.948339483394834
 40
0.948339483394834
 40
0.948339483394834
 40
0.948339483394834
 40
0.9501845018450185
 40
0.9501845018450185
 40
0.9501845018450185
 40
0.9501845018450185
 40
0.9520295202952029
 40
0.9520295202952029
 40
0.9520295202952029
 40
0.9520295202952029
 40
0.9538745387453874
 40
0.9538745387453874
 40
0.9538745387453874
 40
0.9538745387453874
 40
0.955719557195572
 40
0.955719557195572
 40
0.955719557195572
 40
0.955719557195572
 40
0.9575645756457565
 40
0.9575645756457565
 40
0.9575645756457565
 40
0.9575645756457565
 40
0.959409594095941
 40
0.959409594095941
 40
0.959409594095941
 40
0.959409594095941
 40
0.9612546125461254
 40
0.9612546125461254
 40
0.9612546125461254
 40
0.9612546125461254
 40
0.9630996309963099
 40
0.9630996309963099
 40
0.9630996309963099
 40
0.9630996309963099
 40
0.9649446494464945
 40
0.9649446494464945
 40
0.9649446494464945
 40
0.9649446494464945
 40
0.966789667896679
 40
0.966789667896679
 40
0.966789667896679
 40
0.966789667896679
 40
0.9686346863468634
 40
0.9686346863468634
 40
0.9686346863468634
 40
0.9686346863468634
 40
0.9704797047970479
 40
0.9704797047970479
 40
0.9704797047970479
 40
0.9704797047970479
 40
0.9723247232472325
 40
0.9723247232472325
 40
0.9723247232472325
 40
0.9723247232472325
 40
0.974169741697417
 40
0.974169741697417
 40
0.974169741697417
 40
0.974169741697417
 40
0.9760147601476015
 40
0.9760147601476015
 40
0.9760147601476015
 40
0.9760147601476015
 40
0.977859778597786
 40
0.977859778597786
 40
0.977859778597786
 40
0.977859778597786
 40
0.9797047970479705
 40
0.9797047970479705
 40
0.9797047970479705
 40
0.9797047970479705
 40
0.981549815498155
 40
0.981549815498155
 40
0.981549815498155
 40
0.981549815498155
 40
0.9833948339483395
 40
0.9833948339483395
 40
0.9833948339483395
 40
0.9833948339483395
 40
0.985239852398524
 40
0.985239852398524
 40
0.985239852398524
 40
0.985239852398524
 40
0.9870848708487084
 40
0.9870848708487084
 40
0.9870848708487084
 40
0.9870848708487084
 40
0.988929889298893
 40
0.988929889298893
 40
0.988929889298893
 40
0.988929889298893
 40
0.9907749077490775
 40
0.9907749077490775
 40
0.9907749077490775
 40
0.9907749077490775
 40
0.992619926199262
 40
0.992619926199262
 40
0.992619926199262
 40
0.992619926199262
 40
0.9944649446494465
 40
0.9944649446494465
 40
0.9944649446494465
 40
0.9944649446494465
 40
0.996309963099631
 40
0.996309963099631
 40
0.996309963099631
 40
0.996309963099631
 40
1.0
 40
1.0
 40
1.0
 40
1.0
 10
52.6191220472441
 20
6.621043307086614
 30
0.0
 10
52.6191220472441
 20
6.621043307086614
 30
0.0
 10
52.6191220472441
 20
7.605303149606299
 30
0.0
 10
52.6191220472441
 20
7.605303149606299
 30
0.0
 10
52.6191220472441
 20
7.605303149606299
 30
0.0
 10
52.6191220472441
 20
7.605303149606299
 30
0.0
 10
43.61921653543307
 20
7.605303149606299
 30
0.0
 10
43.61921653543307
 20
7.605303149606299
 30
0.0
 10
43.61921653543307
 20
7.605303149606299
 30
0.0
 10
43.61921653543307
 20
7.605303149606299
 30
0.0
 10
43.61921653543307
 20
6.621043307086614
 30
0.0
 10
43.61921653543307
 20
6.621043307086614
 30
0.0
 10
43.61921653543307
 20
6.621043307086614
 30
0.0
 10
43.65237795275591
 20
6.621027559055118
 30
0.0
 10
43.68420472440945
 20
6.60782283464567
 30
0.0
 10
43.70767322834646
 20
6.584318897637795
 30
0.0
 10
43.70767322834646
 20
6.584318897637795
 30
0.0
 10
43.70770078740158
 20
6.584291338582677
 30
0.0
 10
43.70771653543307
 20
6.584279527559056
 30
0.0
 10
43.70772834645669
 20
6.584263779527559
 30
0.0
 10
43.70772834645669
 20
6.584263779527559
 30
0.0
 10
43.70774409448819
 20
6.584248031496063
 30
0.0
 10
43.70775984251969
 20
6.584232283464567
 30
0.0
 10
43.70777559055118
 20
6.584216535433071
 30
0.0
 10
43.70777559055118
 20
6.584216535433071
 30
0.0
 10
43.70779133858268
 20
6.584200787401575
 30
0.0
 10
43.70780708661417
 20
6.584185039370078
 30
0.0
 10
43.70782283464567
 20
6.584169291338583
 30
0.0
 10
43.70782283464567
 20
6.584169291338583
 30
0.0
 10
43.70785039370079
 20
6.584141732283465
 30
0.0
 10
43.70788188976378
 20
6.584110236220472
 30
0.0
 10
43.70791338582677
 20
6.58407874015748
 30
0.0
 10
43.70791338582677
 20
6.58407874015748
 30
0.0
 10
43.70794488188977
 20
6.584047244094489
 30
0.0
 10
43.70797244094488
 20
6.584015748031496
 30
0.0
 10
43.70800393700787
 20
6.583988188976378
 30
0.0
 10
43.70800393700787
 20
6.583988188976378
 30
0.0
 10
43.70806299212598
 20
6.583925196850394
 30
0.0
 10
43.70812598425197
 20
6.58386220472441
 30
0.0
 10
43.70818503937008
 20
6.583803149606299
 30
0.0
 10
43.70818503937008
 20
6.583803149606299
 30
0.0
 10
43.70824803149606
 20
6.583740157480315
 30
0.0
 10
43.70830708661418
 20
6.583681102362204
 30
0.0
 10
43.70836614173228
 20
6.583618110236221
 30
0.0
 10
43.70836614173228
 20
6.583618110236221
 30
0.0
 10
43.70842913385827
 20
6.583555118110236
 30
0.0
 10
43.70848818897637
 20
6.583496062992126
 30
0.0
 10
43.70854724409449
 20
6.583433070866142
 30
0.0
 10
43.70854724409449
 20
6.583433070866142
 30
0.0
 10
43.70861023622047
 20
6.583370078740158
 30
0.0
 10
43.70866929133858
 20
6.583311023622048
 30
0.0
 10
43.7087283464567
 20
6.583248031496063
 30
0.0
 10
43.7087283464567
 20
6.583248031496063
 30
0.0
 10
43.70885039370079
 20
6.583125984251969
 30
0.0
 10
43.70896850393701
 20
6.583
 30
0.0
 10
43.70909055118111
 20
6.582877952755905
 30
0.0
 10
43.70909055118111
 20
6.582877952755905
 30
0.0
 10
43.70920866141732
 20
6.582751968503937
 30
0.0
 10
43.70933070866142
 20
6.582629921259842
 30
0.0
 10
43.70944881889764
 20
6.582503937007874
 30
0.0
 10
43.70944881889764
 20
6.582503937007874
 30
0.0
 10
43.70956692913386
 20
6.582377952755905
 30
0.0
 10
43.70968897637795
 20
6.582255905511811
 30
0.0
 10
43.70980708661417
 20
6.582129921259843
 30
0.0
 10
43.70980708661417
 20
6.582129921259843
 30
0.0
 10
43.70992519685039
 20
6.582003937007874
 30
0.0
 10
43.71004330708661
 20
6.581881889763779
 30
0.0
 10
43.71016141732284
 20
6.581755905511811
 30
0.0
 10
43.71016141732284
 20
6.581755905511811
 30
0.0
 10
43.71027952755905
 20
6.581629921259842
 30
0.0
 10
43.71039763779527
 20
6.581503937007874
 30
0.0
 10
43.7105157480315
 20
6.581377952755905
 30
0.0
 10
43.7105157480315
 20
6.581377952755905
 30
0.0
 10
43.71075196850393
 20
6.581125984251969
 30
0.0
 10
43.7109842519685
 20
6.580874015748032
 30
0.0
 10
43.71121653543307
 20
6.580622047244095
 30
0.0
 10
43.71121653543307
 20
6.580622047244095
 30
0.0
 10
43.71144881889764
 20
6.580366141732283
 30
0.0
 10
43.71168110236221
 20
6.580114173228346
 30
0.0
 10
43.71191338582677
 20
6.579858267716536
 30
0.0
 10
43.71191338582677
 20
6.579858267716536
 30
0.0
 10
43.71214173228346
 20
6.579602362204724
 30
0.0
 10
43.71237401574803
 20
6.579346456692913
 30
0.0
 10
43.71260236220473
 20
6.579090551181102
 30
0.0
 10
43.71260236220473
 20
6.579090551181102
 30
0.0
 10
43.71283070866141
 20
6.578834645669291
 30
0.0
 10
43.71305511811023
 20
6.57857874015748
 30
0.0
 10
43.71328346456693
 20
6.578318897637796
 30
0.0
 10
43.71328346456693
 20
6.578318897637796
 30
0.0
 10
43.71373622047244
 20
6.577803149606299
 30
0.0
 10
43.7141811023622
 20
6.577283464566929
 30
0.0
 10
43.71462598425197
 20
6.576759842519685
 30
0.0
 10
43.71462598425197
 20
6.576759842519685
 30
0.0
 10
43.71506692913386
 20
6.576236220472441
 30
0.0
 10
43.71550787401575
 20
6.575712598425197
 30
0.0
 10
43.71594094488189
 20
6.575181102362205
 30
0.0
 10
43.71594094488189
 20
6.575181102362205
 30
0.0
 10
43.71637401574803
 20
6.574653543307087
 30
0.0
 10
43.7168031496063
 20
6.574118110236221
 30
0.0
 10
43.71722834645669
 20
6.573582677165354
 30
0.0
 10
43.71722834645669
 20
6.573582677165354
 30
0.0
 10
43.71765354330709
 20
6.573047244094488
 30
0.0
 10
43.71807480314961
 20
6.572507874015748
 30
0.0
 10
43.71848818897638
 20
6.571964566929134
 30
0.0
 10
43.71848818897638
 20
6.571964566929134
 30
0.0
 10
43.71890551181102
 20
6.571425196850393
 30
0.0
 10
43.71931496062992
 20
6.570877952755906
 30
0.0
 10
43.71972047244095
 20
6.570330708661417
 30
0.0
 10
43.71972047244095
 20
6.570330708661417
 30
0.0
 10
43.72012598425197
 20
6.569783464566929
 30
0.0
 10
43.72052755905512
 20
6.569232283464567
 30
0.0
 10
43.72092519685039
 20
6.56867716535433
 30
0.0
 10
43.72092519685039
 20
6.56867716535433
 30
0.0
 10
43.72171653543307
 20
6.567570866141732
 30
0.0
 10
43.72249212598425
 20
6.566448818897638
 30
0.0
 10
43.72324409448819
 20
6.565318897637796
 30
0.0
 10
43.72324409448819
 20
6.565318897637796
 30
0.0
 10
43.724
 20
6.564188976377952
 30
0.0
 10
43.72473622047244
 20
6.563043307086614
 30
0.0
 10
43.72545275590551
 20
6.561889763779527
 30
0.0
 10
43.72545275590551
 20
6.561889763779527
 30
0.0
 10
43.72616929133859
 20
6.560740157480315
 30
0.0
 10
43.72686614173228
 20
6.559574803149606
 30
0.0
 10
43.72754330708661
 20
6.558397637795276
 30
0.0
 10
43.72754330708661
 20
6.558397637795276
 30
0.0
 10
43.72822047244095
 20
6.557224409448819
 30
0.0
 10
43.72888188976378
 20
6.55603937007874
 30
0.0
 10
43.72951968503937
 20
6.55484251968504
 30
0.0
 10
43.72951968503937
 20
6.55484251968504
 30
0.0
 10
43.73015748031496
 20
6.553649606299213
 30
0.0
 10
43.73077559055118
 20
6.552444881889763
 30
0.0
 10
43.73137401574803
 20
6.551228346456693
 30
0.0
 10
43.73137401574803
 20
6.551228346456693
 30
0.0
 10
43.73257086614174
 20
6.548803149606299
 30
0.0
 10
43.73368897637796
 20
6.546338582677166
 30
0.0
 10
43.73472440944882
 20
6.543838582677165
 30
0.0
 10
43.73472440944882
 20
6.543838582677165
 30
0.0
 10
43.73576377952756
 20
6.541338582677166
 30
0.0
 10
43.73671653543307
 20
6.538803149606299
 30
0.0
 10
43.73758661417323
 20
6.536240157480315
 30
0.0
 10
43.73758661417323
 20
6.536240157480315
 30
0.0
 10
43.73846062992126
 20
6.533677165354331
 30
0.0
 10
43.73924803149606
 20
6.531082677165355
 30
0.0
 10
43.73995275590551
 20
6.528464566929133
 30
0.0
 10
43.73995275590551
 20
6.528464566929133
 30
0.0
 10
43.74065748031496
 20
6.52584251968504
 30
0.0
 10
43.74127559055118
 20
6.523196850393701
 30
0.0
 10
43.74180708661417
 20
6.520535433070866
 30
0.0
 10
43.74180708661417
 20
6.520535433070866
 30
0.0
 10
43.74233858267716
 20
6.517866141732283
 30
0.0
 10
43.7427874015748
 20
6.515177165354331
 30
0.0
 10
43.74314173228346
 20
6.512472440944882
 30
0.0
 10
43.74314173228346
 20
6.512472440944882
 30
0.0
 10
43.74386220472441
 20
6.507027559055119
 30
0.0
 10
43.74422047244094
 20
6.501531496062992
 30
0.0
 10
43.74421653543307
 20
6.496043307086614
 30
0.0
 10
43.74421653543307
 20
6.496043307086614
 30
0.0
 10
43.74421653543307
 20
6.496043307086614
 30
0.0
 10
43.74421653543307
 20
2.871043307086614
 30
0.0
 10
43.74421653543307
 20
2.871043307086614
 30
0.0
 10
43.74421653543307
 20
2.871043307086614
 30
0.0
 10
43.74421653543307
 20
2.871043307086614
 30
0.0
 10
43.99424803149606
 20
2.871043307086614
 30
0.0
 10
43.99424803149606
 20
2.871043307086614
 30
0.0
 10
43.99424803149606
 20
2.871043307086614
 30
0.0
 10
43.99427559055118
 20
2.871043307086614
 30
0.0
 10
43.99429133858268
 20
2.871043307086614
 30
0.0
 10
43.9943031496063
 20
2.871043307086614
 30
0.0
 10
43.9943031496063
 20
2.871043307086614
 30
0.0
 10
43.9943188976378
 20
2.871043307086614
 30
0.0
 10
43.99433464566929
 20
2.871043307086614
 30
0.0
 10
43.99434645669292
 20
2.871043307086614
 30
0.0
 10
43.99434645669292
 20
2.871043307086614
 30
0.0
 10
43.99436220472441
 20
2.871043307086614
 30
0.0
 10
43.9943779527559
 20
2.871043307086614
 30
0.0
 10
43.9943937007874
 20
2.871043307086614
 30
0.0
 10
43.9943937007874
 20
2.871043307086614
 30
0.0
 10
43.99442125984252
 20
2.871043307086614
 30
0.0
 10
43.99444881889764
 20
2.871043307086614
 30
0.0
 10
43.99448031496063
 20
2.871043307086614
 30
0.0
 10
43.99448031496063
 20
2.871043307086614
 30
0.0
 10
43.99450787401575
 20
2.871043307086614
 30
0.0
 10
43.99453543307087
 20
2.871043307086614
 30
0.0
 10
43.99456692913386
 20
2.871043307086614
 30
0.0
 10
43.99456692913386
 20
2.871043307086614
 30
0.0
 10
43.99462598425197
 20
2.871043307086614
 30
0.0
 10
43.99468110236221
 20
2.871043307086614
 30
0.0
 10
43.99474015748032
 20
2.871043307086614
 30
0.0
 10
43.99474015748032
 20
2.871043307086614
 30
0.0
 10
43.99479921259842
 20
2.871043307086614
 30
0.0
 10
43.99485826771654
 20
2.871043307086614
 30
0.0
 10
43.99491338582677
 20
2.871043307086614
 30
0.0
 10
43.99491338582677
 20
2.871043307086614
 30
0.0
 10
43.99497244094488
 20
2.871043307086614
 30
0.0
 10
43.99503149606299
 20
2.871043307086614
 30
0.0
 10
43.9950905511811
 20
2.871043307086614
 30
0.0
 10
43.9950905511811
 20
2.871043307086614
 30
0.0
 10
43.99514566929134
 20
2.871043307086614
 30
0.0
 10
43.99520472440945
 20
2.871043307086614
 30
0.0
 10
43.99526377952756
 20
2.87103937007874
 30
0.0
 10
43.99526377952756
 20
2.87103937007874
 30
0.0
 10
43.9953779527559
 20
2.87103937007874
 30
0.0
 10
43.99549606299212
 20
2.87103937007874
 30
0.0
 10
43.99561417322835
 20
2.87103937007874
 30
0.0
 10
43.99561417322835
 20
2.87103937007874
 30
0.0
 10
43.99572834645669
 20
2.87103937007874
 30
0.0
 10
43.99584645669292
 20
2.87103937007874
 30
0.0
 10
43.99596062992126
 20
2.871035433070866
 30
0.0
 10
43.99596062992126
 20
2.871035433070866
 30
0.0
 10
43.99607874015748
 20
2.871035433070866
 30
0.0
 10
43.99619291338583
 20
2.871035433070866
 30
0.0
 10
43.99631102362205
 20
2.871035433070866
 30
0.0
 10
43.99631102362205
 20
2.871035433070866
 30
0.0
 10
43.99654330708661
 20
2.871031496062992
 30
0.0
 10
43.99677559055118
 20
2.871031496062992
 30
0.0
 10
43.99700787401575
 20
2.871027559055118
 30
0.0
 10
43.99700787401575
 20
2.871027559055118
 30
0.0
 10
43.99724015748031
 20
2.871023622047244
 30
0.0
 10
43.99747244094488
 20
2.871023622047244
 30
0.0
 10
43.99770078740158
 20
2.87101968503937
 30
0.0
 10
43.99770078740158
 20
2.87101968503937
 30
0.0
 10
43.99793307086614
 20
2.871015748031496
 30
0.0
 10
43.99816535433071
 20
2.871011811023622
 30
0.0
 10
43.99839763779528
 20
2.871007874015748
 30
0.0
 10
43.99839763779528
 20
2.871007874015748
 30
0.0
 10
43.99862992125984
 20
2.871003937007874
 30
0.0
 10
43.99886220472441
 20
2.871
 30
0.0
 10
43.99909448818897
 20
2.870996062992126
 30
0.0
 10
43.99909448818897
 20
2.870996062992126
 30
0.0
 10
43.99932677165354
 20
2.870992125984252
 30
0.0
 10
43.99955905511811
 20
2.870988188976378
 30
0.0
 10
43.99979133858267
 20
2.87098031496063
 30
0.0
 10
43.99979133858267
 20
2.87098031496063
 30
0.0
 10
44.00025196850394
 20
2.870972440944882
 30
0.0
 10
44.00071653543307
 20
2.87096062992126
 30
0.0
 10
44.0011811023622
 20
2.870944881889764
 30
0.0
 10
44.0011811023622
 20
2.870944881889764
 30
0.0
 10
44.00164566929134
 20
2.870933070866142
 30
0.0
 10
44.0021062992126
 20
2.87092125984252
 30
0.0
 10
44.00257086614173
 20
2.870905511811024
 30
0.0
 10
44.00257086614173
 20
2.870905511811024
 30
0.0
 10
44.003031496063
 20
2.870889763779528
 30
0.0
 10
44.00349606299213
 20
2.870874015748031
 30
0.0
 10
44.00395669291338
 20
2.870854330708661
 30
0.0
 10
44.00395669291338
 20
2.870854330708661
 30
0.0
 10
44.00442125984252
 20
2.870834645669291
 30
0.0
 10
44.00488188976378
 20
2.870818897637795
 30
0.0
 10
44.00534251968504
 20
2.870795275590551
 30
0.0
 10
44.00534251968504
 20
2.870795275590551
 30
0.0
 10
44.00580708661418
 20
2.870775590551181
 30
0.0
 10
44.00626771653543
 20
2.870755905511811
 30
0.0
 10
44.00672834645669
 20
2.870732283464567
 30
0.0
 10
44.00672834645669
 20
2.870732283464567
 30
0.0
 10
44.00718897637795
 20
2.870708661417323
 30
0.0
 10
44.00765354330709
 20
2.870685039370079
 30
0.0
 10
44.00811417322835
 20
2.870657480314961
 30
0.0
 10
44.00811417322835
 20
2.870657480314961
 30
0.0
 10
44.00903543307086
 20
2.870606299212598
 30
0.0
 10
44.00995669291338
 20
2.870551181102362
 30
0.0
 10
44.01087795275591
 20
2.870488188976378
 30
0.0
 10
44.01087795275591
 20
2.870488188976378
 30
0.0
 10
44.01179527559055
 20
2.870429133858268
 30
0.0
 10
44.01271653543307
 20
2.87036220472441
 30
0.0
 10
44.01363385826772
 20
2.870291338582677
 30
0.0
 10
44.01363385826772
 20
2.870291338582677
 30
0.0
 10
44.01455118110236
 20
2.870220472440945
 30
0.0
 10
44.01546850393701
 20
2.870141732283464
 30
0.0
 10
44.01638582677165
 20
2.87005905511811
 30
0.0
 10
44.01638582677165
 20
2.87005905511811
 30
0.0
 10
44.0173031496063
 20
2.86998031496063
 30
0.0
 10
44.01821653543307
 20
2.869893700787402
 30
0.0
 10
44.01913385826771
 20
2.869803149606299
 30
0.0
 10
44.01913385826771
 20
2.869803149606299
 30
0.0
 10
44.02004724409448
 20
2.869708661417323
 30
0.0
 10
44.02096062992126
 20
2.869614173228347
 30
0.0
 10
44.02187401574803
 20
2.869511811023622
 30
0.0
 10
44.02187401574803
 20
2.869511811023622
 30
0.0
 10
44.02369291338583
 20
2.869311023622047
 30
0.0
 10
44.02551574803149
 20
2.869086614173229
 30
0.0
 10
44.02733070866142
 20
2.868846456692913
 30
0.0
 10
44.02733070866142
 20
2.868846456692913
 30
0.0
 10
44.02914566929134
 20
2.868602362204725
 30
0.0
 10
44.03095669291339
 20
2.868342519685039
 30
0.0
 10
44.03276377952756
 20
2.86805905511811
 30
0.0
 10
44.03276377952756
 20
2.86805905511811
 30
0.0
 10
44.03456692913386
 20
2.867775590551181
 30
0.0
 10
44.03637007874016
 20
2.867476377952756
 30
0.0
 10
44.03816535433071
 20
2.86715748031496
 30
0.0
 10
44.03816535433071
 20
2.86715748031496
 30
0.0
 10
44.03996062992126
 20
2.866834645669291
 30
0.0
 10
44.04175196850394
 20
2.866496062992126
 30
0.0
 10
44.04353543307086
 20
2.86613779527559
 30
0.0
 10
44.04353543307086
 20
2.86613779527559
 30
0.0
 10
44.0453188976378
 20
2.865775590551181
 30
0.0
 10
44.04709842519685
 20
2.865397637795275
 30
0.0
 10
44.04887401574803
 20
2.865
 30
0.0
 10
44.04887401574803
 20
2.865
 30
0.0
 10
44.05064566929134
 20
2.864602362204725
 30
0.0
 10
44.05241338582677
 20
2.864188976377953
 30
0.0
 10
44.05417716535433
 20
2.863751968503937
 30
0.0
 10
44.05417716535433
 20
2.863751968503937
 30
0.0
 10
44.05594094488189
 20
2.863318897637795
 30
0.0
 10
44.0576968503937
 20
2.86286220472441
 30
0.0
 10
44.05944488188976
 20
2.862389763779527
 30
0.0
 10
44.05944488188976
 20
2.862389763779527
 30
0.0
 10
44.06294094488189
 20
2.861444881889764
 30
0.0
 10
44.06641338582677
 20
2.860425196850394
 30
0.0
 10
44.06986614173228
 20
2.859326771653543
 30
0.0
 10
44.06986614173228
 20
2.859326771653543
 30
0.0
 10
44.07330708661417
 20
2.858236220472441
 30
0.0
 10
44.07672834645669
 20
2.857066929133858
 30
0.0
 10
44.08011811023622
 20
2.855826771653543
 30
0.0
 10
44.08011811023622
 20
2.855826771653543
 30
0.0
 10
44.08350787401575
 20
2.854586614173229
 30
0.0
 10
44.08686614173229
 20
2.853271653543307
 30
0.0
 10
44.0901968503937
 20
2.851885826771654
 30
0.0
 10
44.0901968503937
 20
2.851885826771654
 30
0.0
 10
44.09351968503937
 20
2.850503937007874
 30
0.0
 10
44.09681496062992
 20
2.849051181102362
 30
0.0
 10
44.10007874015748
 20
2.847523622047244
 30
0.0
 10
44.10007874015748
 20
2.847523622047244
 30
0.0
 10
44.10333858267717
 20
2.846
 30
0.0
 10
44.10656692913386
 20
2.844405511811023
 30
0.0
 10
44.10975590551181
 20
2.842744094488189
 30
0.0
 10
44.10975590551181
 20
2.842744094488189
 30
0.0
 10
44.11294881889764
 20
2.84107874015748
 30
0.0
 10
44.11610236220472
 20
2.839350393700788
 30
0.0
 10
44.11921653543307
 20
2.837551181102362
 30
0.0
 10
44.11921653543307
 20
2.837551181102362
 30
0.0
 10
44.12544881889764
 20
2.833952755905512
 30
0.0
 10
44.13152362204725
 20
2.830086614173228
 30
0.0
 10
44.13742125984252
 20
2.825964566929134
 30
0.0
 10
44.13742125984252
 20
2.825964566929134
 30
0.0
 10
44.14333070866142
 20
2.821834645669291
 30
0.0
 10
44.14906299212598
 20
2.817452755905512
 30
0.0
 10
44.1545905511811
 20
2.812826771653543
 30
0.0
 10
44.1545905511811
 20
2.812826771653543
 30
0.0
 10
44.16014173228346
 20
2.808188976377953
 30
0.0
 10
44.16548818897638
 20
2.803311023622047
 30
0.0
 10
44.17061417322834
 20
2.798208661417323
 30
0.0
 10
44.17061417322834
 20
2.798208661417323
 30
0.0
 10
44.17576771653543
 20
2.793074803149606
 30
0.0
 10
44.1806968503937
 20
2.787720472440945
 30
0.0
 10
44.18538188976378
 20
2.782161417322835
 30
0.0
 10
44.18538188976378
 20
2.782161417322835
 30
0.0
 10
44.19010236220473
 20
2.77655905511811
 30
0.0
 10
44.19457874015748
 20
2.770748031496063
 30
0.0
 10
44.1987874015748
 20
2.764751968503937
 30
0.0
 10
44.1987874015748
 20
2.764751968503937
 30
0.0
 10
44.20304330708662
 20
2.758696850393701
 30
0.0
 10
44.20702755905512
 20
2.752448818897638
 30
0.0
 10
44.21074015748032
 20
2.746011811023622
 30
0.0
 10
44.21074015748032
 20
2.746011811023622
 30
0.0
 10
44.21075590551181
 20
2.745992125984252
 30
0.0
 10
44.21075984251969
 20
2.74598031496063
 30
0.0
 10
44.21076771653544
 20
2.745968503937008
 30
0.0
 10
44.21076771653544
 20
2.745968503937008
 30
0.0
 10
44.21077559055118
 20
2.745956692913386
 30
0.0
 10
44.21078346456693
 20
2.74594094488189
 30
0.0
 10
44.21079133858268
 20
2.745929133858268
 30
0.0
 10
44.21079133858268
 20
2.745929133858268
 30
0.0
 10
44.21079921259842
 20
2.745917322834646
 30
0.0
 10
44.2108031496063
 20
2.745905511811024
 30
0.0
 10
44.21081102362205
 20
2.745893700787402
 30
0.0
 10
44.21081102362205
 20
2.745893700787402
 30
0.0
 10
44.21082677165354
 20
2.745866141732284
 30
0.0
 10
44.21084251968504
 20
2.74584251968504
 30
0.0
 10
44.21085433070866
 20
2.745814960629921
 30
0.0
 10
44.21085433070866
 20
2.745814960629921
 30
0.0
 10
44.21087007874016
 20
2.745791338582677
 30
0.0
 10
44.21088582677165
 20
2.745767716535433
 30
0.0
 10
44.21089763779528
 20
2.745740157480315
 30
0.0
 10
44.21089763779528
 20
2.745740157480315
 30
0.0
 10
44.21092913385827
 20
2.745688976377953
 30
0.0
 10
44.21095669291338
 20
2.745641732283465
 30
0.0
 10
44.21098818897638
 20
2.745590551181103
 30
0.0
 10
44.21098818897638
 20
2.745590551181103
 30
0.0
 10
44.2110157480315
 20
2.74553937007874
 30
0.0
 10
44.21104330708661
 20
2.745488188976378
 30
0.0
 10
44.21107480314961
 20
2.745437007874016
 30
0.0
 10
44.21107480314961
 20
2.745437007874016
 30
0.0
 10
44.21110236220473
 20
2.745389763779527
 30
0.0
 10
44.21112992125984
 20
2.745338582677165
 30
0.0
 10
44.21116141732283
 20
2.745287401574803
 30
0.0
 10
44.21116141732283
 20
2.745287401574803
 30
0.0
 10
44.21118897637795
 20
2.745236220472441
 30
0.0
 10
44.21121653543307
 20
2.745185039370079
 30
0.0
 10
44.21124803149606
 20
2.74513779527559
 30
0.0
 10
44.21124803149606
 20
2.74513779527559
 30
0.0
 10
44.2113031496063
 20
2.745035433070866
 30
0.0
 10
44.21136220472441
 20
2.744933070866142
 30
0.0
 10
44.21142125984252
 20
2.744834645669291
 30
0.0
 10
44.21142125984252
 20
2.744834645669291
 30
0.0
 10
44.21147637795276
 20
2.744732283464567
 30
0.0
 10
44.21153543307086
 20
2.744629921259842
 30
0.0
 10
44.2115905511811
 20
2.744531496062992
 30
0.0
 10
44.2115905511811
 20
2.744531496062992
 30
0.0
 10
44.21164960629921
 20
2.744429133858268
 30
0.0
 10
44.21170472440945
 20
2.744326771653543
 30
0.0
 10
44.21176377952756
 20
2.744228346456693
 30
0.0
 10
44.21176377952756
 20
2.744228346456693
 30
0.0
 10
44.21187795275591
 20
2.744023622047244
 30
0.0
 10
44.21199212598425
 20
2.743822834645669
 30
0.0
 10
44.2121062992126
 20
2.743622047244095
 30
0.0
 10
44.2121062992126
 20
2.743622047244095
 30
0.0
 10
44.21222047244095
 20
2.743417322834646
 30
0.0
 10
44.21233464566929
 20
2.743216535433071
 30
0.0
 10
44.21244881889763
 20
2.743011811023622
 30
0.0
 10
44.21244881889763
 20
2.743011811023622
 30
0.0
 10
44.21255905511811
 20
2.742811023622047
 30
0.0
 10
44.21267322834645
 20
2.742606299212599
 30
0.0
 10
44.2127874015748
 20
2.742405511811024
 30
0.0
 10
44.2127874015748
 20
2.742405511811024
 30
0.0
 10
44.21289763779527
 20
2.742200787401575
 30
0.0
 10
44.21301181102362
 20
2.742
 30
0.0
 10
44.21312204724409
 20
2.741795275590551
 30
0.0
 10
44.21312204724409
 20
2.741795275590551
 30
0.0
 10
44.21323622047244
 20
2.741590551181103
 30
0.0
 10
44.21334645669291
 20
2.741389763779527
 30
0.0
 10
44.21345669291338
 20
2.741185039370079
 30
0.0
 10
44.21345669291338
 20
2.741185039370079
 30
0.0
 10
44.2136811023622
 20
2.740779527559055
 30
0.0
 10
44.21390157480315
 20
2.740374015748031
 30
0.0
 10
44.2141220472441
 20
2.739964566929134
 30
0.0
 10
44.2141220472441
 20
2.739964566929134
 30
0.0
 10
44.21434251968504
 20
2.739555118110236
 30
0.0
 10
44.21456299212598
 20
2.739149606299212
 30
0.0
 10
44.21477952755905
 20
2.738740157480315
 30
0.0
 10
44.21477952755905
 20
2.738740157480315
 30
0.0
 10
44.215
 20
2.738330708661417
 30
0.0
 10
44.21521653543307
 20
2.73792125984252
 30
0.0
 10
44.21543307086614
 20
2.737511811023622
 30
0.0
 10
44.21543307086614
 20
2.737511811023622
 30
0.0
 10
44.21564566929134
 20
2.737102362204725
 30
0.0
 10
44.21586220472441
 20
2.736692913385827
 30
0.0
 10
44.21607480314961
 20
2.736283464566929
 30
0.0
 10
44.21607480314961
 20
2.736283464566929
 30
0.0
 10
44.2162874015748
 20
2.735874015748032
 30
0.0
 10
44.2165
 20
2.735464566929134
 30
0.0
 10
44.2167125984252
 20
2.735051181102362
 30
0.0
 10
44.2167125984252
 20
2.735051181102362
 30
0.0
 10
44.21692125984252
 20
2.734641732283464
 30
0.0
 10
44.21712992125984
 20
2.734228346456693
 30
0.0
 10
44.21733858267716
 20
2.733814960629921
 30
0.0
 10
44.21733858267716
 20
2.733814960629921
 30
0.0
 10
44.21775590551181
 20
2.732992125984252
 30
0.0
 10
44.21816929133858
 20
2.732165354330709
 30
0.0
 10
44.21857480314961
 20
2.731338582677165
 30
0.0
 10
44.21857480314961
 20
2.731338582677165
 30
0.0
 10
44.21898031496063
 20
2.730511811023622
 30
0.0
 10
44.21938582677166
 20
2.729681102362205
 30
0.0
 10
44.21978346456693
 20
2.728850393700788
 30
0.0
 10
44.21978346456693
 20
2.728850393700788
 30
0.0
 10
44.22017716535433
 20
2.72801968503937
 30
0.0
 10
44.22057086614173
 20
2.727188976377953
 30
0.0
 10
44.22096062992126
 20
2.726354330708662
 30
0.0
 10
44.22096062992126
 20
2.726354330708662
 30
0.0
 10
44.22134645669291
 20
2.72551968503937
 30
0.0
 10
44.22172834645669
 20
2.724681102362205
 30
0.0
 10
44.2221062992126
 20
2.723846456692913
 30
0.0
 10
44.2221062992126
 20
2.723846456692913
 30
0.0
 10
44.2224842519685
 20
2.723007874015748
 30
0.0
 10
44.22285826771653
 20
2.722169291338583
 30
0.0
 10
44.22322834645669
 20
2.721326771653543
 30
0.0
 10
44.22322834645669
 20
2.721326771653543
 30
0.0
 10
44.22396456692913
 20
2.719649606299213
 30
0.0
 10
44.2246811023622
 20
2.71796062992126
 30
0.0
 10
44.22537795275591
 20
2.716263779527559
 30
0.0
 10
44.22537795275591
 20
2.716263779527559
 30
0.0
 10
44.22607480314961
 20
2.714574803149606
 30
0.0
 10
44.22675196850394
 20
2.712874015748032
 30
0.0
 10
44.22741338582677
 20
2.711169291338583
 30
0.0
 10
44.22741338582677
 20
2.711169291338583
 30
0.0
 10
44.22807086614173
 20
2.709464566929134
 30
0.0
 10
44.2287125984252
 20
2.707755905511811
 30
0.0
 10
44.22933070866141
 20
2.70603937007874
 30
0.0
 10
44.22933070866141
 20
2.70603937007874
 30
0.0
 10
44.22995275590552
 20
2.704326771653543
 30
0.0
 10
44.23055118110236
 20
2.702602362204725
 30
0.0
 10
44.23113385826772
 20
2.700877952755905
 30
0.0
 10
44.23113385826772
 20
2.700877952755905
 30
0.0
 10
44.23171653543307
 20
2.699153543307087
 30
0.0
 10
44.23227952755906
 20
2.69742125984252
 30
0.0
 10
44.23282283464567
 20
2.695685039370079
 30
0.0
 10
44.23282283464567
 20
2.695685039370079
 30
0.0
 10
44.23336220472441
 20
2.693952755905512
 30
0.0
 10
44.23388582677165
 20
2.692212598425197
 30
0.0
 10
44.23438976377953
 20
2.690468503937008
 30
0.0
 10
44.23438976377953
 20
2.690468503937008
 30
0.0
 10
44.2348937007874
 20
2.688728346456693
 30
0.0
 10
44.2353779527559
 20
2.68698031496063
 30
0.0
 10
44.23584645669291
 20
2.685224409448819
 30
0.0
 10
44.23584645669291
 20
2.685224409448819
 30
0.0
 10
44.23677559055118
 20
2.681728346456693
 30
0.0
 10
44.23762598425197
 20
2.678208661417323
 30
0.0
 10
44.23840157480315
 20
2.674673228346457
 30
0.0
 10
44.23840157480315
 20
2.674673228346457
 30
0.0
 10
44.23917716535433
 20
2.671141732283465
 30
0.0
 10
44.2398779527559
 20
2.667598425196851
 30
0.0
 10
44.24049606299213
 20
2.66403937007874
 30
0.0
 10
44.24049606299213
 20
2.66403937007874
 30
0.0
 10
44.24111811023622
 20
2.660488188976378
 30
0.0
 10
44.24166141732284
 20
2.65692125984252
 30
0.0
 10
44.24212598425197
 20
2.653346456692913
 30
0.0
 10
44.24212598425197
 20
2.653346456692913
 30
0.0
 10
44.2425905511811
 20
2.649771653543307
 30
0.0
 10
44.24297637795276
 20
2.646192913385827
 30
0.0
 10
44.2432874015748
 20
2.642602362204725
 30
0.0
 10
44.2432874015748
 20
2.642602362204725
 30
0.0
 10
44.24359842519685
 20
2.63901968503937
 30
0.0
 10
44.24383070866142
 20
2.635425196850394
 30
0.0
 10
44.24398425196851
 20
2.631830708661417
 30
0.0
 10
44.24398425196851
 20
2.631830708661417
 30
0.0
 10
44.24414173228347
 20
2.628236220472441
 30
0.0
 10
44.24421653543307
 20
2.624641732283465
 30
0.0
 10
44.24421653543307
 20
2.621043307086614
 30
0.0
 10
44.24421653543307
 20
2.621043307086614
 30
0.0
 10
44.24421653543307
 20
2.613850393700787
 30
0.0
 10
44.2439094488189
 20
2.606653543307087
 30
0.0
 10
44.2432874015748
 20
2.599484251968504
 30
0.0
 10
44.2432874015748
 20
2.599484251968504
 30
0.0
 10
44.24266535433071
 20
2.592303149606299
 30
0.0
 10
44.24173622047244
 20
2.585145669291339
 30
0.0
 10
44.24049606299213
 20
2.578047244094488
 30
0.0
 10
44.24049606299213
 20
2.578047244094488
 30
0.0
 10
44.23925196850394
 20
2.57092125984252
 30
0.0
 10
44.23770078740157
 20
2.563850393700787
 30
0.0
 10
44.23584645669291
 20
2.55686220472441
 30
0.0
 10
44.23584645669291
 20
2.55686220472441
 30
0.0
 10
44.23398031496063
 20
2.549830708661417
 30
0.0
 10
44.2318031496063
 20
2.542885826771653
 30
0.0
 10
44.22933070866141
 20
2.536047244094488
 30
0.0
 10
44.22933070866141
 20
2.536047244094488
 30
0.0
 10
44.22684251968504
 20
2.529157480314961
 30
0.0
 10
44.22404724409449
 20
2.522377952755905
 30
0.0
 10
44.22096062992126
 20
2.515732283464567
 30
0.0
 10
44.22096062992126
 20
2.515732283464567
 30
0.0
 10
44.21784251968504
 20
2.509023622047244
 30
0.0
 10
44.21442519685039
 20
2.502448818897638
 30
0.0
 10
44.21070866141732
 20
2.496011811023622
 30
0.0
 10
44.21070866141732
 20
2.496011811023622
 30
0.0
 10
44.2106968503937
 20
2.495992125984252
 30
0.0
 10
44.21068897637795
 20
2.49598031496063
 30
0.0
 10
44.2106811023622
 20
2.495968503937008
 30
0.0
 10
44.2106811023622
 20
2.495968503937008
 30
0.0
 10
44.21067322834646
 20
2.495956692913386
 30
0.0
 10
44.21066535433071
 20
2.49594094488189
 30
0.0
 10
44.21066141732283
 20
2.495929133858268
 30
0.0
 10
44.21066141732283
 20
2.495929133858268
 30
0.0
 10
44.21065354330709
 20
2.495917322834646
 30
0.0
 10
44.21064566929134
 20
2.495905511811024
 30
0.0
 10
44.21063779527559
 20
2.495893700787402
 30
0.0
 10
44.21063779527559
 20
2.495893700787402
 30
0.0
 10
44.21062204724409
 20
2.495866141732284
 30
0.0
 10
44.21061023622048
 20
2.49584251968504
 30
0.0
 10
44.21059448818897
 20
2.495814960629921
 30
0.0
 10
44.21059448818897
 20
2.495814960629921
 30
0.0
 10
44.21057874015748
 20
2.495791338582677
 30
0.0
 10
44.21056692913386
 20
2.495767716535433
 30
0.0
 10
44.21055118110236
 20
2.495740157480315
 30
0.0
 10
44.21055118110236
 20
2.495740157480315
 30
0.0
 10
44.21051968503937
 20
2.495692913385827
 30
0.0
 10
44.21049212598425
 20
2.495641732283465
 30
0.0
 10
44.21046456692913
 20
2.495590551181103
 30
0.0
 10
44.21046456692913
 20
2.495590551181103
 30
0.0
 10
44.21043307086615
 20
2.49553937007874
 30
0.0
 10
44.21040551181103
 20
2.495488188976378
 30
0.0
 10
44.21037401574803
 20
2.49544094488189
 30
0.0
 10
44.21037401574803
 20
2.49544094488189
 30
0.0
 10
44.21034645669291
 20
2.495389763779527
 30
0.0
 10
44.2103188976378
 20
2.495338582677165
 30
0.0
 10
44.2102874015748
 20
2.495287401574803
 30
0.0
 10
44.2102874015748
 20
2.495287401574803
 30
0.0
 10
44.21025984251968
 20
2.495240157480315
 30
0.0
 10
44.2102283464567
 20
2.495188976377953
 30
0.0
 10
44.21020078740158
 20
2.49513779527559
 30
0.0
 10
44.21020078740158
 20
2.49513779527559
 30
0.0
 10
44.21014173228347
 20
2.49503937007874
 30
0.0
 10
44.21008267716535
 20
2.494937007874016
 30
0.0
 10
44.21002362204725
 20
2.494838582677165
 30
0.0
 10
44.21002362204725
 20
2.494838582677165
 30
0.0
 10
44.20996456692913
 20
2.494736220472441
 30
0.0
 10
44.20990551181102
 20
2.494637795275591
 30
0.0
 10
44.20984645669292
 20
2.494535433070866
 30
0.0
 10
44.20984645669292
 20
2.494535433070866
 30
0.0
 10
44.2097874015748
 20
2.494437007874016
 30
0.0
 10
44.20973228346457
 20
2.494334645669291
 30
0.0
 10
44.20967322834645
 20
2.494236220472441
 30
0.0
 10
44.20967322834645
 20
2.494236220472441
 30
0.0
 10
44.20955511811024
 20
2.494035433070866
 30
0.0
 10
44.20943700787402
 20
2.493834645669291
 30
0.0
 10
44.20931889763779
 20
2.493633858267716
 30
0.0
 10
44.20931889763779
 20
2.493633858267716
 30
0.0
 10
44.20920078740158
 20
2.493437007874016
 30
0.0
 10
44.20907874015748
 20
2.493236220472441
 30
0.0
 10
44.20896062992126
 20
2.493035433070866
 30
0.0
 10
44.20896062992126
 20
2.493035433070866
 30
0.0
 10
44.20884251968504
 20
2.492838582677166
 30
0.0
 10
44.20872440944882
 20
2.49263779527559
 30
0.0
 10
44.20860236220472
 20
2.49244094488189
 30
0.0
 10
44.20860236220472
 20
2.49244094488189
 30
0.0
 10
44.20848425196851
 20
2.492240157480315
 30
0.0
 10
44.20836614173228
 20
2.492043307086614
 30
0.0
 10
44.20824409448819
 20
2.49184251968504
 30
0.0
 10
44.20824409448819
 20
2.49184251968504
 30
0.0
 10
44.20812598425197
 20
2.491645669291338
 30
0.0
 10
44.20800393700787
 20
2.491444881889764
 30
0.0
 10
44.20788582677165
 20
2.491248031496063
 30
0.0
 10
44.20788582677165
 20
2.491248031496063
 30
0.0
 10
44.20764566929134
 20
2.490850393700788
 30
0.0
 10
44.20740157480315
 20
2.490456692913386
 30
0.0
 10
44.20716141732284
 20
2.490062992125984
 30
0.0
 10
44.20716141732284
 20
2.490062992125984
 30
0.0
 10
44.20691732283465
 20
2.489665354330709
 30
0.0
 10
44.20667322834645
 20
2.489271653543307
 30
0.0
 10
44.20642913385826
 20
2.488877952755906
 30
0.0
 10
44.20642913385826
 20
2.488877952755906
 30
0.0
 10
44.20618503937008
 20
2.488488188976378
 30
0.0
 10
44.20593700787401
 20
2.488094488188976
 30
0.0
 10
44.20568897637795
 20
2.487700787401575
 30
0.0
 10
44.20568897637795
 20
2.487700787401575
 30
0.0
 10
44.20544488188976
 20
2.487311023622047
 30
0.0
 10
44.2051968503937
 20
2.48692125984252
 30
0.0
 10
44.20494881889764
 20
2.486531496062992
 30
0.0
 10
44.20494881889764
 20
2.486531496062992
 30
0.0
 10
44.20470078740158
 20
2.486141732283464
 30
0.0
 10
44.20444881889764
 20
2.485751968503937
 30
0.0
 10
44.2041968503937
 20
2.485362204724409
 30
0.0
 10
44.2041968503937
 20
2.485362204724409
 30
0.0
 10
44.20394881889764
 20
2.484976377952756
 30
0.0
 10
44.2036968503937
 20
2.484586614173228
 30
0.0
 10
44.20344488188977
 20
2.484200787401575
 30
0.0
 10
44.20344488188977
 20
2.484200787401575
 30
0.0
 10
44.20293700787401
 20
2.483429133858268
 30
0.0
 10
44.20242913385827
 20
2.482657480314961
 30
0.0
 10
44.20191338582677
 20
2.481893700787402
 30
0.0
 10
44.20191338582677
 20
2.481893700787402
 30
0.0
 10
44.20140157480315
 20
2.481125984251968
 30
0.0
 10
44.20088582677165
 20
2.480362204724409
 30
0.0
 10
44.20036220472441
 20
2.479602362204724
 30
0.0
 10
44.20036220472441
 20
2.479602362204724
 30
0.0
 10
44.19984251968504
 20
2.478842519685039
 30
0.0
 10
44.1993188976378
 20
2.478086614173229
 30
0.0
 10
44.1987874015748
 20
2.477334645669291
 30
0.0
 10
44.1987874015748
 20
2.477334645669291
 30
0.0
 10
44.19825984251968
 20
2.476582677165355
 30
0.0
 10
44.19772834645669
 20
2.475834645669291
 30
0.0
 10
44.19719291338583
 20
2.475086614173228
 30
0.0
 10
44.19719291338583
 20
2.475086614173228
 30
0.0
 10
44.19665354330709
 20
2.474342519685039
 30
0.0
 10
44.19611417322835
 20
2.473598425196851
 30
0.0
 10
44.19557086614173
 20
2.472858267716536
 30
0.0
 10
44.19557086614173
 20
2.472858267716536
 30
0.0
 10
44.1944842519685
 20
2.47138188976378
 30
0.0
 10
44.19338188976378
 20
2.469917322834646
 30
0.0
 10
44.19226377952756
 20
2.468464566929134
 30
0.0
 10
44.19226377952756
 20
2.468464566929134
 30
0.0
 10
44.19114566929134
 20
2.467015748031496
 30
0.0
 10
44.1900157480315
 20
2.46557874015748
 30
0.0
 10
44.18886614173228
 20
2.464153543307086
 30
0.0
 10
44.18886614173228
 20
2.464153543307086
 30
0.0
 10
44.18772047244094
 20
2.462732283464567
 30
0.0
 10
44.18655905511811
 20
2.461322834645669
 30
0.0
 10
44.18538188976378
 20
2.459925196850394
 30
0.0
 10
44.18538188976378
 20
2.459925196850394
 30
0.0
 10
44.18420866141732
 20
2.458531496062992
 30
0.0
 10
44.18301968503937
 20
2.457153543307087
 30
0.0
 10
44.18181496062992
 20
2.455783464566929
 30
0.0
 10
44.18181496062992
 20
2.455783464566929
 30
0.0
 10
44.18061023622047
 20
2.454421259842519
 30
0.0
 10
44.1793937007874
 20
2.453066929133858
 30
0.0
 10
44.17816141732283
 20
2.451728346456693
 30
0.0
 10
44.17816141732283
 20
2.451728346456693
 30
0.0
 10
44.17693307086614
 20
2.450393700787401
 30
0.0
 10
44.17568897637796
 20
2.449070866141732
 30
0.0
 10
44.17442913385827
 20
2.447759842519685
 30
0.0
 10
44.17442913385827
 20
2.447759842519685
 30
0.0
 10
44.17316929133858
 20
2.446452755905512
 30
0.0
 10
44.17189763779528
 20
2.445161417322835
 30
0.0
 10
44.17061417322834
 20
2.443877952755905
 30
0.0
 10
44.17061417322834
 20
2.443877952755905
 30
0.0
 10
44.16804724409449
 20
2.441326771653543
 30
0.0
 10
44.16542913385827
 20
2.438826771653543
 30
0.0
 10
44.16275196850394
 20
2.436385826771653
 30
0.0
 10
44.16275196850394
 20
2.436385826771653
 30
0.0
 10
44.16008267716536
 20
2.433952755905512
 30
0.0
 10
44.15736220472441
 20
2.431574803149606
 30
0.0
 10
44.1545905511811
 20
2.429259842519685
 30
0.0
 10
44.1545905511811
 20
2.429259842519685
 30
0.0
 10
44.15182677165355
 20
2.426944881889764
 30
0.0
 10
44.14900787401575
 20
2.424692913385827
 30
0.0
 10
44.14614566929134
 20
2.4225
 30
0.0
 10
44.14614566929134
 20
2.4225
 30
0.0
 10
44.14328346456693
 20
2.420311023622047
 30
0.0
 10
44.14037401574803
 20
2.418185039370079
 30
0.0
 10
44.13742125984252
 20
2.416122047244095
 30
0.0
 10
44.13742125984252
 20
2.416122047244095
 30
0.0
 10
44.13447244094488
 20
2.414062992125984
 30
0.0
 10
44.13148031496063
 20
2.412062992125984
 30
0.0
 10
44.12844094488189
 20
2.410133858267717
 30
0.0
 10
44.12844094488189
 20
2.410133858267717
 30
0.0
 10
44.1254094488189
 20
2.408200787401575
 30
0.0
 10
44.12233070866142
 20
2.406334645669291
 30
0.0
 10
44.11921653543307
 20
2.404535433070866
 30
0.0
 10
44.11921653543307
 20
2.404535433070866
 30
0.0
 10
44.11298425196851
 20
2.40094094488189
 30
0.0
 10
44.10659842519685
 20
2.397610236220472
 30
0.0
 10
44.10007874015748
 20
2.394562992125984
 30
0.0
 10
44.10007874015748
 20
2.394562992125984
 30
0.0
 10
44.09355118110236
 20
2.391507874015748
 30
0.0
 10
44.08688976377952
 20
2.388740157480315
 30
0.0
 10
44.08011811023622
 20
2.386259842519685
 30
0.0
 10
44.08011811023622
 20
2.386259842519685
 30
0.0
 10
44.07332677165354
 20
2.383775590551181
 30
0.0
 10
44.06642913385826
 20
2.381586614173228
 30
0.0
 10
44.05944488188976
 20
2.379696850393701
 30
0.0
 10
44.05944488188976
 20
2.379696850393701
 30
0.0
 10
44.05242519685039
 20
2.377799212598425
 30
0.0
 10
44.04532283464567
 20
2.376208661417323
 30
0.0
 10
44.03816535433071
 20
2.374929133858268
 30
0.0
 10
44.03816535433071
 20
2.374929133858268
 30
0.0
 10
44.03095275590551
 20
2.373641732283465
 30
0.0
 10
44.02368503937008
 20
2.372673228346457
 30
0.0
 10
44.01638582677165
 20
2.372027559055118
 30
0.0
 10
44.01638582677165
 20
2.372027559055118
 30
0.0
 10
44.00901574803149
 20
2.371370078740157
 30
0.0
 10
44.00161417322835
 20
2.371043307086614
 30
0.0
 10
43.99421653543307
 20
2.371043307086614
 30
0.0
 10
43.99421653543307
 20
2.371043307086614
 30
0.0
 10
43.99421653543307
 20
2.371043307086614
 30
0.0
 10
43.74421653543307
 20
2.371043307086614
 30
0.0
 10
43.74421653543307
 20
2.371043307086614
 30
0.0
 10
43.74421653543307
 20
2.371043307086614
 30
0.0
 10
43.74421653543307
 20
2.371043307086614
 30
0.0
 10
43.74421653543307
 20
-1.254003937007874
 30
0.0
 10
43.74421653543307
 20
-1.254003937007874
 30
0.0
 10
43.74421653543307
 20
-1.254003937007874
 30
0.0
 10
43.74421653543307
 20
-1.254043307086614
 30
0.0
 10
43.74421653543307
 20
-1.254062992125984
 30
0.0
 10
43.74421653543307
 20
-1.254086614173228
 30
0.0
 10
43.74421653543307
 20
-1.254086614173228
 30
0.0
 10
43.74421653543307
 20
-1.254106299212598
 30
0.0
 10
43.74421653543307
 20
-1.254129921259842
 30
0.0
 10
43.74421653543307
 20
-1.254149606299213
 30
0.0
 10
43.74421653543307
 20
-1.254149606299213
 30
0.0
 10
43.74421653543307
 20
-1.254173228346457
 30
0.0
 10
43.74421653543307
 20
-1.254192913385827
 30
0.0
 10
43.74421653543307
 20
-1.254216535433071
 30
0.0
 10
43.74421653543307
 20
-1.254216535433071
 30
0.0
 10
43.74421653543307
 20
-1.254259842519685
 30
0.0
 10
43.74421653543307
 20
-1.254303149606299
 30
0.0
 10
43.74421653543307
 20
-1.254346456692913
 30
0.0
 10
43.74421653543307
 20
-1.254346456692913
 30
0.0
 10
43.74421653543307
 20
-1.254389763779528
 30
0.0
 10
43.74421653543307
 20
-1.254433070866142
 30
0.0
 10
43.74421653543307
 20
-1.254476377952756
 30
0.0
 10
43.74421653543307
 20
-1.254476377952756
 30
0.0
 10
43.74421653543307
 20
-1.254562992125984
 30
0.0
 10
43.74421653543307
 20
-1.254645669291339
 30
0.0
 10
43.7442125984252
 20
-1.254732283464567
 30
0.0
 10
43.7442125984252
 20
-1.254732283464567
 30
0.0
 10
43.7442125984252
 20
-1.254818897637795
 30
0.0
 10
43.7442125984252
 20
-1.254905511811024
 30
0.0
 10
43.7442125984252
 20
-1.254992125984252
 30
0.0
 10
43.7442125984252
 20
-1.254992125984252
 30
0.0
 10
43.7442125984252
 20
-1.25507874015748
 30
0.0
 10
43.7442125984252
 20
-1.255165354330709
 30
0.0
 10
43.74420866141732
 20
-1.255251968503937
 30
0.0
 10
43.74420866141732
 20
-1.255251968503937
 30
0.0
 10
43.74420866141732
 20
-1.255338582677165
 30
0.0
 10
43.74420866141732
 20
-1.255425196850394
 30
0.0
 10
43.74420866141732
 20
-1.255511811023622
 30
0.0
 10
43.74420866141732
 20
-1.255511811023622
 30
0.0
 10
43.74420472440945
 20
-1.255685039370079
 30
0.0
 10
43.74420078740157
 20
-1.255854330708661
 30
0.0
 10
43.74420078740157
 20
-1.256027559055118
 30
0.0
 10
43.74420078740157
 20
-1.256027559055118
 30
0.0
 10
43.7441968503937
 20
-1.256200787401575
 30
0.0
 10
43.74419291338582
 20
-1.256374015748031
 30
0.0
 10
43.74418897637796
 20
-1.256547244094488
 30
0.0
 10
43.74418897637796
 20
-1.256547244094488
 30
0.0
 10
43.74418503937008
 20
-1.256716535433071
 30
0.0
 10
43.74418110236221
 20
-1.256889763779528
 30
0.0
 10
43.74417716535433
 20
-1.257062992125984
 30
0.0
 10
43.74417716535433
 20
-1.257062992125984
 30
0.0
 10
43.74417322834645
 20
-1.257236220472441
 30
0.0
 10
43.74416929133858
 20
-1.257405511811024
 30
0.0
 10
43.74416141732284
 20
-1.25757874015748
 30
0.0
 10
43.74416141732284
 20
-1.25757874015748
 30
0.0
 10
43.74415748031496
 20
-1.257751968503937
 30
0.0
 10
43.74415354330709
 20
-1.257925196850394
 30
0.0
 10
43.74414566929134
 20
-1.258094488188976
 30
0.0
 10
43.74414566929134
 20
-1.258094488188976
 30
0.0
 10
43.74413385826772
 20
-1.25844094488189
 30
0.0
 10
43.7441220472441
 20
-1.258783464566929
 30
0.0
 10
43.7441062992126
 20
-1.259125984251968
 30
0.0
 10
43.7441062992126
 20
-1.259125984251968
 30
0.0
 10
43.74409448818898
 20
-1.259472440944882
 30
0.0
 10
43.74407874015748
 20
-1.259814960629921
 30
0.0
 10
43.74405905511811
 20
-1.260157480314961
 30
0.0
 10
43.74405905511811
 20
-1.260157480314961
 30
0.0
 10
43.74404330708661
 20
-1.260503937007874
 30
0.0
 10
43.74402362204724
 20
-1.260846456692913
 30
0.0
 10
43.74400393700788
 20
-1.261188976377953
 30
0.0
 10
43.74400393700788
 20
-1.261188976377953
 30
0.0
 10
43.74398425196851
 20
-1.261531496062992
 30
0.0
 10
43.74396062992126
 20
-1.261874015748031
 30
0.0
 10
43.74394094488189
 20
-1.262216535433071
 30
0.0
 10
43.74394094488189
 20
-1.262216535433071
 30
0.0
 10
43.7438937007874
 20
-1.26290157480315
 30
0.0
 10
43.74384251968504
 20
-1.263586614173228
 30
0.0
 10
43.74378346456693
 20
-1.264271653543307
 30
0.0
 10
43.74378346456693
 20
-1.264271653543307
 30
0.0
 10
43.74372834645669
 20
-1.264952755905512
 30
0.0
 10
43.74366535433071
 20
-1.265637795275591
 30
0.0
 10
43.74359842519685
 20
-1.266318897637795
 30
0.0
 10
43.74359842519685
 20
-1.266318897637795
 30
0.0
 10
43.74353149606299
 20
-1.267
 30
0.0
 10
43.74345669291338
 20
-1.267681102362205
 30
0.0
 10
43.74337795275591
 20
-1.268362204724409
 30
0.0
 10
43.74337795275591
 20
-1.268362204724409
 30
0.0
 10
43.74329921259842
 20
-1.26903937007874
 30
0.0
 10
43.7432125984252
 20
-1.269720472440945
 30
0.0
 10
43.74312204724409
 20
-1.270397637795275
 30
0.0
 10
43.74312204724409
 20
-1.270397637795275
 30
0.0
 10
43.74303149606299
 20
-1.271074803149606
 30
0.0
 10
43.74293700787402
 20
-1.271751968503937
 30
0.0
 10
43.74283464566929
 20
-1.272425196850394
 30
0.0
 10
43.74283464566929
 20
-1.272425196850394
 30
0.0
 10
43.74273228346457
 20
-1.273102362204724
 30
0.0
 10
43.74262598425197
 20
-1.273775590551181
 30
0.0
 10
43.74251574803149
 20
-1.274448818897638
 30
0.0
 10
43.74251574803149
 20
-1.274448818897638
 30
0.0
 10
43.74229133858267
 20
-1.275795275590551
 30
0.0
 10
43.74204330708661
 20
-1.277133858267717
 30
0.0
 10
43.74177559055118
 20
-1.278472440944882
 30
0.0
 10
43.74177559055118
 20
-1.278472440944882
 30
0.0
 10
43.74150787401575
 20
-1.279807086614173
 30
0.0
 10
43.74122047244094
 20
-1.28113779527559
 30
0.0
 10
43.7409094488189
 20
-1.28246062992126
 30
0.0
 10
43.7409094488189
 20
-1.28246062992126
 30
0.0
 10
43.74059842519685
 20
-1.283783464566929
 30
0.0
 10
43.74026377952756
 20
-1.285102362204724
 30
0.0
 10
43.73991338582677
 20
-1.286413385826772
 30
0.0
 10
43.73991338582677
 20
-1.286413385826772
 30
0.0
 10
43.73955905511811
 20
-1.287728346456693
 30
0.0
 10
43.73918503937008
 20
-1.289031496062992
 30
0.0
 10
43.7387874015748
 20
-1.290330708661417
 30
0.0
 10
43.7387874015748
 20
-1.290330708661417
 30
0.0
 10
43.7383937007874
 20
-1.291629921259843
 30
0.0
 10
43.73797637795276
 20
-1.29292125984252
 30
0.0
 10
43.73753937007874
 20
-1.294204724409449
 30
0.0
 10
43.73753937007874
 20
-1.294204724409449
 30
0.0
 10
43.73666535433071
 20
-1.296771653543307
 30
0.0
 10
43.73570472440945
 20
-1.299311023622047
 30
0.0
 10
43.73466535433071
 20
-1.301814960629921
 30
0.0
 10
43.73466535433071
 20
-1.301814960629921
 30
0.0
 10
43.73362598425197
 20
-1.304322834645669
 30
0.0
 10
43.73250393700788
 20
-1.306795275590551
 30
0.0
 10
43.73130708661417
 20
-1.309224409448819
 30
0.0
 10
43.73130708661417
 20
-1.309224409448819
 30
0.0
 10
43.73010236220473
 20
-1.311661417322835
 30
0.0
 10
43.72882283464567
 20
-1.314055118110236
 30
0.0
 10
43.72746456692914
 20
-1.316409448818898
 30
0.0
 10
43.72746456692914
 20
-1.316409448818898
 30
0.0
 10
43.7261062992126
 20
-1.318763779527559
 30
0.0
 10
43.72466929133859
 20
-1.321074803149606
 30
0.0
 10
43.72315748031496
 20
-1.323338582677165
 30
0.0
 10
43.72315748031496
 20
-1.323338582677165
 30
0.0
 10
43.72164566929134
 20
-1.325606299212598
 30
0.0
 10
43.72005511811024
 20
-1.327826771653543
 30
0.0
 10
43.7183937007874
 20
-1.329992125984252
 30
0.0
 10
43.7183937007874
 20
-1.329992125984252
 30
0.0
 10
43.71505118110236
 20
-1.334354330708661
 30
0.0
 10
43.71141338582677
 20
-1.338496062992126
 30
0.0
 10
43.70749212598425
 20
-1.342413385826772
 30
0.0
 10
43.70749212598425
 20
-1.342413385826772
 30
0.0
 10
43.70746850393701
 20
-1.34244094488189
 30
0.0
 10
43.70745275590551
 20
-1.342452755905512
 30
0.0
 10
43.70743700787401
 20
-1.342468503937008
 30
0.0
 10
43.70743700787401
 20
-1.342468503937008
 30
0.0
 10
43.70742125984252
 20
-1.342484251968504
 30
0.0
 10
43.70740551181103
 20
-1.3425
 30
0.0
 10
43.70738976377952
 20
-1.342515748031496
 30
0.0
 10
43.70738976377952
 20
-1.342515748031496
 30
0.0
 10
43.70737401574803
 20
-1.342531496062992
 30
0.0
 10
43.70735826771654
 20
-1.342547244094488
 30
0.0
 10
43.70734645669291
 20
-1.34255905511811
 30
0.0
 10
43.70734645669291
 20
-1.34255905511811
 30
0.0
 10
43.70731496062992
 20
-1.342590551181102
 30
0.0
 10
43.70728346456693
 20
-1.342622047244094
 30
0.0
 10
43.70725196850394
 20
-1.342653543307087
 30
0.0
 10
43.70725196850394
 20
-1.342653543307087
 30
0.0
 10
43.70722047244094
 20
-1.342681102362205
 30
0.0
 10
43.70719291338582
 20
-1.342712598425197
 30
0.0
 10
43.70716141732284
 20
-1.342744094488189
 30
0.0
 10
43.70716141732284
 20
-1.342744094488189
 30
0.0
 10
43.70709842519685
 20
-1.342803149606299
 30
0.0
 10
43.70703937007874
 20
-1.342866141732283
 30
0.0
 10
43.70697637795276
 20
-1.342925196850394
 30
0.0
 10
43.70697637795276
 20
-1.342925196850394
 30
0.0
 10
43.70691338582677
 20
-1.342984251968504
 30
0.0
 10
43.70685433070866
 20
-1.343047244094488
 30
0.0
 10
43.70679133858268
 20
-1.343106299212598
 30
0.0
 10
43.70679133858268
 20
-1.343106299212598
 30
0.0
 10
43.70673228346457
 20
-1.343169291338583
 30
0.0
 10
43.70666929133859
 20
-1.343228346456693
 30
0.0
 10
43.70660629921259
 20
-1.343287401574803
 30
0.0
 10
43.70660629921259
 20
-1.343287401574803
 30
0.0
 10
43.70654724409449
 20
-1.343350393700787
 30
0.0
 10
43.7064842519685
 20
-1.343409448818898
 30
0.0
 10
43.70642125984252
 20
-1.343468503937008
 30
0.0
 10
43.70642125984252
 20
-1.343468503937008
 30
0.0
 10
43.70629921259842
 20
-1.343590551181102
 30
0.0
 10
43.70617322834646
 20
-1.343708661417323
 30
0.0
 10
43.70605118110236
 20
-1.343830708661417
 30
0.0
 10
43.70605118110236
 20
-1.343830708661417
 30
0.0
 10
43.70592519685039
 20
-1.343948818897638
 30
0.0
 10
43.7058031496063
 20
-1.344070866141732
 30
0.0
 10
43.70567716535433
 20
-1.344188976377953
 30
0.0
 10
43.70567716535433
 20
-1.344188976377953
 30
0.0
 10
43.70555511811023
 20
-1.344307086614173
 30
0.0
 10
43.70542913385827
 20
-1.344425196850394
 30
0.0
 10
43.7053031496063
 20
-1.344547244094488
 30
0.0
 10
43.7053031496063
 20
-1.344547244094488
 30
0.0
 10
43.7051811023622
 20
-1.344665354330709
 30
0.0
 10
43.70505511811024
 20
-1.344783464566929
 30
0.0
 10
43.70492913385826
 20
-1.34490157480315
 30
0.0
 10
43.70492913385826
 20
-1.34490157480315
 30
0.0
 10
43.7048031496063
 20
-1.34501968503937
 30
0.0
 10
43.70467716535433
 20
-1.345137795275591
 30
0.0
 10
43.70455118110236
 20
-1.345255905511811
 30
0.0
 10
43.70455118110236
 20
-1.345255905511811
 30
0.0
 10
43.70429921259843
 20
-1.345488188976378
 30
0.0
 10
43.70404724409449
 20
-1.345724409448819
 30
0.0
 10
43.70379527559055
 20
-1.345956692913386
 30
0.0
 10
43.70379527559055
 20
-1.345956692913386
 30
0.0
 10
43.70354330708661
 20
-1.346188976377953
 30
0.0
 10
43.7032874015748
 20
-1.34642125984252
 30
0.0
 10
43.70303149606299
 20
-1.346653543307087
 30
0.0
 10
43.70303149606299
 20
-1.346653543307087
 30
0.0
 10
43.70277952755905
 20
-1.34688188976378
 30
0.0
 10
43.70252362204725
 20
-1.347110236220473
 30
0.0
 10
43.70226377952756
 20
-1.347338582677165
 30
0.0
 10
43.70226377952756
 20
-1.347338582677165
 30
0.0
 10
43.70200787401575
 20
-1.347566929133858
 30
0.0
 10
43.70175196850393
 20
-1.347795275590551
 30
0.0
 10
43.70149212598425
 20
-1.348023622047244
 30
0.0
 10
43.70149212598425
 20
-1.348023622047244
 30
0.0
 10
43.70097637795276
 20
-1.348472440944882
 30
0.0
 10
43.70045669291338
 20
-1.34892125984252
 30
0.0
 10
43.69993307086614
 20
-1.349366141732284
 30
0.0
 10
43.69993307086614
 20
-1.349366141732284
 30
0.0
 10
43.6994094488189
 20
-1.349807086614173
 30
0.0
 10
43.69888582677165
 20
-1.350248031496063
 30
0.0
 10
43.69835433070866
 20
-1.350681102362205
 30
0.0
 10
43.69835433070866
 20
-1.350681102362205
 30
0.0
 10
43.69782677165355
 20
-1.351114173228346
 30
0.0
 10
43.69729527559055
 20
-1.351543307086614
 30
0.0
 10
43.69675590551181
 20
-1.351968503937008
 30
0.0
 10
43.69675590551181
 20
-1.351968503937008
 30
0.0
 10
43.69622047244094
 20
-1.352393700787402
 30
0.0
 10
43.69568110236221
 20
-1.352811023622047
 30
0.0
 10
43.69514173228347
 20
-1.353228346456693
 30
0.0
 10
43.69514173228347
 20
-1.353228346456693
 30
0.0
 10
43.69459842519685
 20
-1.353641732283465
 30
0.0
 10
43.69405511811024
 20
-1.354055118110236
 30
0.0
 10
43.69350393700788
 20
-1.35446062992126
 30
0.0
 10
43.69350393700788
 20
-1.35446062992126
 30
0.0
 10
43.69295669291338
 20
-1.354866141732283
 30
0.0
 10
43.69240551181102
 20
-1.355267716535433
 30
0.0
 10
43.69185039370079
 20
-1.355661417322835
 30
0.0
 10
43.69185039370079
 20
-1.355661417322835
 30
0.0
 10
43.69074409448819
 20
-1.356456692913386
 30
0.0
 10
43.68962598425197
 20
-1.357228346456693
 30
0.0
 10
43.68849212598425
 20
-1.357984251968504
 30
0.0
 10
43.68849212598425
 20
-1.357984251968504
 30
0.0
 10
43.68736220472441
 20
-1.358740157480315
 30
0.0
 10
43.68622047244094
 20
-1.359476377952756
 30
0.0
 10
43.68506299212599
 20
-1.360192913385827
 30
0.0
 10
43.68506299212599
 20
-1.360192913385827
 30
0.0
 10
43.68391338582677
 20
-1.360909448818898
 30
0.0
 10
43.68274803149606
 20
-1.361606299212598
 30
0.0
 10
43.68157086614173
 20
-1.362283464566929
 30
0.0
 10
43.68157086614173
 20
-1.362283464566929
 30
0.0
 10
43.68039763779527
 20
-1.36296062992126
 30
0.0
 10
43.6792125984252
 20
-1.36361811023622
 30
0.0
 10
43.67801968503937
 20
-1.364259842519685
 30
0.0
 10
43.67801968503937
 20
-1.364259842519685
 30
0.0
 10
43.67682283464567
 20
-1.364897637795276
 30
0.0
 10
43.67561811023622
 20
-1.365515748031496
 30
0.0
 10
43.67440551181102
 20
-1.366114173228346
 30
0.0
 10
43.67440551181102
 20
-1.366114173228346
 30
0.0
 10
43.67197637795275
 20
-1.367311023622047
 30
0.0
 10
43.66951181102363
 20
-1.368429133858268
 30
0.0
 10
43.66701181102362
 20
-1.369464566929134
 30
0.0
 10
43.66701181102362
 20
-1.369464566929134
 30
0.0
 10
43.66451181102362
 20
-1.3705
 30
0.0
 10
43.66197637795275
 20
-1.371456692913386
 30
0.0
 10
43.65941338582677
 20
-1.372326771653543
 30
0.0
 10
43.65941338582677
 20
-1.372326771653543
 30
0.0
 10
43.65685039370079
 20
-1.373200787401575
 30
0.0
 10
43.65425590551181
 20
-1.373988188976378
 30
0.0
 10
43.65164173228347
 20
-1.374692913385827
 30
0.0
 10
43.65164173228347
 20
-1.374692913385827
 30
0.0
 10
43.64901968503937
 20
-1.375397637795276
 30
0.0
 10
43.64637401574803
 20
-1.376015748031496
 30
0.0
 10
43.64370866141732
 20
-1.376547244094488
 30
0.0
 10
43.64370866141732
 20
-1.376547244094488
 30
0.0
 10
43.64103937007874
 20
-1.37707874015748
 30
0.0
 10
43.63835039370079
 20
-1.377523622047244
 30
0.0
 10
43.63564566929134
 20
-1.377881889763779
 30
0.0
 10
43.63564566929134
 20
-1.377881889763779
 30
0.0
 10
43.63020472440945
 20
-1.378602362204724
 30
0.0
 10
43.62470472440945
 20
-1.37896062992126
 30
0.0
 10
43.61921653543307
 20
-1.378956692913386
 30
0.0
 10
43.61921653543307
 20
-1.378956692913386
 30
0.0
 10
43.61921653543307
 20
-1.378956692913386
 30
0.0
 10
43.61921653543307
 20
-2.394696850393701
 30
0.0
 10
43.61921653543307
 20
-2.394696850393701
 30
0.0
 10
43.61921653543307
 20
-2.394696850393701
 30
0.0
 10
43.61921653543307
 20
-2.394696850393701
 30
0.0
 10
52.6191220472441
 20
-2.394696850393701
 30
0.0
 10
52.6191220472441
 20
-2.394696850393701
 30
0.0
 10
52.6191220472441
 20
-2.394696850393701
 30
0.0
 10
52.6191220472441
 20
-2.394696850393701
 30
0.0
 10
52.61910236220472
 20
-1.378956692913386
 30
0.0
 10
52.61910236220472
 20
-1.378956692913386
 30
0.0
 10
52.61910236220472
 20
-1.378956692913386
 30
0.0
 10
52.61906692913386
 20
-1.378956692913386
 30
0.0
 10
52.61904330708661
 20
-1.378956692913386
 30
0.0
 10
52.61902362204724
 20
-1.378956692913386
 30
0.0
 10
52.61902362204724
 20
-1.378956692913386
 30
0.0
 10
52.619
 20
-1.378956692913386
 30
0.0
 10
52.61898031496063
 20
-1.378956692913386
 30
0.0
 10
52.61895669291339
 20
-1.378956692913386
 30
0.0
 10
52.61895669291339
 20
-1.378956692913386
 30
0.0
 10
52.61891338582677
 20
-1.378956692913386
 30
0.0
 10
52.61887007874016
 20
-1.378956692913386
 30
0.0
 10
52.61882677165354
 20
-1.378956692913386
 30
0.0
 10
52.61882677165354
 20
-1.378956692913386
 30
0.0
 10
52.61878740157481
 20
-1.378956692913386
 30
0.0
 10
52.61874409448819
 20
-1.378956692913386
 30
0.0
 10
52.61870078740157
 20
-1.378956692913386
 30
0.0
 10
52.61870078740157
 20
-1.378956692913386
 30
0.0
 10
52.61861417322834
 20
-1.378956692913386
 30
0.0
 10
52.61852755905512
 20
-1.378952755905512
 30
0.0
 10
52.61844094488189
 20
-1.378952755905512
 30
0.0
 10
52.61844094488189
 20
-1.378952755905512
 30
0.0
 10
52.61835433070866
 20
-1.378952755905512
 30
0.0
 10
52.61826771653543
 20
-1.378952755905512
 30
0.0
 10
52.61818110236221
 20
-1.378952755905512
 30
0.0
 10
52.61818110236221
 20
-1.378952755905512
 30
0.0
 10
52.61809448818897
 20
-1.378952755905512
 30
0.0
 10
52.61800787401575
 20
-1.378948818897638
 30
0.0
 10
52.61792125984252
 20
-1.378948818897638
 30
0.0
 10
52.61792125984252
 20
-1.378948818897638
 30
0.0
 10
52.61783464566929
 20
-1.378948818897638
 30
0.0
 10
52.61774803149606
 20
-1.378948818897638
 30
0.0
 10
52.61766141732284
 20
-1.378944881889764
 30
0.0
 10
52.61766141732284
 20
-1.378944881889764
 30
0.0
 10
52.61749212598425
 20
-1.378944881889764
 30
0.0
 10
52.61731889763779
 20
-1.37894094488189
 30
0.0
 10
52.61714566929134
 20
-1.378937007874016
 30
0.0
 10
52.61714566929134
 20
-1.378937007874016
 30
0.0
 10
52.61697244094488
 20
-1.378937007874016
 30
0.0
 10
52.61679921259842
 20
-1.378933070866142
 30
0.0
 10
52.61662992125984
 20
-1.378929133858268
 30
0.0
 10
52.61662992125984
 20
-1.378929133858268
 30
0.0
 10
52.61645669291339
 20
-1.378925196850394
 30
0.0
 10
52.61628346456693
 20
-1.37892125984252
 30
0.0
 10
52.61611023622047
 20
-1.378917322834646
 30
0.0
 10
52.61611023622047
 20
-1.378917322834646
 30
0.0
 10
52.61594094488189
 20
-1.378913385826772
 30
0.0
 10
52.61576771653543
 20
-1.378905511811024
 30
0.0
 10
52.61559448818898
 20
-1.37890157480315
 30
0.0
 10
52.61559448818898
 20
-1.37890157480315
 30
0.0
 10
52.61542125984252
 20
-1.378897637795276
 30
0.0
 10
52.61525196850393
 20
-1.378889763779528
 30
0.0
 10
52.61507874015748
 20
-1.378885826771653
 30
0.0
 10
52.61507874015748
 20
-1.378885826771653
 30
0.0
 10
52.61473228346457
 20
-1.378874015748031
 30
0.0
 10
52.61438976377953
 20
-1.378862204724409
 30
0.0
 10
52.61404724409449
 20
-1.378846456692913
 30
0.0
 10
52.61404724409449
 20
-1.378846456692913
 30
0.0
 10
52.61370078740158
 20
-1.378830708661417
 30
0.0
 10
52.61335826771654
 20
-1.378814960629921
 30
0.0
 10
52.61301574803149
 20
-1.378799212598425
 30
0.0
 10
52.61301574803149
 20
-1.378799212598425
 30
0.0
 10
52.61267322834646
 20
-1.378783464566929
 30
0.0
 10
52.61232677165354
 20
-1.378763779527559
 30
0.0
 10
52.6119842519685
 20
-1.378744094488189
 30
0.0
 10
52.6119842519685
 20
-1.378744094488189
 30
0.0
 10
52.61164173228347
 20
-1.378724409448819
 30
0.0
 10
52.61129921259842
 20
-1.378700787401575
 30
0.0
 10
52.61095669291338
 20
-1.378677165354331
 30
0.0
 10
52.61095669291338
 20
-1.378677165354331
 30
0.0
 10
52.61027165354331
 20
-1.378633858267716
 30
0.0
 10
52.60958661417323
 20
-1.378582677165354
 30
0.0
 10
52.60890157480315
 20
-1.378523622047244
 30
0.0
 10
52.60890157480315
 20
-1.378523622047244
 30
0.0
 10
52.60822047244095
 20
-1.378468503937008
 30
0.0
 10
52.60753543307086
 20
-1.378405511811024
 30
0.0
 10
52.60685433070866
 20
-1.378338582677165
 30
0.0
 10
52.60685433070866
 20
-1.378338582677165
 30
0.0
 10
52.60617322834646
 20
-1.378267716535433
 30
0.0
 10
52.60549212598425
 20
-1.378196850393701
 30
0.0
 10
52.60481102362205
 20
-1.378114173228346
 30
0.0
 10
52.60481102362205
 20
-1.378114173228346
 30
0.0
 10
52.60413385826772
 20
-1.378035433070866
 30
0.0
 10
52.60345669291338
 20
-1.377952755905512
 30
0.0
 10
52.60277559055118
 20
-1.377862204724409
 30
0.0
 10
52.60277559055118
 20
-1.377862204724409
 30
0.0
 10
52.60209842519685
 20
-1.377771653543307
 30
0.0
 10
52.60142519685039
 20
-1.377677165354331
 30
0.0
 10
52.60074803149606
 20
-1.377574803149606
 30
0.0
 10
52.60074803149606
 20
-1.377574803149606
 30
0.0
 10
52.60007086614173
 20
-1.377472440944882
 30
0.0
 10
52.59939763779528
 20
-1.377366141732284
 30
0.0
 10
52.59872440944882
 20
-1.377255905511811
 30
0.0
 10
52.59872440944882
 20
-1.377255905511811
 30
0.0
 10
52.59738188976378
 20
-1.377031496062992
 30
0.0
 10
52.59603937007874
 20
-1.376783464566929
 30
0.0
 10
52.59470472440945
 20
-1.376515748031496
 30
0.0
 10
52.59470472440945
 20
-1.376515748031496
 30
0.0
 10
52.59337007874016
 20
-1.376248031496063
 30
0.0
 10
52.59203937007874
 20
-1.37596062992126
 30
0.0
 10
52.5907125984252
 20
-1.375649606299213
 30
0.0
 10
52.5907125984252
 20
-1.375649606299213
 30
0.0
 10
52.58938976377953
 20
-1.375338582677165
 30
0.0
 10
52.58807086614173
 20
-1.375003937007874
 30
0.0
 10
52.58675984251968
 20
-1.374649606299213
 30
0.0
 10
52.58675984251968
 20
-1.374649606299213
 30
0.0
 10
52.58544881889764
 20
-1.374299212598425
 30
0.0
 10
52.58414173228346
 20
-1.37392125984252
 30
0.0
 10
52.58284251968504
 20
-1.373527559055118
 30
0.0
 10
52.58284251968504
 20
-1.373527559055118
 30
0.0
 10
52.58154330708661
 20
-1.373129921259842
 30
0.0
 10
52.58025196850394
 20
-1.372716535433071
 30
0.0
 10
52.57896850393701
 20
-1.372279527559055
 30
0.0
 10
52.57896850393701
 20
-1.372279527559055
 30
0.0
 10
52.57640157480315
 20
-1.37140157480315
 30
0.0
 10
52.57386220472441
 20
-1.370444881889764
 30
0.0
 10
52.57135826771653
 20
-1.369405511811024
 30
0.0
 10
52.57135826771653
 20
-1.369405511811024
 30
0.0
 10
52.56885039370079
 20
-1.368366141732283
 30
0.0
 10
52.56638188976378
 20
-1.367244094488189
 30
0.0
 10
52.56394881889764
 20
-1.366043307086614
 30
0.0
 10
52.56394881889764
 20
-1.366043307086614
 30
0.0
 10
52.56151181102362
 20
-1.364842519685039
 30
0.0
 10
52.55911811023622
 20
-1.363562992125984
 30
0.0
 10
52.55676771653543
 20
-1.362204724409449
 30
0.0
 10
52.55676771653543
 20
-1.362204724409449
 30
0.0
 10
52.55440944881889
 20
-1.360846456692913
 30
0.0
 10
52.55209842519685
 20
-1.359409448818898
 30
0.0
 10
52.54983464566929
 20
-1.357897637795276
 30
0.0
 10
52.54983464566929
 20
-1.357897637795276
 30
0.0
 10
52.54756692913386
 20
-1.35638188976378
 30
0.0
 10
52.54534645669291
 20
-1.354795275590551
 30
0.0
 10
52.5431811023622
 20
-1.353133858267717
 30
0.0
 10
52.5431811023622
 20
-1.353133858267717
 30
0.0
 10
52.53882283464567
 20
-1.349787401574803
 30
0.0
 10
52.53467716535433
 20
-1.346153543307087
 30
0.0
 10
52.53075984251969
 20
-1.342232283464567
 30
0.0
 10
52.53075984251969
 20
-1.342232283464567
 30
0.0
 10
52.53073622047244
 20
-1.342204724409449
 30
0.0
 10
52.53072047244095
 20
-1.342192913385827
 30
0.0
 10
52.53070472440945
 20
-1.342177165354331
 30
0.0
 10
52.53070472440945
 20
-1.342177165354331
 30
0.0
 10
52.53068897637795
 20
-1.342161417322835
 30
0.0
 10
52.53067322834646
 20
-1.342145669291338
 30
0.0
 10
52.53065748031496
 20
-1.342129921259843
 30
0.0
 10
52.53065748031496
 20
-1.342129921259843
 30
0.0
 10
52.53064173228346
 20
-1.342114173228346
 30
0.0
 10
52.53062992125984
 20
-1.34209842519685
 30
0.0
 10
52.53061417322834
 20
-1.342082677165354
 30
0.0
 10
52.53061417322834
 20
-1.342082677165354
 30
0.0
 10
52.53058267716536
 20
-1.342055118110236
 30
0.0
 10
52.53055118110236
 20
-1.342023622047244
 30
0.0
 10
52.53052362204724
 20
-1.341992125984252
 30
0.0
 10
52.53052362204724
 20
-1.341992125984252
 30
0.0
 10
52.53049212598425
 20
-1.34196062992126
 30
0.0
 10
52.53046062992126
 20
-1.341929133858268
 30
0.0
 10
52.53042913385827
 20
-1.34190157480315
 30
0.0
 10
52.53042913385827
 20
-1.34190157480315
 30
0.0
 10
52.53037007874016
 20
-1.341838582677165
 30
0.0
 10
52.53031102362205
 20
-1.341775590551181
 30
0.0
 10
52.53024803149606
 20
-1.341716535433071
 30
0.0
 10
52.53024803149606
 20
-1.341716535433071
 30
0.0
 10
52.53018897637795
 20
-1.341653543307087
 30
0.0
 10
52.53012598425197
 20
-1.341594488188976
 30
0.0
 10
52.53006692913386
 20
-1.341531496062992
 30
0.0
 10
52.53006692913386
 20
-1.341531496062992
 30
0.0
 10
52.53000787401574
 20
-1.341468503937008
 30
0.0
 10
52.52994488188976
 20
-1.341409448818898
 30
0.0
 10
52.52988582677165
 20
-1.341346456692913
 30
0.0
 10
52.52988582677165
 20
-1.341346456692913
 30
0.0
 10
52.52982677165355
 20
-1.341283464566929
 30
0.0
 10
52.52976377952756
 20
-1.341224409448819
 30
0.0
 10
52.52970472440945
 20
-1.341161417322835
 30
0.0
 10
52.52970472440945
 20
-1.341161417322835
 30
0.0
 10
52.52958267716535
 20
-1.34103937007874
 30
0.0
 10
52.52946456692914
 20
-1.340913385826772
 30
0.0
 10
52.52934251968504
 20
-1.340791338582677
 30
0.0
 10
52.52934251968504
 20
-1.340791338582677
 30
0.0
 10
52.52922440944882
 20
-1.340665354330709
 30
0.0
 10
52.5291062992126
 20
-1.340543307086614
 30
0.0
 10
52.5289842519685
 20
-1.340417322834646
 30
0.0
 10
52.5289842519685
 20
-1.340417322834646
 30
0.0
 10
52.52886614173228
 20
-1.340291338582677
 30
0.0
 10
52.52874803149606
 20
-1.340169291338583
 30
0.0
 10
52.52862992125984
 20
-1.340043307086614
 30
0.0
 10
52.52862992125984
 20
-1.340043307086614
 30
0.0
 10
52.52851181102362
 20
-1.339917322834646
 30
0.0
 10
52.52838976377953
 20
-1.339795275590551
 30
0.0
 10
52.52827165354331
 20
-1.339669291338583
 30
0.0
 10
52.52827165354331
 20
-1.339669291338583
 30
0.0
 10
52.52815354330708
 20
-1.339543307086614
 30
0.0
 10
52.52803543307087
 20
-1.339417322834646
 30
0.0
 10
52.52792125984252
 20
-1.339291338582677
 30
0.0
 10
52.52792125984252
 20
-1.339291338582677
 30
0.0
 10
52.52768503937008
 20
-1.33903937007874
 30
0.0
 10
52.52744881889764
 20
-1.338787401574803
 30
0.0
 10
52.52721653543307
 20
-1.338535433070866
 30
0.0
 10
52.52721653543307
 20
-1.338535433070866
 30
0.0
 10
52.52698425196851
 20
-1.338279527559055
 30
0.0
 10
52.52675196850394
 20
-1.338027559055118
 30
0.0
 10
52.52652362204724
 20
-1.337771653543307
 30
0.0
 10
52.52652362204724
 20
-1.337771653543307
 30
0.0
 10
52.52629133858268
 20
-1.337515748031496
 30
0.0
 10
52.52606299212599
 20
-1.337259842519685
 30
0.0
 10
52.52583464566929
 20
-1.337003937007874
 30
0.0
 10
52.52583464566929
 20
-1.337003937007874
 30
0.0
 10
52.5256062992126
 20
-1.336748031496063
 30
0.0
 10
52.5253779527559
 20
-1.336492125984252
 30
0.0
 10
52.52515354330708
 20
-1.336232283464567
 30
0.0
 10
52.52515354330708
 20
-1.336232283464567
 30
0.0
 10
52.52470078740158
 20
-1.335716535433071
 30
0.0
 10
52.52425196850394
 20
-1.335196850393701
 30
0.0
 10
52.52380708661417
 20
-1.334673228346457
 30
0.0
 10
52.52380708661417
 20
-1.334673228346457
 30
0.0
 10
52.52336614173228
 20
-1.334149606299213
 30
0.0
 10
52.52292913385827
 20
-1.333625984251968
 30
0.0
 10
52.52249212598425
 20
-1.333094488188976
 30
0.0
 10
52.52249212598425
 20
-1.333094488188976
 30
0.0
 10
52.52205905511811
 20
-1.332566929133858
 30
0.0
 10
52.52162992125984
 20
-1.332031496062992
 30
0.0
 10
52.52120472440945
 20
-1.331496062992126
 30
0.0
 10
52.52120472440945
 20
-1.331496062992126
 30
0.0
 10
52.52077952755906
 20
-1.33096062992126
 30
0.0
 10
52.52036220472441
 20
-1.33042125984252
 30
0.0
 10
52.51994488188976
 20
-1.329877952755905
 30
0.0
 10
52.51994488188976
 20
-1.329877952755905
 30
0.0
 10
52.51953149606299
 20
-1.329338582677165
 30
0.0
 10
52.5191220472441
 20
-1.328791338582677
 30
0.0
 10
52.5187125984252
 20
-1.328244094488189
 30
0.0
 10
52.5187125984252
 20
-1.328244094488189
 30
0.0
 10
52.51830708661417
 20
-1.327696850393701
 30
0.0
 10
52.51790551181102
 20
-1.327145669291339
 30
0.0
 10
52.51751181102362
 20
-1.326590551181102
 30
0.0
 10
52.51751181102362
 20
-1.326590551181102
 30
0.0
 10
52.51671653543307
 20
-1.325484251968504
 30
0.0
 10
52.51594488188977
 20
-1.324362204724409
 30
0.0
 10
52.51518897637795
 20
-1.323232283464567
 30
0.0
 10
52.51518897637795
 20
-1.323232283464567
 30
0.0
 10
52.51443307086614
 20
-1.322102362204724
 30
0.0
 10
52.5136968503937
 20
-1.320956692913386
 30
0.0
 10
52.51298031496063
 20
-1.319803149606299
 30
0.0
 10
52.51298031496063
 20
-1.319803149606299
 30
0.0
 10
52.51226377952756
 20
-1.318653543307087
 30
0.0
 10
52.51156692913386
 20
-1.317488188976378
 30
0.0
 10
52.51088976377953
 20
-1.316311023622047
 30
0.0
 10
52.51088976377953
 20
-1.316311023622047
 30
0.0
 10
52.5102125984252
 20
-1.31513779527559
 30
0.0
 10
52.50955511811024
 20
-1.313952755905512
 30
0.0
 10
52.50891732283465
 20
-1.312755905511811
 30
0.0
 10
52.50891732283465
 20
-1.312755905511811
 30
0.0
 10
52.50827952755905
 20
-1.311562992125984
 30
0.0
 10
52.50765748031496
 20
-1.310358267716536
 30
0.0
 10
52.50705905511811
 20
-1.309141732283465
 30
0.0
 10
52.50705905511811
 20
-1.309141732283465
 30
0.0
 10
52.50586220472441
 20
-1.306716535433071
 30
0.0
 10
52.50474409448819
 20
-1.304251968503937
 30
0.0
 10
52.50370866141732
 20
-1.301751968503937
 30
0.0
 10
52.50370866141732
 20
-1.301751968503937
 30
0.0
 10
52.50267322834646
 20
-1.299251968503937
 30
0.0
 10
52.50171653543307
 20
-1.296716535433071
 30
0.0
 10
52.50084645669291
 20
-1.294153543307087
 30
0.0
 10
52.50084645669291
 20
-1.294153543307087
 30
0.0
 10
52.49997244094488
 20
-1.291590551181102
 30
0.0
 10
52.49918503937008
 20
-1.288996062992126
 30
0.0
 10
52.49848425196851
 20
-1.286377952755906
 30
0.0
 10
52.49848425196851
 20
-1.286377952755906
 30
0.0
 10
52.49777952755905
 20
-1.283755905511811
 30
0.0
 10
52.49716141732284
 20
-1.281110236220472
 30
0.0
 10
52.49662992125985
 20
-1.278448818897638
 30
0.0
 10
52.49662992125985
 20
-1.278448818897638
 30
0.0
 10
52.49609448818897
 20
-1.275779527559055
 30
0.0
 10
52.49564960629921
 20
-1.273090551181102
 30
0.0
 10
52.49529133858267
 20
-1.270385826771653
 30
0.0
 10
52.49529133858267
 20
-1.270385826771653
 30
0.0
 10
52.4945748031496
 20
-1.26494094488189
 30
0.0
 10
52.4942125984252
 20
-1.259444881889764
 30
0.0
 10
52.49421653543307
 20
-1.253956692913386
 30
0.0
 10
52.49421653543307
 20
-1.253956692913386
 30
0.0
 10
52.49421653543307
 20
-1.253956692913386
 30
0.0
 10
52.49421653543307
 20
2.371043307086614
 30
0.0
 10
52.49421653543307
 20
2.371043307086614
 30
0.0
 10
52.49421653543307
 20
2.371043307086614
 30
0.0
 10
52.49421653543307
 20
2.371043307086614
 30
0.0
 10
52.24418503937008
 20
2.371043307086614
 30
0.0
 10
52.24418503937008
 20
2.371043307086614
 30
0.0
 10
52.24418503937008
 20
2.371043307086614
 30
0.0
 10
52.24415748031496
 20
2.371043307086614
 30
0.0
 10
52.24414566929134
 20
2.371043307086614
 30
0.0
 10
52.24412992125984
 20
2.371043307086614
 30
0.0
 10
52.24412992125984
 20
2.371043307086614
 30
0.0
 10
52.24411417322835
 20
2.371043307086614
 30
0.0
 10
52.24410236220472
 20
2.371043307086614
 30
0.0
 10
52.24408661417323
 20
2.371043307086614
 30
0.0
 10
52.24408661417323
 20
2.371043307086614
 30
0.0
 10
52.24407086614173
 20
2.371043307086614
 30
0.0
 10
52.24405905511811
 20
2.371043307086614
 30
0.0
 10
52.24404330708661
 20
2.371043307086614
 30
0.0
 10
52.24404330708661
 20
2.371043307086614
 30
0.0
 10
52.24401574803149
 20
2.371043307086614
 30
0.0
 10
52.24398425196851
 20
2.371043307086614
 30
0.0
 10
52.24395669291339
 20
2.371043307086614
 30
0.0
 10
52.24395669291339
 20
2.371043307086614
 30
0.0
 10
52.24392519685039
 20
2.371043307086614
 30
0.0
 10
52.24389763779528
 20
2.371043307086614
 30
0.0
 10
52.24387007874016
 20
2.371043307086614
 30
0.0
 10
52.24387007874016
 20
2.371043307086614
 30
0.0
 10
52.24381102362204
 20
2.371043307086614
 30
0.0
 10
52.24375196850394
 20
2.371043307086614
 30
0.0
 10
52.24369291338583
 20
2.371043307086614
 30
0.0
 10
52.24369291338583
 20
2.371043307086614
 30
0.0
 10
52.24363779527559
 20
2.371043307086614
 30
0.0
 10
52.24357874015748
 20
2.371043307086614
 30
0.0
 10
52.24351968503937
 20
2.371043307086614
 30
0.0
 10
52.24351968503937
 20
2.371043307086614
 30
0.0
 10
52.24346062992126
 20
2.371043307086614
 30
0.0
 10
52.24340157480315
 20
2.371043307086614
 30
0.0
 10
52.24334645669291
 20
2.371043307086614
 30
0.0
 10
52.24334645669291
 20
2.371043307086614
 30
0.0
 10
52.2432874015748
 20
2.371043307086614
 30
0.0
 10
52.2432283464567
 20
2.371043307086614
 30
0.0
 10
52.24316929133858
 20
2.371047244094488
 30
0.0
 10
52.24316929133858
 20
2.371047244094488
 30
0.0
 10
52.24305511811023
 20
2.371047244094488
 30
0.0
 10
52.24293700787402
 20
2.371047244094488
 30
0.0
 10
52.24282283464567
 20
2.371047244094488
 30
0.0
 10
52.24282283464567
 20
2.371047244094488
 30
0.0
 10
52.24270472440945
 20
2.371047244094488
 30
0.0
 10
52.2425905511811
 20
2.371047244094488
 30
0.0
 10
52.24247244094488
 20
2.371051181102362
 30
0.0
 10
52.24247244094488
 20
2.371051181102362
 30
0.0
 10
52.24235826771653
 20
2.371051181102362
 30
0.0
 10
52.24224015748032
 20
2.371051181102362
 30
0.0
 10
52.24212598425197
 20
2.371051181102362
 30
0.0
 10
52.24212598425197
 20
2.371051181102362
 30
0.0
 10
52.2418937007874
 20
2.371055118110236
 30
0.0
 10
52.24166141732284
 20
2.371055118110236
 30
0.0
 10
52.24142913385827
 20
2.37105905511811
 30
0.0
 10
52.24142913385827
 20
2.37105905511811
 30
0.0
 10
52.2411968503937
 20
2.371062992125984
 30
0.0
 10
52.24096456692914
 20
2.371062992125984
 30
0.0
 10
52.24073228346457
 20
2.371066929133858
 30
0.0
 10
52.24073228346457
 20
2.371066929133858
 30
0.0
 10
52.2405
 20
2.371070866141732
 30
0.0
 10
52.24026771653543
 20
2.371074803149607
 30
0.0
 10
52.24003543307087
 20
2.37107874015748
 30
0.0
 10
52.24003543307087
 20
2.37107874015748
 30
0.0
 10
52.2398031496063
 20
2.371082677165354
 30
0.0
 10
52.23957086614173
 20
2.371086614173228
 30
0.0
 10
52.23933858267716
 20
2.371090551181102
 30
0.0
 10
52.23933858267716
 20
2.371090551181102
 30
0.0
 10
52.2391062992126
 20
2.371094488188976
 30
0.0
 10
52.23887795275591
 20
2.371098425196851
 30
0.0
 10
52.23864566929134
 20
2.371106299212598
 30
0.0
 10
52.23864566929134
 20
2.371106299212598
 30
0.0
 10
52.2381811023622
 20
2.371114173228346
 30
0.0
 10
52.23771653543307
 20
2.371125984251969
 30
0.0
 10
52.23725590551181
 20
2.371141732283465
 30
0.0
 10
52.23725590551181
 20
2.371141732283465
 30
0.0
 10
52.23679133858268
 20
2.371153543307086
 30
0.0
 10
52.23632677165354
 20
2.371165354330709
 30
0.0
 10
52.23586614173228
 20
2.371181102362205
 30
0.0
 10
52.23586614173228
 20
2.371181102362205
 30
0.0
 10
52.23540157480315
 20
2.371196850393701
 30
0.0
 10
52.23494094488189
 20
2.371212598425197
 30
0.0
 10
52.23447637795275
 20
2.371232283464567
 30
0.0
 10
52.23447637795275
 20
2.371232283464567
 30
0.0
 10
52.2340157480315
 20
2.371251968503937
 30
0.0
 10
52.23355118110236
 20
2.371267716535433
 30
0.0
 10
52.2330905511811
 20
2.371291338582677
 30
0.0
 10
52.2330905511811
 20
2.371291338582677
 30
0.0
 10
52.23262992125984
 20
2.371311023622047
 30
0.0
 10
52.23216535433071
 20
2.371330708661417
 30
0.0
 10
52.23170472440945
 20
2.371354330708662
 30
0.0
 10
52.23170472440945
 20
2.371354330708662
 30
0.0
 10
52.23124409448819
 20
2.371377952755906
 30
0.0
 10
52.23078346456693
 20
2.37140157480315
 30
0.0
 10
52.23032283464567
 20
2.371429133858268
 30
0.0
 10
52.23032283464567
 20
2.371429133858268
 30
0.0
 10
52.22940157480315
 20
2.37148031496063
 30
0.0
 10
52.22848031496063
 20
2.371535433070866
 30
0.0
 10
52.22755905511811
 20
2.37159842519685
 30
0.0
 10
52.22755905511811
 20
2.37159842519685
 30
0.0
 10
52.22663779527559
 20
2.371657480314961
 30
0.0
 10
52.22572047244095
 20
2.371724409448819
 30
0.0
 10
52.22479921259843
 20
2.371795275590551
 30
0.0
 10
52.22479921259843
 20
2.371795275590551
 30
0.0
 10
52.22388188976378
 20
2.371866141732283
 30
0.0
 10
52.22296456692914
 20
2.371944881889764
 30
0.0
 10
52.22204724409449
 20
2.372027559055118
 30
0.0
 10
52.22204724409449
 20
2.372027559055118
 30
0.0
 10
52.22113385826772
 20
2.372106299212598
 30
0.0
 10
52.22021653543307
 20
2.372192913385827
 30
0.0
 10
52.2193031496063
 20
2.372283464566929
 30
0.0
 10
52.2193031496063
 20
2.372283464566929
 30
0.0
 10
52.21838976377953
 20
2.372377952755905
 30
0.0
 10
52.21747637795276
 20
2.372472440944882
 30
0.0
 10
52.21656299212599
 20
2.372574803149606
 30
0.0
 10
52.21656299212599
 20
2.372574803149606
 30
0.0
 10
52.21474015748031
 20
2.372775590551181
 30
0.0
 10
52.21292125984252
 20
2.373
 30
0.0
 10
52.21110236220473
 20
2.373240157480315
 30
0.0
 10
52.21110236220473
 20
2.373240157480315
 30
0.0
 10
52.20929133858268
 20
2.373484251968504
 30
0.0
 10
52.20748031496063
 20
2.373744094488189
 30
0.0
 10
52.20566929133858
 20
2.374027559055118
 30
0.0
 10
52.20566929133858
 20
2.374027559055118
 30
0.0
 10
52.20386614173228
 20
2.374311023622047
 30
0.0
 10
52.20206692913386
 20
2.374610236220473
 30
0.0
 10
52.20026771653544
 20
2.374929133858268
 30
0.0
 10
52.20026771653544
 20
2.374929133858268
 30
0.0
 10
52.19847637795276
 20
2.375251968503937
 30
0.0
 10
52.19668503937008
 20
2.375590551181102
 30
0.0
 10
52.19489763779528
 20
2.375948818897638
 30
0.0
 10
52.19489763779528
 20
2.375948818897638
 30
0.0
 10
52.19311417322835
 20
2.376311023622047
 30
0.0
 10
52.19133464566929
 20
2.376688976377953
 30
0.0
 10
52.18955905511811
 20
2.377086614173229
 30
0.0
 10
52.18955905511811
 20
2.377086614173229
 30
0.0
 10
52.1877874015748
 20
2.377484251968504
 30
0.0
 10
52.18601968503937
 20
2.377897637795276
 30
0.0
 10
52.18425590551181
 20
2.378334645669292
 30
0.0
 10
52.18425590551181
 20
2.378334645669292
 30
0.0
 10
52.18249606299213
 20
2.378767716535433
 30
0.0
 10
52.18074015748032
 20
2.379224409448819
 30
0.0
 10
52.17898818897638
 20
2.379696850393701
 30
0.0
 10
52.17898818897638
 20
2.379696850393701
 30
0.0
 10
52.17549212598425
 20
2.380641732283465
 30
0.0
 10
52.17201968503937
 20
2.381661417322835
 30
0.0
 10
52.16857086614174
 20
2.382759842519685
 30
0.0
 10
52.16857086614174
 20
2.382759842519685
 30
0.0
 10
52.16512598425197
 20
2.383850393700787
 30
0.0
 10
52.16170866141732
 20
2.38501968503937
 30
0.0
 10
52.15831496062992
 20
2.386259842519685
 30
0.0
 10
52.15831496062992
 20
2.386259842519685
 30
0.0
 10
52.15492913385827
 20
2.3875
 30
0.0
 10
52.15156692913386
 20
2.388814960629921
 30
0.0
 10
52.14824015748032
 20
2.390200787401575
 30
0.0
 10
52.14824015748032
 20
2.390200787401575
 30
0.0
 10
52.14491338582677
 20
2.391582677165354
 30
0.0
 10
52.14161811023622
 20
2.393035433070866
 30
0.0
 10
52.13835433070866
 20
2.394562992125984
 30
0.0
 10
52.13835433070866
 20
2.394562992125984
 30
0.0
 10
52.13509448818898
 20
2.396086614173228
 30
0.0
 10
52.13187007874016
 20
2.397681102362205
 30
0.0
 10
52.12867716535433
 20
2.399342519685039
 30
0.0
 10
52.12867716535433
 20
2.399342519685039
 30
0.0
 10
52.12548818897638
 20
2.401007874015748
 30
0.0
 10
52.12233464566929
 20
2.402736220472441
 30
0.0
 10
52.11921653543307
 20
2.404535433070866
 30
0.0
 10
52.11921653543307
 20
2.404535433070866
 30
0.0
 10
52.11298818897638
 20
2.408133858267717
 30
0.0
 10
52.1069094488189
 20
2.412
 30
0.0
 10
52.10101181102362
 20
2.416122047244095
 30
0.0
 10
52.10101181102362
 20
2.416122047244095
 30
0.0
 10
52.09510236220473
 20
2.420251968503937
 30
0.0
 10
52.08937401574803
 20
2.424633858267716
 30
0.0
 10
52.08384251968504
 20
2.429259842519685
 30
0.0
 10
52.08384251968504
 20
2.429259842519685
 30
0.0
 10
52.07829527559055
 20
2.433897637795276
 30
0.0
 10
52.07294488188976
 20
2.438775590551181
 30
0.0
 10
52.06781889763779
 20
2.443877952755905
 30
0.0
 10
52.06781889763779
 20
2.443877952755905
 30
0.0
 10
52.06266535433071
 20
2.449011811023622
 30
0.0
 10
52.05773622047244
 20
2.454366141732284
 30
0.0
 10
52.05305118110236
 20
2.459925196850394
 30
0.0
 10
52.05305118110236
 20
2.459925196850394
 30
0.0
 10
52.04833070866142
 20
2.465527559055118
 30
0.0
 10
52.04385826771654
 20
2.471338582677165
 30
0.0
 10
52.03964566929134
 20
2.477334645669291
 30
0.0
 10
52.03964566929134
 20
2.477334645669291
 30
0.0
 10
52.0353937007874
 20
2.483389763779527
 30
0.0
 10
52.0314094488189
 20
2.48963779527559
 30
0.0
 10
52.02769291338583
 20
2.496070866141732
 30
0.0
 10
52.02769291338583
 20
2.496070866141732
 30
0.0
 10
52.0276811023622
 20
2.496094488188976
 30
0.0
 10
52.02767322834646
 20
2.496106299212598
 30
0.0
 10
52.02766535433071
 20
2.496118110236221
 30
0.0
 10
52.02766535433071
 20
2.496118110236221
 30
0.0
 10
52.02765748031496
 20
2.496129921259842
 30
0.0
 10
52.02764960629921
 20
2.496145669291339
 30
0.0
 10
52.02764566929134
 20
2.49615748031496
 30
0.0
 10
52.02764566929134
 20
2.49615748031496
 30
0.0
 10
52.02763779527559
 20
2.496169291338583
 30
0.0
 10
52.02762992125984
 20
2.496181102362205
 30
0.0
 10
52.02762204724409
 20
2.496192913385827
 30
0.0
 10
52.02762204724409
 20
2.496192913385827
 30
0.0
 10
52.0276062992126
 20
2.496220472440945
 30
0.0
 10
52.02759448818897
 20
2.496244094488189
 30
0.0
 10
52.02757874015748
 20
2.496271653543307
 30
0.0
 10
52.02757874015748
 20
2.496271653543307
 30
0.0
 10
52.02756299212599
 20
2.496295275590551
 30
0.0
 10
52.02755118110236
 20
2.496318897637795
 30
0.0
 10
52.02753543307087
 20
2.496346456692913
 30
0.0
 10
52.02753543307087
 20
2.496346456692913
 30
0.0
 10
52.02750787401575
 20
2.496397637795276
 30
0.0
 10
52.02747637795276
 20
2.496444881889764
 30
0.0
 10
52.02744881889764
 20
2.496496062992126
 30
0.0
 10
52.02744881889764
 20
2.496496062992126
 30
0.0
 10
52.02742125984252
 20
2.496547244094488
 30
0.0
 10
52.02738976377952
 20
2.49659842519685
 30
0.0
 10
52.02736220472441
 20
2.496649606299213
 30
0.0
 10
52.02736220472441
 20
2.496649606299213
 30
0.0
 10
52.02733070866142
 20
2.496696850393701
 30
0.0
 10
52.0273031496063
 20
2.496748031496063
 30
0.0
 10
52.02727559055118
 20
2.496799212598425
 30
0.0
 10
52.02727559055118
 20
2.496799212598425
 30
0.0
 10
52.02724409448819
 20
2.496850393700787
 30
0.0
 10
52.02721653543307
 20
2.49690157480315
 30
0.0
 10
52.02718897637795
 20
2.496948818897638
 30
0.0
 10
52.02718897637795
 20
2.496948818897638
 30
0.0
 10
52.02712992125984
 20
2.497051181102362
 30
0.0
 10
52.02707480314961
 20
2.497153543307087
 30
0.0
 10
52.02701574803149
 20
2.497251968503937
 30
0.0
 10
52.02701574803149
 20
2.497251968503937
 30
0.0
 10
52.02695669291339
 20
2.497354330708661
 30
0.0
 10
52.02690157480315
 20
2.497456692913386
 30
0.0
 10
52.02684251968504
 20
2.497555118110236
 30
0.0
 10
52.02684251968504
 20
2.497555118110236
 30
0.0
 10
52.0267874015748
 20
2.49765748031496
 30
0.0
 10
52.02672834645669
 20
2.497759842519685
 30
0.0
 10
52.02666929133859
 20
2.497858267716536
 30
0.0
 10
52.02666929133859
 20
2.497858267716536
 30
0.0
 10
52.02655511811024
 20
2.498062992125984
 30
0.0
 10
52.02644094488189
 20
2.498263779527559
 30
0.0
 10
52.02632677165354
 20
2.498464566929134
 30
0.0
 10
52.02632677165354
 20
2.498464566929134
 30
0.0
 10
52.02621653543307
 20
2.498669291338583
 30
0.0
 10
52.02610236220472
 20
2.498870078740158
 30
0.0
 10
52.02598818897638
 20
2.499074803149606
 30
0.0
 10
52.02598818897638
 20
2.499074803149606
 30
0.0
 10
52.02587401574803
 20
2.499275590551181
 30
0.0
 10
52.02575984251968
 20
2.49948031496063
 30
0.0
 10
52.02564960629921
 20
2.499681102362205
 30
0.0
 10
52.02564960629921
 20
2.499681102362205
 30
0.0
 10
52.02553543307086
 20
2.499885826771654
 30
0.0
 10
52.02542519685039
 20
2.500086614173228
 30
0.0
 10
52.02531102362205
 20
2.500291338582677
 30
0.0
 10
52.02531102362205
 20
2.500291338582677
 30
0.0
 10
52.02520078740157
 20
2.500496062992126
 30
0.0
 10
52.02508661417323
 20
2.500696850393701
 30
0.0
 10
52.02497637795275
 20
2.50090157480315
 30
0.0
 10
52.02497637795275
 20
2.50090157480315
 30
0.0
 10
52.02475196850394
 20
2.501307086614173
 30
0.0
 10
52.02453149606299
 20
2.501712598425197
 30
0.0
 10
52.02431102362205
 20
2.502122047244094
 30
0.0
 10
52.02431102362205
 20
2.502122047244094
 30
0.0
 10
52.0240905511811
 20
2.502531496062992
 30
0.0
 10
52.02387007874016
 20
2.502937007874016
 30
0.0
 10
52.02365354330708
 20
2.503346456692913
 30
0.0
 10
52.02365354330708
 20
2.503346456692913
 30
0.0
 10
52.02343700787402
 20
2.503755905511811
 30
0.0
 10
52.02322047244095
 20
2.504165354330709
 30
0.0
 10
52.02300393700787
 20
2.504574803149606
 30
0.0
 10
52.02300393700787
 20
2.504574803149606
 30
0.0
 10
52.0227874015748
 20
2.504984251968504
 30
0.0
 10
52.02257480314961
 20
2.505393700787402
 30
0.0
 10
52.02235826771653
 20
2.505803149606299
 30
0.0
 10
52.02235826771653
 20
2.505803149606299
 30
0.0
 10
52.02214566929134
 20
2.506212598425197
 30
0.0
 10
52.02193307086614
 20
2.506622047244095
 30
0.0
 10
52.02172440944882
 20
2.507035433070866
 30
0.0
 10
52.02172440944882
 20
2.507035433070866
 30
0.0
 10
52.02151181102362
 20
2.507444881889764
 30
0.0
 10
52.0213031496063
 20
2.507858267716535
 30
0.0
 10
52.02109448818898
 20
2.508271653543307
 30
0.0
 10
52.02109448818898
 20
2.508271653543307
 30
0.0
 10
52.02067716535433
 20
2.509094488188977
 30
0.0
 10
52.02026771653544
 20
2.50992125984252
 30
0.0
 10
52.01985826771654
 20
2.510748031496063
 30
0.0
 10
52.01985826771654
 20
2.510748031496063
 30
0.0
 10
52.01945275590551
 20
2.511574803149606
 30
0.0
 10
52.01905118110236
 20
2.512405511811024
 30
0.0
 10
52.01865354330709
 20
2.513236220472441
 30
0.0
 10
52.01865354330709
 20
2.513236220472441
 30
0.0
 10
52.01825590551181
 20
2.514066929133858
 30
0.0
 10
52.01786220472441
 20
2.514897637795276
 30
0.0
 10
52.01747637795275
 20
2.515732283464567
 30
0.0
 10
52.01747637795275
 20
2.515732283464567
 30
0.0
 10
52.01708661417323
 20
2.516566929133858
 30
0.0
 10
52.01670472440945
 20
2.517405511811023
 30
0.0
 10
52.01632677165355
 20
2.518240157480315
 30
0.0
 10
52.01632677165355
 20
2.518240157480315
 30
0.0
 10
52.01594881889764
 20
2.51907874015748
 30
0.0
 10
52.0155748031496
 20
2.519917322834646
 30
0.0
 10
52.01520866141733
 20
2.520759842519685
 30
0.0
 10
52.01520866141733
 20
2.520759842519685
 30
0.0
 10
52.01447244094488
 20
2.522437007874016
 30
0.0
 10
52.01375590551181
 20
2.524125984251969
 30
0.0
 10
52.01305511811024
 20
2.525822834645669
 30
0.0
 10
52.01305511811024
 20
2.525822834645669
 30
0.0
 10
52.01235826771654
 20
2.527511811023622
 30
0.0
 10
52.0116811023622
 20
2.529212598425197
 30
0.0
 10
52.01101968503937
 20
2.530917322834646
 30
0.0
 10
52.01101968503937
 20
2.530917322834646
 30
0.0
 10
52.01036220472441
 20
2.532622047244094
 30
0.0
 10
52.00972440944882
 20
2.534330708661417
 30
0.0
 10
52.00910236220472
 20
2.536047244094488
 30
0.0
 10
52.00910236220472
 20
2.536047244094488
 30
0.0
 10
52.0084842519685
 20
2.537759842519685
 30
0.0
 10
52.00788188976378
 20
2.539484251968504
 30
0.0
 10
52.00729921259843
 20
2.541208661417323
 30
0.0
 10
52.00729921259843
 20
2.541208661417323
 30
0.0
 10
52.00672047244095
 20
2.542933070866142
 30
0.0
 10
52.00615748031496
 20
2.544665354330709
 30
0.0
 10
52.00561417322835
 20
2.546401574803149
 30
0.0
 10
52.00561417322835
 20
2.546401574803149
 30
0.0
 10
52.00507086614173
 20
2.548133858267716
 30
0.0
 10
52.00454724409449
 20
2.549874015748031
 30
0.0
 10
52.00404330708661
 20
2.551618110236221
 30
0.0
 10
52.00404330708661
 20
2.551618110236221
 30
0.0
 10
52.00353937007874
 20
2.553358267716535
 30
0.0
 10
52.00305511811024
 20
2.555106299212599
 30
0.0
 10
52.0025905511811
 20
2.55686220472441
 30
0.0
 10
52.0025905511811
 20
2.55686220472441
 30
0.0
 10
52.00166141732284
 20
2.560358267716536
 30
0.0
 10
52.00080708661417
 20
2.563877952755905
 30
0.0
 10
52.000031496063
 20
2.567413385826772
 30
0.0
 10
52.000031496063
 20
2.567413385826772
 30
0.0
 10
51.99925590551181
 20
2.570944881889764
 30
0.0
 10
51.99855905511811
 20
2.574488188976378
 30
0.0
 10
51.99793700787401
 20
2.578047244094488
 30
0.0
 10
51.99793700787401
 20
2.578047244094488
 30
0.0
 10
51.9973188976378
 20
2.58159842519685
 30
0.0
 10
51.99677559055118
 20
2.585165354330709
 30
0.0
 10
51.99631102362205
 20
2.588740157480315
 30
0.0
 10
51.99631102362205
 20
2.588740157480315
 30
0.0
 10
51.99584645669292
 20
2.592314960629921
 30
0.0
 10
51.99545669291339
 20
2.595893700787402
 30
0.0
 10
51.99514566929134
 20
2.599484251968504
 30
0.0
 10
51.99514566929134
 20
2.599484251968504
 30
0.0
 10
51.99483858267717
 20
2.603066929133858
 30
0.0
 10
51.99460236220472
 20
2.606661417322835
 30
0.0
 10
51.99444881889764
 20
2.610255905511811
 30
0.0
 10
51.99444881889764
 20
2.610255905511811
 30
0.0
 10
51.99429527559055
 20
2.613850393700787
 30
0.0
 10
51.99421653543307
 20
2.617444881889764
 30
0.0
 10
51.99421653543307
 20
2.621043307086614
 30
0.0
 10
51.99421653543307
 20
2.621043307086614
 30
0.0
 10
51.99421653543307
 20
2.628236220472441
 30
0.0
 10
51.99452755905511
 20
2.635433070866142
 30
0.0
 10
51.99514566929134
 20
2.642602362204725
 30
0.0
 10
51.99514566929134
 20
2.642602362204725
 30
0.0
 10
51.99576771653543
 20
2.649783464566929
 30
0.0
 10
51.99670078740157
 20
2.65694094488189
 30
0.0
 10
51.99793700787401
 20
2.66403937007874
 30
0.0
 10
51.99793700787401
 20
2.66403937007874
 30
0.0
 10
51.99918110236221
 20
2.671165354330709
 30
0.0
 10
52.00073228346456
 20
2.678236220472441
 30
0.0
 10
52.0025905511811
 20
2.685224409448819
 30
0.0
 10
52.0025905511811
 20
2.685224409448819
 30
0.0
 10
52.00445669291339
 20
2.692255905511811
 30
0.0
 10
52.00662992125984
 20
2.699200787401575
 30
0.0
 10
52.00910236220472
 20
2.70603937007874
 30
0.0
 10
52.00910236220472
 20
2.70603937007874
 30
0.0
 10
52.01159448818898
 20
2.712929133858268
 30
0.0
 10
52.01438976377953
 20
2.719708661417323
 30
0.0
 10
52.01747637795275
 20
2.726354330708662
 30
0.0
 10
52.01747637795275
 20
2.726354330708662
 30
0.0
 10
52.02059448818898
 20
2.733062992125984
 30
0.0
 10
52.02401181102362
 20
2.73963779527559
 30
0.0
 10
52.02772440944882
 20
2.746070866141732
 30
0.0
 10
52.02772440944882
 20
2.746070866141732
 30
0.0
 10
52.02774015748032
 20
2.746094488188976
 30
0.0
 10
52.02774409448819
 20
2.746106299212598
 30
0.0
 10
52.02775196850394
 20
2.746118110236221
 30
0.0
 10
52.02775196850394
 20
2.746118110236221
 30
0.0
 10
52.02775984251969
 20
2.746129921259842
 30
0.0
 10
52.02776771653544
 20
2.746145669291339
 30
0.0
 10
52.02777559055118
 20
2.74615748031496
 30
0.0
 10
52.02777559055118
 20
2.74615748031496
 30
0.0
 10
52.02778346456693
 20
2.746169291338583
 30
0.0
 10
52.02779133858268
 20
2.746181102362205
 30
0.0
 10
52.02779527559055
 20
2.746192913385827
 30
0.0
 10
52.02779527559055
 20
2.746192913385827
 30
0.0
 10
52.02781102362205
 20
2.746220472440945
 30
0.0
 10
52.02782677165354
 20
2.746244094488189
 30
0.0
 10
52.02783858267716
 20
2.746271653543307
 30
0.0
 10
52.02783858267716
 20
2.746271653543307
 30
0.0
 10
52.02785433070866
 20
2.746295275590551
 30
0.0
 10
52.02787007874016
 20
2.746318897637795
 30
0.0
 10
52.02788582677165
 20
2.746346456692913
 30
0.0
 10
52.02788582677165
 20
2.746346456692913
 30
0.0
 10
52.02791338582677
 20
2.746393700787402
 30
0.0
 10
52.02794094488189
 20
2.746444881889764
 30
0.0
 10
52.02797244094488
 20
2.746496062992126
 30
0.0
 10
52.02797244094488
 20
2.746496062992126
 30
0.0
 10
52.028
 20
2.746547244094488
 30
0.0
 10
52.02803149606299
 20
2.74659842519685
 30
0.0
 10
52.02805905511811
 20
2.746645669291339
 30
0.0
 10
52.02805905511811
 20
2.746645669291339
 30
0.0
 10
52.02808661417323
 20
2.746696850393701
 30
0.0
 10
52.02811811023622
 20
2.746748031496063
 30
0.0
 10
52.02814566929134
 20
2.746799212598425
 30
0.0
 10
52.02814566929134
 20
2.746799212598425
 30
0.0
 10
52.02817716535433
 20
2.746846456692913
 30
0.0
 10
52.02820472440945
 20
2.746897637795275
 30
0.0
 10
52.02823622047244
 20
2.746948818897638
 30
0.0
 10
52.02823622047244
 20
2.746948818897638
 30
0.0
 10
52.02829133858268
 20
2.747047244094488
 30
0.0
 10
52.02835039370079
 20
2.747149606299212
 30
0.0
 10
52.0284094488189
 20
2.747248031496063
 30
0.0
 10
52.0284094488189
 20
2.747248031496063
 30
0.0
 10
52.02846850393701
 20
2.747350393700787
 30
0.0
 10
52.02852755905512
 20
2.747448818897638
 30
0.0
 10
52.02858661417323
 20
2.747551181102362
 30
0.0
 10
52.02858661417323
 20
2.747551181102362
 30
0.0
 10
52.02864566929134
 20
2.747649606299213
 30
0.0
 10
52.02870472440945
 20
2.747751968503937
 30
0.0
 10
52.02876377952756
 20
2.747850393700787
 30
0.0
 10
52.02876377952756
 20
2.747850393700787
 30
0.0
 10
52.02888188976378
 20
2.748051181102362
 30
0.0
 10
52.029
 20
2.748251968503937
 30
0.0
 10
52.02911811023622
 20
2.748452755905512
 30
0.0
 10
52.02911811023622
 20
2.748452755905512
 30
0.0
 10
52.02923622047244
 20
2.748649606299213
 30
0.0
 10
52.02935433070866
 20
2.748850393700788
 30
0.0
 10
52.02947244094488
 20
2.749051181102362
 30
0.0
 10
52.02947244094488
 20
2.749051181102362
 30
0.0
 10
52.0295905511811
 20
2.749248031496063
 30
0.0
 10
52.0297125984252
 20
2.749448818897638
 30
0.0
 10
52.02983070866141
 20
2.749645669291338
 30
0.0
 10
52.02983070866141
 20
2.749645669291338
 30
0.0
 10
52.02994881889764
 20
2.749846456692913
 30
0.0
 10
52.03007086614173
 20
2.750043307086614
 30
0.0
 10
52.03018897637795
 20
2.750244094488189
 30
0.0
 10
52.03018897637795
 20
2.750244094488189
 30
0.0
 10
52.03031102362205
 20
2.75044094488189
 30
0.0
 10
52.03042913385827
 20
2.750641732283464
 30
0.0
 10
52.03055118110236
 20
2.750838582677166
 30
0.0
 10
52.03055118110236
 20
2.750838582677166
 30
0.0
 10
52.03079133858267
 20
2.751236220472441
 30
0.0
 10
52.03103149606299
 20
2.751629921259843
 30
0.0
 10
52.03127559055118
 20
2.752023622047244
 30
0.0
 10
52.03127559055118
 20
2.752023622047244
 30
0.0
 10
52.03151968503937
 20
2.75242125984252
 30
0.0
 10
52.03175984251968
 20
2.752814960629921
 30
0.0
 10
52.03200787401575
 20
2.753208661417323
 30
0.0
 10
52.03200787401575
 20
2.753208661417323
 30
0.0
 10
52.03225196850394
 20
2.75359842519685
 30
0.0
 10
52.03249606299212
 20
2.753992125984252
 30
0.0
 10
52.03274409448819
 20
2.754385826771653
 30
0.0
 10
52.03274409448819
 20
2.754385826771653
 30
0.0
 10
52.03299212598425
 20
2.754775590551181
 30
0.0
 10
52.03324015748031
 20
2.755165354330709
 30
0.0
 10
52.03348818897638
 20
2.755555118110236
 30
0.0
 10
52.03348818897638
 20
2.755555118110236
 30
0.0
 10
52.03373622047244
 20
2.755944881889764
 30
0.0
 10
52.0339842519685
 20
2.756334645669291
 30
0.0
 10
52.03423622047244
 20
2.756724409448819
 30
0.0
 10
52.03423622047244
 20
2.756724409448819
 30
0.0
 10
52.03448818897638
 20
2.757110236220472
 30
0.0
 10
52.03474015748031
 20
2.7575
 30
0.0
 10
52.03499212598425
 20
2.757885826771654
 30
0.0
 10
52.03499212598425
 20
2.757885826771654
 30
0.0
 10
52.03549606299212
 20
2.758657480314961
 30
0.0
 10
52.03600787401574
 20
2.759429133858268
 30
0.0
 10
52.03651968503937
 20
2.760192913385827
 30
0.0
 10
52.03651968503937
 20
2.760192913385827
 30
0.0
 10
52.03703149606299
 20
2.76096062992126
 30
0.0
 10
52.03755118110237
 20
2.761724409448819
 30
0.0
 10
52.03807086614173
 20
2.762484251968504
 30
0.0
 10
52.03807086614173
 20
2.762484251968504
 30
0.0
 10
52.0385905511811
 20
2.763244094488189
 30
0.0
 10
52.03911811023622
 20
2.764
 30
0.0
 10
52.03964566929134
 20
2.764751968503937
 30
0.0
 10
52.03964566929134
 20
2.764751968503937
 30
0.0
 10
52.04017322834645
 20
2.765503937007874
 30
0.0
 10
52.04070866141732
 20
2.766251968503937
 30
0.0
 10
52.04124409448819
 20
2.767
 30
0.0
 10
52.04124409448819
 20
2.767
 30
0.0
 10
52.04177952755906
 20
2.767744094488189
 30
0.0
 10
52.0423188976378
 20
2.768488188976378
 30
0.0
 10
52.04286220472441
 20
2.769228346456693
 30
0.0
 10
52.04286220472441
 20
2.769228346456693
 30
0.0
 10
52.04394881889764
 20
2.770704724409449
 30
0.0
 10
52.04505118110236
 20
2.772169291338582
 30
0.0
 10
52.04617322834645
 20
2.773622047244094
 30
0.0
 10
52.04617322834645
 20
2.773622047244094
 30
0.0
 10
52.04728740157481
 20
2.775070866141732
 30
0.0
 10
52.04842125984252
 20
2.776507874015748
 30
0.0
 10
52.04956692913386
 20
2.777933070866142
 30
0.0
 10
52.04956692913386
 20
2.777933070866142
 30
0.0
 10
52.0507125984252
 20
2.779354330708661
 30
0.0
 10
52.05187401574803
 20
2.780763779527559
 30
0.0
 10
52.05305118110236
 20
2.782161417322835
 30
0.0
 10
52.05305118110236
 20
2.782161417322835
 30
0.0
 10
52.0542283464567
 20
2.783555118110236
 30
0.0
 10
52.05541732283464
 20
2.784933070866142
 30
0.0
 10
52.0566220472441
 20
2.786303149606299
 30
0.0
 10
52.0566220472441
 20
2.786303149606299
 30
0.0
 10
52.05782283464567
 20
2.787665354330709
 30
0.0
 10
52.05903937007874
 20
2.78901968503937
 30
0.0
 10
52.06027165354331
 20
2.790358267716536
 30
0.0
 10
52.06027165354331
 20
2.790358267716536
 30
0.0
 10
52.06150393700787
 20
2.791692913385827
 30
0.0
 10
52.06274803149606
 20
2.793015748031496
 30
0.0
 10
52.06400787401575
 20
2.794326771653543
 30
0.0
 10
52.06400787401575
 20
2.794326771653543
 30
0.0
 10
52.06526377952756
 20
2.795633858267716
 30
0.0
 10
52.06653543307087
 20
2.796925196850394
 30
0.0
 10
52.06781889763779
 20
2.798208661417323
 30
0.0
 10
52.06781889763779
 20
2.798208661417323
 30
0.0
 10
52.07038582677166
 20
2.800759842519685
 30
0.0
 10
52.07300787401575
 20
2.803259842519685
 30
0.0
 10
52.0756811023622
 20
2.805700787401575
 30
0.0
 10
52.0756811023622
 20
2.805700787401575
 30
0.0
 10
52.07835039370079
 20
2.808133858267717
 30
0.0
 10
52.08107086614173
 20
2.810511811023622
 30
0.0
 10
52.08384251968504
 20
2.812826771653543
 30
0.0
 10
52.08384251968504
 20
2.812826771653543
 30
0.0
 10
52.08661023622047
 20
2.815141732283465
 30
0.0
 10
52.08942519685039
 20
2.817393700787401
 30
0.0
 10
52.09229133858268
 20
2.819586614173228
 30
0.0
 10
52.09229133858268
 20
2.819586614173228
 30
0.0
 10
52.09514960629921
 20
2.821775590551181
 30
0.0
 10
52.09805905511811
 20
2.82390157480315
 30
0.0
 10
52.10101181102362
 20
2.825964566929134
 30
0.0
 10
52.10101181102362
 20
2.825964566929134
 30
0.0
 10
52.10396062992126
 20
2.828023622047244
 30
0.0
 10
52.10695669291339
 20
2.830023622047244
 30
0.0
 10
52.10999212598425
 20
2.831952755905512
 30
0.0
 10
52.10999212598425
 20
2.831952755905512
 30
0.0
 10
52.11302755905512
 20
2.833885826771653
 30
0.0
 10
52.11610236220472
 20
2.835751968503937
 30
0.0
 10
52.11921653543307
 20
2.837551181102362
 30
0.0
 10
52.11921653543307
 20
2.837551181102362
 30
0.0
 10
52.12544881889764
 20
2.841145669291338
 30
0.0
 10
52.13183858267717
 20
2.844476377952756
 30
0.0
 10
52.13835433070866
 20
2.847523622047244
 30
0.0
 10
52.13835433070866
 20
2.847523622047244
 30
0.0
 10
52.14488582677166
 20
2.85057874015748
 30
0.0
 10
52.15154724409449
 20
2.853346456692913
 30
0.0
 10
52.15831496062992
 20
2.855826771653543
 30
0.0
 10
52.15831496062992
 20
2.855826771653543
 30
0.0
 10
52.1651062992126
 20
2.858311023622047
 30
0.0
 10
52.17200787401575
 20
2.8605
 30
0.0
 10
52.17898818897638
 20
2.862389763779527
 30
0.0
 10
52.17898818897638
 20
2.862389763779527
 30
0.0
 10
52.18600787401575
 20
2.864287401574803
 30
0.0
 10
52.19311023622047
 20
2.865877952755906
 30
0.0
 10
52.20026771653544
 20
2.86715748031496
 30
0.0
 10
52.20026771653544
 20
2.86715748031496
 30
0.0
 10
52.20748031496063
 20
2.868444881889764
 30
0.0
 10
52.21474803149606
 20
2.869413385826772
 30
0.0
 10
52.22204724409449
 20
2.87005905511811
 30
0.0
 10
52.22204724409449
 20
2.87005905511811
 30
0.0
 10
52.22941732283464
 20
2.870716535433071
 30
0.0
 10
52.2368188976378
 20
2.871043307086614
 30
0.0
 10
52.24421653543307
 20
2.871043307086614
 30
0.0
 10
52.24421653543307
 20
2.871043307086614
 30
0.0
 10
52.24421653543307
 20
2.871043307086614
 30
0.0
 10
52.49421653543307
 20
2.871043307086614
 30
0.0
 10
52.49421653543307
 20
2.871043307086614
 30
0.0
 10
52.49421653543307
 20
2.871043307086614
 30
0.0
 10
52.49421653543307
 20
2.871043307086614
 30
0.0
 10
52.49421653543307
 20
6.496090551181102
 30
0.0
 10
52.49421653543307
 20
6.496090551181102
 30
0.0
 10
52.49421653543307
 20
6.496090551181102
 30
0.0
 10
52.49421653543307
 20
6.496129921259842
 30
0.0
 10
52.49421653543307
 20
6.496149606299213
 30
0.0
 10
52.49421653543307
 20
6.496173228346457
 30
0.0
 10
52.49421653543307
 20
6.496173228346457
 30
0.0
 10
52.49421653543307
 20
6.496192913385827
 30
0.0
 10
52.49421653543307
 20
6.496216535433071
 30
0.0
 10
52.49421653543307
 20
6.496236220472441
 30
0.0
 10
52.49421653543307
 20
6.496236220472441
 30
0.0
 10
52.49421653543307
 20
6.496259842519685
 30
0.0
 10
52.49421653543307
 20
6.496279527559055
 30
0.0
 10
52.49421653543307
 20
6.496303149606299
 30
0.0
 10
52.49421653543307
 20
6.496303149606299
 30
0.0
 10
52.49421653543307
 20
6.496346456692914
 30
0.0
 10
52.49421653543307
 20
6.496389763779527
 30
0.0
 10
52.49421653543307
 20
6.496433070866142
 30
0.0
 10
52.49421653543307
 20
6.496433070866142
 30
0.0
 10
52.49421653543307
 20
6.496476377952756
 30
0.0
 10
52.49421653543307
 20
6.49651968503937
 30
0.0
 10
52.49422047244094
 20
6.496562992125984
 30
0.0
 10
52.49422047244094
 20
6.496562992125984
 30
0.0
 10
52.49422047244094
 20
6.496649606299212
 30
0.0
 10
52.49422047244094
 20
6.496732283464567
 30
0.0
 10
52.49422047244094
 20
6.496818897637795
 30
0.0
 10
52.49422047244094
 20
6.496818897637795
 30
0.0
 10
52.49422047244094
 20
6.496905511811024
 30
0.0
 10
52.49422047244094
 20
6.496992125984252
 30
0.0
 10
52.49422047244094
 20
6.49707874015748
 30
0.0
 10
52.49422047244094
 20
6.49707874015748
 30
0.0
 10
52.49422440944882
 20
6.497165354330709
 30
0.0
 10
52.49422440944882
 20
6.497251968503937
 30
0.0
 10
52.49422440944882
 20
6.497338582677165
 30
0.0
 10
52.49422440944882
 20
6.497338582677165
 30
0.0
 10
52.49422440944882
 20
6.497425196850394
 30
0.0
 10
52.49422834645669
 20
6.497511811023622
 30
0.0
 10
52.49422834645669
 20
6.49759842519685
 30
0.0
 10
52.49422834645669
 20
6.49759842519685
 30
0.0
 10
52.49422834645669
 20
6.497771653543307
 30
0.0
 10
52.49423228346457
 20
6.49794094488189
 30
0.0
 10
52.49423622047244
 20
6.498114173228347
 30
0.0
 10
52.49423622047244
 20
6.498114173228347
 30
0.0
 10
52.49424015748031
 20
6.498287401574803
 30
0.0
 10
52.49424015748031
 20
6.49846062992126
 30
0.0
 10
52.49424409448819
 20
6.498633858267716
 30
0.0
 10
52.49424409448819
 20
6.498633858267716
 30
0.0
 10
52.49424803149606
 20
6.498803149606299
 30
0.0
 10
52.49425196850394
 20
6.498976377952756
 30
0.0
 10
52.49425590551181
 20
6.499149606299213
 30
0.0
 10
52.49425590551181
 20
6.499149606299213
 30
0.0
 10
52.49426377952756
 20
6.499322834645669
 30
0.0
 10
52.49426771653543
 20
6.499492125984252
 30
0.0
 10
52.49427165354331
 20
6.499665354330709
 30
0.0
 10
52.49427165354331
 20
6.499665354330709
 30
0.0
 10
52.49427559055118
 20
6.499838582677166
 30
0.0
 10
52.49428346456693
 20
6.500011811023622
 30
0.0
 10
52.4942874015748
 20
6.500181102362204
 30
0.0
 10
52.4942874015748
 20
6.500181102362204
 30
0.0
 10
52.49429921259843
 20
6.500527559055118
 30
0.0
 10
52.49431102362205
 20
6.500870078740157
 30
0.0
 10
52.49432677165354
 20
6.501212598425197
 30
0.0
 10
52.49432677165354
 20
6.501212598425197
 30
0.0
 10
52.49434251968504
 20
6.50155905511811
 30
0.0
 10
52.49435826771654
 20
6.501901574803149
 30
0.0
 10
52.49437401574803
 20
6.502244094488189
 30
0.0
 10
52.49437401574803
 20
6.502244094488189
 30
0.0
 10
52.4943937007874
 20
6.502590551181102
 30
0.0
 10
52.4944094488189
 20
6.502933070866142
 30
0.0
 10
52.49442913385827
 20
6.503275590551181
 30
0.0
 10
52.49442913385827
 20
6.503275590551181
 30
0.0
 10
52.49445275590551
 20
6.50361811023622
 30
0.0
 10
52.49447244094488
 20
6.50396062992126
 30
0.0
 10
52.49449606299213
 20
6.504303149606299
 30
0.0
 10
52.49449606299213
 20
6.504303149606299
 30
0.0
 10
52.49453937007874
 20
6.504988188976378
 30
0.0
 10
52.4945905511811
 20
6.505673228346457
 30
0.0
 10
52.49464960629921
 20
6.506358267716536
 30
0.0
 10
52.49464960629921
 20
6.506358267716536
 30
0.0
 10
52.49470472440945
 20
6.50703937007874
 30
0.0
 10
52.49476771653543
 20
6.507724409448818
 30
0.0
 10
52.49483858267717
 20
6.508405511811024
 30
0.0
 10
52.49483858267717
 20
6.508405511811024
 30
0.0
 10
52.49490551181103
 20
6.509086614173229
 30
0.0
 10
52.49498031496063
 20
6.509767716535433
 30
0.0
 10
52.49505905511811
 20
6.510448818897638
 30
0.0
 10
52.49505905511811
 20
6.510448818897638
 30
0.0
 10
52.49513779527559
 20
6.511125984251969
 30
0.0
 10
52.49522047244095
 20
6.511807086614173
 30
0.0
 10
52.49531102362204
 20
6.512484251968504
 30
0.0
 10
52.49531102362204
 20
6.512484251968504
 30
0.0
 10
52.49540157480315
 20
6.513161417322834
 30
0.0
 10
52.4955
 20
6.513838582677165
 30
0.0
 10
52.49559842519685
 20
6.514511811023622
 30
0.0
 10
52.49559842519685
 20
6.514511811023622
 30
0.0
 10
52.49570078740157
 20
6.515188976377953
 30
0.0
 10
52.49580708661417
 20
6.515862204724409
 30
0.0
 10
52.49592125984252
 20
6.516535433070866
 30
0.0
 10
52.49592125984252
 20
6.516535433070866
 30
0.0
 10
52.49614566929134
 20
6.517881889763779
 30
0.0
 10
52.49638976377953
 20
6.519220472440945
 30
0.0
 10
52.49665748031496
 20
6.520559055118111
 30
0.0
 10
52.49665748031496
 20
6.520559055118111
 30
0.0
 10
52.49692519685039
 20
6.521893700787402
 30
0.0
 10
52.49721653543307
 20
6.523220472440945
 30
0.0
 10
52.49752755905511
 20
6.524547244094488
 30
0.0
 10
52.49752755905511
 20
6.524547244094488
 30
0.0
 10
52.49783858267717
 20
6.525870078740158
 30
0.0
 10
52.49816929133858
 20
6.527188976377952
 30
0.0
 10
52.49852362204724
 20
6.5285
 30
0.0
 10
52.49852362204724
 20
6.5285
 30
0.0
 10
52.4988779527559
 20
6.529814960629921
 30
0.0
 10
52.49925196850393
 20
6.53111811023622
 30
0.0
 10
52.49964566929134
 20
6.532417322834646
 30
0.0
 10
52.49964566929134
 20
6.532417322834646
 30
0.0
 10
52.50004330708661
 20
6.533716535433071
 30
0.0
 10
52.50046062992126
 20
6.535007874015748
 30
0.0
 10
52.50089763779528
 20
6.536291338582677
 30
0.0
 10
52.50089763779528
 20
6.536291338582677
 30
0.0
 10
52.50177165354331
 20
6.538858267716535
 30
0.0
 10
52.50272834645669
 20
6.541397637795275
 30
0.0
 10
52.50376771653544
 20
6.54390157480315
 30
0.0
 10
52.50376771653544
 20
6.54390157480315
 30
0.0
 10
52.50480708661417
 20
6.546409448818897
 30
0.0
 10
52.50592913385827
 20
6.54888188976378
 30
0.0
 10
52.50712992125984
 20
6.551311023622048
 30
0.0
 10
52.50712992125984
 20
6.551311023622048
 30
0.0
 10
52.50833070866142
 20
6.553748031496063
 30
0.0
 10
52.50961023622047
 20
6.556141732283464
 30
0.0
 10
52.51096850393701
 20
6.558496062992126
 30
0.0
 10
52.51096850393701
 20
6.558496062992126
 30
0.0
 10
52.51232677165354
 20
6.560850393700788
 30
0.0
 10
52.51376377952756
 20
6.563161417322835
 30
0.0
 10
52.51527559055118
 20
6.565425196850394
 30
0.0
 10
52.51527559055118
 20
6.565425196850394
 30
0.0
 10
52.51679133858268
 20
6.567692913385827
 30
0.0
 10
52.51838188976378
 20
6.569913385826772
 30
0.0
 10
52.52003937007874
 20
6.572078740157481
 30
0.0
 10
52.52003937007874
 20
6.572078740157481
 30
0.0
 10
52.52338582677165
 20
6.57644094488189
 30
0.0
 10
52.52701968503937
 20
6.580582677165355
 30
0.0
 10
52.53094094488189
 20
6.5845
 30
0.0
 10
52.53094094488189
 20
6.5845
 30
0.0
 10
52.53096850393701
 20
6.584527559055118
 30
0.0
 10
52.5309842519685
 20
6.58453937007874
 30
0.0
 10
52.53099606299212
 20
6.584555118110236
 30
0.0
 10
52.53099606299212
 20
6.584555118110236
 30
0.0
 10
52.53101181102362
 20
6.584570866141732
 30
0.0
 10
52.53102755905512
 20
6.584586614173229
 30
0.0
 10
52.53104330708661
 20
6.584602362204724
 30
0.0
 10
52.53104330708661
 20
6.584602362204724
 30
0.0
 10
52.53105905511811
 20
6.584618110236221
 30
0.0
 10
52.53107480314961
 20
6.584633858267717
 30
0.0
 10
52.5310905511811
 20
6.584645669291339
 30
0.0
 10
52.5310905511811
 20
6.584645669291339
 30
0.0
 10
52.5311220472441
 20
6.58467716535433
 30
0.0
 10
52.53114960629921
 20
6.584708661417323
 30
0.0
 10
52.5311811023622
 20
6.584740157480315
 30
0.0
 10
52.5311811023622
 20
6.584740157480315
 30
0.0
 10
52.5312125984252
 20
6.584767716535433
 30
0.0
 10
52.53124409448819
 20
6.584799212598425
 30
0.0
 10
52.53127559055118
 20
6.584830708661418
 30
0.0
 10
52.53127559055118
 20
6.584830708661418
 30
0.0
 10
52.53133464566929
 20
6.584889763779527
 30
0.0
 10
52.53139763779527
 20
6.584952755905512
 30
0.0
 10
52.53145669291339
 20
6.585011811023622
 30
0.0
 10
52.53145669291339
 20
6.585011811023622
 30
0.0
 10
52.53151968503937
 20
6.585070866141733
 30
0.0
 10
52.53158267716535
 20
6.585133858267716
 30
0.0
 10
52.53164173228347
 20
6.585192913385827
 30
0.0
 10
52.53164173228347
 20
6.585192913385827
 30
0.0
 10
52.53170472440945
 20
6.585255905511811
 30
0.0
 10
52.53176377952756
 20
6.585314960629921
 30
0.0
 10
52.53182677165354
 20
6.585374015748031
 30
0.0
 10
52.53182677165354
 20
6.585374015748031
 30
0.0
 10
52.53188976377952
 20
6.585437007874016
 30
0.0
 10
52.53194881889764
 20
6.585496062992126
 30
0.0
 10
52.53201181102362
 20
6.585555118110237
 30
0.0
 10
52.53201181102362
 20
6.585555118110237
 30
0.0
 10
52.53213779527559
 20
6.585677165354331
 30
0.0
 10
52.53225984251969
 20
6.585795275590551
 30
0.0
 10
52.53238582677165
 20
6.585917322834645
 30
0.0
 10
52.53238582677165
 20
6.585917322834645
 30
0.0
 10
52.53250787401575
 20
6.586035433070866
 30
0.0
 10
52.53263385826772
 20
6.58615748031496
 30
0.0
 10
52.53275590551181
 20
6.586275590551181
 30
0.0
 10
52.53275590551181
 20
6.586275590551181
 30
0.0
 10
52.53288188976378
 20
6.586393700787402
 30
0.0
 10
52.53300393700788
 20
6.586511811023622
 30
0.0
 10
52.53312992125984
 20
6.586633858267716
 30
0.0
 10
52.53312992125984
 20
6.586633858267716
 30
0.0
 10
52.53325590551181
 20
6.586751968503937
 30
0.0
 10
52.53338188976378
 20
6.586870078740158
 30
0.0
 10
52.53350787401575
 20
6.586988188976378
 30
0.0
 10
52.53350787401575
 20
6.586988188976378
 30
0.0
 10
52.53362992125984
 20
6.587106299212598
 30
0.0
 10
52.53375590551181
 20
6.587224409448819
 30
0.0
 10
52.53388188976378
 20
6.587342519685039
 30
0.0
 10
52.53388188976378
 20
6.587342519685039
 30
0.0
 10
52.53413385826772
 20
6.587574803149606
 30
0.0
 10
52.53438582677165
 20
6.587811023622047
 30
0.0
 10
52.53463779527559
 20
6.588043307086614
 30
0.0
 10
52.53463779527559
 20
6.588043307086614
 30
0.0
 10
52.5348937007874
 20
6.588275590551181
 30
0.0
 10
52.53514566929134
 20
6.588507874015748
 30
0.0
 10
52.53540157480315
 20
6.588740157480315
 30
0.0
 10
52.53540157480315
 20
6.588740157480315
 30
0.0
 10
52.53565748031496
 20
6.588968503937008
 30
0.0
 10
52.53591338582677
 20
6.589196850393701
 30
0.0
 10
52.53616929133858
 20
6.589425196850394
 30
0.0
 10
52.53616929133858
 20
6.589425196850394
 30
0.0
 10
52.5364251968504
 20
6.589653543307087
 30
0.0
 10
52.5366811023622
 20
6.589881889763779
 30
0.0
 10
52.53694094488189
 20
6.590110236220473
 30
0.0
 10
52.53694094488189
 20
6.590110236220473
 30
0.0
 10
52.53745669291339
 20
6.59055905511811
 30
0.0
 10
52.53797637795276
 20
6.591007874015748
 30
0.0
 10
52.5385
 20
6.591452755905512
 30
0.0
 10
52.5385
 20
6.591452755905512
 30
0.0
 10
52.53902362204725
 20
6.591893700787401
 30
0.0
 10
52.53955118110236
 20
6.592334645669292
 30
0.0
 10
52.54007874015748
 20
6.592767716535433
 30
0.0
 10
52.54007874015748
 20
6.592767716535433
 30
0.0
 10
52.54061023622047
 20
6.593200787401575
 30
0.0
 10
52.54114173228346
 20
6.593629921259843
 30
0.0
 10
52.54167716535433
 20
6.594055118110236
 30
0.0
 10
52.54167716535433
 20
6.594055118110236
 30
0.0
 10
52.54221259842519
 20
6.59448031496063
 30
0.0
 10
52.54275196850394
 20
6.594897637795276
 30
0.0
 10
52.54329527559055
 20
6.595314960629922
 30
0.0
 10
52.54329527559055
 20
6.595314960629922
 30
0.0
 10
52.54383464566929
 20
6.595728346456693
 30
0.0
 10
52.54438188976378
 20
6.596141732283464
 30
0.0
 10
52.54492913385827
 20
6.596547244094488
 30
0.0
 10
52.54492913385827
 20
6.596547244094488
 30
0.0
 10
52.54547637795275
 20
6.596952755905511
 30
0.0
 10
52.54602755905512
 20
6.597354330708662
 30
0.0
 10
52.54658267716535
 20
6.597748031496063
 30
0.0
 10
52.54658267716535
 20
6.597748031496063
 30
0.0
 10
52.54768897637796
 20
6.598543307086614
 30
0.0
 10
52.54881102362205
 20
6.599314960629921
 30
0.0
 10
52.54994094488189
 20
6.600070866141732
 30
0.0
 10
52.54994094488189
 20
6.600070866141732
 30
0.0
 10
52.55107086614174
 20
6.600826771653543
 30
0.0
 10
52.55221653543307
 20
6.601562992125984
 30
0.0
 10
52.55337007874016
 20
6.602279527559055
 30
0.0
 10
52.55337007874016
 20
6.602279527559055
 30
0.0
 10
52.55452362204724
 20
6.602996062992126
 30
0.0
 10
52.55568503937008
 20
6.603692913385827
 30
0.0
 10
52.55686220472441
 20
6.604370078740158
 30
0.0
 10
52.55686220472441
 20
6.604370078740158
 30
0.0
 10
52.55803543307086
 20
6.605047244094489
 30
0.0
 10
52.55922047244095
 20
6.605704724409449
 30
0.0
 10
52.56041732283465
 20
6.606346456692913
 30
0.0
 10
52.56041732283465
 20
6.606346456692913
 30
0.0
 10
52.56161023622047
 20
6.606984251968504
 30
0.0
 10
52.56281496062992
 20
6.607602362204724
 30
0.0
 10
52.564031496063
 20
6.608200787401575
 30
0.0
 10
52.564031496063
 20
6.608200787401575
 30
0.0
 10
52.56645669291338
 20
6.609397637795276
 30
0.0
 10
52.56892519685039
 20
6.610515748031496
 30
0.0
 10
52.57142519685039
 20
6.611551181102362
 30
0.0
 10
52.57142519685039
 20
6.611551181102362
 30
0.0
 10
52.5739251968504
 20
6.612586614173228
 30
0.0
 10
52.57645669291339
 20
6.613543307086614
 30
0.0
 10
52.57901968503937
 20
6.614413385826771
 30
0.0
 10
52.57901968503937
 20
6.614413385826771
 30
0.0
 10
52.58158267716536
 20
6.615287401574803
 30
0.0
 10
52.58417716535433
 20
6.616074803149607
 30
0.0
 10
52.58679527559055
 20
6.616779527559055
 30
0.0
 10
52.58679527559055
 20
6.616779527559055
 30
0.0
 10
52.58941732283465
 20
6.617484251968504
 30
0.0
 10
52.59206299212598
 20
6.618102362204724
 30
0.0
 10
52.59472440944882
 20
6.618633858267716
 30
0.0
 10
52.59472440944882
 20
6.618633858267716
 30
0.0
 10
52.59739763779528
 20
6.619165354330709
 30
0.0
 10
52.60008661417323
 20
6.619610236220472
 30
0.0
 10
52.6027874015748
 20
6.619968503937008
 30
0.0
 10
52.6027874015748
 20
6.619968503937008
 30
0.0
 10
52.60820078740157
 20
6.620685039370079
 30
0.0
 10
52.61366535433071
 20
6.621043307086614
 30
0.0
 10
52.6191220472441
 20
6.621043307086614
 30
0.0
  0
ENDSEC
  0
SECTION
  2
OBJECTS
  0
DICTIONARY
  5
C
330
0
100
AcDbDictionary
281
     1
  3
ACAD_DETAILVIEWSTYLE
350
B5
  3
ACAD_GROUP
350
D
  3
ACAD_LAYOUT
350
1A
  3
ACAD_MATERIAL
350
43
  3
ACAD_MLEADERSTYLE
350
6B
  3
ACAD_MLINESTYLE
350
17
  3
ACAD_PLOTSETTINGS
350
19
  3
ACAD_PLOTSTYLENAME
350
E
  3
ACAD_SCALELIST
350
47
  3
ACAD_SECTIONVIEWSTYLE
350
B6
  3
ACAD_TABLESTYLE
350
69
  3
ACAD_VISUALSTYLE
350
2A
  3
ACDB_RECOMPOSE_DATA
350
B2
  3
AcDbVariableDictionary
350
7A
  0
SUN
  5
6D
330
29
100
AcDbSun
 90
        1
290
     0
 63
     7
421
 16777215
 40
1.0
291
     1
 91
  2455826
 92
 54000000
292
     0
 70
     2
 71
   256
280
     1
  0
DICTIONARY
  5
B5
102
{ACAD_REACTORS
330
C
102
}
330
C
100
AcDbDictionary
281
     1
  0
DICTIONARY
  5
D
102
{ACAD_REACTORS
330
C
102
}
330
C
100
AcDbDictionary
281
     1
  0
DICTIONARY
  5
1A
102
{ACAD_REACTORS
330
C
102
}
330
C
100
AcDbDictionary
281
     1
  3
Layout1
350
1E
  3
Layout2
350
26
  3
Model
350
22
  0
DICTIONARY
  5
43
102
{ACAD_REACTORS
330
C
102
}
330
C
100
AcDbDictionary
281
     1
  3
ByBlock
350
45
  3
ByLayer
350
44
  3
Global
350
46
  0
DICTIONARY
  5
6B
102
{ACAD_REACTORS
330
C
102
}
330
C
100
AcDbDictionary
281
     1
  3
Standard
350
6C
  0
DICTIONARY
  5
17
102
{ACAD_REACTORS
330
C
102
}
330
C
100
AcDbDictionary
281
     1
  3
Standard
350
18
  0
DICTIONARY
  5
19
102
{ACAD_REACTORS
330
C
102
}
330
C
100
AcDbDictionary
281
     1
  0
ACDBDICTIONARYWDFLT
  5
E
102
{ACAD_REACTORS
330
C
102
}
330
C
100
AcDbDictionary
281
     1
  3
Normal
350
F
100
AcDbDictionaryWithDefault
340
F
  0
DICTIONARY
  5
47
102
{ACAD_REACTORS
330
C
102
}
330
C
100
AcDbDictionary
281
     1
  3
A0
350
48
  3
A1
350
49
  3
A2
350
4A
  3
A3
350
4B
  3
A4
350
4C
  3
A5
350
4D
  3
A6
350
4E
  3
A7
350
4F
  3
A8
350
50
  3
A9
350
51
  3
B0
350
52
  3
B1
350
53
  3
B2
350
54
  3
B3
350
55
  3
B4
350
56
  3
B5
350
57
  3
B6
350
58
  3
B7
350
59
  3
B8
350
5A
  3
B9
350
5B
  3
C0
350
5C
  3
C1
350
5D
  3
C2
350
5E
  3
C3
350
5F
  3
C4
350
60
  3
C5
350
61
  3
C6
350
62
  3
C7
350
63
  3
C8
350
64
  3
C9
350
65
  3
D0
350
66
  3
D1
350
67
  3
D2
350
68
  0
DICTIONARY
  5
B6
102
{ACAD_REACTORS
330
C
102
}
330
C
100
AcDbDictionary
281
     1
  0
DICTIONARY
  5
69
102
{ACAD_REACTORS
330
C
102
}
330
C
100
AcDbDictionary
281
     1
  3
Standard
350
6A
  0
DICTIONARY
  5
2A
102
{ACAD_REACTORS
330
C
102
}
330
C
100
AcDbDictionary
281
     1
  3
2dWireframe
350
2F
  3
Basic
350
32
  3
Brighten
350
36
  3
ColorChange
350
3A
  3
Conceptual
350
34
  3
Dim
350
35
  3
EdgeColorOff
350
3D
  3
Facepattern
350
39
  3
Flat
350
2B
  3
FlatWithEdges
350
2C
  3
Gouraud
350
2D
  3
GouraudWithEdges
350
2E
  3
Hidden
350
31
  3
JitterOff
350
3B
  3
Linepattern
350
38
  3
OverhangOff
350
3C
  3
Realistic
350
33
  3
Shaded
350
42
  3
Shaded with edges
350
41
  3
Shades of Gray
350
3E
  3
Sketchy
350
3F
  3
Thicken
350
37
  3
Wireframe
350
30
  3
X-Ray
350
40
  0
XRECORD
  5
B2
102
{ACAD_REACTORS
330
C
102
}
330
C
100
AcDbXrecord
280
     1
 90
        1
330
6A
  0
DICTIONARY
  5
7A
102
{ACAD_REACTORS
330
C
102
}
330
C
100
AcDbDictionary
281
     1
  3
CANNOSCALE
350
7B
  3
CMLEADERSTYLE
350
B4
  3
CTABLESTYLE
350
B3
  3
XCLIPFRAME
350
7C
  0
LAYOUT
  5
1E
102
{ACAD_REACTORS
330
1A
102
}
330
1A
100
AcDbPlotSettings
  1

  2
none_device
  4

  6

 40
0.0
 41
0.0
 42
0.0
 43
0.0
 44
0.0
 45
0.0
 46
0.0
 47
0.0
 48
0.0
 49
0.0
140
0.0
141
0.0
142
1.0
143
1.0
 70
   688
 72
     0
 73
     0
 74
     5
  7

 75
    16
 76
     0
 77
     2
 78
   300
147
1.0
148
0.0
149
0.0
100
AcDbLayout
  1
Layout1
 70
     1
 71
     1
 10
0.0
 20
0.0
 11
12.0
 21
9.0
 12
0.0
 22
0.0
 32
0.0
 14
1.000000000000000E+20
 24
1.000000000000000E+20
 34
1.000000000000000E+20
 15
-1.000000000000000E+20
 25
-1.000000000000000E+20
 35
-1.000000000000000E+20
146
0.0
 13
0.0
 23
0.0
 33
0.0
 16
1.0
 26
0.0
 36
0.0
 17
0.0
 27
1.0
 37
0.0
 76
     0
330
1B
  0
LAYOUT
  5
26
102
{ACAD_REACTORS
330
1A
102
}
330
1A
100
AcDbPlotSettings
  1

  2
none_device
  4

  6

 40
0.0
 41
0.0
 42
0.0
 43
0.0
 44
0.0
 45
0.0
 46
0.0
 47
0.0
 48
0.0
 49
0.0
140
0.0
141
0.0
142
1.0
143
1.0
 70
   688
 72
     0
 73
     0
 74
     5
  7

 75
    16
 76
     0
 77
     2
 78
   300
147
1.0
148
0.0
149
0.0
100
AcDbLayout
  1
Layout2
 70
     1
 71
     2
 10
0.0
 20
0.0
 11
0.0
 21
0.0
 12
0.0
 22
0.0
 32
0.0
 14
0.0
 24
0.0
 34
0.0
 15
0.0
 25
0.0
 35
0.0
146
0.0
 13
0.0
 23
0.0
 33
0.0
 16
1.0
 26
0.0
 36
0.0
 17
0.0
 27
1.0
 37
0.0
 76
     0
330
23
  0
LAYOUT
  5
22
102
{ACAD_REACTORS
330
1A
102
}
330
1A
100
AcDbPlotSettings
  1

  2
none_device
  4
Letter_(8.50_x_11.00_Inches)
  6

 40
6.35
 41
6.35
 42
6.35000508
 43
6.35000508
 44
215.9
 45
279.4
 46
0.0
 47
0.0
 48
0.0
 49
0.0
140
0.0
141
0.0
142
1.0
143
1.0
 70
  1712
 72
     0
 73
     0
 74
     0
  7

 75
     0
 76
     0
 77
     2
 78
   300
147
1.0
148
0.0
149
0.0
100
AcDbLayout
  1
Model
 70
     1
 71
     0
 10
0.0
 20
0.0
 11
12.0
 21
9.0
 12
0.0
 22
0.0
 32
0.0
 14
43.61771653543307
 24
-2.396196850393701
 34
0.0
 15
52.6206220472441
 25
7.606803149606299
 35
0.0
146
0.0
 13
0.0
 23
0.0
 33
0.0
 16
1.0
 26
0.0
 36
0.0
 17
0.0
 27
1.0
 37
0.0
 76
     0
330
1F
331
29
  0
MATERIAL
  5
45
102
{ACAD_REACTORS
330
43
102
}
330
43
100
AcDbMaterial
  1
ByBlock
 72
     1
 94
      127
  0
MATERIAL
  5
44
102
{ACAD_REACTORS
330
43
102
}
330
43
100
AcDbMaterial
  1
ByLayer
 72
     1
 94
      127
  0
MATERIAL
  5
46
102
{ACAD_REACTORS
330
43
102
}
330
43
100
AcDbMaterial
  1
Global
 72
     1
 94
      127
  0
MLEADERSTYLE
  5
6C
102
{ACAD_REACTORS
330
6B
102
}
102
{ACAD_XDICTIONARY
360
B0
102
}
330
6B
100
AcDbMLeaderStyle
170
     2
171
     1
172
     0
 90
        2
 40
0.0
 41
0.0
173
     1
 91
-1056964608
340
14
 92
       -2
290
     1
 42
0.09
291
     1
 43
0.36
  3
Standard
341
0
 44
0.18
300

342
11
174
     1
178
     6
175
     1
176
     0
 93
-1056964608
 45
0.18
292
     0
297
     0
 46
0.18
343
0
 94
-1056964608
 47
1.0
 49
1.0
140
1.0
293
     1
141
0.0
294
     1
177
     0
142
1.0
295
     0
296
     0
143
0.125
1001
ACAD_MLEADERVER
1070
     2
  0
MLINESTYLE
  5
18
102
{ACAD_REACTORS
330
17
102
}
330
17
100
AcDbMlineStyle
  2
Standard
 70
     0
  3

 62
   256
 51
90.0
 52
90.0
 71
     2
 49
0.5
 62
   256
  6
BYLAYER
 49
-0.5
 62
   256
  6
BYLAYER
  0
ACDBPLACEHOLDER
  5
F
102
{ACAD_REACTORS
330
E
102
}
330
E
  0
SCALE
  5
48
102
{ACAD_REACTORS
330
47
102
}
330
47
100
AcDbScale
 70
     0
300
1:1
140
1.0
141
1.0
290
     1
  0
SCALE
  5
49
102
{ACAD_REACTORS
330
47
102
}
330
47
100
AcDbScale
 70
     0
300
1:2
140
1.0
141
2.0
290
     0
  0
SCALE
  5
4A
102
{ACAD_REACTORS
330
47
102
}
330
47
100
AcDbScale
 70
     0
300
1:4
140
1.0
141
4.0
290
     0
  0
SCALE
  5
4B
102
{ACAD_REACTORS
330
47
102
}
330
47
100
AcDbScale
 70
     0
300
1:5
140
1.0
141
5.0
290
     0
  0
SCALE
  5
4C
102
{ACAD_REACTORS
330
47
102
}
330
47
100
AcDbScale
 70
     0
300
1:8
140
1.0
141
8.0
290
     0
  0
SCALE
  5
4D
102
{ACAD_REACTORS
330
47
102
}
330
47
100
AcDbScale
 70
     0
300
1:10
140
1.0
141
10.0
290
     0
  0
SCALE
  5
4E
102
{ACAD_REACTORS
330
47
102
}
330
47
100
AcDbScale
 70
     0
300
1:16
140
1.0
141
16.0
290
     0
  0
SCALE
  5
4F
102
{ACAD_REACTORS
330
47
102
}
330
47
100
AcDbScale
 70
     0
300
1:20
140
1.0
141
20.0
290
     0
  0
SCALE
  5
50
102
{ACAD_REACTORS
330
47
102
}
330
47
100
AcDbScale
 70
     0
300
1:30
140
1.0
141
30.0
290
     0
  0
SCALE
  5
51
102
{ACAD_REACTORS
330
47
102
}
330
47
100
AcDbScale
 70
     0
300
1:40
140
1.0
141
40.0
290
     0
  0
SCALE
  5
52
102
{ACAD_REACTORS
330
47
102
}
330
47
100
AcDbScale
 70
     0
300
1:50
140
1.0
141
50.0
290
     0
  0
SCALE
  5
53
102
{ACAD_REACTORS
330
47
102
}
330
47
100
AcDbScale
 70
     0
300
1:100
140
1.0
141
100.0
290
     0
  0
SCALE
  5
54
102
{ACAD_REACTORS
330
47
102
}
330
47
100
AcDbScale
 70
     0
300
2:1
140
2.0
141
1.0
290
     0
  0
SCALE
  5
55
102
{ACAD_REACTORS
330
47
102
}
330
47
100
AcDbScale
 70
     0
300
4:1
140
4.0
141
1.0
290
     0
  0
SCALE
  5
56
102
{ACAD_REACTORS
330
47
102
}
330
47
100
AcDbScale
 70
     0
300
8:1
140
8.0
141
1.0
290
     0
  0
SCALE
  5
57
102
{ACAD_REACTORS
330
47
102
}
330
47
100
AcDbScale
 70
     0
300
10:1
140
10.0
141
1.0
290
     0
  0
SCALE
  5
58
102
{ACAD_REACTORS
330
47
102
}
330
47
100
AcDbScale
 70
     0
300
100:1
140
100.0
141
1.0
290
     0
  0
SCALE
  5
59
102
{ACAD_REACTORS
330
47
102
}
330
47
100
AcDbScale
 70
     0
300
1/128" = 1'-0"
140
0.0078125
141
12.0
290
     0
  0
SCALE
  5
5A
102
{ACAD_REACTORS
330
47
102
}
330
47
100
AcDbScale
 70
     0
300
1/64" = 1'-0"
140
0.015625
141
12.0
290
     0
  0
SCALE
  5
5B
102
{ACAD_REACTORS
330
47
102
}
330
47
100
AcDbScale
 70
     0
300
1/32" = 1'-0"
140
0.03125
141
12.0
290
     0
  0
SCALE
  5
5C
102
{ACAD_REACTORS
330
47
102
}
330
47
100
AcDbScale
 70
     0
300
1/16" = 1'-0"
140
0.0625
141
12.0
290
     0
  0
SCALE
  5
5D
102
{ACAD_REACTORS
330
47
102
}
330
47
100
AcDbScale
 70
     0
300
3/32" = 1'-0"
140
0.09375
141
12.0
290
     0
  0
SCALE
  5
5E
102
{ACAD_REACTORS
330
47
102
}
330
47
100
AcDbScale
 70
     0
300
1/8" = 1'-0"
140
0.125
141
12.0
290
     0
  0
SCALE
  5
5F
102
{ACAD_REACTORS
330
47
102
}
330
47
100
AcDbScale
 70
     0
300
3/16" = 1'-0"
140
0.1875
141
12.0
290
     0
  0
SCALE
  5
60
102
{ACAD_REACTORS
330
47
102
}
330
47
100
AcDbScale
 70
     0
300
1/4" = 1'-0"
140
0.25
141
12.0
290
     0
  0
SCALE
  5
61
102
{ACAD_REACTORS
330
47
102
}
330
47
100
AcDbScale
 70
     0
300
3/8" = 1'-0"
140
0.375
141
12.0
290
     0
  0
SCALE
  5
62
102
{ACAD_REACTORS
330
47
102
}
330
47
100
AcDbScale
 70
     0
300
1/2" = 1'-0"
140
0.5
141
12.0
290
     0
  0
SCALE
  5
63
102
{ACAD_REACTORS
330
47
102
}
330
47
100
AcDbScale
 70
     0
300
3/4" = 1'-0"
140
0.75
141
12.0
290
     0
  0
SCALE
  5
64
102
{ACAD_REACTORS
330
47
102
}
330
47
100
AcDbScale
 70
     0
300
1" = 1'-0"
140
1.0
141
12.0
290
     0
  0
SCALE
  5
65
102
{ACAD_REACTORS
330
47
102
}
330
47
100
AcDbScale
 70
     0
300
1-1/2" = 1'-0"
140
1.5
141
12.0
290
     0
  0
SCALE
  5
66
102
{ACAD_REACTORS
330
47
102
}
330
47
100
AcDbScale
 70
     0
300
3" = 1'-0"
140
3.0
141
12.0
290
     0
  0
SCALE
  5
67
102
{ACAD_REACTORS
330
47
102
}
330
47
100
AcDbScale
 70
     0
300
6" = 1'-0"
140
6.0
141
12.0
290
     0
  0
SCALE
  5
68
102
{ACAD_REACTORS
330
47
102
}
330
47
100
AcDbScale
 70
     0
300
1'-0" = 1'-0"
140
12.0
141
12.0
290
     0
  0
TABLESTYLE
  5
6A
102
{ACAD_REACTORS
330
69
102
}
102
{ACAD_XDICTIONARY
360
AD
102
}
330
69
100
AcDbTableStyle
  3
Standard
 70
     0
 71
     0
 40
0.06
 41
0.06
280
     0
281
     0
  7
Standard
140
0.18
170
     2
 62
     0
 63
   257
283
     0
 90
        4
 91
        0
  1

274
    -2
284
     1
 64
     0
275
    -2
285
     1
 65
     0
276
    -2
286
     1
 66
     0
277
    -2
287
     1
 67
     0
278
    -2
288
     1
 68
     0
279
    -2
289
     1
 69
     0
  7
Standard
140
0.25
170
     5
 62
     0
 63
   257
283
     0
 90
        4
 91
        0
  1

274
    -2
284
     1
 64
     0
275
    -2
285
     1
 65
     0
276
    -2
286
     1
 66
     0
277
    -2
287
     1
 67
     0
278
    -2
288
     1
 68
     0
279
    -2
289
     1
 69
     0
  7
Standard
140
0.18
170
     5
 62
     0
 63
   257
283
     0
 90
        4
 91
        0
  1

274
    -2
284
     1
 64
     0
275
    -2
285
     1
 65
     0
276
    -2
286
     1
 66
     0
277
    -2
287
     1
 67
     0
278
    -2
288
     1
 68
     0
279
    -2
289
     1
 69
     0
  0
VISUALSTYLE
  5
2F
102
{ACAD_REACTORS
330
2A
102
}
102
{ACAD_XDICTIONARY
360
85
102
}
330
2A
100
AcDbVisualStyle
  2
2dWireframe
 70
     4
 71
     0
 72
     2
 73
     0
 90
        0
 40
0.6
 41
30.0
 62
     5
 63
     7
421
 16777215
 74
     1
 91
        4
 64
     7
 65
   257
 75
     1
175
     1
 42
1.0
 92
        0
 66
   257
 43
1.0
 76
     1
 77
     6
 78
     2
 67
     7
 79
     5
170
     0
171
     0
290
     0
174
     0
 93
        1
 44
0.0
173
     0
291
     0
 45
0.0
  0
VISUALSTYLE
  5
32
102
{ACAD_REACTORS
330
2A
102
}
102
{ACAD_XDICTIONARY
360
8B
102
}
330
2A
100
AcDbVisualStyle
  2
Basic
 70
     7
 71
     1
 72
     0
 73
     1
 90
        0
 40
0.6
 41
30.0
 62
     5
 63
     7
421
 16777215
 74
     0
 91
        4
 64
     7
 65
   257
 75
     1
175
     1
 42
1.0
 92
        8
 66
     7
 43
1.0
 76
     1
 77
     6
 78
     2
 67
     7
 79
     5
170
     0
171
     0
290
     0
174
     0
 93
        1
 44
0.0
173
     0
291
     1
 45
0.0
  0
VISUALSTYLE
  5
36
102
{ACAD_REACTORS
330
2A
102
}
102
{ACAD_XDICTIONARY
360
93
102
}
330
2A
100
AcDbVisualStyle
  2
Brighten
 70
    12
 71
     2
 72
     2
 73
     0
 90
        0
 40
0.6
 41
30.0
 62
     5
 63
     7
421
 16777215
 74
     1
 91
        4
 64
     7
 65
   257
 75
     1
175
     1
 42
1.0
 92
        8
 66
     7
 43
1.0
 76
     1
 77
     6
 78
     2
 67
     7
 79
     5
170
     0
171
     0
290
     0
174
     0
 93
        1
 44
50.0
173
     0
291
     1
 45
0.0
  0
VISUALSTYLE
  5
3A
102
{ACAD_REACTORS
330
2A
102
}
102
{ACAD_XDICTIONARY
360
9B
102
}
330
2A
100
AcDbVisualStyle
  2
ColorChange
 70
    16
 71
     2
 72
     2
 73
     3
 90
        0
 40
0.6
 41
30.0
 62
     5
 63
     8
421
  8421504
 74
     1
 91
        4
 64
     7
 65
   257
 75
     1
175
     1
 42
1.0
 92
        8
 66
     8
424
  8421504
 43
1.0
 76
     1
 77
     6
 78
     2
 67
     7
 79
     5
170
     0
171
     0
290
     0
174
     0
 93
        1
 44
0.0
173
     0
291
     1
 45
0.0
  0
VISUALSTYLE
  5
34
102
{ACAD_REACTORS
330
2A
102
}
102
{ACAD_XDICTIONARY
360
8F
102
}
330
2A
100
AcDbVisualStyle
  2
Conceptual
 70
     9
 71
     3
 72
     2
 73
     0
 90
        0
 40
0.6
 41
30.0
 62
     5
 63
     7
421
 16777215
 74
     2
 91
        2
 64
     7
 65
   257
 75
     1
175
     1
 42
179.0
 92
        8
 66
     7
 43
1.0
 76
     1
 77
     6
 78
     2
 67
     7
 79
     3
170
     0
171
     0
290
     0
174
     0
 93
        1
 44
0.0
173
     0
291
     0
 45
0.0
  0
VISUALSTYLE
  5
35
102
{ACAD_REACTORS
330
2A
102
}
102
{ACAD_XDICTIONARY
360
91
102
}
330
2A
100
AcDbVisualStyle
  2
Dim
 70
    11
 71
     2
 72
     2
 73
     0
 90
        0
 40
0.6
 41
30.0
 62
     5
 63
     7
421
 16777215
 74
     1
 91
        4
 64
     7
 65
   257
 75
     1
175
     1
 42
1.0
 92
        8
 66
     7
 43
1.0
 76
     1
 77
     6
 78
     2
 67
     7
 79
     5
170
     0
171
     0
290
     0
174
     0
 93
        1
 44
-50.0
173
     0
291
     1
 45
0.0
  0
VISUALSTYLE
  5
3D
102
{ACAD_REACTORS
330
2A
102
}
102
{ACAD_XDICTIONARY
360
A1
102
}
330
2A
100
AcDbVisualStyle
  2
EdgeColorOff
 70
    22
 71
     2
 72
     2
 73
     0
 90
        0
 40
0.6
 41
30.0
 62
     5
 63
     7
421
 16777215
 74
     1
 91
        4
 64
     7
 65
   257
 75
     1
175
     1
 42
1.0
 92
        8
 66
     7
 43
1.0
 76
     1
 77
     6
 78
     2
 67
     7
 79
     5
170
     0
171
     0
290
     0
174
     0
 93
        1
 44
0.0
173
     0
291
     1
 45
0.0
  0
VISUALSTYLE
  5
39
102
{ACAD_REACTORS
330
2A
102
}
102
{ACAD_XDICTIONARY
360
99
102
}
330
2A
100
AcDbVisualStyle
  2
Facepattern
 70
    15
 71
     2
 72
     2
 73
     0
 90
        0
 40
0.6
 41
30.0
 62
     5
 63
     7
421
 16777215
 74
     1
 91
        4
 64
     7
 65
   257
 75
     1
175
     1
 42
1.0
 92
        8
 66
     7
 43
1.0
 76
     1
 77
     6
 78
     2
 67
     7
 79
     5
170
     0
171
     0
290
     0
174
     0
 93
        1
 44
0.0
173
     0
291
     1
 45
0.0
  0
VISUALSTYLE
  5
2B
102
{ACAD_REACTORS
330
2A
102
}
102
{ACAD_XDICTIONARY
360
7D
102
}
330
2A
100
AcDbVisualStyle
  2
Flat
 70
     0
 71
     2
 72
     1
 73
     1
 90
        2
 40
0.6
 41
30.0
 62
     5
 63
     7
421
 16777215
 74
     0
 91
        0
 64
     7
 65
   257
 75
     1
175
     1
 42
1.0
 92
        8
 66
     7
 43
1.0
 76
     1
 77
     6
 78
     2
 67
     7
 79
     5
170
     0
171
     0
290
     0
174
     0
 93
       13
 44
0.0
173
     0
291
     1
 45
0.0
  0
VISUALSTYLE
  5
2C
102
{ACAD_REACTORS
330
2A
102
}
102
{ACAD_XDICTIONARY
360
7F
102
}
330
2A
100
AcDbVisualStyle
  2
FlatWithEdges
 70
     1
 71
     2
 72
     1
 73
     1
 90
        2
 40
0.6
 41
30.0
 62
     5
 63
     7
421
 16777215
 74
     1
 91
        0
 64
     7
 65
   257
 75
     1
175
     1
 42
1.0
 92
        0
 66
   257
 43
1.0
 76
     1
 77
     6
 78
     2
 67
     7
 79
     5
170
     0
171
     0
290
     0
174
     0
 93
       13
 44
0.0
173
     0
291
     1
 45
0.0
  0
VISUALSTYLE
  5
2D
102
{ACAD_REACTORS
330
2A
102
}
102
{ACAD_XDICTIONARY
360
81
102
}
330
2A
100
AcDbVisualStyle
  2
Gouraud
 70
     2
 71
     2
 72
     2
 73
     1
 90
        2
 40
0.6
 41
30.0
 62
     5
 63
     7
421
 16777215
 74
     0
 91
        0
 64
     7
 65
   257
 75
     1
175
     1
 42
1.0
 92
        0
 66
     7
 43
1.0
 76
     1
 77
     6
 78
     2
 67
     7
 79
     5
170
     0
171
     0
290
     0
174
     0
 93
       13
 44
0.0
173
     0
291
     1
 45
0.0
  0
VISUALSTYLE
  5
2E
102
{ACAD_REACTORS
330
2A
102
}
102
{ACAD_XDICTIONARY
360
83
102
}
330
2A
100
AcDbVisualStyle
  2
GouraudWithEdges
 70
     3
 71
     2
 72
     2
 73
     1
 90
        2
 40
0.6
 41
30.0
 62
     5
 63
     7
421
 16777215
 74
     1
 91
        0
 64
     7
 65
   257
 75
     1
175
     1
 42
1.0
 92
        0
 66
   257
 43
1.0
 76
     1
 77
     6
 78
     2
 67
     7
 79
     5
170
     0
171
     0
290
     0
174
     0
 93
       13
 44
0.0
173
     0
291
     1
 45
0.0
  0
VISUALSTYLE
  5
31
102
{ACAD_REACTORS
330
2A
102
}
102
{ACAD_XDICTIONARY
360
89
102
}
330
2A
100
AcDbVisualStyle
  2
Hidden
 70
     6
 71
     1
 72
     2
 73
     2
 90
        0
 40
0.6
 41
30.0
 62
     5
 63
     7
421
 16777215
 74
     2
 91
        2
 64
     7
 65
   257
 75
     2
175
     1
 42
40.0
 92
        0
 66
   257
 43
1.0
 76
     1
 77
     6
 78
     2
 67
     7
 79
     3
170
     0
171
     0
290
     0
174
     0
 93
        1
 44
0.0
173
     0
291
     0
 45
0.0
  0
VISUALSTYLE
  5
3B
102
{ACAD_REACTORS
330
2A
102
}
102
{ACAD_XDICTIONARY
360
9D
102
}
330
2A
100
AcDbVisualStyle
  2
JitterOff
 70
    20
 71
     2
 72
     2
 73
     0
 90
        0
 40
0.6
 41
30.0
 62
     5
 63
     7
421
 16777215
 74
     1
 91
        4
 64
     7
 65
   257
 75
     1
175
     1
 42
1.0
 92
       10
 66
     7
 43
1.0
 76
     1
 77
     6
 78
     2
 67
     7
 79
     5
170
     0
171
     0
290
     0
174
     0
 93
        1
 44
0.0
173
     0
291
     1
 45
0.0
  0
VISUALSTYLE
  5
38
102
{ACAD_REACTORS
330
2A
102
}
102
{ACAD_XDICTIONARY
360
97
102
}
330
2A
100
AcDbVisualStyle
  2
Linepattern
 70
    14
 71
     2
 72
     2
 73
     0
 90
        0
 40
0.6
 41
30.0
 62
     5
 63
     7
421
 16777215
 74
     1
 91
        4
 64
     7
 65
   257
 75
     7
175
     7
 42
1.0
 92
        8
 66
     7
 43
1.0
 76
     1
 77
     6
 78
     2
 67
     7
 79
     5
170
     0
171
     0
290
     0
174
     0
 93
        1
 44
0.0
173
     0
291
     1
 45
0.0
  0
VISUALSTYLE
  5
3C
102
{ACAD_REACTORS
330
2A
102
}
102
{ACAD_XDICTIONARY
360
9F
102
}
330
2A
100
AcDbVisualStyle
  2
OverhangOff
 70
    21
 71
     2
 72
     2
 73
     0
 90
        0
 40
0.6
 41
30.0
 62
     5
 63
     7
421
 16777215
 74
     1
 91
        4
 64
     7
 65
   257
 75
     1
175
     1
 42
1.0
 92
        9
 66
     7
 43
1.0
 76
     1
 77
     6
 78
     2
 67
     7
 79
     5
170
     0
171
     0
290
     0
174
     0
 93
        1
 44
0.0
173
     0
291
     1
 45
0.0
  0
VISUALSTYLE
  5
33
102
{ACAD_REACTORS
330
2A
102
}
102
{ACAD_XDICTIONARY
360
8D
102
}
330
2A
100
AcDbVisualStyle
  2
Realistic
 70
     8
 71
     2
 72
     3
 73
     0
 90
        2
 40
0.6
 41
30.0
 62
     5
 63
     7
421
 16777215
 74
     0
 91
        0
 64
     7
 65
   257
 75
     1
175
     1
 42
1.0
 92
        8
 66
   257
 43
1.0
 76
     1
 77
     6
 78
     2
 67
     7
 79
     3
170
     0
171
     0
290
     0
174
     0
 93
       13
 44
0.0
173
     0
291
     0
 45
0.0
  0
VISUALSTYLE
  5
42
102
{ACAD_REACTORS
330
2A
102
}
102
{ACAD_XDICTIONARY
360
AB
102
}
330
2A
100
AcDbVisualStyle
  2
Shaded
 70
    27
 71
     2
 72
     2
 73
     1
 90
        2
 40
0.6
 41
30.0
 62
     5
 63
     7
421
 16777215
 74
     0
 91
        4
 64
     7
 65
   257
 75
     1
175
     1
 42
1.0
 92
        8
 66
   257
 43
1.0
 76
     1
 77
     6
 78
     2
 67
     8
425
  7895160
 79
     3
170
     0
171
     0
290
     0
174
     0
 93
        5
 44
0.0
173
     0
291
     0
 45
0.0
  0
VISUALSTYLE
  5
41
102
{ACAD_REACTORS
330
2A
102
}
102
{ACAD_XDICTIONARY
360
A9
102
}
330
2A
100
AcDbVisualStyle
  2
Shaded with edges
 70
    26
 71
     2
 72
     2
 73
     1
 90
        2
 40
0.6
 41
30.0
 62
     5
 63
     7
421
 16777215
 74
     1
 91
       10
 64
     7
 65
   257
 75
     2
175
     1
 42
1.0
 92
        8
 66
   257
 43
1.0
 76
     1
 77
     6
 78
     2
 67
     7
 79
     3
170
     0
171
     0
290
     0
174
     0
 93
        5
 44
0.0
173
     0
291
     0
 45
0.0
  0
VISUALSTYLE
  5
3E
102
{ACAD_REACTORS
330
2A
102
}
102
{ACAD_XDICTIONARY
360
A3
102
}
330
2A
100
AcDbVisualStyle
  2
Shades of Gray
 70
    23
 71
     2
 72
     2
 73
     3
 90
        0
 40
0.6
 41
30.0
 62
     5
 63
     7
421
 16777215
 74
     2
 91
        2
 64
     7
 65
     7
 75
     1
175
     1
 42
40.0
 92
        8
 66
     7
 43
1.0
 76
     1
 77
     6
 78
     2
 67
     7
 79
     3
170
     0
171
     0
290
     0
174
     0
 93
        1
 44
0.0
173
     0
291
     0
 45
0.0
  0
VISUALSTYLE
  5
3F
102
{ACAD_REACTORS
330
2A
102
}
102
{ACAD_XDICTIONARY
360
A5
102
}
330
2A
100
AcDbVisualStyle
  2
Sketchy
 70
    24
 71
     1
 72
     2
 73
     2
 90
        0
 40
0.6
 41
30.0
 62
     5
 63
     7
421
 16777215
 74
     2
 91
        2
 64
     7
 65
     7
 75
     1
175
     1
 42
40.0
 92
       11
 66
     7
 43
1.0
 76
     1
 77
     6
 78
     2
 67
     7
 79
     6
170
     0
171
     0
290
     0
174
     0
 93
        1
 44
0.0
173
     0
291
     0
 45
0.0
  0
VISUALSTYLE
  5
37
102
{ACAD_REACTORS
330
2A
102
}
102
{ACAD_XDICTIONARY
360
95
102
}
330
2A
100
AcDbVisualStyle
  2
Thicken
 70
    13
 71
     2
 72
     2
 73
     0
 90
        0
 40
0.6
 41
30.0
 62
     5
 63
     7
421
 16777215
 74
     1
 91
        4
 64
     7
 65
   257
 75
     1
175
     1
 42
1.0
 92
       12
 66
     7
 43
1.0
 76
     1
 77
     6
 78
     2
 67
     7
 79
     5
170
     0
171
     0
290
     0
174
     0
 93
        1
 44
0.0
173
     0
291
     1
 45
0.0
  0
VISUALSTYLE
  5
30
102
{ACAD_REACTORS
330
2A
102
}
102
{ACAD_XDICTIONARY
360
87
102
}
330
2A
100
AcDbVisualStyle
  2
Wireframe
 70
     5
 71
     0
 72
     2
 73
     0
 90
        0
 40
0.6
 41
30.0
 62
     5
 63
     7
421
 16777215
 74
     1
 91
        4
 64
     7
 65
   257
 75
     1
175
     1
 42
1.0
 92
        0
 66
   257
 43
1.0
 76
     1
 77
     6
 78
     2
 67
     7
 79
     3
170
     0
171
     0
290
     0
174
     0
 93
        1
 44
0.0
173
     0
291
     0
 45
0.0
  0
VISUALSTYLE
  5
40
102
{ACAD_REACTORS
330
2A
102
}
102
{ACAD_XDICTIONARY
360
A7
102
}
330
2A
100
AcDbVisualStyle
  2
X-Ray
 70
    25
 71
     2
 72
     2
 73
     1
 90
        1
 40
0.5
 41
30.0
 62
     5
 63
     7
421
 16777215
 74
     1
 91
        0
 64
     7
 65
   257
 75
     1
175
     1
 42
1.0
 92
        8
 66
     7
 43
1.0
 76
     1
 77
     6
 78
     2
 67
     7
 79
     3
170
     0
171
     0
290
     0
174
     0
 93
       13
 44
0.0
173
     0
291
     0
 45
0.0
  0
DICTIONARYVAR
  5
7B
102
{ACAD_REACTORS
330
7A
102
}
330
7A
100
DictionaryVariables
280
     0
  1
1:1
  0
DICTIONARYVAR
  5
B4
102
{ACAD_REACTORS
330
7A
102
}
330
7A
100
DictionaryVariables
280
     0
  1
Standard
  0
DICTIONARYVAR
  5
B3
102
{ACAD_REACTORS
330
7A
102
}
330
7A
100
DictionaryVariables
280
     0
  1
Standard
  0
DICTIONARYVAR
  5
7C
102
{ACAD_REACTORS
330
7A
102
}
330
7A
100
DictionaryVariables
280
     0
  1
2
  0
DICTIONARY
  5
B0
330
6C
100
AcDbDictionary
280
     1
281
     1
  3
ACAD_XREC_ROUNDTRIP
360
B1
  0
DICTIONARY
  5
AD
330
6A
100
AcDbDictionary
280
     1
281
     1
  3
ACAD_ROUNDTRIP_2008_TABLESTYLE_CELLSTYLEMAP
360
AE
  0
DICTIONARY
  5
85
330
2F
100
AcDbDictionary
280
     1
281
     1
  3
ACAD_XREC_ROUNDTRIP
360
86
  0
DICTIONARY
  5
8B
330
32
100
AcDbDictionary
280
     1
281
     1
  3
ACAD_XREC_ROUNDTRIP
360
8C
  0
DICTIONARY
  5
93
330
36
100
AcDbDictionary
280
     1
281
     1
  3
ACAD_XREC_ROUNDTRIP
360
94
  0
DICTIONARY
  5
9B
330
3A
100
AcDbDictionary
280
     1
281
     1
  3
ACAD_XREC_ROUNDTRIP
360
9C
  0
DICTIONARY
  5
8F
330
34
100
AcDbDictionary
280
     1
281
     1
  3
ACAD_XREC_ROUNDTRIP
360
90
  0
DICTIONARY
  5
91
330
35
100
AcDbDictionary
280
     1
281
     1
  3
ACAD_XREC_ROUNDTRIP
360
92
  0
DICTIONARY
  5
A1
330
3D
100
AcDbDictionary
280
     1
281
     1
  3
ACAD_XREC_ROUNDTRIP
360
A2
  0
DICTIONARY
  5
99
330
39
100
AcDbDictionary
280
     1
281
     1
  3
ACAD_XREC_ROUNDTRIP
360
9A
  0
DICTIONARY
  5
7D
330
2B
100
AcDbDictionary
280
     1
281
     1
  3
ACAD_XREC_ROUNDTRIP
360
7E
  0
DICTIONARY
  5
7F
330
2C
100
AcDbDictionary
280
     1
281
     1
  3
ACAD_XREC_ROUNDTRIP
360
80
  0
DICTIONARY
  5
81
330
2D
100
AcDbDictionary
280
     1
281
     1
  3
ACAD_XREC_ROUNDTRIP
360
82
  0
DICTIONARY
  5
83
330
2E
100
AcDbDictionary
280
     1
281
     1
  3
ACAD_XREC_ROUNDTRIP
360
84
  0
DICTIONARY
  5
89
330
31
100
AcDbDictionary
280
     1
281
     1
  3
ACAD_XREC_ROUNDTRIP
360
8A
  0
DICTIONARY
  5
9D
330
3B
100
AcDbDictionary
280
     1
281
     1
  3
ACAD_XREC_ROUNDTRIP
360
9E
  0
DICTIONARY
  5
97
330
38
100
AcDbDictionary
280
     1
281
     1
  3
ACAD_XREC_ROUNDTRIP
360
98
  0
DICTIONARY
  5
9F
330
3C
100
AcDbDictionary
280
     1
281
     1
  3
ACAD_XREC_ROUNDTRIP
360
A0
  0
DICTIONARY
  5
8D
330
33
100
AcDbDictionary
280
     1
281
     1
  3
ACAD_XREC_ROUNDTRIP
360
8E
  0
DICTIONARY
  5
AB
330
42
100
AcDbDictionary
280
     1
281
     1
  3
ACAD_XREC_ROUNDTRIP
360
AC
  0
DICTIONARY
  5
A9
330
41
100
AcDbDictionary
280
     1
281
     1
  3
ACAD_XREC_ROUNDTRIP
360
AA
  0
DICTIONARY
  5
A3
330
3E
100
AcDbDictionary
280
     1
281
     1
  3
ACAD_XREC_ROUNDTRIP
360
A4
  0
DICTIONARY
  5
A5
330
3F
100
AcDbDictionary
280
     1
281
     1
  3
ACAD_XREC_ROUNDTRIP
360
A6
  0
DICTIONARY
  5
95
330
37
100
AcDbDictionary
280
     1
281
     1
  3
ACAD_XREC_ROUNDTRIP
360
96
  0
DICTIONARY
  5
87
330
30
100
AcDbDictionary
280
     1
281
     1
  3
ACAD_XREC_ROUNDTRIP
360
88
  0
DICTIONARY
  5
A7
330
40
100
AcDbDictionary
280
     1
281
     1
  3
ACAD_XREC_ROUNDTRIP
360
A8
  0
XRECORD
  5
B1
102
{ACAD_REACTORS
330
B0
102
}
330
B0
100
AcDbXrecord
280
     1
102
ACAD_ROUNDTRIP_2010_MLEADER_STYLE
  0
CELLSTYLEMAP
  5
AE
102
{ACAD_REACTORS
330
AD
102
}
330
AD
100
AcDbCellStyleMap
 90
        3
300
CELLSTYLE
  1
TABLEFORMAT_BEGIN
 90
        5
170
     1
 91
        0
 92
    32768
 62
   257
 93
        1
300
CONTENTFORMAT
  1
CONTENTFORMAT_BEGIN
 90
        0
 91
        0
 92
        4
 93
        0
300

 40
0.0
140
1.0
 94
        5
 62
     0
340
11
144
0.25
309
CONTENTFORMAT_END
171
     1
301
MARGIN
  1
CELLMARGIN_BEGIN
 40
0.06
 40
0.06
 40
0.06
 40
0.06
 40
0.06
 40
0.06
309
CELLMARGIN_END
 94
        6
 95
        1
302
GRIDFORMAT
  1
GRIDFORMAT_BEGIN
 90
        0
 91
        1
 62
     0
 92
       -2
340
14
 93
        0
 40
0.045
309
GRIDFORMAT_END
 95
        2
302
GRIDFORMAT
  1
GRIDFORMAT_BEGIN
 90
        0
 91
        1
 62
     0
 92
       -2
340
14
 93
        0
 40
0.045
309
GRIDFORMAT_END
 95
        4
302
GRIDFORMAT
  1
GRIDFORMAT_BEGIN
 90
        0
 91
        1
 62
     0
 92
       -2
340
14
 93
        0
 40
0.045
309
GRIDFORMAT_END
 95
        8
302
GRIDFORMAT
  1
GRIDFORMAT_BEGIN
 90
        0
 91
        1
 62
     0
 92
       -2
340
14
 93
        0
 40
0.045
309
GRIDFORMAT_END
 95
       16
302
GRIDFORMAT
  1
GRIDFORMAT_BEGIN
 90
        0
 91
        1
 62
     0
 92
       -2
340
14
 93
        0
 40
0.045
309
GRIDFORMAT_END
 95
       32
302
GRIDFORMAT
  1
GRIDFORMAT_BEGIN
 90
        0
 91
        1
 62
     0
 92
       -2
340
14
 93
        0
 40
0.045
309
GRIDFORMAT_END
309
TABLEFORMAT_END
  1
CELLSTYLE_BEGIN
 90
        1
 91
        1
300
_TITLE
309
CELLSTYLE_END
300
CELLSTYLE
  1
TABLEFORMAT_BEGIN
 90
        5
170
     1
 91
        0
 92
        0
 62
   257
 93
        1
300
CONTENTFORMAT
  1
CONTENTFORMAT_BEGIN
 90
        0
 91
        0
 92
        4
 93
        0
300

 40
0.0
140
1.0
 94
        5
 62
     0
340
11
144
0.18
309
CONTENTFORMAT_END
171
     1
301
MARGIN
  1
CELLMARGIN_BEGIN
 40
0.06
 40
0.06
 40
0.06
 40
0.06
 40
0.06
 40
0.06
309
CELLMARGIN_END
 94
        6
 95
        1
302
GRIDFORMAT
  1
GRIDFORMAT_BEGIN
 90
        0
 91
        1
 62
     0
 92
       -2
340
14
 93
        0
 40
0.045
309
GRIDFORMAT_END
 95
        2
302
GRIDFORMAT
  1
GRIDFORMAT_BEGIN
 90
        0
 91
        1
 62
     0
 92
       -2
340
14
 93
        0
 40
0.045
309
GRIDFORMAT_END
 95
        4
302
GRIDFORMAT
  1
GRIDFORMAT_BEGIN
 90
        0
 91
        1
 62
     0
 92
       -2
340
14
 93
        0
 40
0.045
309
GRIDFORMAT_END
 95
        8
302
GRIDFORMAT
  1
GRIDFORMAT_BEGIN
 90
        0
 91
        1
 62
     0
 92
       -2
340
14
 93
        0
 40
0.045
309
GRIDFORMAT_END
 95
       16
302
GRIDFORMAT
  1
GRIDFORMAT_BEGIN
 90
        0
 91
        1
 62
     0
 92
       -2
340
14
 93
        0
 40
0.045
309
GRIDFORMAT_END
 95
       32
302
GRIDFORMAT
  1
GRIDFORMAT_BEGIN
 90
        0
 91
        1
 62
     0
 92
       -2
340
14
 93
        0
 40
0.045
309
GRIDFORMAT_END
309
TABLEFORMAT_END
  1
CELLSTYLE_BEGIN
 90
        2
 91
        1
300
_HEADER
309
CELLSTYLE_END
300
CELLSTYLE
  1
TABLEFORMAT_BEGIN
 90
        5
170
     1
 91
        0
 92
        0
 62
   257
 93
        1
300
CONTENTFORMAT
  1
CONTENTFORMAT_BEGIN
 90
        0
 91
        0
 92
        4
 93
        0
300

 40
0.0
140
1.0
 94
        2
 62
     0
340
11
144
0.18
309
CONTENTFORMAT_END
171
     1
301
MARGIN
  1
CELLMARGIN_BEGIN
 40
0.06
 40
0.06
 40
0.06
 40
0.06
 40
0.06
 40
0.06
309
CELLMARGIN_END
 94
        6
 95
        1
302
GRIDFORMAT
  1
GRIDFORMAT_BEGIN
 90
        0
 91
        1
 62
     0
 92
       -2
340
14
 93
        0
 40
0.045
309
GRIDFORMAT_END
 95
        2
302
GRIDFORMAT
  1
GRIDFORMAT_BEGIN
 90
        0
 91
        1
 62
     0
 92
       -2
340
14
 93
        0
 40
0.045
309
GRIDFORMAT_END
 95
        4
302
GRIDFORMAT
  1
GRIDFORMAT_BEGIN
 90
        0
 91
        1
 62
     0
 92
       -2
340
14
 93
        0
 40
0.045
309
GRIDFORMAT_END
 95
        8
302
GRIDFORMAT
  1
GRIDFORMAT_BEGIN
 90
        0
 91
        1
 62
     0
 92
       -2
340
14
 93
        0
 40
0.045
309
GRIDFORMAT_END
 95
       16
302
GRIDFORMAT
  1
GRIDFORMAT_BEGIN
 90
        0
 91
        1
 62
     0
 92
       -2
340
14
 93
        0
 40
0.045
309
GRIDFORMAT_END
 95
       32
302
GRIDFORMAT
  1
GRIDFORMAT_BEGIN
 90
        0
 91
        1
 62
     0
 92
       -2
340
14
 93
        0
 40
0.045
309
GRIDFORMAT_END
309
TABLEFORMAT_END
  1
CELLSTYLE_BEGIN
 90
        3
 91
        2
300
_DATA
309
CELLSTYLE_END
  0
XRECORD
  5
86
102
{ACAD_REACTORS
330
85
102
}
330
85
100
AcDbXrecord
280
     1
102
RTVSPropertyOp0
 70
     1
102
RTVSPropertyOp1
 70
     1
102
RTVSPropertyOp2
 70
     1
102
RTVSPropertyOp3
 70
     1
102
RTVSPropertyOp4
 70
     1
102
RTVSPropertyOp5
 70
     1
102
RTVSPropertyOp6
 70
     1
102
RTVSPropertyOp7
 70
     1
102
RTVSPropertyOp8
 70
     1
102
RTVSPropertyOp9
 70
     1
102
RTVSPropertyOp10
 70
     1
102
RTVSPropertyOp11
 70
     1
102
RTVSPropertyOp12
 70
     1
102
RTVSPropertyOp13
 70
     1
102
RTVSPropertyOp14
 70
     1
102
RTVSPropertyOp15
 70
     1
102
RTVSPropertyOp16
 70
     1
102
RTVSPropertyOp17
 70
     1
102
RTVSPropertyOp18
 70
     1
102
RTVSPropertyOp19
 70
     1
102
RTVSPropertyOp20
 70
     1
102
RTVSPropertyOp21
 70
     1
102
RTVSPropertyOp22
 70
     1
102
RTVSPropertyOp23
 70
     1
102
RTVSPropertyOp24
 70
     1
102
RTVSPropertyOp25
 70
     1
102
RTVSPropertyOp26
 70
     1
102
RTVSPropertyOp27
 70
     1
102
RTVSPropertyOp28
 70
     1
102
RTVSPropertyOp29
 70
     1
102
RTVSPropertyOp30
 70
     1
102
RTVSPropertyOp31
 70
     1
102
RTVSPropertyOp32
 70
     1
102
RTVSPropertyOp33
 70
     1
102
RTVSPropertyOp34
 70
     1
102
RTVSPropertyOp35
 70
     1
102
RTVSPropertyOp36
 70
     1
102
RTVSPropertyOp37
 70
     1
102
RTVSPropertyOp38
 70
     1
102
RTVSPropertyOp39
 70
     1
102
RTVSPropertyOp40
 70
     1
102
RTVSPropertyOp41
 70
     1
102
RTVSPropertyOp42
 70
     1
102
RTVSPropertyOp43
 70
     1
102
RTVSPropertyOp44
 70
     1
102
RTVSPropertyOp45
 70
     1
102
RTVSPropertyOp46
 70
     1
102
RTVSPropertyOp47
 70
     1
102
RTVSPropertyOp48
 70
     1
102
RTVSPropertyOp49
 70
     1
102
RTVSPropertyOp50
 70
     1
102
RTVSPropertyOp51
 70
     0
102
RTVSPropertyOp52
 70
     0
102
RTVSPropertyOp53
 70
     1
102
RTVSPropertyOp54
 70
     1
102
RTVSPropertyOp55
 70
     1
102
RTVSPropertyOp56
 70
     1
102
RTVSPropertyOp57
 70
     1
102
RTVSPost2010Prop28
280
     1
102
RTVSPost2010PropOp28
 70
     1
102
RTVSPost2010Prop29
280
     1
102
RTVSPost2010PropOp29
 70
     1
102
RTVSPost2010Prop30
280
     0
102
RTVSPost2010PropOp30
 70
     1
102
RTVSPost2010Prop31
280
     0
102
RTVSPost2010PropOp31
 70
     1
102
RTVSPost2010Prop32
280
     0
102
RTVSPost2010PropOp32
 70
     1
102
RTVSPost2010Prop33
280
     0
102
RTVSPost2010PropOp33
 70
     1
102
RTVSPost2010Prop34
280
     0
102
RTVSPost2010PropOp34
 70
     1
102
RTVSPost2010Prop35
280
     0
102
RTVSPost2010PropOp35
 70
     1
102
RTVSPost2010Prop36
280
     0
102
RTVSPost2010PropOp36
 70
     1
102
RTVSPost2010Prop37
 90
       50
102
RTVSPost2010PropOp37
 70
     1
102
RTVSPost2010Prop38
140
0.0
102
RTVSPost2010PropOp38
 70
     1
102
RTVSPost2010Prop39
140
1.0
102
RTVSPost2010PropOp39
 70
     1
102
RTVSPost2010Prop40
 90
        0
102
RTVSPost2010PropOp40
 70
     1
102
RTVSPost2010Prop41ColorIndex
 90
       18
102
RTVSPost2010Prop41ColorRGB
 90
        0
102
RTVSPost2010PropOp41
 70
     1
102
RTVSPost2010Prop42
 90
       50
102
RTVSPost2010PropOp42
 70
     1
102
RTVSPost2010Prop43
 90
        3
102
RTVSPost2010PropOp43
 70
     1
102
RTVSPost2010Prop44ColorIndex
 90
        5
102
RTVSPost2010Prop44ColorRGB
 90
      255
102
RTVSPost2010PropOp44
 70
     1
102
RTVSPost2010Prop45
280
     0
102
RTVSPost2010PropOp45
 70
     1
102
RTVSPost2010Prop46
 90
       50
102
RTVSPost2010PropOp46
 70
     1
102
RTVSPost2010Prop47
 90
       50
102
RTVSPost2010PropOp47
 70
     1
102
RTVSPost2010Prop48
 90
       50
102
RTVSPost2010PropOp48
 70
     1
102
RTVSPost2010Prop49
280
     0
102
RTVSPost2010PropOp49
 70
     1
102
RTVSPost2010Prop50
 90
       50
102
RTVSPost2010PropOp50
 70
     1
102
RTVSPost2010Prop51ColorIndex
 90
      256
102
RTVSPost2010Prop51ColorRGB
 90
-16777216
102
RTVSPost2010PropOp51
 70
     0
102
RTVSPost2010Prop52
140
1.0
102
RTVSPost2010PropOp52
 70
     0
102
RTVSPost2010Prop53
 90
        2
102
RTVSPost2010PropOp53
 70
     1
102
RTVSPost2010Prop54
  1
strokes_ogs.tif
102
RTVSPost2010PropOp54
 70
     1
102
RTVSPost2010Prop55
280
     0
102
RTVSPost2010PropOp55
 70
     1
102
RTVSPost2010Prop56
140
1.0
102
RTVSPost2010PropOp56
 70
     1
102
RTVSPost2010Prop57
140
1.0
102
RTVSPost2010PropOp57
 70
     1
  0
XRECORD
  5
8C
102
{ACAD_REACTORS
330
8B
102
}
330
8B
100
AcDbXrecord
280
     1
102
RTVSPropertyOp0
 70
     1
102
RTVSPropertyOp1
 70
     1
102
RTVSPropertyOp2
 70
     1
102
RTVSPropertyOp3
 70
     1
102
RTVSPropertyOp4
 70
     1
102
RTVSPropertyOp5
 70
     1
102
RTVSPropertyOp6
 70
     1
102
RTVSPropertyOp7
 70
     1
102
RTVSPropertyOp8
 70
     1
102
RTVSPropertyOp9
 70
     1
102
RTVSPropertyOp10
 70
     1
102
RTVSPropertyOp11
 70
     1
102
RTVSPropertyOp12
 70
     1
102
RTVSPropertyOp13
 70
     1
102
RTVSPropertyOp14
 70
     1
102
RTVSPropertyOp15
 70
     1
102
RTVSPropertyOp16
 70
     1
102
RTVSPropertyOp17
 70
     1
102
RTVSPropertyOp18
 70
     1
102
RTVSPropertyOp19
 70
     1
102
RTVSPropertyOp20
 70
     1
102
RTVSPropertyOp21
 70
     1
102
RTVSPropertyOp22
 70
     1
102
RTVSPropertyOp23
 70
     1
102
RTVSPropertyOp24
 70
     1
102
RTVSPropertyOp25
 70
     1
102
RTVSPropertyOp26
 70
     1
102
RTVSPropertyOp27
 70
     1
102
RTVSPropertyOp28
 70
     1
102
RTVSPropertyOp29
 70
     1
102
RTVSPropertyOp30
 70
     1
102
RTVSPropertyOp31
 70
     1
102
RTVSPropertyOp32
 70
     1
102
RTVSPropertyOp33
 70
     1
102
RTVSPropertyOp34
 70
     1
102
RTVSPropertyOp35
 70
     1
102
RTVSPropertyOp36
 70
     1
102
RTVSPropertyOp37
 70
     1
102
RTVSPropertyOp38
 70
     1
102
RTVSPropertyOp39
 70
     1
102
RTVSPropertyOp40
 70
     1
102
RTVSPropertyOp41
 70
     1
102
RTVSPropertyOp42
 70
     1
102
RTVSPropertyOp43
 70
     1
102
RTVSPropertyOp44
 70
     1
102
RTVSPropertyOp45
 70
     1
102
RTVSPropertyOp46
 70
     1
102
RTVSPropertyOp47
 70
     1
102
RTVSPropertyOp48
 70
     1
102
RTVSPropertyOp49
 70
     1
102
RTVSPropertyOp50
 70
     1
102
RTVSPropertyOp51
 70
     0
102
RTVSPropertyOp52
 70
     0
102
RTVSPropertyOp53
 70
     1
102
RTVSPropertyOp54
 70
     1
102
RTVSPropertyOp55
 70
     1
102
RTVSPropertyOp56
 70
     1
102
RTVSPropertyOp57
 70
     1
102
RTVSPost2010Prop28
280
     0
102
RTVSPost2010PropOp28
 70
     1
102
RTVSPost2010Prop29
280
     1
102
RTVSPost2010PropOp29
 70
     1
102
RTVSPost2010Prop30
280
     1
102
RTVSPost2010PropOp30
 70
     1
102
RTVSPost2010Prop31
280
     0
102
RTVSPost2010PropOp31
 70
     1
102
RTVSPost2010Prop32
280
     0
102
RTVSPost2010PropOp32
 70
     1
102
RTVSPost2010Prop33
280
     0
102
RTVSPost2010PropOp33
 70
     1
102
RTVSPost2010Prop34
280
     0
102
RTVSPost2010PropOp34
 70
     1
102
RTVSPost2010Prop35
280
     0
102
RTVSPost2010PropOp35
 70
     1
102
RTVSPost2010Prop36
280
     0
102
RTVSPost2010PropOp36
 70
     1
102
RTVSPost2010Prop37
 90
       50
102
RTVSPost2010PropOp37
 70
     1
102
RTVSPost2010Prop38
140
0.0
102
RTVSPost2010PropOp38
 70
     1
102
RTVSPost2010Prop39
140
1.0
102
RTVSPost2010PropOp39
 70
     1
102
RTVSPost2010Prop40
 90
        0
102
RTVSPost2010PropOp40
 70
     1
102
RTVSPost2010Prop41ColorIndex
 90
       18
102
RTVSPost2010Prop41ColorRGB
 90
        0
102
RTVSPost2010PropOp41
 70
     1
102
RTVSPost2010Prop42
 90
       50
102
RTVSPost2010PropOp42
 70
     1
102
RTVSPost2010Prop43
 90
        3
102
RTVSPost2010PropOp43
 70
     1
102
RTVSPost2010Prop44ColorIndex
 90
        5
102
RTVSPost2010Prop44ColorRGB
 90
      255
102
RTVSPost2010PropOp44
 70
     1
102
RTVSPost2010Prop45
280
     0
102
RTVSPost2010PropOp45
 70
     1
102
RTVSPost2010Prop46
 90
       50
102
RTVSPost2010PropOp46
 70
     1
102
RTVSPost2010Prop47
 90
       50
102
RTVSPost2010PropOp47
 70
     1
102
RTVSPost2010Prop48
 90
       50
102
RTVSPost2010PropOp48
 70
     1
102
RTVSPost2010Prop49
280
     0
102
RTVSPost2010PropOp49
 70
     1
102
RTVSPost2010Prop50
 90
       50
102
RTVSPost2010PropOp50
 70
     1
102
RTVSPost2010Prop51ColorIndex
 90
      256
102
RTVSPost2010Prop51ColorRGB
 90
-16777216
102
RTVSPost2010PropOp51
 70
     0
102
RTVSPost2010Prop52
140
1.0
102
RTVSPost2010PropOp52
 70
     0
102
RTVSPost2010Prop53
 90
        2
102
RTVSPost2010PropOp53
 70
     1
102
RTVSPost2010Prop54
  1
strokes_ogs.tif
102
RTVSPost2010PropOp54
 70
     1
102
RTVSPost2010Prop55
280
     0
102
RTVSPost2010PropOp55
 70
     1
102
RTVSPost2010Prop56
140
1.0
102
RTVSPost2010PropOp56
 70
     1
102
RTVSPost2010Prop57
140
1.0
102
RTVSPost2010PropOp57
 70
     1
  0
XRECORD
  5
94
102
{ACAD_REACTORS
330
93
102
}
330
93
100
AcDbXrecord
280
     1
102
RTVSPropertyOp0
 70
     1
102
RTVSPropertyOp1
 70
     1
102
RTVSPropertyOp2
 70
     1
102
RTVSPropertyOp3
 70
     1
102
RTVSPropertyOp4
 70
     1
102
RTVSPropertyOp5
 70
     1
102
RTVSPropertyOp6
 70
     1
102
RTVSPropertyOp7
 70
     1
102
RTVSPropertyOp8
 70
     1
102
RTVSPropertyOp9
 70
     1
102
RTVSPropertyOp10
 70
     1
102
RTVSPropertyOp11
 70
     1
102
RTVSPropertyOp12
 70
     1
102
RTVSPropertyOp13
 70
     1
102
RTVSPropertyOp14
 70
     1
102
RTVSPropertyOp15
 70
     1
102
RTVSPropertyOp16
 70
     1
102
RTVSPropertyOp17
 70
     1
102
RTVSPropertyOp18
 70
     1
102
RTVSPropertyOp19
 70
     1
102
RTVSPropertyOp20
 70
     1
102
RTVSPropertyOp21
 70
     1
102
RTVSPropertyOp22
 70
     1
102
RTVSPropertyOp23
 70
     1
102
RTVSPropertyOp24
 70
     1
102
RTVSPropertyOp25
 70
     1
102
RTVSPropertyOp26
 70
     1
102
RTVSPropertyOp27
 70
     1
102
RTVSPropertyOp28
 70
     1
102
RTVSPropertyOp29
 70
     1
102
RTVSPropertyOp30
 70
     1
102
RTVSPropertyOp31
 70
     1
102
RTVSPropertyOp32
 70
     1
102
RTVSPropertyOp33
 70
     1
102
RTVSPropertyOp34
 70
     1
102
RTVSPropertyOp35
 70
     1
102
RTVSPropertyOp36
 70
     1
102
RTVSPropertyOp37
 70
     1
102
RTVSPropertyOp38
 70
     1
102
RTVSPropertyOp39
 70
     1
102
RTVSPropertyOp40
 70
     1
102
RTVSPropertyOp41
 70
     1
102
RTVSPropertyOp42
 70
     1
102
RTVSPropertyOp43
 70
     1
102
RTVSPropertyOp44
 70
     1
102
RTVSPropertyOp45
 70
     1
102
RTVSPropertyOp46
 70
     1
102
RTVSPropertyOp47
 70
     1
102
RTVSPropertyOp48
 70
     1
102
RTVSPropertyOp49
 70
     1
102
RTVSPropertyOp50
 70
     1
102
RTVSPropertyOp51
 70
     0
102
RTVSPropertyOp52
 70
     0
102
RTVSPropertyOp53
 70
     1
102
RTVSPropertyOp54
 70
     1
102
RTVSPropertyOp55
 70
     1
102
RTVSPropertyOp56
 70
     1
102
RTVSPropertyOp57
 70
     1
102
RTVSPost2010Prop28
280
     0
102
RTVSPost2010PropOp28
 70
     1
102
RTVSPost2010Prop29
280
     1
102
RTVSPost2010PropOp29
 70
     1
102
RTVSPost2010Prop30
280
     1
102
RTVSPost2010PropOp30
 70
     1
102
RTVSPost2010Prop31
280
     0
102
RTVSPost2010PropOp31
 70
     1
102
RTVSPost2010Prop32
280
     0
102
RTVSPost2010PropOp32
 70
     1
102
RTVSPost2010Prop33
280
     0
102
RTVSPost2010PropOp33
 70
     1
102
RTVSPost2010Prop34
280
     0
102
RTVSPost2010PropOp34
 70
     1
102
RTVSPost2010Prop35
280
     0
102
RTVSPost2010PropOp35
 70
     1
102
RTVSPost2010Prop36
280
     0
102
RTVSPost2010PropOp36
 70
     1
102
RTVSPost2010Prop37
 90
       50
102
RTVSPost2010PropOp37
 70
     1
102
RTVSPost2010Prop38
140
0.0
102
RTVSPost2010PropOp38
 70
     1
102
RTVSPost2010Prop39
140
1.0
102
RTVSPost2010PropOp39
 70
     1
102
RTVSPost2010Prop40
 90
        0
102
RTVSPost2010PropOp40
 70
     1
102
RTVSPost2010Prop41ColorIndex
 90
       18
102
RTVSPost2010Prop41ColorRGB
 90
        0
102
RTVSPost2010PropOp41
 70
     1
102
RTVSPost2010Prop42
 90
       50
102
RTVSPost2010PropOp42
 70
     1
102
RTVSPost2010Prop43
 90
        3
102
RTVSPost2010PropOp43
 70
     1
102
RTVSPost2010Prop44ColorIndex
 90
        5
102
RTVSPost2010Prop44ColorRGB
 90
      255
102
RTVSPost2010PropOp44
 70
     1
102
RTVSPost2010Prop45
280
     0
102
RTVSPost2010PropOp45
 70
     1
102
RTVSPost2010Prop46
 90
       50
102
RTVSPost2010PropOp46
 70
     1
102
RTVSPost2010Prop47
 90
       50
102
RTVSPost2010PropOp47
 70
     1
102
RTVSPost2010Prop48
 90
       50
102
RTVSPost2010PropOp48
 70
     1
102
RTVSPost2010Prop49
280
     0
102
RTVSPost2010PropOp49
 70
     1
102
RTVSPost2010Prop50
 90
       50
102
RTVSPost2010PropOp50
 70
     1
102
RTVSPost2010Prop51ColorIndex
 90
      256
102
RTVSPost2010Prop51ColorRGB
 90
-16777216
102
RTVSPost2010PropOp51
 70
     0
102
RTVSPost2010Prop52
140
1.0
102
RTVSPost2010PropOp52
 70
     0
102
RTVSPost2010Prop53
 90
        2
102
RTVSPost2010PropOp53
 70
     1
102
RTVSPost2010Prop54
  1
strokes_ogs.tif
102
RTVSPost2010PropOp54
 70
     1
102
RTVSPost2010Prop55
280
     0
102
RTVSPost2010PropOp55
 70
     1
102
RTVSPost2010Prop56
140
1.0
102
RTVSPost2010PropOp56
 70
     1
102
RTVSPost2010Prop57
140
1.0
102
RTVSPost2010PropOp57
 70
     1
  0
XRECORD
  5
9C
102
{ACAD_REACTORS
330
9B
102
}
330
9B
100
AcDbXrecord
280
     1
102
RTVSPropertyOp0
 70
     1
102
RTVSPropertyOp1
 70
     1
102
RTVSPropertyOp2
 70
     1
102
RTVSPropertyOp3
 70
     1
102
RTVSPropertyOp4
 70
     1
102
RTVSPropertyOp5
 70
     1
102
RTVSPropertyOp6
 70
     1
102
RTVSPropertyOp7
 70
     1
102
RTVSPropertyOp8
 70
     1
102
RTVSPropertyOp9
 70
     1
102
RTVSPropertyOp10
 70
     1
102
RTVSPropertyOp11
 70
     1
102
RTVSPropertyOp12
 70
     1
102
RTVSPropertyOp13
 70
     1
102
RTVSPropertyOp14
 70
     1
102
RTVSPropertyOp15
 70
     1
102
RTVSPropertyOp16
 70
     1
102
RTVSPropertyOp17
 70
     1
102
RTVSPropertyOp18
 70
     1
102
RTVSPropertyOp19
 70
     1
102
RTVSPropertyOp20
 70
     1
102
RTVSPropertyOp21
 70
     1
102
RTVSPropertyOp22
 70
     1
102
RTVSPropertyOp23
 70
     1
102
RTVSPropertyOp24
 70
     1
102
RTVSPropertyOp25
 70
     1
102
RTVSPropertyOp26
 70
     1
102
RTVSPropertyOp27
 70
     1
102
RTVSPropertyOp28
 70
     1
102
RTVSPropertyOp29
 70
     1
102
RTVSPropertyOp30
 70
     1
102
RTVSPropertyOp31
 70
     1
102
RTVSPropertyOp32
 70
     1
102
RTVSPropertyOp33
 70
     1
102
RTVSPropertyOp34
 70
     1
102
RTVSPropertyOp35
 70
     1
102
RTVSPropertyOp36
 70
     1
102
RTVSPropertyOp37
 70
     1
102
RTVSPropertyOp38
 70
     1
102
RTVSPropertyOp39
 70
     1
102
RTVSPropertyOp40
 70
     1
102
RTVSPropertyOp41
 70
     1
102
RTVSPropertyOp42
 70
     1
102
RTVSPropertyOp43
 70
     1
102
RTVSPropertyOp44
 70
     1
102
RTVSPropertyOp45
 70
     1
102
RTVSPropertyOp46
 70
     1
102
RTVSPropertyOp47
 70
     1
102
RTVSPropertyOp48
 70
     1
102
RTVSPropertyOp49
 70
     1
102
RTVSPropertyOp50
 70
     1
102
RTVSPropertyOp51
 70
     0
102
RTVSPropertyOp52
 70
     0
102
RTVSPropertyOp53
 70
     1
102
RTVSPropertyOp54
 70
     1
102
RTVSPropertyOp55
 70
     1
102
RTVSPropertyOp56
 70
     1
102
RTVSPropertyOp57
 70
     1
102
RTVSPost2010Prop28
280
     0
102
RTVSPost2010PropOp28
 70
     1
102
RTVSPost2010Prop29
280
     1
102
RTVSPost2010PropOp29
 70
     1
102
RTVSPost2010Prop30
280
     1
102
RTVSPost2010PropOp30
 70
     1
102
RTVSPost2010Prop31
280
     0
102
RTVSPost2010PropOp31
 70
     1
102
RTVSPost2010Prop32
280
     0
102
RTVSPost2010PropOp32
 70
     1
102
RTVSPost2010Prop33
280
     0
102
RTVSPost2010PropOp33
 70
     1
102
RTVSPost2010Prop34
280
     0
102
RTVSPost2010PropOp34
 70
     1
102
RTVSPost2010Prop35
280
     0
102
RTVSPost2010PropOp35
 70
     1
102
RTVSPost2010Prop36
280
     0
102
RTVSPost2010PropOp36
 70
     1
102
RTVSPost2010Prop37
 90
       50
102
RTVSPost2010PropOp37
 70
     1
102
RTVSPost2010Prop38
140
0.0
102
RTVSPost2010PropOp38
 70
     1
102
RTVSPost2010Prop39
140
1.0
102
RTVSPost2010PropOp39
 70
     1
102
RTVSPost2010Prop40
 90
        0
102
RTVSPost2010PropOp40
 70
     1
102
RTVSPost2010Prop41ColorIndex
 90
       18
102
RTVSPost2010Prop41ColorRGB
 90
        0
102
RTVSPost2010PropOp41
 70
     1
102
RTVSPost2010Prop42
 90
       50
102
RTVSPost2010PropOp42
 70
     1
102
RTVSPost2010Prop43
 90
        3
102
RTVSPost2010PropOp43
 70
     1
102
RTVSPost2010Prop44ColorIndex
 90
        5
102
RTVSPost2010Prop44ColorRGB
 90
      255
102
RTVSPost2010PropOp44
 70
     1
102
RTVSPost2010Prop45
280
     0
102
RTVSPost2010PropOp45
 70
     1
102
RTVSPost2010Prop46
 90
       50
102
RTVSPost2010PropOp46
 70
     1
102
RTVSPost2010Prop47
 90
       50
102
RTVSPost2010PropOp47
 70
     1
102
RTVSPost2010Prop48
 90
       50
102
RTVSPost2010PropOp48
 70
     1
102
RTVSPost2010Prop49
280
     0
102
RTVSPost2010PropOp49
 70
     1
102
RTVSPost2010Prop50
 90
       50
102
RTVSPost2010PropOp50
 70
     1
102
RTVSPost2010Prop51ColorIndex
 90
      256
102
RTVSPost2010Prop51ColorRGB
 90
-16777216
102
RTVSPost2010PropOp51
 70
     0
102
RTVSPost2010Prop52
140
1.0
102
RTVSPost2010PropOp52
 70
     0
102
RTVSPost2010Prop53
 90
        2
102
RTVSPost2010PropOp53
 70
     1
102
RTVSPost2010Prop54
  1
strokes_ogs.tif
102
RTVSPost2010PropOp54
 70
     1
102
RTVSPost2010Prop55
280
     0
102
RTVSPost2010PropOp55
 70
     1
102
RTVSPost2010Prop56
140
1.0
102
RTVSPost2010PropOp56
 70
     1
102
RTVSPost2010Prop57
140
1.0
102
RTVSPost2010PropOp57
 70
     1
  0
XRECORD
  5
90
102
{ACAD_REACTORS
330
8F
102
}
330
8F
100
AcDbXrecord
280
     1
102
RTVSPropertyOp0
 70
     1
102
RTVSPropertyOp1
 70
     1
102
RTVSPropertyOp2
 70
     1
102
RTVSPropertyOp3
 70
     1
102
RTVSPropertyOp4
 70
     1
102
RTVSPropertyOp5
 70
     1
102
RTVSPropertyOp6
 70
     1
102
RTVSPropertyOp7
 70
     1
102
RTVSPropertyOp8
 70
     1
102
RTVSPropertyOp9
 70
     1
102
RTVSPropertyOp10
 70
     1
102
RTVSPropertyOp11
 70
     1
102
RTVSPropertyOp12
 70
     1
102
RTVSPropertyOp13
 70
     1
102
RTVSPropertyOp14
 70
     1
102
RTVSPropertyOp15
 70
     1
102
RTVSPropertyOp16
 70
     1
102
RTVSPropertyOp17
 70
     1
102
RTVSPropertyOp18
 70
     1
102
RTVSPropertyOp19
 70
     1
102
RTVSPropertyOp20
 70
     1
102
RTVSPropertyOp21
 70
     1
102
RTVSPropertyOp22
 70
     1
102
RTVSPropertyOp23
 70
     1
102
RTVSPropertyOp24
 70
     1
102
RTVSPropertyOp25
 70
     1
102
RTVSPropertyOp26
 70
     1
102
RTVSPropertyOp27
 70
     1
102
RTVSPropertyOp28
 70
     1
102
RTVSPropertyOp29
 70
     1
102
RTVSPropertyOp30
 70
     1
102
RTVSPropertyOp31
 70
     1
102
RTVSPropertyOp32
 70
     1
102
RTVSPropertyOp33
 70
     1
102
RTVSPropertyOp34
 70
     1
102
RTVSPropertyOp35
 70
     1
102
RTVSPropertyOp36
 70
     1
102
RTVSPropertyOp37
 70
     1
102
RTVSPropertyOp38
 70
     1
102
RTVSPropertyOp39
 70
     1
102
RTVSPropertyOp40
 70
     1
102
RTVSPropertyOp41
 70
     1
102
RTVSPropertyOp42
 70
     1
102
RTVSPropertyOp43
 70
     1
102
RTVSPropertyOp44
 70
     1
102
RTVSPropertyOp45
 70
     1
102
RTVSPropertyOp46
 70
     1
102
RTVSPropertyOp47
 70
     1
102
RTVSPropertyOp48
 70
     1
102
RTVSPropertyOp49
 70
     1
102
RTVSPropertyOp50
 70
     1
102
RTVSPropertyOp51
 70
     0
102
RTVSPropertyOp52
 70
     0
102
RTVSPropertyOp53
 70
     1
102
RTVSPropertyOp54
 70
     1
102
RTVSPropertyOp55
 70
     1
102
RTVSPropertyOp56
 70
     1
102
RTVSPropertyOp57
 70
     1
102
RTVSPost2010Prop28
280
     0
102
RTVSPost2010PropOp28
 70
     1
102
RTVSPost2010Prop29
280
     1
102
RTVSPost2010PropOp29
 70
     1
102
RTVSPost2010Prop30
280
     1
102
RTVSPost2010PropOp30
 70
     1
102
RTVSPost2010Prop31
280
     0
102
RTVSPost2010PropOp31
 70
     1
102
RTVSPost2010Prop32
280
     0
102
RTVSPost2010PropOp32
 70
     1
102
RTVSPost2010Prop33
280
     0
102
RTVSPost2010PropOp33
 70
     1
102
RTVSPost2010Prop34
280
     0
102
RTVSPost2010PropOp34
 70
     1
102
RTVSPost2010Prop35
280
     0
102
RTVSPost2010PropOp35
 70
     1
102
RTVSPost2010Prop36
280
     0
102
RTVSPost2010PropOp36
 70
     1
102
RTVSPost2010Prop37
 90
       50
102
RTVSPost2010PropOp37
 70
     1
102
RTVSPost2010Prop38
140
0.0
102
RTVSPost2010PropOp38
 70
     1
102
RTVSPost2010Prop39
140
1.0
102
RTVSPost2010PropOp39
 70
     1
102
RTVSPost2010Prop40
 90
        0
102
RTVSPost2010PropOp40
 70
     1
102
RTVSPost2010Prop41ColorIndex
 90
       18
102
RTVSPost2010Prop41ColorRGB
 90
        0
102
RTVSPost2010PropOp41
 70
     1
102
RTVSPost2010Prop42
 90
       50
102
RTVSPost2010PropOp42
 70
     1
102
RTVSPost2010Prop43
 90
        3
102
RTVSPost2010PropOp43
 70
     1
102
RTVSPost2010Prop44ColorIndex
 90
        5
102
RTVSPost2010Prop44ColorRGB
 90
      255
102
RTVSPost2010PropOp44
 70
     1
102
RTVSPost2010Prop45
280
     0
102
RTVSPost2010PropOp45
 70
     1
102
RTVSPost2010Prop46
 90
       50
102
RTVSPost2010PropOp46
 70
     1
102
RTVSPost2010Prop47
 90
       50
102
RTVSPost2010PropOp47
 70
     1
102
RTVSPost2010Prop48
 90
       50
102
RTVSPost2010PropOp48
 70
     1
102
RTVSPost2010Prop49
280
     0
102
RTVSPost2010PropOp49
 70
     1
102
RTVSPost2010Prop50
 90
       50
102
RTVSPost2010PropOp50
 70
     1
102
RTVSPost2010Prop51ColorIndex
 90
      256
102
RTVSPost2010Prop51ColorRGB
 90
-16777216
102
RTVSPost2010PropOp51
 70
     0
102
RTVSPost2010Prop52
140
1.0
102
RTVSPost2010PropOp52
 70
     0
102
RTVSPost2010Prop53
 90
        2
102
RTVSPost2010PropOp53
 70
     1
102
RTVSPost2010Prop54
  1
strokes_ogs.tif
102
RTVSPost2010PropOp54
 70
     1
102
RTVSPost2010Prop55
280
     0
102
RTVSPost2010PropOp55
 70
     1
102
RTVSPost2010Prop56
140
1.0
102
RTVSPost2010PropOp56
 70
     1
102
RTVSPost2010Prop57
140
1.0
102
RTVSPost2010PropOp57
 70
     1
  0
XRECORD
  5
92
102
{ACAD_REACTORS
330
91
102
}
330
91
100
AcDbXrecord
280
     1
102
RTVSPropertyOp0
 70
     1
102
RTVSPropertyOp1
 70
     1
102
RTVSPropertyOp2
 70
     1
102
RTVSPropertyOp3
 70
     1
102
RTVSPropertyOp4
 70
     1
102
RTVSPropertyOp5
 70
     1
102
RTVSPropertyOp6
 70
     1
102
RTVSPropertyOp7
 70
     1
102
RTVSPropertyOp8
 70
     1
102
RTVSPropertyOp9
 70
     1
102
RTVSPropertyOp10
 70
     1
102
RTVSPropertyOp11
 70
     1
102
RTVSPropertyOp12
 70
     1
102
RTVSPropertyOp13
 70
     1
102
RTVSPropertyOp14
 70
     1
102
RTVSPropertyOp15
 70
     1
102
RTVSPropertyOp16
 70
     1
102
RTVSPropertyOp17
 70
     1
102
RTVSPropertyOp18
 70
     1
102
RTVSPropertyOp19
 70
     1
102
RTVSPropertyOp20
 70
     1
102
RTVSPropertyOp21
 70
     1
102
RTVSPropertyOp22
 70
     1
102
RTVSPropertyOp23
 70
     1
102
RTVSPropertyOp24
 70
     1
102
RTVSPropertyOp25
 70
     1
102
RTVSPropertyOp26
 70
     1
102
RTVSPropertyOp27
 70
     1
102
RTVSPropertyOp28
 70
     1
102
RTVSPropertyOp29
 70
     1
102
RTVSPropertyOp30
 70
     1
102
RTVSPropertyOp31
 70
     1
102
RTVSPropertyOp32
 70
     1
102
RTVSPropertyOp33
 70
     1
102
RTVSPropertyOp34
 70
     1
102
RTVSPropertyOp35
 70
     1
102
RTVSPropertyOp36
 70
     1
102
RTVSPropertyOp37
 70
     1
102
RTVSPropertyOp38
 70
     1
102
RTVSPropertyOp39
 70
     1
102
RTVSPropertyOp40
 70
     1
102
RTVSPropertyOp41
 70
     1
102
RTVSPropertyOp42
 70
     1
102
RTVSPropertyOp43
 70
     1
102
RTVSPropertyOp44
 70
     1
102
RTVSPropertyOp45
 70
     1
102
RTVSPropertyOp46
 70
     1
102
RTVSPropertyOp47
 70
     1
102
RTVSPropertyOp48
 70
     1
102
RTVSPropertyOp49
 70
     1
102
RTVSPropertyOp50
 70
     1
102
RTVSPropertyOp51
 70
     0
102
RTVSPropertyOp52
 70
     0
102
RTVSPropertyOp53
 70
     1
102
RTVSPropertyOp54
 70
     1
102
RTVSPropertyOp55
 70
     1
102
RTVSPropertyOp56
 70
     1
102
RTVSPropertyOp57
 70
     1
102
RTVSPost2010Prop28
280
     0
102
RTVSPost2010PropOp28
 70
     1
102
RTVSPost2010Prop29
280
     1
102
RTVSPost2010PropOp29
 70
     1
102
RTVSPost2010Prop30
280
     1
102
RTVSPost2010PropOp30
 70
     1
102
RTVSPost2010Prop31
280
     0
102
RTVSPost2010PropOp31
 70
     1
102
RTVSPost2010Prop32
280
     0
102
RTVSPost2010PropOp32
 70
     1
102
RTVSPost2010Prop33
280
     0
102
RTVSPost2010PropOp33
 70
     1
102
RTVSPost2010Prop34
280
     0
102
RTVSPost2010PropOp34
 70
     1
102
RTVSPost2010Prop35
280
     0
102
RTVSPost2010PropOp35
 70
     1
102
RTVSPost2010Prop36
280
     0
102
RTVSPost2010PropOp36
 70
     1
102
RTVSPost2010Prop37
 90
       50
102
RTVSPost2010PropOp37
 70
     1
102
RTVSPost2010Prop38
140
0.0
102
RTVSPost2010PropOp38
 70
     1
102
RTVSPost2010Prop39
140
1.0
102
RTVSPost2010PropOp39
 70
     1
102
RTVSPost2010Prop40
 90
        0
102
RTVSPost2010PropOp40
 70
     1
102
RTVSPost2010Prop41ColorIndex
 90
       18
102
RTVSPost2010Prop41ColorRGB
 90
        0
102
RTVSPost2010PropOp41
 70
     1
102
RTVSPost2010Prop42
 90
       50
102
RTVSPost2010PropOp42
 70
     1
102
RTVSPost2010Prop43
 90
        3
102
RTVSPost2010PropOp43
 70
     1
102
RTVSPost2010Prop44ColorIndex
 90
        5
102
RTVSPost2010Prop44ColorRGB
 90
      255
102
RTVSPost2010PropOp44
 70
     1
102
RTVSPost2010Prop45
280
     0
102
RTVSPost2010PropOp45
 70
     1
102
RTVSPost2010Prop46
 90
       50
102
RTVSPost2010PropOp46
 70
     1
102
RTVSPost2010Prop47
 90
       50
102
RTVSPost2010PropOp47
 70
     1
102
RTVSPost2010Prop48
 90
       50
102
RTVSPost2010PropOp48
 70
     1
102
RTVSPost2010Prop49
280
     0
102
RTVSPost2010PropOp49
 70
     1
102
RTVSPost2010Prop50
 90
       50
102
RTVSPost2010PropOp50
 70
     1
102
RTVSPost2010Prop51ColorIndex
 90
      256
102
RTVSPost2010Prop51ColorRGB
 90
-16777216
102
RTVSPost2010PropOp51
 70
     0
102
RTVSPost2010Prop52
140
1.0
102
RTVSPost2010PropOp52
 70
     0
102
RTVSPost2010Prop53
 90
        2
102
RTVSPost2010PropOp53
 70
     1
102
RTVSPost2010Prop54
  1
strokes_ogs.tif
102
RTVSPost2010PropOp54
 70
     1
102
RTVSPost2010Prop55
280
     0
102
RTVSPost2010PropOp55
 70
     1
102
RTVSPost2010Prop56
140
1.0
102
RTVSPost2010PropOp56
 70
     1
102
RTVSPost2010Prop57
140
1.0
102
RTVSPost2010PropOp57
 70
     1
  0
XRECORD
  5
A2
102
{ACAD_REACTORS
330
A1
102
}
330
A1
100
AcDbXrecord
280
     1
102
RTVSPropertyOp0
 70
     0
102
RTVSPropertyOp1
 70
     0
102
RTVSPropertyOp2
 70
     0
102
RTVSPropertyOp3
 70
     0
102
RTVSPropertyOp4
 70
     0
102
RTVSPropertyOp5
 70
     0
102
RTVSPropertyOp6
 70
     0
102
RTVSPropertyOp7
 70
     0
102
RTVSPropertyOp8
 70
     0
102
RTVSPropertyOp9
 70
     0
102
RTVSPropertyOp10
 70
     0
102
RTVSPropertyOp11
 70
     0
102
RTVSPropertyOp12
 70
     0
102
RTVSPropertyOp13
 70
     0
102
RTVSPropertyOp14
 70
     2
102
RTVSPropertyOp15
 70
     0
102
RTVSPropertyOp16
 70
     0
102
RTVSPropertyOp17
 70
     0
102
RTVSPropertyOp18
 70
     0
102
RTVSPropertyOp19
 70
     0
102
RTVSPropertyOp20
 70
     0
102
RTVSPropertyOp21
 70
     0
102
RTVSPropertyOp22
 70
     0
102
RTVSPropertyOp23
 70
     0
102
RTVSPropertyOp24
 70
     0
102
RTVSPropertyOp25
 70
     0
102
RTVSPropertyOp26
 70
     0
102
RTVSPropertyOp27
 70
     0
102
RTVSPropertyOp28
 70
     0
102
RTVSPropertyOp29
 70
     0
102
RTVSPropertyOp30
 70
     0
102
RTVSPropertyOp31
 70
     0
102
RTVSPropertyOp32
 70
     0
102
RTVSPropertyOp33
 70
     0
102
RTVSPropertyOp34
 70
     0
102
RTVSPropertyOp35
 70
     0
102
RTVSPropertyOp36
 70
     0
102
RTVSPropertyOp37
 70
     0
102
RTVSPropertyOp38
 70
     0
102
RTVSPropertyOp39
 70
     0
102
RTVSPropertyOp40
 70
     0
102
RTVSPropertyOp41
 70
     0
102
RTVSPropertyOp42
 70
     0
102
RTVSPropertyOp43
 70
     0
102
RTVSPropertyOp44
 70
     0
102
RTVSPropertyOp45
 70
     0
102
RTVSPropertyOp46
 70
     0
102
RTVSPropertyOp47
 70
     0
102
RTVSPropertyOp48
 70
     0
102
RTVSPropertyOp49
 70
     0
102
RTVSPropertyOp50
 70
     0
102
RTVSPropertyOp51
 70
     0
102
RTVSPropertyOp52
 70
     0
102
RTVSPropertyOp53
 70
     0
102
RTVSPropertyOp54
 70
     0
102
RTVSPropertyOp55
 70
     0
102
RTVSPropertyOp56
 70
     0
102
RTVSPropertyOp57
 70
     0
102
RTVSPost2010Prop28
280
     0
102
RTVSPost2010PropOp28
 70
     0
102
RTVSPost2010Prop29
280
     1
102
RTVSPost2010PropOp29
 70
     0
102
RTVSPost2010Prop30
280
     1
102
RTVSPost2010PropOp30
 70
     0
102
RTVSPost2010Prop31
280
     0
102
RTVSPost2010PropOp31
 70
     0
102
RTVSPost2010Prop32
280
     0
102
RTVSPost2010PropOp32
 70
     0
102
RTVSPost2010Prop33
280
     0
102
RTVSPost2010PropOp33
 70
     0
102
RTVSPost2010Prop34
280
     0
102
RTVSPost2010PropOp34
 70
     0
102
RTVSPost2010Prop35
280
     0
102
RTVSPost2010PropOp35
 70
     0
102
RTVSPost2010Prop36
280
     0
102
RTVSPost2010PropOp36
 70
     0
102
RTVSPost2010Prop37
 90
       50
102
RTVSPost2010PropOp37
 70
     0
102
RTVSPost2010Prop38
140
0.0
102
RTVSPost2010PropOp38
 70
     0
102
RTVSPost2010Prop39
140
1.0
102
RTVSPost2010PropOp39
 70
     0
102
RTVSPost2010Prop40
 90
        0
102
RTVSPost2010PropOp40
 70
     0
102
RTVSPost2010Prop41ColorIndex
 90
       18
102
RTVSPost2010Prop41ColorRGB
 90
        0
102
RTVSPost2010PropOp41
 70
     0
102
RTVSPost2010Prop42
 90
       50
102
RTVSPost2010PropOp42
 70
     0
102
RTVSPost2010Prop43
 90
        3
102
RTVSPost2010PropOp43
 70
     0
102
RTVSPost2010Prop44ColorIndex
 90
        5
102
RTVSPost2010Prop44ColorRGB
 90
      255
102
RTVSPost2010PropOp44
 70
     0
102
RTVSPost2010Prop45
280
     0
102
RTVSPost2010PropOp45
 70
     0
102
RTVSPost2010Prop46
 90
       50
102
RTVSPost2010PropOp46
 70
     0
102
RTVSPost2010Prop47
 90
       50
102
RTVSPost2010PropOp47
 70
     0
102
RTVSPost2010Prop48
 90
       50
102
RTVSPost2010PropOp48
 70
     0
102
RTVSPost2010Prop49
280
     0
102
RTVSPost2010PropOp49
 70
     0
102
RTVSPost2010Prop50
 90
       50
102
RTVSPost2010PropOp50
 70
     0
102
RTVSPost2010Prop51ColorIndex
 90
      256
102
RTVSPost2010Prop51ColorRGB
 90
-16777216
102
RTVSPost2010PropOp51
 70
     0
102
RTVSPost2010Prop52
140
1.0
102
RTVSPost2010PropOp52
 70
     0
102
RTVSPost2010Prop53
 90
        2
102
RTVSPost2010PropOp53
 70
     0
102
RTVSPost2010Prop54
  1
strokes_ogs.tif
102
RTVSPost2010PropOp54
 70
     0
102
RTVSPost2010Prop55
280
     0
102
RTVSPost2010PropOp55
 70
     0
102
RTVSPost2010Prop56
140
1.0
102
RTVSPost2010PropOp56
 70
     0
102
RTVSPost2010Prop57
140
1.0
102
RTVSPost2010PropOp57
 70
     0
  0
XRECORD
  5
9A
102
{ACAD_REACTORS
330
99
102
}
330
99
100
AcDbXrecord
280
     1
102
RTVSPropertyOp0
 70
     1
102
RTVSPropertyOp1
 70
     1
102
RTVSPropertyOp2
 70
     1
102
RTVSPropertyOp3
 70
     1
102
RTVSPropertyOp4
 70
     1
102
RTVSPropertyOp5
 70
     1
102
RTVSPropertyOp6
 70
     1
102
RTVSPropertyOp7
 70
     1
102
RTVSPropertyOp8
 70
     1
102
RTVSPropertyOp9
 70
     1
102
RTVSPropertyOp10
 70
     1
102
RTVSPropertyOp11
 70
     1
102
RTVSPropertyOp12
 70
     1
102
RTVSPropertyOp13
 70
     1
102
RTVSPropertyOp14
 70
     1
102
RTVSPropertyOp15
 70
     1
102
RTVSPropertyOp16
 70
     1
102
RTVSPropertyOp17
 70
     1
102
RTVSPropertyOp18
 70
     1
102
RTVSPropertyOp19
 70
     1
102
RTVSPropertyOp20
 70
     1
102
RTVSPropertyOp21
 70
     1
102
RTVSPropertyOp22
 70
     1
102
RTVSPropertyOp23
 70
     1
102
RTVSPropertyOp24
 70
     1
102
RTVSPropertyOp25
 70
     1
102
RTVSPropertyOp26
 70
     1
102
RTVSPropertyOp27
 70
     1
102
RTVSPropertyOp28
 70
     1
102
RTVSPropertyOp29
 70
     1
102
RTVSPropertyOp30
 70
     1
102
RTVSPropertyOp31
 70
     1
102
RTVSPropertyOp32
 70
     1
102
RTVSPropertyOp33
 70
     1
102
RTVSPropertyOp34
 70
     1
102
RTVSPropertyOp35
 70
     1
102
RTVSPropertyOp36
 70
     1
102
RTVSPropertyOp37
 70
     1
102
RTVSPropertyOp38
 70
     1
102
RTVSPropertyOp39
 70
     1
102
RTVSPropertyOp40
 70
     1
102
RTVSPropertyOp41
 70
     1
102
RTVSPropertyOp42
 70
     1
102
RTVSPropertyOp43
 70
     1
102
RTVSPropertyOp44
 70
     1
102
RTVSPropertyOp45
 70
     1
102
RTVSPropertyOp46
 70
     1
102
RTVSPropertyOp47
 70
     1
102
RTVSPropertyOp48
 70
     1
102
RTVSPropertyOp49
 70
     1
102
RTVSPropertyOp50
 70
     1
102
RTVSPropertyOp51
 70
     0
102
RTVSPropertyOp52
 70
     0
102
RTVSPropertyOp53
 70
     1
102
RTVSPropertyOp54
 70
     1
102
RTVSPropertyOp55
 70
     1
102
RTVSPropertyOp56
 70
     1
102
RTVSPropertyOp57
 70
     1
102
RTVSPost2010Prop28
280
     0
102
RTVSPost2010PropOp28
 70
     1
102
RTVSPost2010Prop29
280
     1
102
RTVSPost2010PropOp29
 70
     1
102
RTVSPost2010Prop30
280
     1
102
RTVSPost2010PropOp30
 70
     1
102
RTVSPost2010Prop31
280
     0
102
RTVSPost2010PropOp31
 70
     1
102
RTVSPost2010Prop32
280
     0
102
RTVSPost2010PropOp32
 70
     1
102
RTVSPost2010Prop33
280
     0
102
RTVSPost2010PropOp33
 70
     1
102
RTVSPost2010Prop34
280
     0
102
RTVSPost2010PropOp34
 70
     1
102
RTVSPost2010Prop35
280
     0
102
RTVSPost2010PropOp35
 70
     1
102
RTVSPost2010Prop36
280
     0
102
RTVSPost2010PropOp36
 70
     1
102
RTVSPost2010Prop37
 90
       50
102
RTVSPost2010PropOp37
 70
     1
102
RTVSPost2010Prop38
140
0.0
102
RTVSPost2010PropOp38
 70
     1
102
RTVSPost2010Prop39
140
1.0
102
RTVSPost2010PropOp39
 70
     1
102
RTVSPost2010Prop40
 90
        0
102
RTVSPost2010PropOp40
 70
     1
102
RTVSPost2010Prop41ColorIndex
 90
       18
102
RTVSPost2010Prop41ColorRGB
 90
        0
102
RTVSPost2010PropOp41
 70
     1
102
RTVSPost2010Prop42
 90
       50
102
RTVSPost2010PropOp42
 70
     1
102
RTVSPost2010Prop43
 90
        3
102
RTVSPost2010PropOp43
 70
     1
102
RTVSPost2010Prop44ColorIndex
 90
        5
102
RTVSPost2010Prop44ColorRGB
 90
      255
102
RTVSPost2010PropOp44
 70
     1
102
RTVSPost2010Prop45
280
     0
102
RTVSPost2010PropOp45
 70
     1
102
RTVSPost2010Prop46
 90
       50
102
RTVSPost2010PropOp46
 70
     1
102
RTVSPost2010Prop47
 90
       50
102
RTVSPost2010PropOp47
 70
     1
102
RTVSPost2010Prop48
 90
       50
102
RTVSPost2010PropOp48
 70
     1
102
RTVSPost2010Prop49
280
     0
102
RTVSPost2010PropOp49
 70
     1
102
RTVSPost2010Prop50
 90
       50
102
RTVSPost2010PropOp50
 70
     1
102
RTVSPost2010Prop51ColorIndex
 90
      256
102
RTVSPost2010Prop51ColorRGB
 90
-16777216
102
RTVSPost2010PropOp51
 70
     0
102
RTVSPost2010Prop52
140
1.0
102
RTVSPost2010PropOp52
 70
     0
102
RTVSPost2010Prop53
 90
        2
102
RTVSPost2010PropOp53
 70
     1
102
RTVSPost2010Prop54
  1
strokes_ogs.tif
102
RTVSPost2010PropOp54
 70
     1
102
RTVSPost2010Prop55
280
     0
102
RTVSPost2010PropOp55
 70
     1
102
RTVSPost2010Prop56
140
1.0
102
RTVSPost2010PropOp56
 70
     1
102
RTVSPost2010Prop57
140
1.0
102
RTVSPost2010PropOp57
 70
     1
  0
XRECORD
  5
7E
102
{ACAD_REACTORS
330
7D
102
}
330
7D
100
AcDbXrecord
280
     1
102
RTVSPropertyOp0
 70
     1
102
RTVSPropertyOp1
 70
     1
102
RTVSPropertyOp2
 70
     1
102
RTVSPropertyOp3
 70
     1
102
RTVSPropertyOp4
 70
     1
102
RTVSPropertyOp5
 70
     1
102
RTVSPropertyOp6
 70
     1
102
RTVSPropertyOp7
 70
     1
102
RTVSPropertyOp8
 70
     1
102
RTVSPropertyOp9
 70
     1
102
RTVSPropertyOp10
 70
     1
102
RTVSPropertyOp11
 70
     1
102
RTVSPropertyOp12
 70
     1
102
RTVSPropertyOp13
 70
     1
102
RTVSPropertyOp14
 70
     1
102
RTVSPropertyOp15
 70
     1
102
RTVSPropertyOp16
 70
     1
102
RTVSPropertyOp17
 70
     1
102
RTVSPropertyOp18
 70
     1
102
RTVSPropertyOp19
 70
     1
102
RTVSPropertyOp20
 70
     1
102
RTVSPropertyOp21
 70
     1
102
RTVSPropertyOp22
 70
     1
102
RTVSPropertyOp23
 70
     1
102
RTVSPropertyOp24
 70
     1
102
RTVSPropertyOp25
 70
     1
102
RTVSPropertyOp26
 70
     1
102
RTVSPropertyOp27
 70
     1
102
RTVSPropertyOp28
 70
     1
102
RTVSPropertyOp29
 70
     1
102
RTVSPropertyOp30
 70
     1
102
RTVSPropertyOp31
 70
     1
102
RTVSPropertyOp32
 70
     1
102
RTVSPropertyOp33
 70
     1
102
RTVSPropertyOp34
 70
     1
102
RTVSPropertyOp35
 70
     1
102
RTVSPropertyOp36
 70
     1
102
RTVSPropertyOp37
 70
     1
102
RTVSPropertyOp38
 70
     1
102
RTVSPropertyOp39
 70
     1
102
RTVSPropertyOp40
 70
     1
102
RTVSPropertyOp41
 70
     1
102
RTVSPropertyOp42
 70
     1
102
RTVSPropertyOp43
 70
     1
102
RTVSPropertyOp44
 70
     1
102
RTVSPropertyOp45
 70
     1
102
RTVSPropertyOp46
 70
     1
102
RTVSPropertyOp47
 70
     1
102
RTVSPropertyOp48
 70
     1
102
RTVSPropertyOp49
 70
     1
102
RTVSPropertyOp50
 70
     1
102
RTVSPropertyOp51
 70
     0
102
RTVSPropertyOp52
 70
     0
102
RTVSPropertyOp53
 70
     1
102
RTVSPropertyOp54
 70
     1
102
RTVSPropertyOp55
 70
     1
102
RTVSPropertyOp56
 70
     1
102
RTVSPropertyOp57
 70
     1
102
RTVSPost2010Prop28
280
     0
102
RTVSPost2010PropOp28
 70
     1
102
RTVSPost2010Prop29
280
     1
102
RTVSPost2010PropOp29
 70
     1
102
RTVSPost2010Prop30
280
     1
102
RTVSPost2010PropOp30
 70
     1
102
RTVSPost2010Prop31
280
     0
102
RTVSPost2010PropOp31
 70
     1
102
RTVSPost2010Prop32
280
     0
102
RTVSPost2010PropOp32
 70
     1
102
RTVSPost2010Prop33
280
     0
102
RTVSPost2010PropOp33
 70
     1
102
RTVSPost2010Prop34
280
     0
102
RTVSPost2010PropOp34
 70
     1
102
RTVSPost2010Prop35
280
     0
102
RTVSPost2010PropOp35
 70
     1
102
RTVSPost2010Prop36
280
     0
102
RTVSPost2010PropOp36
 70
     1
102
RTVSPost2010Prop37
 90
       50
102
RTVSPost2010PropOp37
 70
     1
102
RTVSPost2010Prop38
140
0.0
102
RTVSPost2010PropOp38
 70
     1
102
RTVSPost2010Prop39
140
1.0
102
RTVSPost2010PropOp39
 70
     1
102
RTVSPost2010Prop40
 90
        0
102
RTVSPost2010PropOp40
 70
     1
102
RTVSPost2010Prop41ColorIndex
 90
       18
102
RTVSPost2010Prop41ColorRGB
 90
        0
102
RTVSPost2010PropOp41
 70
     1
102
RTVSPost2010Prop42
 90
       50
102
RTVSPost2010PropOp42
 70
     1
102
RTVSPost2010Prop43
 90
        3
102
RTVSPost2010PropOp43
 70
     1
102
RTVSPost2010Prop44ColorIndex
 90
        5
102
RTVSPost2010Prop44ColorRGB
 90
      255
102
RTVSPost2010PropOp44
 70
     1
102
RTVSPost2010Prop45
280
     0
102
RTVSPost2010PropOp45
 70
     1
102
RTVSPost2010Prop46
 90
       50
102
RTVSPost2010PropOp46
 70
     1
102
RTVSPost2010Prop47
 90
       50
102
RTVSPost2010PropOp47
 70
     1
102
RTVSPost2010Prop48
 90
       50
102
RTVSPost2010PropOp48
 70
     1
102
RTVSPost2010Prop49
280
     0
102
RTVSPost2010PropOp49
 70
     1
102
RTVSPost2010Prop50
 90
       50
102
RTVSPost2010PropOp50
 70
     1
102
RTVSPost2010Prop51ColorIndex
 90
      256
102
RTVSPost2010Prop51ColorRGB
 90
-16777216
102
RTVSPost2010PropOp51
 70
     0
102
RTVSPost2010Prop52
140
1.0
102
RTVSPost2010PropOp52
 70
     0
102
RTVSPost2010Prop53
 90
        2
102
RTVSPost2010PropOp53
 70
     1
102
RTVSPost2010Prop54
  1
strokes_ogs.tif
102
RTVSPost2010PropOp54
 70
     1
102
RTVSPost2010Prop55
280
     0
102
RTVSPost2010PropOp55
 70
     1
102
RTVSPost2010Prop56
140
1.0
102
RTVSPost2010PropOp56
 70
     1
102
RTVSPost2010Prop57
140
1.0
102
RTVSPost2010PropOp57
 70
     1
  0
XRECORD
  5
80
102
{ACAD_REACTORS
330
7F
102
}
330
7F
100
AcDbXrecord
280
     1
102
RTVSPropertyOp0
 70
     1
102
RTVSPropertyOp1
 70
     1
102
RTVSPropertyOp2
 70
     1
102
RTVSPropertyOp3
 70
     1
102
RTVSPropertyOp4
 70
     1
102
RTVSPropertyOp5
 70
     1
102
RTVSPropertyOp6
 70
     1
102
RTVSPropertyOp7
 70
     1
102
RTVSPropertyOp8
 70
     1
102
RTVSPropertyOp9
 70
     1
102
RTVSPropertyOp10
 70
     1
102
RTVSPropertyOp11
 70
     1
102
RTVSPropertyOp12
 70
     1
102
RTVSPropertyOp13
 70
     1
102
RTVSPropertyOp14
 70
     1
102
RTVSPropertyOp15
 70
     1
102
RTVSPropertyOp16
 70
     1
102
RTVSPropertyOp17
 70
     1
102
RTVSPropertyOp18
 70
     1
102
RTVSPropertyOp19
 70
     1
102
RTVSPropertyOp20
 70
     1
102
RTVSPropertyOp21
 70
     1
102
RTVSPropertyOp22
 70
     1
102
RTVSPropertyOp23
 70
     1
102
RTVSPropertyOp24
 70
     1
102
RTVSPropertyOp25
 70
     1
102
RTVSPropertyOp26
 70
     1
102
RTVSPropertyOp27
 70
     1
102
RTVSPropertyOp28
 70
     1
102
RTVSPropertyOp29
 70
     1
102
RTVSPropertyOp30
 70
     1
102
RTVSPropertyOp31
 70
     1
102
RTVSPropertyOp32
 70
     1
102
RTVSPropertyOp33
 70
     1
102
RTVSPropertyOp34
 70
     1
102
RTVSPropertyOp35
 70
     1
102
RTVSPropertyOp36
 70
     1
102
RTVSPropertyOp37
 70
     1
102
RTVSPropertyOp38
 70
     1
102
RTVSPropertyOp39
 70
     1
102
RTVSPropertyOp40
 70
     1
102
RTVSPropertyOp41
 70
     1
102
RTVSPropertyOp42
 70
     1
102
RTVSPropertyOp43
 70
     1
102
RTVSPropertyOp44
 70
     1
102
RTVSPropertyOp45
 70
     1
102
RTVSPropertyOp46
 70
     1
102
RTVSPropertyOp47
 70
     1
102
RTVSPropertyOp48
 70
     1
102
RTVSPropertyOp49
 70
     1
102
RTVSPropertyOp50
 70
     1
102
RTVSPropertyOp51
 70
     0
102
RTVSPropertyOp52
 70
     0
102
RTVSPropertyOp53
 70
     1
102
RTVSPropertyOp54
 70
     1
102
RTVSPropertyOp55
 70
     1
102
RTVSPropertyOp56
 70
     1
102
RTVSPropertyOp57
 70
     1
102
RTVSPost2010Prop28
280
     0
102
RTVSPost2010PropOp28
 70
     1
102
RTVSPost2010Prop29
280
     1
102
RTVSPost2010PropOp29
 70
     1
102
RTVSPost2010Prop30
280
     1
102
RTVSPost2010PropOp30
 70
     1
102
RTVSPost2010Prop31
280
     0
102
RTVSPost2010PropOp31
 70
     1
102
RTVSPost2010Prop32
280
     0
102
RTVSPost2010PropOp32
 70
     1
102
RTVSPost2010Prop33
280
     0
102
RTVSPost2010PropOp33
 70
     1
102
RTVSPost2010Prop34
280
     0
102
RTVSPost2010PropOp34
 70
     1
102
RTVSPost2010Prop35
280
     0
102
RTVSPost2010PropOp35
 70
     1
102
RTVSPost2010Prop36
280
     0
102
RTVSPost2010PropOp36
 70
     1
102
RTVSPost2010Prop37
 90
       50
102
RTVSPost2010PropOp37
 70
     1
102
RTVSPost2010Prop38
140
0.0
102
RTVSPost2010PropOp38
 70
     1
102
RTVSPost2010Prop39
140
1.0
102
RTVSPost2010PropOp39
 70
     1
102
RTVSPost2010Prop40
 90
        0
102
RTVSPost2010PropOp40
 70
     1
102
RTVSPost2010Prop41ColorIndex
 90
       18
102
RTVSPost2010Prop41ColorRGB
 90
        0
102
RTVSPost2010PropOp41
 70
     1
102
RTVSPost2010Prop42
 90
       50
102
RTVSPost2010PropOp42
 70
     1
102
RTVSPost2010Prop43
 90
        3
102
RTVSPost2010PropOp43
 70
     1
102
RTVSPost2010Prop44ColorIndex
 90
        5
102
RTVSPost2010Prop44ColorRGB
 90
      255
102
RTVSPost2010PropOp44
 70
     1
102
RTVSPost2010Prop45
280
     0
102
RTVSPost2010PropOp45
 70
     1
102
RTVSPost2010Prop46
 90
       50
102
RTVSPost2010PropOp46
 70
     1
102
RTVSPost2010Prop47
 90
       50
102
RTVSPost2010PropOp47
 70
     1
102
RTVSPost2010Prop48
 90
       50
102
RTVSPost2010PropOp48
 70
     1
102
RTVSPost2010Prop49
280
     0
102
RTVSPost2010PropOp49
 70
     1
102
RTVSPost2010Prop50
 90
       50
102
RTVSPost2010PropOp50
 70
     1
102
RTVSPost2010Prop51ColorIndex
 90
      256
102
RTVSPost2010Prop51ColorRGB
 90
-16777216
102
RTVSPost2010PropOp51
 70
     0
102
RTVSPost2010Prop52
140
1.0
102
RTVSPost2010PropOp52
 70
     0
102
RTVSPost2010Prop53
 90
        2
102
RTVSPost2010PropOp53
 70
     1
102
RTVSPost2010Prop54
  1
strokes_ogs.tif
102
RTVSPost2010PropOp54
 70
     1
102
RTVSPost2010Prop55
280
     0
102
RTVSPost2010PropOp55
 70
     1
102
RTVSPost2010Prop56
140
1.0
102
RTVSPost2010PropOp56
 70
     1
102
RTVSPost2010Prop57
140
1.0
102
RTVSPost2010PropOp57
 70
     1
  0
XRECORD
  5
82
102
{ACAD_REACTORS
330
81
102
}
330
81
100
AcDbXrecord
280
     1
102
RTVSPropertyOp0
 70
     1
102
RTVSPropertyOp1
 70
     1
102
RTVSPropertyOp2
 70
     1
102
RTVSPropertyOp3
 70
     1
102
RTVSPropertyOp4
 70
     1
102
RTVSPropertyOp5
 70
     1
102
RTVSPropertyOp6
 70
     1
102
RTVSPropertyOp7
 70
     1
102
RTVSPropertyOp8
 70
     1
102
RTVSPropertyOp9
 70
     1
102
RTVSPropertyOp10
 70
     1
102
RTVSPropertyOp11
 70
     1
102
RTVSPropertyOp12
 70
     1
102
RTVSPropertyOp13
 70
     1
102
RTVSPropertyOp14
 70
     1
102
RTVSPropertyOp15
 70
     1
102
RTVSPropertyOp16
 70
     1
102
RTVSPropertyOp17
 70
     1
102
RTVSPropertyOp18
 70
     1
102
RTVSPropertyOp19
 70
     1
102
RTVSPropertyOp20
 70
     1
102
RTVSPropertyOp21
 70
     1
102
RTVSPropertyOp22
 70
     1
102
RTVSPropertyOp23
 70
     1
102
RTVSPropertyOp24
 70
     1
102
RTVSPropertyOp25
 70
     1
102
RTVSPropertyOp26
 70
     1
102
RTVSPropertyOp27
 70
     1
102
RTVSPropertyOp28
 70
     1
102
RTVSPropertyOp29
 70
     1
102
RTVSPropertyOp30
 70
     1
102
RTVSPropertyOp31
 70
     1
102
RTVSPropertyOp32
 70
     1
102
RTVSPropertyOp33
 70
     1
102
RTVSPropertyOp34
 70
     1
102
RTVSPropertyOp35
 70
     1
102
RTVSPropertyOp36
 70
     1
102
RTVSPropertyOp37
 70
     1
102
RTVSPropertyOp38
 70
     1
102
RTVSPropertyOp39
 70
     1
102
RTVSPropertyOp40
 70
     1
102
RTVSPropertyOp41
 70
     1
102
RTVSPropertyOp42
 70
     1
102
RTVSPropertyOp43
 70
     1
102
RTVSPropertyOp44
 70
     1
102
RTVSPropertyOp45
 70
     1
102
RTVSPropertyOp46
 70
     1
102
RTVSPropertyOp47
 70
     1
102
RTVSPropertyOp48
 70
     1
102
RTVSPropertyOp49
 70
     1
102
RTVSPropertyOp50
 70
     1
102
RTVSPropertyOp51
 70
     0
102
RTVSPropertyOp52
 70
     0
102
RTVSPropertyOp53
 70
     1
102
RTVSPropertyOp54
 70
     1
102
RTVSPropertyOp55
 70
     1
102
RTVSPropertyOp56
 70
     1
102
RTVSPropertyOp57
 70
     1
102
RTVSPost2010Prop28
280
     0
102
RTVSPost2010PropOp28
 70
     1
102
RTVSPost2010Prop29
280
     1
102
RTVSPost2010PropOp29
 70
     1
102
RTVSPost2010Prop30
280
     1
102
RTVSPost2010PropOp30
 70
     1
102
RTVSPost2010Prop31
280
     0
102
RTVSPost2010PropOp31
 70
     1
102
RTVSPost2010Prop32
280
     0
102
RTVSPost2010PropOp32
 70
     1
102
RTVSPost2010Prop33
280
     0
102
RTVSPost2010PropOp33
 70
     1
102
RTVSPost2010Prop34
280
     0
102
RTVSPost2010PropOp34
 70
     1
102
RTVSPost2010Prop35
280
     0
102
RTVSPost2010PropOp35
 70
     1
102
RTVSPost2010Prop36
280
     0
102
RTVSPost2010PropOp36
 70
     1
102
RTVSPost2010Prop37
 90
       50
102
RTVSPost2010PropOp37
 70
     1
102
RTVSPost2010Prop38
140
0.0
102
RTVSPost2010PropOp38
 70
     1
102
RTVSPost2010Prop39
140
1.0
102
RTVSPost2010PropOp39
 70
     1
102
RTVSPost2010Prop40
 90
        0
102
RTVSPost2010PropOp40
 70
     1
102
RTVSPost2010Prop41ColorIndex
 90
       18
102
RTVSPost2010Prop41ColorRGB
 90
        0
102
RTVSPost2010PropOp41
 70
     1
102
RTVSPost2010Prop42
 90
       50
102
RTVSPost2010PropOp42
 70
     1
102
RTVSPost2010Prop43
 90
        3
102
RTVSPost2010PropOp43
 70
     1
102
RTVSPost2010Prop44ColorIndex
 90
        5
102
RTVSPost2010Prop44ColorRGB
 90
      255
102
RTVSPost2010PropOp44
 70
     1
102
RTVSPost2010Prop45
280
     0
102
RTVSPost2010PropOp45
 70
     1
102
RTVSPost2010Prop46
 90
       50
102
RTVSPost2010PropOp46
 70
     1
102
RTVSPost2010Prop47
 90
       50
102
RTVSPost2010PropOp47
 70
     1
102
RTVSPost2010Prop48
 90
       50
102
RTVSPost2010PropOp48
 70
     1
102
RTVSPost2010Prop49
280
     0
102
RTVSPost2010PropOp49
 70
     1
102
RTVSPost2010Prop50
 90
       50
102
RTVSPost2010PropOp50
 70
     1
102
RTVSPost2010Prop51ColorIndex
 90
      256
102
RTVSPost2010Prop51ColorRGB
 90
-16777216
102
RTVSPost2010PropOp51
 70
     0
102
RTVSPost2010Prop52
140
1.0
102
RTVSPost2010PropOp52
 70
     0
102
RTVSPost2010Prop53
 90
        2
102
RTVSPost2010PropOp53
 70
     1
102
RTVSPost2010Prop54
  1
strokes_ogs.tif
102
RTVSPost2010PropOp54
 70
     1
102
RTVSPost2010Prop55
280
     0
102
RTVSPost2010PropOp55
 70
     1
102
RTVSPost2010Prop56
140
1.0
102
RTVSPost2010PropOp56
 70
     1
102
RTVSPost2010Prop57
140
1.0
102
RTVSPost2010PropOp57
 70
     1
  0
XRECORD
  5
84
102
{ACAD_REACTORS
330
83
102
}
330
83
100
AcDbXrecord
280
     1
102
RTVSPropertyOp0
 70
     1
102
RTVSPropertyOp1
 70
     1
102
RTVSPropertyOp2
 70
     1
102
RTVSPropertyOp3
 70
     1
102
RTVSPropertyOp4
 70
     1
102
RTVSPropertyOp5
 70
     1
102
RTVSPropertyOp6
 70
     1
102
RTVSPropertyOp7
 70
     1
102
RTVSPropertyOp8
 70
     1
102
RTVSPropertyOp9
 70
     1
102
RTVSPropertyOp10
 70
     1
102
RTVSPropertyOp11
 70
     1
102
RTVSPropertyOp12
 70
     1
102
RTVSPropertyOp13
 70
     1
102
RTVSPropertyOp14
 70
     1
102
RTVSPropertyOp15
 70
     1
102
RTVSPropertyOp16
 70
     1
102
RTVSPropertyOp17
 70
     1
102
RTVSPropertyOp18
 70
     1
102
RTVSPropertyOp19
 70
     1
102
RTVSPropertyOp20
 70
     1
102
RTVSPropertyOp21
 70
     1
102
RTVSPropertyOp22
 70
     1
102
RTVSPropertyOp23
 70
     1
102
RTVSPropertyOp24
 70
     1
102
RTVSPropertyOp25
 70
     1
102
RTVSPropertyOp26
 70
     1
102
RTVSPropertyOp27
 70
     1
102
RTVSPropertyOp28
 70
     1
102
RTVSPropertyOp29
 70
     1
102
RTVSPropertyOp30
 70
     1
102
RTVSPropertyOp31
 70
     1
102
RTVSPropertyOp32
 70
     1
102
RTVSPropertyOp33
 70
     1
102
RTVSPropertyOp34
 70
     1
102
RTVSPropertyOp35
 70
     1
102
RTVSPropertyOp36
 70
     1
102
RTVSPropertyOp37
 70
     1
102
RTVSPropertyOp38
 70
     1
102
RTVSPropertyOp39
 70
     1
102
RTVSPropertyOp40
 70
     1
102
RTVSPropertyOp41
 70
     1
102
RTVSPropertyOp42
 70
     1
102
RTVSPropertyOp43
 70
     1
102
RTVSPropertyOp44
 70
     1
102
RTVSPropertyOp45
 70
     1
102
RTVSPropertyOp46
 70
     1
102
RTVSPropertyOp47
 70
     1
102
RTVSPropertyOp48
 70
     1
102
RTVSPropertyOp49
 70
     1
102
RTVSPropertyOp50
 70
     1
102
RTVSPropertyOp51
 70
     0
102
RTVSPropertyOp52
 70
     0
102
RTVSPropertyOp53
 70
     1
102
RTVSPropertyOp54
 70
     1
102
RTVSPropertyOp55
 70
     1
102
RTVSPropertyOp56
 70
     1
102
RTVSPropertyOp57
 70
     1
102
RTVSPost2010Prop28
280
     0
102
RTVSPost2010PropOp28
 70
     1
102
RTVSPost2010Prop29
280
     1
102
RTVSPost2010PropOp29
 70
     1
102
RTVSPost2010Prop30
280
     1
102
RTVSPost2010PropOp30
 70
     1
102
RTVSPost2010Prop31
280
     0
102
RTVSPost2010PropOp31
 70
     1
102
RTVSPost2010Prop32
280
     0
102
RTVSPost2010PropOp32
 70
     1
102
RTVSPost2010Prop33
280
     0
102
RTVSPost2010PropOp33
 70
     1
102
RTVSPost2010Prop34
280
     0
102
RTVSPost2010PropOp34
 70
     1
102
RTVSPost2010Prop35
280
     0
102
RTVSPost2010PropOp35
 70
     1
102
RTVSPost2010Prop36
280
     0
102
RTVSPost2010PropOp36
 70
     1
102
RTVSPost2010Prop37
 90
       50
102
RTVSPost2010PropOp37
 70
     1
102
RTVSPost2010Prop38
140
0.0
102
RTVSPost2010PropOp38
 70
     1
102
RTVSPost2010Prop39
140
1.0
102
RTVSPost2010PropOp39
 70
     1
102
RTVSPost2010Prop40
 90
        0
102
RTVSPost2010PropOp40
 70
     1
102
RTVSPost2010Prop41ColorIndex
 90
       18
102
RTVSPost2010Prop41ColorRGB
 90
        0
102
RTVSPost2010PropOp41
 70
     1
102
RTVSPost2010Prop42
 90
       50
102
RTVSPost2010PropOp42
 70
     1
102
RTVSPost2010Prop43
 90
        3
102
RTVSPost2010PropOp43
 70
     1
102
RTVSPost2010Prop44ColorIndex
 90
        5
102
RTVSPost2010Prop44ColorRGB
 90
      255
102
RTVSPost2010PropOp44
 70
     1
102
RTVSPost2010Prop45
280
     0
102
RTVSPost2010PropOp45
 70
     1
102
RTVSPost2010Prop46
 90
       50
102
RTVSPost2010PropOp46
 70
     1
102
RTVSPost2010Prop47
 90
       50
102
RTVSPost2010PropOp47
 70
     1
102
RTVSPost2010Prop48
 90
       50
102
RTVSPost2010PropOp48
 70
     1
102
RTVSPost2010Prop49
280
     0
102
RTVSPost2010PropOp49
 70
     1
102
RTVSPost2010Prop50
 90
       50
102
RTVSPost2010PropOp50
 70
     1
102
RTVSPost2010Prop51ColorIndex
 90
      256
102
RTVSPost2010Prop51ColorRGB
 90
-16777216
102
RTVSPost2010PropOp51
 70
     0
102
RTVSPost2010Prop52
140
1.0
102
RTVSPost2010PropOp52
 70
     0
102
RTVSPost2010Prop53
 90
        2
102
RTVSPost2010PropOp53
 70
     1
102
RTVSPost2010Prop54
  1
strokes_ogs.tif
102
RTVSPost2010PropOp54
 70
     1
102
RTVSPost2010Prop55
280
     0
102
RTVSPost2010PropOp55
 70
     1
102
RTVSPost2010Prop56
140
1.0
102
RTVSPost2010PropOp56
 70
     1
102
RTVSPost2010Prop57
140
1.0
102
RTVSPost2010PropOp57
 70
     1
  0
XRECORD
  5
8A
102
{ACAD_REACTORS
330
89
102
}
330
89
100
AcDbXrecord
280
     1
102
RTVSPropertyOp0
 70
     1
102
RTVSPropertyOp1
 70
     1
102
RTVSPropertyOp2
 70
     1
102
RTVSPropertyOp3
 70
     1
102
RTVSPropertyOp4
 70
     1
102
RTVSPropertyOp5
 70
     1
102
RTVSPropertyOp6
 70
     1
102
RTVSPropertyOp7
 70
     1
102
RTVSPropertyOp8
 70
     1
102
RTVSPropertyOp9
 70
     1
102
RTVSPropertyOp10
 70
     1
102
RTVSPropertyOp11
 70
     1
102
RTVSPropertyOp12
 70
     1
102
RTVSPropertyOp13
 70
     1
102
RTVSPropertyOp14
 70
     1
102
RTVSPropertyOp15
 70
     1
102
RTVSPropertyOp16
 70
     1
102
RTVSPropertyOp17
 70
     1
102
RTVSPropertyOp18
 70
     1
102
RTVSPropertyOp19
 70
     1
102
RTVSPropertyOp20
 70
     1
102
RTVSPropertyOp21
 70
     1
102
RTVSPropertyOp22
 70
     1
102
RTVSPropertyOp23
 70
     1
102
RTVSPropertyOp24
 70
     1
102
RTVSPropertyOp25
 70
     1
102
RTVSPropertyOp26
 70
     1
102
RTVSPropertyOp27
 70
     1
102
RTVSPropertyOp28
 70
     1
102
RTVSPropertyOp29
 70
     1
102
RTVSPropertyOp30
 70
     1
102
RTVSPropertyOp31
 70
     1
102
RTVSPropertyOp32
 70
     1
102
RTVSPropertyOp33
 70
     1
102
RTVSPropertyOp34
 70
     1
102
RTVSPropertyOp35
 70
     1
102
RTVSPropertyOp36
 70
     1
102
RTVSPropertyOp37
 70
     1
102
RTVSPropertyOp38
 70
     1
102
RTVSPropertyOp39
 70
     1
102
RTVSPropertyOp40
 70
     1
102
RTVSPropertyOp41
 70
     1
102
RTVSPropertyOp42
 70
     1
102
RTVSPropertyOp43
 70
     1
102
RTVSPropertyOp44
 70
     1
102
RTVSPropertyOp45
 70
     1
102
RTVSPropertyOp46
 70
     1
102
RTVSPropertyOp47
 70
     1
102
RTVSPropertyOp48
 70
     1
102
RTVSPropertyOp49
 70
     1
102
RTVSPropertyOp50
 70
     1
102
RTVSPropertyOp51
 70
     0
102
RTVSPropertyOp52
 70
     0
102
RTVSPropertyOp53
 70
     1
102
RTVSPropertyOp54
 70
     1
102
RTVSPropertyOp55
 70
     1
102
RTVSPropertyOp56
 70
     1
102
RTVSPropertyOp57
 70
     1
102
RTVSPost2010Prop28
280
     0
102
RTVSPost2010PropOp28
 70
     1
102
RTVSPost2010Prop29
280
     1
102
RTVSPost2010PropOp29
 70
     1
102
RTVSPost2010Prop30
280
     1
102
RTVSPost2010PropOp30
 70
     1
102
RTVSPost2010Prop31
280
     0
102
RTVSPost2010PropOp31
 70
     1
102
RTVSPost2010Prop32
280
     0
102
RTVSPost2010PropOp32
 70
     1
102
RTVSPost2010Prop33
280
     0
102
RTVSPost2010PropOp33
 70
     1
102
RTVSPost2010Prop34
280
     0
102
RTVSPost2010PropOp34
 70
     1
102
RTVSPost2010Prop35
280
     0
102
RTVSPost2010PropOp35
 70
     1
102
RTVSPost2010Prop36
280
     0
102
RTVSPost2010PropOp36
 70
     1
102
RTVSPost2010Prop37
 90
       50
102
RTVSPost2010PropOp37
 70
     1
102
RTVSPost2010Prop38
140
0.0
102
RTVSPost2010PropOp38
 70
     1
102
RTVSPost2010Prop39
140
1.0
102
RTVSPost2010PropOp39
 70
     1
102
RTVSPost2010Prop40
 90
        0
102
RTVSPost2010PropOp40
 70
     1
102
RTVSPost2010Prop41ColorIndex
 90
       18
102
RTVSPost2010Prop41ColorRGB
 90
        0
102
RTVSPost2010PropOp41
 70
     1
102
RTVSPost2010Prop42
 90
       50
102
RTVSPost2010PropOp42
 70
     1
102
RTVSPost2010Prop43
 90
        3
102
RTVSPost2010PropOp43
 70
     1
102
RTVSPost2010Prop44ColorIndex
 90
        5
102
RTVSPost2010Prop44ColorRGB
 90
      255
102
RTVSPost2010PropOp44
 70
     1
102
RTVSPost2010Prop45
280
     0
102
RTVSPost2010PropOp45
 70
     1
102
RTVSPost2010Prop46
 90
       50
102
RTVSPost2010PropOp46
 70
     1
102
RTVSPost2010Prop47
 90
       50
102
RTVSPost2010PropOp47
 70
     1
102
RTVSPost2010Prop48
 90
       50
102
RTVSPost2010PropOp48
 70
     1
102
RTVSPost2010Prop49
280
     0
102
RTVSPost2010PropOp49
 70
     1
102
RTVSPost2010Prop50
 90
       50
102
RTVSPost2010PropOp50
 70
     1
102
RTVSPost2010Prop51ColorIndex
 90
      256
102
RTVSPost2010Prop51ColorRGB
 90
-16777216
102
RTVSPost2010PropOp51
 70
     0
102
RTVSPost2010Prop52
140
1.0
102
RTVSPost2010PropOp52
 70
     0
102
RTVSPost2010Prop53
 90
        2
102
RTVSPost2010PropOp53
 70
     1
102
RTVSPost2010Prop54
  1
strokes_ogs.tif
102
RTVSPost2010PropOp54
 70
     1
102
RTVSPost2010Prop55
280
     0
102
RTVSPost2010PropOp55
 70
     1
102
RTVSPost2010Prop56
140
1.0
102
RTVSPost2010PropOp56
 70
     1
102
RTVSPost2010Prop57
140
1.0
102
RTVSPost2010PropOp57
 70
     1
  0
XRECORD
  5
9E
102
{ACAD_REACTORS
330
9D
102
}
330
9D
100
AcDbXrecord
280
     1
102
RTVSPropertyOp0
 70
     0
102
RTVSPropertyOp1
 70
     0
102
RTVSPropertyOp2
 70
     0
102
RTVSPropertyOp3
 70
     0
102
RTVSPropertyOp4
 70
     0
102
RTVSPropertyOp5
 70
     0
102
RTVSPropertyOp6
 70
     0
102
RTVSPropertyOp7
 70
     0
102
RTVSPropertyOp8
 70
     0
102
RTVSPropertyOp9
 70
     0
102
RTVSPropertyOp10
 70
     0
102
RTVSPropertyOp11
 70
     0
102
RTVSPropertyOp12
 70
     0
102
RTVSPropertyOp13
 70
     0
102
RTVSPropertyOp14
 70
     2
102
RTVSPropertyOp15
 70
     0
102
RTVSPropertyOp16
 70
     0
102
RTVSPropertyOp17
 70
     0
102
RTVSPropertyOp18
 70
     0
102
RTVSPropertyOp19
 70
     0
102
RTVSPropertyOp20
 70
     0
102
RTVSPropertyOp21
 70
     0
102
RTVSPropertyOp22
 70
     0
102
RTVSPropertyOp23
 70
     0
102
RTVSPropertyOp24
 70
     0
102
RTVSPropertyOp25
 70
     0
102
RTVSPropertyOp26
 70
     0
102
RTVSPropertyOp27
 70
     0
102
RTVSPropertyOp28
 70
     0
102
RTVSPropertyOp29
 70
     0
102
RTVSPropertyOp30
 70
     0
102
RTVSPropertyOp31
 70
     0
102
RTVSPropertyOp32
 70
     0
102
RTVSPropertyOp33
 70
     0
102
RTVSPropertyOp34
 70
     0
102
RTVSPropertyOp35
 70
     0
102
RTVSPropertyOp36
 70
     0
102
RTVSPropertyOp37
 70
     0
102
RTVSPropertyOp38
 70
     0
102
RTVSPropertyOp39
 70
     0
102
RTVSPropertyOp40
 70
     0
102
RTVSPropertyOp41
 70
     0
102
RTVSPropertyOp42
 70
     0
102
RTVSPropertyOp43
 70
     0
102
RTVSPropertyOp44
 70
     0
102
RTVSPropertyOp45
 70
     0
102
RTVSPropertyOp46
 70
     0
102
RTVSPropertyOp47
 70
     0
102
RTVSPropertyOp48
 70
     0
102
RTVSPropertyOp49
 70
     0
102
RTVSPropertyOp50
 70
     0
102
RTVSPropertyOp51
 70
     0
102
RTVSPropertyOp52
 70
     0
102
RTVSPropertyOp53
 70
     0
102
RTVSPropertyOp54
 70
     0
102
RTVSPropertyOp55
 70
     0
102
RTVSPropertyOp56
 70
     0
102
RTVSPropertyOp57
 70
     0
102
RTVSPost2010Prop28
280
     0
102
RTVSPost2010PropOp28
 70
     0
102
RTVSPost2010Prop29
280
     1
102
RTVSPost2010PropOp29
 70
     0
102
RTVSPost2010Prop30
280
     1
102
RTVSPost2010PropOp30
 70
     0
102
RTVSPost2010Prop31
280
     0
102
RTVSPost2010PropOp31
 70
     0
102
RTVSPost2010Prop32
280
     0
102
RTVSPost2010PropOp32
 70
     0
102
RTVSPost2010Prop33
280
     0
102
RTVSPost2010PropOp33
 70
     0
102
RTVSPost2010Prop34
280
     0
102
RTVSPost2010PropOp34
 70
     0
102
RTVSPost2010Prop35
280
     0
102
RTVSPost2010PropOp35
 70
     0
102
RTVSPost2010Prop36
280
     0
102
RTVSPost2010PropOp36
 70
     0
102
RTVSPost2010Prop37
 90
       50
102
RTVSPost2010PropOp37
 70
     0
102
RTVSPost2010Prop38
140
0.0
102
RTVSPost2010PropOp38
 70
     0
102
RTVSPost2010Prop39
140
1.0
102
RTVSPost2010PropOp39
 70
     0
102
RTVSPost2010Prop40
 90
        0
102
RTVSPost2010PropOp40
 70
     0
102
RTVSPost2010Prop41ColorIndex
 90
       18
102
RTVSPost2010Prop41ColorRGB
 90
        0
102
RTVSPost2010PropOp41
 70
     0
102
RTVSPost2010Prop42
 90
       50
102
RTVSPost2010PropOp42
 70
     0
102
RTVSPost2010Prop43
 90
        3
102
RTVSPost2010PropOp43
 70
     0
102
RTVSPost2010Prop44ColorIndex
 90
        5
102
RTVSPost2010Prop44ColorRGB
 90
      255
102
RTVSPost2010PropOp44
 70
     0
102
RTVSPost2010Prop45
280
     0
102
RTVSPost2010PropOp45
 70
     0
102
RTVSPost2010Prop46
 90
       50
102
RTVSPost2010PropOp46
 70
     0
102
RTVSPost2010Prop47
 90
       50
102
RTVSPost2010PropOp47
 70
     0
102
RTVSPost2010Prop48
 90
       50
102
RTVSPost2010PropOp48
 70
     0
102
RTVSPost2010Prop49
280
     0
102
RTVSPost2010PropOp49
 70
     0
102
RTVSPost2010Prop50
 90
       50
102
RTVSPost2010PropOp50
 70
     0
102
RTVSPost2010Prop51ColorIndex
 90
      256
102
RTVSPost2010Prop51ColorRGB
 90
-16777216
102
RTVSPost2010PropOp51
 70
     0
102
RTVSPost2010Prop52
140
1.0
102
RTVSPost2010PropOp52
 70
     0
102
RTVSPost2010Prop53
 90
        2
102
RTVSPost2010PropOp53
 70
     0
102
RTVSPost2010Prop54
  1
strokes_ogs.tif
102
RTVSPost2010PropOp54
 70
     0
102
RTVSPost2010Prop55
280
     0
102
RTVSPost2010PropOp55
 70
     0
102
RTVSPost2010Prop56
140
1.0
102
RTVSPost2010PropOp56
 70
     0
102
RTVSPost2010Prop57
140
1.0
102
RTVSPost2010PropOp57
 70
     0
  0
XRECORD
  5
98
102
{ACAD_REACTORS
330
97
102
}
330
97
100
AcDbXrecord
280
     1
102
RTVSPropertyOp0
 70
     1
102
RTVSPropertyOp1
 70
     1
102
RTVSPropertyOp2
 70
     1
102
RTVSPropertyOp3
 70
     1
102
RTVSPropertyOp4
 70
     1
102
RTVSPropertyOp5
 70
     1
102
RTVSPropertyOp6
 70
     1
102
RTVSPropertyOp7
 70
     1
102
RTVSPropertyOp8
 70
     1
102
RTVSPropertyOp9
 70
     1
102
RTVSPropertyOp10
 70
     1
102
RTVSPropertyOp11
 70
     1
102
RTVSPropertyOp12
 70
     1
102
RTVSPropertyOp13
 70
     1
102
RTVSPropertyOp14
 70
     1
102
RTVSPropertyOp15
 70
     1
102
RTVSPropertyOp16
 70
     1
102
RTVSPropertyOp17
 70
     1
102
RTVSPropertyOp18
 70
     1
102
RTVSPropertyOp19
 70
     1
102
RTVSPropertyOp20
 70
     1
102
RTVSPropertyOp21
 70
     1
102
RTVSPropertyOp22
 70
     1
102
RTVSPropertyOp23
 70
     1
102
RTVSPropertyOp24
 70
     1
102
RTVSPropertyOp25
 70
     1
102
RTVSPropertyOp26
 70
     1
102
RTVSPropertyOp27
 70
     1
102
RTVSPropertyOp28
 70
     1
102
RTVSPropertyOp29
 70
     1
102
RTVSPropertyOp30
 70
     1
102
RTVSPropertyOp31
 70
     1
102
RTVSPropertyOp32
 70
     1
102
RTVSPropertyOp33
 70
     1
102
RTVSPropertyOp34
 70
     1
102
RTVSPropertyOp35
 70
     1
102
RTVSPropertyOp36
 70
     1
102
RTVSPropertyOp37
 70
     1
102
RTVSPropertyOp38
 70
     1
102
RTVSPropertyOp39
 70
     1
102
RTVSPropertyOp40
 70
     1
102
RTVSPropertyOp41
 70
     1
102
RTVSPropertyOp42
 70
     1
102
RTVSPropertyOp43
 70
     1
102
RTVSPropertyOp44
 70
     1
102
RTVSPropertyOp45
 70
     1
102
RTVSPropertyOp46
 70
     1
102
RTVSPropertyOp47
 70
     1
102
RTVSPropertyOp48
 70
     1
102
RTVSPropertyOp49
 70
     1
102
RTVSPropertyOp50
 70
     1
102
RTVSPropertyOp51
 70
     0
102
RTVSPropertyOp52
 70
     0
102
RTVSPropertyOp53
 70
     1
102
RTVSPropertyOp54
 70
     1
102
RTVSPropertyOp55
 70
     1
102
RTVSPropertyOp56
 70
     1
102
RTVSPropertyOp57
 70
     1
102
RTVSPost2010Prop28
280
     0
102
RTVSPost2010PropOp28
 70
     1
102
RTVSPost2010Prop29
280
     1
102
RTVSPost2010PropOp29
 70
     1
102
RTVSPost2010Prop30
280
     1
102
RTVSPost2010PropOp30
 70
     1
102
RTVSPost2010Prop31
280
     0
102
RTVSPost2010PropOp31
 70
     1
102
RTVSPost2010Prop32
280
     0
102
RTVSPost2010PropOp32
 70
     1
102
RTVSPost2010Prop33
280
     0
102
RTVSPost2010PropOp33
 70
     1
102
RTVSPost2010Prop34
280
     0
102
RTVSPost2010PropOp34
 70
     1
102
RTVSPost2010Prop35
280
     0
102
RTVSPost2010PropOp35
 70
     1
102
RTVSPost2010Prop36
280
     0
102
RTVSPost2010PropOp36
 70
     1
102
RTVSPost2010Prop37
 90
       50
102
RTVSPost2010PropOp37
 70
     1
102
RTVSPost2010Prop38
140
0.0
102
RTVSPost2010PropOp38
 70
     1
102
RTVSPost2010Prop39
140
1.0
102
RTVSPost2010PropOp39
 70
     1
102
RTVSPost2010Prop40
 90
        0
102
RTVSPost2010PropOp40
 70
     1
102
RTVSPost2010Prop41ColorIndex
 90
       18
102
RTVSPost2010Prop41ColorRGB
 90
        0
102
RTVSPost2010PropOp41
 70
     1
102
RTVSPost2010Prop42
 90
       50
102
RTVSPost2010PropOp42
 70
     1
102
RTVSPost2010Prop43
 90
        3
102
RTVSPost2010PropOp43
 70
     1
102
RTVSPost2010Prop44ColorIndex
 90
        5
102
RTVSPost2010Prop44ColorRGB
 90
      255
102
RTVSPost2010PropOp44
 70
     1
102
RTVSPost2010Prop45
280
     0
102
RTVSPost2010PropOp45
 70
     1
102
RTVSPost2010Prop46
 90
       50
102
RTVSPost2010PropOp46
 70
     1
102
RTVSPost2010Prop47
 90
       50
102
RTVSPost2010PropOp47
 70
     1
102
RTVSPost2010Prop48
 90
       50
102
RTVSPost2010PropOp48
 70
     1
102
RTVSPost2010Prop49
280
     0
102
RTVSPost2010PropOp49
 70
     1
102
RTVSPost2010Prop50
 90
       50
102
RTVSPost2010PropOp50
 70
     1
102
RTVSPost2010Prop51ColorIndex
 90
      256
102
RTVSPost2010Prop51ColorRGB
 90
-16777216
102
RTVSPost2010PropOp51
 70
     0
102
RTVSPost2010Prop52
140
1.0
102
RTVSPost2010PropOp52
 70
     0
102
RTVSPost2010Prop53
 90
        2
102
RTVSPost2010PropOp53
 70
     1
102
RTVSPost2010Prop54
  1
strokes_ogs.tif
102
RTVSPost2010PropOp54
 70
     1
102
RTVSPost2010Prop55
280
     0
102
RTVSPost2010PropOp55
 70
     1
102
RTVSPost2010Prop56
140
1.0
102
RTVSPost2010PropOp56
 70
     1
102
RTVSPost2010Prop57
140
1.0
102
RTVSPost2010PropOp57
 70
     1
  0
XRECORD
  5
A0
102
{ACAD_REACTORS
330
9F
102
}
330
9F
100
AcDbXrecord
280
     1
102
RTVSPropertyOp0
 70
     0
102
RTVSPropertyOp1
 70
     0
102
RTVSPropertyOp2
 70
     0
102
RTVSPropertyOp3
 70
     0
102
RTVSPropertyOp4
 70
     0
102
RTVSPropertyOp5
 70
     0
102
RTVSPropertyOp6
 70
     0
102
RTVSPropertyOp7
 70
     0
102
RTVSPropertyOp8
 70
     0
102
RTVSPropertyOp9
 70
     0
102
RTVSPropertyOp10
 70
     0
102
RTVSPropertyOp11
 70
     0
102
RTVSPropertyOp12
 70
     0
102
RTVSPropertyOp13
 70
     0
102
RTVSPropertyOp14
 70
     2
102
RTVSPropertyOp15
 70
     0
102
RTVSPropertyOp16
 70
     0
102
RTVSPropertyOp17
 70
     0
102
RTVSPropertyOp18
 70
     0
102
RTVSPropertyOp19
 70
     0
102
RTVSPropertyOp20
 70
     0
102
RTVSPropertyOp21
 70
     0
102
RTVSPropertyOp22
 70
     0
102
RTVSPropertyOp23
 70
     0
102
RTVSPropertyOp24
 70
     0
102
RTVSPropertyOp25
 70
     0
102
RTVSPropertyOp26
 70
     0
102
RTVSPropertyOp27
 70
     0
102
RTVSPropertyOp28
 70
     0
102
RTVSPropertyOp29
 70
     0
102
RTVSPropertyOp30
 70
     0
102
RTVSPropertyOp31
 70
     0
102
RTVSPropertyOp32
 70
     0
102
RTVSPropertyOp33
 70
     0
102
RTVSPropertyOp34
 70
     0
102
RTVSPropertyOp35
 70
     0
102
RTVSPropertyOp36
 70
     0
102
RTVSPropertyOp37
 70
     0
102
RTVSPropertyOp38
 70
     0
102
RTVSPropertyOp39
 70
     0
102
RTVSPropertyOp40
 70
     0
102
RTVSPropertyOp41
 70
     0
102
RTVSPropertyOp42
 70
     0
102
RTVSPropertyOp43
 70
     0
102
RTVSPropertyOp44
 70
     0
102
RTVSPropertyOp45
 70
     0
102
RTVSPropertyOp46
 70
     0
102
RTVSPropertyOp47
 70
     0
102
RTVSPropertyOp48
 70
     0
102
RTVSPropertyOp49
 70
     0
102
RTVSPropertyOp50
 70
     0
102
RTVSPropertyOp51
 70
     0
102
RTVSPropertyOp52
 70
     0
102
RTVSPropertyOp53
 70
     0
102
RTVSPropertyOp54
 70
     0
102
RTVSPropertyOp55
 70
     0
102
RTVSPropertyOp56
 70
     0
102
RTVSPropertyOp57
 70
     0
102
RTVSPost2010Prop28
280
     0
102
RTVSPost2010PropOp28
 70
     0
102
RTVSPost2010Prop29
280
     1
102
RTVSPost2010PropOp29
 70
     0
102
RTVSPost2010Prop30
280
     1
102
RTVSPost2010PropOp30
 70
     0
102
RTVSPost2010Prop31
280
     0
102
RTVSPost2010PropOp31
 70
     0
102
RTVSPost2010Prop32
280
     0
102
RTVSPost2010PropOp32
 70
     0
102
RTVSPost2010Prop33
280
     0
102
RTVSPost2010PropOp33
 70
     0
102
RTVSPost2010Prop34
280
     0
102
RTVSPost2010PropOp34
 70
     0
102
RTVSPost2010Prop35
280
     0
102
RTVSPost2010PropOp35
 70
     0
102
RTVSPost2010Prop36
280
     0
102
RTVSPost2010PropOp36
 70
     0
102
RTVSPost2010Prop37
 90
       50
102
RTVSPost2010PropOp37
 70
     0
102
RTVSPost2010Prop38
140
0.0
102
RTVSPost2010PropOp38
 70
     0
102
RTVSPost2010Prop39
140
1.0
102
RTVSPost2010PropOp39
 70
     0
102
RTVSPost2010Prop40
 90
        0
102
RTVSPost2010PropOp40
 70
     0
102
RTVSPost2010Prop41ColorIndex
 90
       18
102
RTVSPost2010Prop41ColorRGB
 90
        0
102
RTVSPost2010PropOp41
 70
     0
102
RTVSPost2010Prop42
 90
       50
102
RTVSPost2010PropOp42
 70
     0
102
RTVSPost2010Prop43
 90
        3
102
RTVSPost2010PropOp43
 70
     0
102
RTVSPost2010Prop44ColorIndex
 90
        5
102
RTVSPost2010Prop44ColorRGB
 90
      255
102
RTVSPost2010PropOp44
 70
     0
102
RTVSPost2010Prop45
280
     0
102
RTVSPost2010PropOp45
 70
     0
102
RTVSPost2010Prop46
 90
       50
102
RTVSPost2010PropOp46
 70
     0
102
RTVSPost2010Prop47
 90
       50
102
RTVSPost2010PropOp47
 70
     0
102
RTVSPost2010Prop48
 90
       50
102
RTVSPost2010PropOp48
 70
     0
102
RTVSPost2010Prop49
280
     0
102
RTVSPost2010PropOp49
 70
     0
102
RTVSPost2010Prop50
 90
       50
102
RTVSPost2010PropOp50
 70
     0
102
RTVSPost2010Prop51ColorIndex
 90
      256
102
RTVSPost2010Prop51ColorRGB
 90
-16777216
102
RTVSPost2010PropOp51
 70
     0
102
RTVSPost2010Prop52
140
1.0
102
RTVSPost2010PropOp52
 70
     0
102
RTVSPost2010Prop53
 90
        2
102
RTVSPost2010PropOp53
 70
     0
102
RTVSPost2010Prop54
  1
strokes_ogs.tif
102
RTVSPost2010PropOp54
 70
     0
102
RTVSPost2010Prop55
280
     0
102
RTVSPost2010PropOp55
 70
     0
102
RTVSPost2010Prop56
140
1.0
102
RTVSPost2010PropOp56
 70
     0
102
RTVSPost2010Prop57
140
1.0
102
RTVSPost2010PropOp57
 70
     0
  0
XRECORD
  5
8E
102
{ACAD_REACTORS
330
8D
102
}
330
8D
100
AcDbXrecord
280
     1
102
RTVSPropertyOp0
 70
     1
102
RTVSPropertyOp1
 70
     1
102
RTVSPropertyOp2
 70
     1
102
RTVSPropertyOp3
 70
     1
102
RTVSPropertyOp4
 70
     1
102
RTVSPropertyOp5
 70
     1
102
RTVSPropertyOp6
 70
     1
102
RTVSPropertyOp7
 70
     1
102
RTVSPropertyOp8
 70
     1
102
RTVSPropertyOp9
 70
     1
102
RTVSPropertyOp10
 70
     1
102
RTVSPropertyOp11
 70
     1
102
RTVSPropertyOp12
 70
     1
102
RTVSPropertyOp13
 70
     1
102
RTVSPropertyOp14
 70
     1
102
RTVSPropertyOp15
 70
     1
102
RTVSPropertyOp16
 70
     1
102
RTVSPropertyOp17
 70
     1
102
RTVSPropertyOp18
 70
     1
102
RTVSPropertyOp19
 70
     1
102
RTVSPropertyOp20
 70
     1
102
RTVSPropertyOp21
 70
     1
102
RTVSPropertyOp22
 70
     1
102
RTVSPropertyOp23
 70
     1
102
RTVSPropertyOp24
 70
     1
102
RTVSPropertyOp25
 70
     1
102
RTVSPropertyOp26
 70
     1
102
RTVSPropertyOp27
 70
     1
102
RTVSPropertyOp28
 70
     1
102
RTVSPropertyOp29
 70
     1
102
RTVSPropertyOp30
 70
     1
102
RTVSPropertyOp31
 70
     1
102
RTVSPropertyOp32
 70
     1
102
RTVSPropertyOp33
 70
     1
102
RTVSPropertyOp34
 70
     1
102
RTVSPropertyOp35
 70
     1
102
RTVSPropertyOp36
 70
     1
102
RTVSPropertyOp37
 70
     1
102
RTVSPropertyOp38
 70
     1
102
RTVSPropertyOp39
 70
     1
102
RTVSPropertyOp40
 70
     1
102
RTVSPropertyOp41
 70
     1
102
RTVSPropertyOp42
 70
     1
102
RTVSPropertyOp43
 70
     1
102
RTVSPropertyOp44
 70
     1
102
RTVSPropertyOp45
 70
     1
102
RTVSPropertyOp46
 70
     1
102
RTVSPropertyOp47
 70
     1
102
RTVSPropertyOp48
 70
     1
102
RTVSPropertyOp49
 70
     1
102
RTVSPropertyOp50
 70
     1
102
RTVSPropertyOp51
 70
     0
102
RTVSPropertyOp52
 70
     0
102
RTVSPropertyOp53
 70
     1
102
RTVSPropertyOp54
 70
     1
102
RTVSPropertyOp55
 70
     1
102
RTVSPropertyOp56
 70
     1
102
RTVSPropertyOp57
 70
     1
102
RTVSPost2010Prop28
280
     0
102
RTVSPost2010PropOp28
 70
     1
102
RTVSPost2010Prop29
280
     1
102
RTVSPost2010PropOp29
 70
     1
102
RTVSPost2010Prop30
280
     1
102
RTVSPost2010PropOp30
 70
     1
102
RTVSPost2010Prop31
280
     0
102
RTVSPost2010PropOp31
 70
     1
102
RTVSPost2010Prop32
280
     0
102
RTVSPost2010PropOp32
 70
     1
102
RTVSPost2010Prop33
280
     0
102
RTVSPost2010PropOp33
 70
     1
102
RTVSPost2010Prop34
280
     0
102
RTVSPost2010PropOp34
 70
     1
102
RTVSPost2010Prop35
280
     0
102
RTVSPost2010PropOp35
 70
     1
102
RTVSPost2010Prop36
280
     0
102
RTVSPost2010PropOp36
 70
     1
102
RTVSPost2010Prop37
 90
       50
102
RTVSPost2010PropOp37
 70
     1
102
RTVSPost2010Prop38
140
0.0
102
RTVSPost2010PropOp38
 70
     1
102
RTVSPost2010Prop39
140
1.0
102
RTVSPost2010PropOp39
 70
     1
102
RTVSPost2010Prop40
 90
        0
102
RTVSPost2010PropOp40
 70
     1
102
RTVSPost2010Prop41ColorIndex
 90
       18
102
RTVSPost2010Prop41ColorRGB
 90
        0
102
RTVSPost2010PropOp41
 70
     1
102
RTVSPost2010Prop42
 90
       50
102
RTVSPost2010PropOp42
 70
     1
102
RTVSPost2010Prop43
 90
        3
102
RTVSPost2010PropOp43
 70
     1
102
RTVSPost2010Prop44ColorIndex
 90
        5
102
RTVSPost2010Prop44ColorRGB
 90
      255
102
RTVSPost2010PropOp44
 70
     1
102
RTVSPost2010Prop45
280
     0
102
RTVSPost2010PropOp45
 70
     1
102
RTVSPost2010Prop46
 90
       50
102
RTVSPost2010PropOp46
 70
     1
102
RTVSPost2010Prop47
 90
       50
102
RTVSPost2010PropOp47
 70
     1
102
RTVSPost2010Prop48
 90
       50
102
RTVSPost2010PropOp48
 70
     1
102
RTVSPost2010Prop49
280
     0
102
RTVSPost2010PropOp49
 70
     1
102
RTVSPost2010Prop50
 90
       50
102
RTVSPost2010PropOp50
 70
     1
102
RTVSPost2010Prop51ColorIndex
 90
      256
102
RTVSPost2010Prop51ColorRGB
 90
-16777216
102
RTVSPost2010PropOp51
 70
     0
102
RTVSPost2010Prop52
140
1.0
102
RTVSPost2010PropOp52
 70
     0
102
RTVSPost2010Prop53
 90
        2
102
RTVSPost2010PropOp53
 70
     1
102
RTVSPost2010Prop54
  1
strokes_ogs.tif
102
RTVSPost2010PropOp54
 70
     1
102
RTVSPost2010Prop55
280
     0
102
RTVSPost2010PropOp55
 70
     1
102
RTVSPost2010Prop56
140
1.0
102
RTVSPost2010PropOp56
 70
     1
102
RTVSPost2010Prop57
140
1.0
102
RTVSPost2010PropOp57
 70
     1
  0
XRECORD
  5
AC
102
{ACAD_REACTORS
330
AB
102
}
330
AB
100
AcDbXrecord
280
     1
102
RTVSPropertyOp0
 70
     1
102
RTVSPropertyOp1
 70
     1
102
RTVSPropertyOp2
 70
     1
102
RTVSPropertyOp3
 70
     1
102
RTVSPropertyOp4
 70
     1
102
RTVSPropertyOp5
 70
     1
102
RTVSPropertyOp6
 70
     1
102
RTVSPropertyOp7
 70
     1
102
RTVSPropertyOp8
 70
     1
102
RTVSPropertyOp9
 70
     1
102
RTVSPropertyOp10
 70
     1
102
RTVSPropertyOp11
 70
     1
102
RTVSPropertyOp12
 70
     1
102
RTVSPropertyOp13
 70
     1
102
RTVSPropertyOp14
 70
     1
102
RTVSPropertyOp15
 70
     1
102
RTVSPropertyOp16
 70
     1
102
RTVSPropertyOp17
 70
     1
102
RTVSPropertyOp18
 70
     1
102
RTVSPropertyOp19
 70
     1
102
RTVSPropertyOp20
 70
     1
102
RTVSPropertyOp21
 70
     1
102
RTVSPropertyOp22
 70
     1
102
RTVSPropertyOp23
 70
     1
102
RTVSPropertyOp24
 70
     1
102
RTVSPropertyOp25
 70
     1
102
RTVSPropertyOp26
 70
     1
102
RTVSPropertyOp27
 70
     1
102
RTVSPropertyOp28
 70
     1
102
RTVSPropertyOp29
 70
     1
102
RTVSPropertyOp30
 70
     1
102
RTVSPropertyOp31
 70
     1
102
RTVSPropertyOp32
 70
     1
102
RTVSPropertyOp33
 70
     1
102
RTVSPropertyOp34
 70
     1
102
RTVSPropertyOp35
 70
     1
102
RTVSPropertyOp36
 70
     1
102
RTVSPropertyOp37
 70
     1
102
RTVSPropertyOp38
 70
     1
102
RTVSPropertyOp39
 70
     1
102
RTVSPropertyOp40
 70
     1
102
RTVSPropertyOp41
 70
     1
102
RTVSPropertyOp42
 70
     1
102
RTVSPropertyOp43
 70
     1
102
RTVSPropertyOp44
 70
     1
102
RTVSPropertyOp45
 70
     1
102
RTVSPropertyOp46
 70
     1
102
RTVSPropertyOp47
 70
     1
102
RTVSPropertyOp48
 70
     1
102
RTVSPropertyOp49
 70
     1
102
RTVSPropertyOp50
 70
     1
102
RTVSPropertyOp51
 70
     0
102
RTVSPropertyOp52
 70
     0
102
RTVSPropertyOp53
 70
     1
102
RTVSPropertyOp54
 70
     1
102
RTVSPropertyOp55
 70
     1
102
RTVSPropertyOp56
 70
     1
102
RTVSPropertyOp57
 70
     1
102
RTVSPost2010Prop28
280
     0
102
RTVSPost2010PropOp28
 70
     1
102
RTVSPost2010Prop29
280
     1
102
RTVSPost2010PropOp29
 70
     1
102
RTVSPost2010Prop30
280
     1
102
RTVSPost2010PropOp30
 70
     1
102
RTVSPost2010Prop31
280
     0
102
RTVSPost2010PropOp31
 70
     1
102
RTVSPost2010Prop32
280
     0
102
RTVSPost2010PropOp32
 70
     1
102
RTVSPost2010Prop33
280
     0
102
RTVSPost2010PropOp33
 70
     1
102
RTVSPost2010Prop34
280
     0
102
RTVSPost2010PropOp34
 70
     1
102
RTVSPost2010Prop35
280
     0
102
RTVSPost2010PropOp35
 70
     1
102
RTVSPost2010Prop36
280
     0
102
RTVSPost2010PropOp36
 70
     1
102
RTVSPost2010Prop37
 90
       50
102
RTVSPost2010PropOp37
 70
     1
102
RTVSPost2010Prop38
140
0.0
102
RTVSPost2010PropOp38
 70
     1
102
RTVSPost2010Prop39
140
1.0
102
RTVSPost2010PropOp39
 70
     1
102
RTVSPost2010Prop40
 90
        0
102
RTVSPost2010PropOp40
 70
     1
102
RTVSPost2010Prop41ColorIndex
 90
       18
102
RTVSPost2010Prop41ColorRGB
 90
        0
102
RTVSPost2010PropOp41
 70
     1
102
RTVSPost2010Prop42
 90
       50
102
RTVSPost2010PropOp42
 70
     1
102
RTVSPost2010Prop43
 90
        3
102
RTVSPost2010PropOp43
 70
     1
102
RTVSPost2010Prop44ColorIndex
 90
        5
102
RTVSPost2010Prop44ColorRGB
 90
      255
102
RTVSPost2010PropOp44
 70
     1
102
RTVSPost2010Prop45
280
     0
102
RTVSPost2010PropOp45
 70
     1
102
RTVSPost2010Prop46
 90
       50
102
RTVSPost2010PropOp46
 70
     1
102
RTVSPost2010Prop47
 90
       50
102
RTVSPost2010PropOp47
 70
     1
102
RTVSPost2010Prop48
 90
       50
102
RTVSPost2010PropOp48
 70
     1
102
RTVSPost2010Prop49
280
     0
102
RTVSPost2010PropOp49
 70
     1
102
RTVSPost2010Prop50
 90
       50
102
RTVSPost2010PropOp50
 70
     1
102
RTVSPost2010Prop51ColorIndex
 90
      256
102
RTVSPost2010Prop51ColorRGB
 90
-16777216
102
RTVSPost2010PropOp51
 70
     0
102
RTVSPost2010Prop52
140
1.0
102
RTVSPost2010PropOp52
 70
     0
102
RTVSPost2010Prop53
 90
        2
102
RTVSPost2010PropOp53
 70
     1
102
RTVSPost2010Prop54
  1
strokes_ogs.tif
102
RTVSPost2010PropOp54
 70
     1
102
RTVSPost2010Prop55
280
     0
102
RTVSPost2010PropOp55
 70
     1
102
RTVSPost2010Prop56
140
1.0
102
RTVSPost2010PropOp56
 70
     1
102
RTVSPost2010Prop57
140
1.0
102
RTVSPost2010PropOp57
 70
     1
  0
XRECORD
  5
AA
102
{ACAD_REACTORS
330
A9
102
}
330
A9
100
AcDbXrecord
280
     1
102
RTVSPropertyOp0
 70
     1
102
RTVSPropertyOp1
 70
     1
102
RTVSPropertyOp2
 70
     1
102
RTVSPropertyOp3
 70
     1
102
RTVSPropertyOp4
 70
     1
102
RTVSPropertyOp5
 70
     1
102
RTVSPropertyOp6
 70
     1
102
RTVSPropertyOp7
 70
     1
102
RTVSPropertyOp8
 70
     1
102
RTVSPropertyOp9
 70
     1
102
RTVSPropertyOp10
 70
     1
102
RTVSPropertyOp11
 70
     1
102
RTVSPropertyOp12
 70
     1
102
RTVSPropertyOp13
 70
     1
102
RTVSPropertyOp14
 70
     1
102
RTVSPropertyOp15
 70
     1
102
RTVSPropertyOp16
 70
     1
102
RTVSPropertyOp17
 70
     1
102
RTVSPropertyOp18
 70
     1
102
RTVSPropertyOp19
 70
     1
102
RTVSPropertyOp20
 70
     1
102
RTVSPropertyOp21
 70
     1
102
RTVSPropertyOp22
 70
     1
102
RTVSPropertyOp23
 70
     1
102
RTVSPropertyOp24
 70
     1
102
RTVSPropertyOp25
 70
     1
102
RTVSPropertyOp26
 70
     1
102
RTVSPropertyOp27
 70
     1
102
RTVSPropertyOp28
 70
     1
102
RTVSPropertyOp29
 70
     1
102
RTVSPropertyOp30
 70
     1
102
RTVSPropertyOp31
 70
     1
102
RTVSPropertyOp32
 70
     1
102
RTVSPropertyOp33
 70
     1
102
RTVSPropertyOp34
 70
     1
102
RTVSPropertyOp35
 70
     1
102
RTVSPropertyOp36
 70
     1
102
RTVSPropertyOp37
 70
     1
102
RTVSPropertyOp38
 70
     1
102
RTVSPropertyOp39
 70
     1
102
RTVSPropertyOp40
 70
     1
102
RTVSPropertyOp41
 70
     1
102
RTVSPropertyOp42
 70
     1
102
RTVSPropertyOp43
 70
     1
102
RTVSPropertyOp44
 70
     1
102
RTVSPropertyOp45
 70
     1
102
RTVSPropertyOp46
 70
     1
102
RTVSPropertyOp47
 70
     1
102
RTVSPropertyOp48
 70
     1
102
RTVSPropertyOp49
 70
     1
102
RTVSPropertyOp50
 70
     1
102
RTVSPropertyOp51
 70
     0
102
RTVSPropertyOp52
 70
     0
102
RTVSPropertyOp53
 70
     1
102
RTVSPropertyOp54
 70
     1
102
RTVSPropertyOp55
 70
     1
102
RTVSPropertyOp56
 70
     1
102
RTVSPropertyOp57
 70
     1
102
RTVSPost2010Prop28
280
     0
102
RTVSPost2010PropOp28
 70
     1
102
RTVSPost2010Prop29
280
     1
102
RTVSPost2010PropOp29
 70
     1
102
RTVSPost2010Prop30
280
     1
102
RTVSPost2010PropOp30
 70
     1
102
RTVSPost2010Prop31
280
     0
102
RTVSPost2010PropOp31
 70
     1
102
RTVSPost2010Prop32
280
     0
102
RTVSPost2010PropOp32
 70
     1
102
RTVSPost2010Prop33
280
     0
102
RTVSPost2010PropOp33
 70
     1
102
RTVSPost2010Prop34
280
     0
102
RTVSPost2010PropOp34
 70
     1
102
RTVSPost2010Prop35
280
     0
102
RTVSPost2010PropOp35
 70
     1
102
RTVSPost2010Prop36
280
     0
102
RTVSPost2010PropOp36
 70
     1
102
RTVSPost2010Prop37
 90
       50
102
RTVSPost2010PropOp37
 70
     1
102
RTVSPost2010Prop38
140
0.0
102
RTVSPost2010PropOp38
 70
     1
102
RTVSPost2010Prop39
140
1.0
102
RTVSPost2010PropOp39
 70
     1
102
RTVSPost2010Prop40
 90
        0
102
RTVSPost2010PropOp40
 70
     1
102
RTVSPost2010Prop41ColorIndex
 90
       18
102
RTVSPost2010Prop41ColorRGB
 90
        0
102
RTVSPost2010PropOp41
 70
     1
102
RTVSPost2010Prop42
 90
       50
102
RTVSPost2010PropOp42
 70
     1
102
RTVSPost2010Prop43
 90
        3
102
RTVSPost2010PropOp43
 70
     1
102
RTVSPost2010Prop44ColorIndex
 90
        5
102
RTVSPost2010Prop44ColorRGB
 90
      255
102
RTVSPost2010PropOp44
 70
     1
102
RTVSPost2010Prop45
280
     0
102
RTVSPost2010PropOp45
 70
     1
102
RTVSPost2010Prop46
 90
       50
102
RTVSPost2010PropOp46
 70
     1
102
RTVSPost2010Prop47
 90
       50
102
RTVSPost2010PropOp47
 70
     1
102
RTVSPost2010Prop48
 90
       50
102
RTVSPost2010PropOp48
 70
     1
102
RTVSPost2010Prop49
280
     0
102
RTVSPost2010PropOp49
 70
     1
102
RTVSPost2010Prop50
 90
       50
102
RTVSPost2010PropOp50
 70
     1
102
RTVSPost2010Prop51ColorIndex
 90
      256
102
RTVSPost2010Prop51ColorRGB
 90
-16777216
102
RTVSPost2010PropOp51
 70
     0
102
RTVSPost2010Prop52
140
1.0
102
RTVSPost2010PropOp52
 70
     0
102
RTVSPost2010Prop53
 90
        2
102
RTVSPost2010PropOp53
 70
     1
102
RTVSPost2010Prop54
  1
strokes_ogs.tif
102
RTVSPost2010PropOp54
 70
     1
102
RTVSPost2010Prop55
280
     0
102
RTVSPost2010PropOp55
 70
     1
102
RTVSPost2010Prop56
140
1.0
102
RTVSPost2010PropOp56
 70
     1
102
RTVSPost2010Prop57
140
1.0
102
RTVSPost2010PropOp57
 70
     1
  0
XRECORD
  5
A4
102
{ACAD_REACTORS
330
A3
102
}
330
A3
100
AcDbXrecord
280
     1
102
RTVSPropertyOp0
 70
     1
102
RTVSPropertyOp1
 70
     1
102
RTVSPropertyOp2
 70
     1
102
RTVSPropertyOp3
 70
     1
102
RTVSPropertyOp4
 70
     1
102
RTVSPropertyOp5
 70
     1
102
RTVSPropertyOp6
 70
     1
102
RTVSPropertyOp7
 70
     1
102
RTVSPropertyOp8
 70
     1
102
RTVSPropertyOp9
 70
     1
102
RTVSPropertyOp10
 70
     1
102
RTVSPropertyOp11
 70
     1
102
RTVSPropertyOp12
 70
     1
102
RTVSPropertyOp13
 70
     1
102
RTVSPropertyOp14
 70
     1
102
RTVSPropertyOp15
 70
     1
102
RTVSPropertyOp16
 70
     1
102
RTVSPropertyOp17
 70
     1
102
RTVSPropertyOp18
 70
     1
102
RTVSPropertyOp19
 70
     1
102
RTVSPropertyOp20
 70
     1
102
RTVSPropertyOp21
 70
     1
102
RTVSPropertyOp22
 70
     1
102
RTVSPropertyOp23
 70
     1
102
RTVSPropertyOp24
 70
     1
102
RTVSPropertyOp25
 70
     1
102
RTVSPropertyOp26
 70
     1
102
RTVSPropertyOp27
 70
     1
102
RTVSPropertyOp28
 70
     1
102
RTVSPropertyOp29
 70
     1
102
RTVSPropertyOp30
 70
     1
102
RTVSPropertyOp31
 70
     1
102
RTVSPropertyOp32
 70
     1
102
RTVSPropertyOp33
 70
     1
102
RTVSPropertyOp34
 70
     1
102
RTVSPropertyOp35
 70
     1
102
RTVSPropertyOp36
 70
     1
102
RTVSPropertyOp37
 70
     1
102
RTVSPropertyOp38
 70
     1
102
RTVSPropertyOp39
 70
     1
102
RTVSPropertyOp40
 70
     1
102
RTVSPropertyOp41
 70
     1
102
RTVSPropertyOp42
 70
     1
102
RTVSPropertyOp43
 70
     1
102
RTVSPropertyOp44
 70
     1
102
RTVSPropertyOp45
 70
     1
102
RTVSPropertyOp46
 70
     1
102
RTVSPropertyOp47
 70
     1
102
RTVSPropertyOp48
 70
     1
102
RTVSPropertyOp49
 70
     1
102
RTVSPropertyOp50
 70
     1
102
RTVSPropertyOp51
 70
     0
102
RTVSPropertyOp52
 70
     0
102
RTVSPropertyOp53
 70
     1
102
RTVSPropertyOp54
 70
     1
102
RTVSPropertyOp55
 70
     1
102
RTVSPropertyOp56
 70
     1
102
RTVSPropertyOp57
 70
     1
102
RTVSPost2010Prop28
280
     0
102
RTVSPost2010PropOp28
 70
     1
102
RTVSPost2010Prop29
280
     1
102
RTVSPost2010PropOp29
 70
     1
102
RTVSPost2010Prop30
280
     1
102
RTVSPost2010PropOp30
 70
     1
102
RTVSPost2010Prop31
280
     0
102
RTVSPost2010PropOp31
 70
     1
102
RTVSPost2010Prop32
280
     0
102
RTVSPost2010PropOp32
 70
     1
102
RTVSPost2010Prop33
280
     0
102
RTVSPost2010PropOp33
 70
     1
102
RTVSPost2010Prop34
280
     0
102
RTVSPost2010PropOp34
 70
     1
102
RTVSPost2010Prop35
280
     0
102
RTVSPost2010PropOp35
 70
     1
102
RTVSPost2010Prop36
280
     0
102
RTVSPost2010PropOp36
 70
     1
102
RTVSPost2010Prop37
 90
       50
102
RTVSPost2010PropOp37
 70
     1
102
RTVSPost2010Prop38
140
0.0
102
RTVSPost2010PropOp38
 70
     1
102
RTVSPost2010Prop39
140
1.0
102
RTVSPost2010PropOp39
 70
     1
102
RTVSPost2010Prop40
 90
        0
102
RTVSPost2010PropOp40
 70
     1
102
RTVSPost2010Prop41ColorIndex
 90
       18
102
RTVSPost2010Prop41ColorRGB
 90
        0
102
RTVSPost2010PropOp41
 70
     1
102
RTVSPost2010Prop42
 90
       50
102
RTVSPost2010PropOp42
 70
     1
102
RTVSPost2010Prop43
 90
        3
102
RTVSPost2010PropOp43
 70
     1
102
RTVSPost2010Prop44ColorIndex
 90
        5
102
RTVSPost2010Prop44ColorRGB
 90
      255
102
RTVSPost2010PropOp44
 70
     1
102
RTVSPost2010Prop45
280
     0
102
RTVSPost2010PropOp45
 70
     1
102
RTVSPost2010Prop46
 90
       50
102
RTVSPost2010PropOp46
 70
     1
102
RTVSPost2010Prop47
 90
       50
102
RTVSPost2010PropOp47
 70
     1
102
RTVSPost2010Prop48
 90
       50
102
RTVSPost2010PropOp48
 70
     1
102
RTVSPost2010Prop49
280
     0
102
RTVSPost2010PropOp49
 70
     1
102
RTVSPost2010Prop50
 90
       50
102
RTVSPost2010PropOp50
 70
     1
102
RTVSPost2010Prop51ColorIndex
 90
      256
102
RTVSPost2010Prop51ColorRGB
 90
-16777216
102
RTVSPost2010PropOp51
 70
     0
102
RTVSPost2010Prop52
140
1.0
102
RTVSPost2010PropOp52
 70
     0
102
RTVSPost2010Prop53
 90
        2
102
RTVSPost2010PropOp53
 70
     1
102
RTVSPost2010Prop54
  1
strokes_ogs.tif
102
RTVSPost2010PropOp54
 70
     1
102
RTVSPost2010Prop55
280
     0
102
RTVSPost2010PropOp55
 70
     1
102
RTVSPost2010Prop56
140
1.0
102
RTVSPost2010PropOp56
 70
     1
102
RTVSPost2010Prop57
140
1.0
102
RTVSPost2010PropOp57
 70
     1
  0
XRECORD
  5
A6
102
{ACAD_REACTORS
330
A5
102
}
330
A5
100
AcDbXrecord
280
     1
102
RTVSPropertyOp0
 70
     1
102
RTVSPropertyOp1
 70
     1
102
RTVSPropertyOp2
 70
     1
102
RTVSPropertyOp3
 70
     1
102
RTVSPropertyOp4
 70
     1
102
RTVSPropertyOp5
 70
     1
102
RTVSPropertyOp6
 70
     1
102
RTVSPropertyOp7
 70
     1
102
RTVSPropertyOp8
 70
     1
102
RTVSPropertyOp9
 70
     1
102
RTVSPropertyOp10
 70
     1
102
RTVSPropertyOp11
 70
     1
102
RTVSPropertyOp12
 70
     1
102
RTVSPropertyOp13
 70
     1
102
RTVSPropertyOp14
 70
     1
102
RTVSPropertyOp15
 70
     1
102
RTVSPropertyOp16
 70
     1
102
RTVSPropertyOp17
 70
     1
102
RTVSPropertyOp18
 70
     1
102
RTVSPropertyOp19
 70
     1
102
RTVSPropertyOp20
 70
     1
102
RTVSPropertyOp21
 70
     1
102
RTVSPropertyOp22
 70
     1
102
RTVSPropertyOp23
 70
     1
102
RTVSPropertyOp24
 70
     1
102
RTVSPropertyOp25
 70
     1
102
RTVSPropertyOp26
 70
     1
102
RTVSPropertyOp27
 70
     1
102
RTVSPropertyOp28
 70
     1
102
RTVSPropertyOp29
 70
     1
102
RTVSPropertyOp30
 70
     1
102
RTVSPropertyOp31
 70
     1
102
RTVSPropertyOp32
 70
     1
102
RTVSPropertyOp33
 70
     1
102
RTVSPropertyOp34
 70
     1
102
RTVSPropertyOp35
 70
     1
102
RTVSPropertyOp36
 70
     1
102
RTVSPropertyOp37
 70
     1
102
RTVSPropertyOp38
 70
     1
102
RTVSPropertyOp39
 70
     1
102
RTVSPropertyOp40
 70
     1
102
RTVSPropertyOp41
 70
     1
102
RTVSPropertyOp42
 70
     1
102
RTVSPropertyOp43
 70
     1
102
RTVSPropertyOp44
 70
     1
102
RTVSPropertyOp45
 70
     1
102
RTVSPropertyOp46
 70
     1
102
RTVSPropertyOp47
 70
     1
102
RTVSPropertyOp48
 70
     1
102
RTVSPropertyOp49
 70
     1
102
RTVSPropertyOp50
 70
     1
102
RTVSPropertyOp51
 70
     0
102
RTVSPropertyOp52
 70
     0
102
RTVSPropertyOp53
 70
     1
102
RTVSPropertyOp54
 70
     1
102
RTVSPropertyOp55
 70
     1
102
RTVSPropertyOp56
 70
     1
102
RTVSPropertyOp57
 70
     1
102
RTVSPost2010Prop28
280
     0
102
RTVSPost2010PropOp28
 70
     1
102
RTVSPost2010Prop29
280
     1
102
RTVSPost2010PropOp29
 70
     1
102
RTVSPost2010Prop30
280
     1
102
RTVSPost2010PropOp30
 70
     1
102
RTVSPost2010Prop31
280
     0
102
RTVSPost2010PropOp31
 70
     1
102
RTVSPost2010Prop32
280
     0
102
RTVSPost2010PropOp32
 70
     1
102
RTVSPost2010Prop33
280
     0
102
RTVSPost2010PropOp33
 70
     1
102
RTVSPost2010Prop34
280
     0
102
RTVSPost2010PropOp34
 70
     1
102
RTVSPost2010Prop35
280
     0
102
RTVSPost2010PropOp35
 70
     1
102
RTVSPost2010Prop36
280
     0
102
RTVSPost2010PropOp36
 70
     1
102
RTVSPost2010Prop37
 90
       50
102
RTVSPost2010PropOp37
 70
     1
102
RTVSPost2010Prop38
140
0.0
102
RTVSPost2010PropOp38
 70
     1
102
RTVSPost2010Prop39
140
1.0
102
RTVSPost2010PropOp39
 70
     1
102
RTVSPost2010Prop40
 90
        0
102
RTVSPost2010PropOp40
 70
     1
102
RTVSPost2010Prop41ColorIndex
 90
       18
102
RTVSPost2010Prop41ColorRGB
 90
        0
102
RTVSPost2010PropOp41
 70
     1
102
RTVSPost2010Prop42
 90
       50
102
RTVSPost2010PropOp42
 70
     1
102
RTVSPost2010Prop43
 90
        3
102
RTVSPost2010PropOp43
 70
     1
102
RTVSPost2010Prop44ColorIndex
 90
        5
102
RTVSPost2010Prop44ColorRGB
 90
      255
102
RTVSPost2010PropOp44
 70
     1
102
RTVSPost2010Prop45
280
     0
102
RTVSPost2010PropOp45
 70
     1
102
RTVSPost2010Prop46
 90
       50
102
RTVSPost2010PropOp46
 70
     1
102
RTVSPost2010Prop47
 90
       50
102
RTVSPost2010PropOp47
 70
     1
102
RTVSPost2010Prop48
 90
       50
102
RTVSPost2010PropOp48
 70
     1
102
RTVSPost2010Prop49
280
     0
102
RTVSPost2010PropOp49
 70
     1
102
RTVSPost2010Prop50
 90
       50
102
RTVSPost2010PropOp50
 70
     1
102
RTVSPost2010Prop51ColorIndex
 90
      256
102
RTVSPost2010Prop51ColorRGB
 90
-16777216
102
RTVSPost2010PropOp51
 70
     0
102
RTVSPost2010Prop52
140
1.0
102
RTVSPost2010PropOp52
 70
     0
102
RTVSPost2010Prop53
 90
        2
102
RTVSPost2010PropOp53
 70
     1
102
RTVSPost2010Prop54
  1
strokes_ogs.tif
102
RTVSPost2010PropOp54
 70
     1
102
RTVSPost2010Prop55
280
     0
102
RTVSPost2010PropOp55
 70
     1
102
RTVSPost2010Prop56
140
1.0
102
RTVSPost2010PropOp56
 70
     1
102
RTVSPost2010Prop57
140
1.0
102
RTVSPost2010PropOp57
 70
     1
  0
XRECORD
  5
96
102
{ACAD_REACTORS
330
95
102
}
330
95
100
AcDbXrecord
280
     1
102
RTVSPropertyOp0
 70
     1
102
RTVSPropertyOp1
 70
     1
102
RTVSPropertyOp2
 70
     1
102
RTVSPropertyOp3
 70
     1
102
RTVSPropertyOp4
 70
     1
102
RTVSPropertyOp5
 70
     1
102
RTVSPropertyOp6
 70
     1
102
RTVSPropertyOp7
 70
     1
102
RTVSPropertyOp8
 70
     1
102
RTVSPropertyOp9
 70
     1
102
RTVSPropertyOp10
 70
     1
102
RTVSPropertyOp11
 70
     1
102
RTVSPropertyOp12
 70
     1
102
RTVSPropertyOp13
 70
     1
102
RTVSPropertyOp14
 70
     1
102
RTVSPropertyOp15
 70
     1
102
RTVSPropertyOp16
 70
     1
102
RTVSPropertyOp17
 70
     1
102
RTVSPropertyOp18
 70
     1
102
RTVSPropertyOp19
 70
     1
102
RTVSPropertyOp20
 70
     1
102
RTVSPropertyOp21
 70
     1
102
RTVSPropertyOp22
 70
     1
102
RTVSPropertyOp23
 70
     1
102
RTVSPropertyOp24
 70
     1
102
RTVSPropertyOp25
 70
     1
102
RTVSPropertyOp26
 70
     1
102
RTVSPropertyOp27
 70
     1
102
RTVSPropertyOp28
 70
     1
102
RTVSPropertyOp29
 70
     1
102
RTVSPropertyOp30
 70
     1
102
RTVSPropertyOp31
 70
     1
102
RTVSPropertyOp32
 70
     1
102
RTVSPropertyOp33
 70
     1
102
RTVSPropertyOp34
 70
     1
102
RTVSPropertyOp35
 70
     1
102
RTVSPropertyOp36
 70
     1
102
RTVSPropertyOp37
 70
     1
102
RTVSPropertyOp38
 70
     1
102
RTVSPropertyOp39
 70
     1
102
RTVSPropertyOp40
 70
     1
102
RTVSPropertyOp41
 70
     1
102
RTVSPropertyOp42
 70
     1
102
RTVSPropertyOp43
 70
     1
102
RTVSPropertyOp44
 70
     1
102
RTVSPropertyOp45
 70
     1
102
RTVSPropertyOp46
 70
     1
102
RTVSPropertyOp47
 70
     1
102
RTVSPropertyOp48
 70
     1
102
RTVSPropertyOp49
 70
     1
102
RTVSPropertyOp50
 70
     1
102
RTVSPropertyOp51
 70
     0
102
RTVSPropertyOp52
 70
     0
102
RTVSPropertyOp53
 70
     1
102
RTVSPropertyOp54
 70
     1
102
RTVSPropertyOp55
 70
     1
102
RTVSPropertyOp56
 70
     1
102
RTVSPropertyOp57
 70
     1
102
RTVSPost2010Prop28
280
     0
102
RTVSPost2010PropOp28
 70
     1
102
RTVSPost2010Prop29
280
     1
102
RTVSPost2010PropOp29
 70
     1
102
RTVSPost2010Prop30
280
     1
102
RTVSPost2010PropOp30
 70
     1
102
RTVSPost2010Prop31
280
     0
102
RTVSPost2010PropOp31
 70
     1
102
RTVSPost2010Prop32
280
     0
102
RTVSPost2010PropOp32
 70
     1
102
RTVSPost2010Prop33
280
     0
102
RTVSPost2010PropOp33
 70
     1
102
RTVSPost2010Prop34
280
     0
102
RTVSPost2010PropOp34
 70
     1
102
RTVSPost2010Prop35
280
     0
102
RTVSPost2010PropOp35
 70
     1
102
RTVSPost2010Prop36
280
     0
102
RTVSPost2010PropOp36
 70
     1
102
RTVSPost2010Prop37
 90
       50
102
RTVSPost2010PropOp37
 70
     1
102
RTVSPost2010Prop38
140
0.0
102
RTVSPost2010PropOp38
 70
     1
102
RTVSPost2010Prop39
140
1.0
102
RTVSPost2010PropOp39
 70
     1
102
RTVSPost2010Prop40
 90
        0
102
RTVSPost2010PropOp40
 70
     1
102
RTVSPost2010Prop41ColorIndex
 90
       18
102
RTVSPost2010Prop41ColorRGB
 90
        0
102
RTVSPost2010PropOp41
 70
     1
102
RTVSPost2010Prop42
 90
       50
102
RTVSPost2010PropOp42
 70
     1
102
RTVSPost2010Prop43
 90
        3
102
RTVSPost2010PropOp43
 70
     1
102
RTVSPost2010Prop44ColorIndex
 90
        5
102
RTVSPost2010Prop44ColorRGB
 90
      255
102
RTVSPost2010PropOp44
 70
     1
102
RTVSPost2010Prop45
280
     0
102
RTVSPost2010PropOp45
 70
     1
102
RTVSPost2010Prop46
 90
       50
102
RTVSPost2010PropOp46
 70
     1
102
RTVSPost2010Prop47
 90
       50
102
RTVSPost2010PropOp47
 70
     1
102
RTVSPost2010Prop48
 90
       50
102
RTVSPost2010PropOp48
 70
     1
102
RTVSPost2010Prop49
280
     0
102
RTVSPost2010PropOp49
 70
     1
102
RTVSPost2010Prop50
 90
       50
102
RTVSPost2010PropOp50
 70
     1
102
RTVSPost2010Prop51ColorIndex
 90
      256
102
RTVSPost2010Prop51ColorRGB
 90
-16777216
102
RTVSPost2010PropOp51
 70
     0
102
RTVSPost2010Prop52
140
1.0
102
RTVSPost2010PropOp52
 70
     0
102
RTVSPost2010Prop53
 90
        2
102
RTVSPost2010PropOp53
 70
     1
102
RTVSPost2010Prop54
  1
strokes_ogs.tif
102
RTVSPost2010PropOp54
 70
     1
102
RTVSPost2010Prop55
280
     0
102
RTVSPost2010PropOp55
 70
     1
102
RTVSPost2010Prop56
140
1.0
102
RTVSPost2010PropOp56
 70
     1
102
RTVSPost2010Prop57
140
1.0
102
RTVSPost2010PropOp57
 70
     1
  0
XRECORD
  5
88
102
{ACAD_REACTORS
330
87
102
}
330
87
100
AcDbXrecord
280
     1
102
RTVSPropertyOp0
 70
     1
102
RTVSPropertyOp1
 70
     1
102
RTVSPropertyOp2
 70
     1
102
RTVSPropertyOp3
 70
     1
102
RTVSPropertyOp4
 70
     1
102
RTVSPropertyOp5
 70
     1
102
RTVSPropertyOp6
 70
     1
102
RTVSPropertyOp7
 70
     1
102
RTVSPropertyOp8
 70
     1
102
RTVSPropertyOp9
 70
     1
102
RTVSPropertyOp10
 70
     1
102
RTVSPropertyOp11
 70
     1
102
RTVSPropertyOp12
 70
     1
102
RTVSPropertyOp13
 70
     1
102
RTVSPropertyOp14
 70
     1
102
RTVSPropertyOp15
 70
     1
102
RTVSPropertyOp16
 70
     1
102
RTVSPropertyOp17
 70
     1
102
RTVSPropertyOp18
 70
     1
102
RTVSPropertyOp19
 70
     1
102
RTVSPropertyOp20
 70
     1
102
RTVSPropertyOp21
 70
     1
102
RTVSPropertyOp22
 70
     1
102
RTVSPropertyOp23
 70
     1
102
RTVSPropertyOp24
 70
     1
102
RTVSPropertyOp25
 70
     1
102
RTVSPropertyOp26
 70
     1
102
RTVSPropertyOp27
 70
     1
102
RTVSPropertyOp28
 70
     1
102
RTVSPropertyOp29
 70
     1
102
RTVSPropertyOp30
 70
     1
102
RTVSPropertyOp31
 70
     1
102
RTVSPropertyOp32
 70
     1
102
RTVSPropertyOp33
 70
     1
102
RTVSPropertyOp34
 70
     1
102
RTVSPropertyOp35
 70
     1
102
RTVSPropertyOp36
 70
     1
102
RTVSPropertyOp37
 70
     1
102
RTVSPropertyOp38
 70
     1
102
RTVSPropertyOp39
 70
     1
102
RTVSPropertyOp40
 70
     1
102
RTVSPropertyOp41
 70
     1
102
RTVSPropertyOp42
 70
     1
102
RTVSPropertyOp43
 70
     1
102
RTVSPropertyOp44
 70
     1
102
RTVSPropertyOp45
 70
     1
102
RTVSPropertyOp46
 70
     1
102
RTVSPropertyOp47
 70
     1
102
RTVSPropertyOp48
 70
     1
102
RTVSPropertyOp49
 70
     1
102
RTVSPropertyOp50
 70
     1
102
RTVSPropertyOp51
 70
     0
102
RTVSPropertyOp52
 70
     0
102
RTVSPropertyOp53
 70
     1
102
RTVSPropertyOp54
 70
     1
102
RTVSPropertyOp55
 70
     1
102
RTVSPropertyOp56
 70
     1
102
RTVSPropertyOp57
 70
     1
102
RTVSPost2010Prop28
280
     0
102
RTVSPost2010PropOp28
 70
     1
102
RTVSPost2010Prop29
280
     1
102
RTVSPost2010PropOp29
 70
     1
102
RTVSPost2010Prop30
280
     1
102
RTVSPost2010PropOp30
 70
     1
102
RTVSPost2010Prop31
280
     0
102
RTVSPost2010PropOp31
 70
     1
102
RTVSPost2010Prop32
280
     0
102
RTVSPost2010PropOp32
 70
     1
102
RTVSPost2010Prop33
280
     0
102
RTVSPost2010PropOp33
 70
     1
102
RTVSPost2010Prop34
280
     0
102
RTVSPost2010PropOp34
 70
     1
102
RTVSPost2010Prop35
280
     0
102
RTVSPost2010PropOp35
 70
     1
102
RTVSPost2010Prop36
280
     0
102
RTVSPost2010PropOp36
 70
     1
102
RTVSPost2010Prop37
 90
       50
102
RTVSPost2010PropOp37
 70
     1
102
RTVSPost2010Prop38
140
0.0
102
RTVSPost2010PropOp38
 70
     1
102
RTVSPost2010Prop39
140
1.0
102
RTVSPost2010PropOp39
 70
     1
102
RTVSPost2010Prop40
 90
        0
102
RTVSPost2010PropOp40
 70
     1
102
RTVSPost2010Prop41ColorIndex
 90
       18
102
RTVSPost2010Prop41ColorRGB
 90
        0
102
RTVSPost2010PropOp41
 70
     1
102
RTVSPost2010Prop42
 90
       50
102
RTVSPost2010PropOp42
 70
     1
102
RTVSPost2010Prop43
 90
        3
102
RTVSPost2010PropOp43
 70
     1
102
RTVSPost2010Prop44ColorIndex
 90
        5
102
RTVSPost2010Prop44ColorRGB
 90
      255
102
RTVSPost2010PropOp44
 70
     1
102
RTVSPost2010Prop45
280
     0
102
RTVSPost2010PropOp45
 70
     1
102
RTVSPost2010Prop46
 90
       50
102
RTVSPost2010PropOp46
 70
     1
102
RTVSPost2010Prop47
 90
       50
102
RTVSPost2010PropOp47
 70
     1
102
RTVSPost2010Prop48
 90
       50
102
RTVSPost2010PropOp48
 70
     1
102
RTVSPost2010Prop49
280
     0
102
RTVSPost2010PropOp49
 70
     1
102
RTVSPost2010Prop50
 90
       50
102
RTVSPost2010PropOp50
 70
     1
102
RTVSPost2010Prop51ColorIndex
 90
      256
102
RTVSPost2010Prop51ColorRGB
 90
-16777216
102
RTVSPost2010PropOp51
 70
     0
102
RTVSPost2010Prop52
140
1.0
102
RTVSPost2010PropOp52
 70
     0
102
RTVSPost2010Prop53
 90
        2
102
RTVSPost2010PropOp53
 70
     1
102
RTVSPost2010Prop54
  1
strokes_ogs.tif
102
RTVSPost2010PropOp54
 70
     1
102
RTVSPost2010Prop55
280
     0
102
RTVSPost2010PropOp55
 70
     1
102
RTVSPost2010Prop56
140
1.0
102
RTVSPost2010PropOp56
 70
     1
102
RTVSPost2010Prop57
140
1.0
102
RTVSPost2010PropOp57
 70
     1
  0
XRECORD
  5
A8
102
{ACAD_REACTORS
330
A7
102
}
330
A7
100
AcDbXrecord
280
     1
102
RTVSPropertyOp0
 70
     1
102
RTVSPropertyOp1
 70
     1
102
RTVSPropertyOp2
 70
     1
102
RTVSPropertyOp3
 70
     1
102
RTVSPropertyOp4
 70
     1
102
RTVSPropertyOp5
 70
     1
102
RTVSPropertyOp6
 70
     1
102
RTVSPropertyOp7
 70
     1
102
RTVSPropertyOp8
 70
     1
102
RTVSPropertyOp9
 70
     1
102
RTVSPropertyOp10
 70
     1
102
RTVSPropertyOp11
 70
     1
102
RTVSPropertyOp12
 70
     1
102
RTVSPropertyOp13
 70
     1
102
RTVSPropertyOp14
 70
     1
102
RTVSPropertyOp15
 70
     1
102
RTVSPropertyOp16
 70
     1
102
RTVSPropertyOp17
 70
     1
102
RTVSPropertyOp18
 70
     1
102
RTVSPropertyOp19
 70
     1
102
RTVSPropertyOp20
 70
     1
102
RTVSPropertyOp21
 70
     1
102
RTVSPropertyOp22
 70
     1
102
RTVSPropertyOp23
 70
     1
102
RTVSPropertyOp24
 70
     1
102
RTVSPropertyOp25
 70
     1
102
RTVSPropertyOp26
 70
     1
102
RTVSPropertyOp27
 70
     1
102
RTVSPropertyOp28
 70
     1
102
RTVSPropertyOp29
 70
     1
102
RTVSPropertyOp30
 70
     1
102
RTVSPropertyOp31
 70
     1
102
RTVSPropertyOp32
 70
     1
102
RTVSPropertyOp33
 70
     1
102
RTVSPropertyOp34
 70
     1
102
RTVSPropertyOp35
 70
     1
102
RTVSPropertyOp36
 70
     1
102
RTVSPropertyOp37
 70
     1
102
RTVSPropertyOp38
 70
     1
102
RTVSPropertyOp39
 70
     1
102
RTVSPropertyOp40
 70
     1
102
RTVSPropertyOp41
 70
     1
102
RTVSPropertyOp42
 70
     1
102
RTVSPropertyOp43
 70
     1
102
RTVSPropertyOp44
 70
     1
102
RTVSPropertyOp45
 70
     1
102
RTVSPropertyOp46
 70
     1
102
RTVSPropertyOp47
 70
     1
102
RTVSPropertyOp48
 70
     1
102
RTVSPropertyOp49
 70
     1
102
RTVSPropertyOp50
 70
     1
102
RTVSPropertyOp51
 70
     0
102
RTVSPropertyOp52
 70
     0
102
RTVSPropertyOp53
 70
     1
102
RTVSPropertyOp54
 70
     1
102
RTVSPropertyOp55
 70
     1
102
RTVSPropertyOp56
 70
     1
102
RTVSPropertyOp57
 70
     1
102
RTVSPost2010Prop28
280
     0
102
RTVSPost2010PropOp28
 70
     1
102
RTVSPost2010Prop29
280
     1
102
RTVSPost2010PropOp29
 70
     1
102
RTVSPost2010Prop30
280
     1
102
RTVSPost2010PropOp30
 70
     1
102
RTVSPost2010Prop31
280
     0
102
RTVSPost2010PropOp31
 70
     1
102
RTVSPost2010Prop32
280
     0
102
RTVSPost2010PropOp32
 70
     1
102
RTVSPost2010Prop33
280
     0
102
RTVSPost2010PropOp33
 70
     1
102
RTVSPost2010Prop34
280
     0
102
RTVSPost2010PropOp34
 70
     1
102
RTVSPost2010Prop35
280
     0
102
RTVSPost2010PropOp35
 70
     1
102
RTVSPost2010Prop36
280
     0
102
RTVSPost2010PropOp36
 70
     1
102
RTVSPost2010Prop37
 90
       50
102
RTVSPost2010PropOp37
 70
     1
102
RTVSPost2010Prop38
140
0.0
102
RTVSPost2010PropOp38
 70
     1
102
RTVSPost2010Prop39
140
1.0
102
RTVSPost2010PropOp39
 70
     1
102
RTVSPost2010Prop40
 90
        0
102
RTVSPost2010PropOp40
 70
     1
102
RTVSPost2010Prop41ColorIndex
 90
       18
102
RTVSPost2010Prop41ColorRGB
 90
        0
102
RTVSPost2010PropOp41
 70
     1
102
RTVSPost2010Prop42
 90
       50
102
RTVSPost2010PropOp42
 70
     1
102
RTVSPost2010Prop43
 90
        3
102
RTVSPost2010PropOp43
 70
     1
102
RTVSPost2010Prop44ColorIndex
 90
        5
102
RTVSPost2010Prop44ColorRGB
 90
      255
102
RTVSPost2010PropOp44
 70
     1
102
RTVSPost2010Prop45
280
     0
102
RTVSPost2010PropOp45
 70
     1
102
RTVSPost2010Prop46
 90
       50
102
RTVSPost2010PropOp46
 70
     1
102
RTVSPost2010Prop47
 90
       50
102
RTVSPost2010PropOp47
 70
     1
102
RTVSPost2010Prop48
 90
       50
102
RTVSPost2010PropOp48
 70
     1
102
RTVSPost2010Prop49
280
     0
102
RTVSPost2010PropOp49
 70
     1
102
RTVSPost2010Prop50
 90
       50
102
RTVSPost2010PropOp50
 70
     1
102
RTVSPost2010Prop51ColorIndex
 90
      256
102
RTVSPost2010Prop51ColorRGB
 90
-16777216
102
RTVSPost2010PropOp51
 70
     0
102
RTVSPost2010Prop52
140
1.0
102
RTVSPost2010PropOp52
 70
     0
102
RTVSPost2010Prop53
 90
        2
102
RTVSPost2010PropOp53
 70
     1
102
RTVSPost2010Prop54
  1
strokes_ogs.tif
102
RTVSPost2010PropOp54
 70
     1
102
RTVSPost2010Prop55
280
     0
102
RTVSPost2010PropOp55
 70
     1
102
RTVSPost2010Prop56
140
1.0
102
RTVSPost2010PropOp56
 70
     1
102
RTVSPost2010Prop57
140
1.0
102
RTVSPost2010PropOp57
 70
     1
  0
ENDSEC
  0
EOF
