ISO-10303-21;
HEADER;
/* Generated by software containing ST-Developer
 * from STEP Tools, Inc. (www.steptools.com) 
 */

FILE_DESCRIPTION(
/* description */ (''),
/* implementation_level */ '2;1');

FILE_NAME(
/* name */ 'C:\\Users\\svale\\OneDrive\\Upwork\\Controller\\Hand\\Cap.
ipt.stp',
/* time_stamp */ '2021-06-20T10:01:35-05:00',
/* author */ ('svale'),
/* organization */ (''),
/* preprocessor_version */ 'ST-DEVELOPER v18.1',
/* originating_system */ 'Autodesk Inventor 2021',
/* authorisation */ '');

FILE_SCHEMA (('AUTOMOTIVE_DESIGN { 1 0 10303 214 3 1 1 }'));
ENDSEC;

DATA;
#10=MECHANICAL_DESIGN_GEOMETRIC_PRESENTATION_REPRESENTATION('',(#13),#601);
#11=SHAPE_REPRESENTATION_RELATIONSHIP('SRR','None',#608,#12);
#12=ADVANCED_BREP_SHAPE_REPRESENTATION('',(#14),#600);
#13=STYLED_ITEM('',(#617),#14);
#14=MANIFOLD_SOLID_BREP('S\X\F3lido1',#343);
#15=PLANE('',#366);
#16=PLANE('',#367);
#17=PLANE('',#377);
#18=PLANE('',#380);
#19=PLANE('',#385);
#20=PLANE('',#388);
#21=PLANE('',#391);
#22=PLANE('',#394);
#23=PLANE('',#395);
#24=PLANE('',#396);
#25=FACE_OUTER_BOUND('',#43,.T.);
#26=FACE_OUTER_BOUND('',#44,.T.);
#27=FACE_OUTER_BOUND('',#45,.T.);
#28=FACE_OUTER_BOUND('',#46,.T.);
#29=FACE_OUTER_BOUND('',#47,.T.);
#30=FACE_OUTER_BOUND('',#48,.T.);
#31=FACE_OUTER_BOUND('',#49,.T.);
#32=FACE_OUTER_BOUND('',#50,.T.);
#33=FACE_OUTER_BOUND('',#51,.T.);
#34=FACE_OUTER_BOUND('',#52,.T.);
#35=FACE_OUTER_BOUND('',#53,.T.);
#36=FACE_OUTER_BOUND('',#54,.T.);
#37=FACE_OUTER_BOUND('',#55,.T.);
#38=FACE_OUTER_BOUND('',#56,.T.);
#39=FACE_OUTER_BOUND('',#57,.T.);
#40=FACE_OUTER_BOUND('',#58,.T.);
#41=FACE_OUTER_BOUND('',#59,.T.);
#42=FACE_OUTER_BOUND('',#60,.T.);
#43=EDGE_LOOP('',(#221,#222,#223,#224));
#44=EDGE_LOOP('',(#225,#226,#227,#228));
#45=EDGE_LOOP('',(#229,#230,#231,#232,#233,#234,#235,#236,#237,#238,#239,
#240,#241,#242,#243,#244));
#46=EDGE_LOOP('',(#245,#246,#247,#248));
#47=EDGE_LOOP('',(#249,#250,#251,#252));
#48=EDGE_LOOP('',(#253,#254,#255,#256));
#49=EDGE_LOOP('',(#257,#258,#259,#260));
#50=EDGE_LOOP('',(#261,#262,#263,#264));
#51=EDGE_LOOP('',(#265,#266,#267,#268));
#52=EDGE_LOOP('',(#269,#270,#271,#272));
#53=EDGE_LOOP('',(#273,#274,#275,#276));
#54=EDGE_LOOP('',(#277,#278,#279,#280));
#55=EDGE_LOOP('',(#281,#282,#283,#284));
#56=EDGE_LOOP('',(#285,#286,#287,#288));
#57=EDGE_LOOP('',(#289,#290,#291,#292));
#58=EDGE_LOOP('',(#293,#294,#295,#296));
#59=EDGE_LOOP('',(#297,#298,#299,#300));
#60=EDGE_LOOP('',(#301,#302,#303,#304,#305,#306,#307,#308,#309,#310,#311,
#312,#313,#314,#315,#316));
#61=LINE('',#505,#93);
#62=LINE('',#508,#94);
#63=LINE('',#511,#95);
#64=LINE('',#513,#96);
#65=LINE('',#514,#97);
#66=LINE('',#517,#98);
#67=LINE('',#521,#99);
#68=LINE('',#525,#100);
#69=LINE('',#529,#101);
#70=LINE('',#533,#102);
#71=LINE('',#537,#103);
#72=LINE('',#541,#104);
#73=LINE('',#545,#105);
#74=LINE('',#549,#106);
#75=LINE('',#550,#107);
#76=LINE('',#553,#108);
#77=LINE('',#556,#109);
#78=LINE('',#559,#110);
#79=LINE('',#560,#111);
#80=LINE('',#565,#112);
#81=LINE('',#568,#113);
#82=LINE('',#570,#114);
#83=LINE('',#573,#115);
#84=LINE('',#576,#116);
#85=LINE('',#578,#117);
#86=LINE('',#583,#118);
#87=LINE('',#584,#119);
#88=LINE('',#586,#120);
#89=LINE('',#591,#121);
#90=LINE('',#592,#122);
#91=LINE('',#594,#123);
#92=LINE('',#596,#124);
#93=VECTOR('',#403,10.);
#94=VECTOR('',#406,10.);
#95=VECTOR('',#409,10.);
#96=VECTOR('',#410,10.);
#97=VECTOR('',#411,10.);
#98=VECTOR('',#414,10.);
#99=VECTOR('',#417,10.);
#100=VECTOR('',#420,10.);
#101=VECTOR('',#423,10.);
#102=VECTOR('',#426,10.);
#103=VECTOR('',#429,10.);
#104=VECTOR('',#432,10.);
#105=VECTOR('',#437,10.);
#106=VECTOR('',#442,10.);
#107=VECTOR('',#443,10.);
#108=VECTOR('',#446,10.);
#109=VECTOR('',#449,10.);
#110=VECTOR('',#452,10.);
#111=VECTOR('',#453,10.);
#112=VECTOR('',#460,10.);
#113=VECTOR('',#463,10.);
#114=VECTOR('',#466,10.);
#115=VECTOR('',#469,10.);
#116=VECTOR('',#472,10.);
#117=VECTOR('',#475,10.);
#118=VECTOR('',#480,10.);
#119=VECTOR('',#481,10.);
#120=VECTOR('',#484,10.);
#121=VECTOR('',#489,10.);
#122=VECTOR('',#490,10.);
#123=VECTOR('',#493,10.);
#124=VECTOR('',#496,10.);
#125=CIRCLE('',#364,2.);
#126=CIRCLE('',#365,2.);
#127=CIRCLE('',#368,0.2);
#128=CIRCLE('',#369,0.6);
#129=CIRCLE('',#370,0.6);
#130=CIRCLE('',#371,0.2);
#131=CIRCLE('',#372,2.);
#132=CIRCLE('',#373,2.);
#133=CIRCLE('',#374,2.);
#134=CIRCLE('',#376,2.);
#135=CIRCLE('',#379,2.);
#136=CIRCLE('',#382,2.);
#137=CIRCLE('',#384,0.2);
#138=CIRCLE('',#387,0.2);
#139=CIRCLE('',#390,0.6);
#140=CIRCLE('',#393,0.6);
#141=VERTEX_POINT('',#501);
#142=VERTEX_POINT('',#502);
#143=VERTEX_POINT('',#504);
#144=VERTEX_POINT('',#506);
#145=VERTEX_POINT('',#510);
#146=VERTEX_POINT('',#512);
#147=VERTEX_POINT('',#516);
#148=VERTEX_POINT('',#518);
#149=VERTEX_POINT('',#520);
#150=VERTEX_POINT('',#522);
#151=VERTEX_POINT('',#524);
#152=VERTEX_POINT('',#526);
#153=VERTEX_POINT('',#528);
#154=VERTEX_POINT('',#530);
#155=VERTEX_POINT('',#532);
#156=VERTEX_POINT('',#534);
#157=VERTEX_POINT('',#536);
#158=VERTEX_POINT('',#538);
#159=VERTEX_POINT('',#540);
#160=VERTEX_POINT('',#544);
#161=VERTEX_POINT('',#548);
#162=VERTEX_POINT('',#552);
#163=VERTEX_POINT('',#554);
#164=VERTEX_POINT('',#558);
#165=VERTEX_POINT('',#564);
#166=VERTEX_POINT('',#566);
#167=VERTEX_POINT('',#572);
#168=VERTEX_POINT('',#574);
#169=VERTEX_POINT('',#580);
#170=VERTEX_POINT('',#581);
#171=VERTEX_POINT('',#588);
#172=VERTEX_POINT('',#589);
#173=EDGE_CURVE('',#141,#142,#125,.T.);
#174=EDGE_CURVE('',#142,#143,#61,.T.);
#175=EDGE_CURVE('',#143,#144,#126,.T.);
#176=EDGE_CURVE('',#144,#141,#62,.T.);
#177=EDGE_CURVE('',#145,#142,#63,.T.);
#178=EDGE_CURVE('',#146,#145,#64,.T.);
#179=EDGE_CURVE('',#143,#146,#65,.T.);
#180=EDGE_CURVE('',#141,#147,#66,.T.);
#181=EDGE_CURVE('',#148,#147,#127,.T.);
#182=EDGE_CURVE('',#148,#149,#67,.T.);
#183=EDGE_CURVE('',#150,#149,#128,.T.);
#184=EDGE_CURVE('',#150,#151,#68,.T.);
#185=EDGE_CURVE('',#152,#151,#129,.T.);
#186=EDGE_CURVE('',#152,#153,#69,.T.);
#187=EDGE_CURVE('',#154,#153,#130,.T.);
#188=EDGE_CURVE('',#154,#155,#70,.T.);
#189=EDGE_CURVE('',#156,#155,#131,.T.);
#190=EDGE_CURVE('',#156,#157,#71,.T.);
#191=EDGE_CURVE('',#158,#157,#132,.T.);
#192=EDGE_CURVE('',#158,#159,#72,.T.);
#193=EDGE_CURVE('',#145,#159,#133,.T.);
#194=EDGE_CURVE('',#159,#160,#73,.T.);
#195=EDGE_CURVE('',#160,#146,#134,.T.);
#196=EDGE_CURVE('',#161,#158,#74,.T.);
#197=EDGE_CURVE('',#160,#161,#75,.T.);
#198=EDGE_CURVE('',#155,#162,#76,.T.);
#199=EDGE_CURVE('',#162,#163,#135,.T.);
#200=EDGE_CURVE('',#163,#156,#77,.T.);
#201=EDGE_CURVE('',#164,#163,#78,.T.);
#202=EDGE_CURVE('',#157,#164,#79,.T.);
#203=EDGE_CURVE('',#164,#161,#136,.T.);
#204=EDGE_CURVE('',#147,#165,#80,.T.);
#205=EDGE_CURVE('',#165,#166,#137,.T.);
#206=EDGE_CURVE('',#166,#148,#81,.T.);
#207=EDGE_CURVE('',#165,#144,#82,.T.);
#208=EDGE_CURVE('',#153,#167,#83,.T.);
#209=EDGE_CURVE('',#167,#168,#138,.T.);
#210=EDGE_CURVE('',#168,#154,#84,.T.);
#211=EDGE_CURVE('',#162,#168,#85,.T.);
#212=EDGE_CURVE('',#169,#170,#139,.T.);
#213=EDGE_CURVE('',#170,#152,#86,.T.);
#214=EDGE_CURVE('',#151,#169,#87,.T.);
#215=EDGE_CURVE('',#167,#170,#88,.T.);
#216=EDGE_CURVE('',#171,#172,#140,.T.);
#217=EDGE_CURVE('',#172,#150,#89,.T.);
#218=EDGE_CURVE('',#149,#171,#90,.T.);
#219=EDGE_CURVE('',#169,#172,#91,.T.);
#220=EDGE_CURVE('',#171,#166,#92,.T.);
#221=ORIENTED_EDGE('',*,*,#173,.T.);
#222=ORIENTED_EDGE('',*,*,#174,.T.);
#223=ORIENTED_EDGE('',*,*,#175,.T.);
#224=ORIENTED_EDGE('',*,*,#176,.T.);
#225=ORIENTED_EDGE('',*,*,#174,.F.);
#226=ORIENTED_EDGE('',*,*,#177,.F.);
#227=ORIENTED_EDGE('',*,*,#178,.F.);
#228=ORIENTED_EDGE('',*,*,#179,.F.);
#229=ORIENTED_EDGE('',*,*,#173,.F.);
#230=ORIENTED_EDGE('',*,*,#180,.T.);
#231=ORIENTED_EDGE('',*,*,#181,.F.);
#232=ORIENTED_EDGE('',*,*,#182,.T.);
#233=ORIENTED_EDGE('',*,*,#183,.F.);
#234=ORIENTED_EDGE('',*,*,#184,.T.);
#235=ORIENTED_EDGE('',*,*,#185,.F.);
#236=ORIENTED_EDGE('',*,*,#186,.T.);
#237=ORIENTED_EDGE('',*,*,#187,.F.);
#238=ORIENTED_EDGE('',*,*,#188,.T.);
#239=ORIENTED_EDGE('',*,*,#189,.F.);
#240=ORIENTED_EDGE('',*,*,#190,.T.);
#241=ORIENTED_EDGE('',*,*,#191,.F.);
#242=ORIENTED_EDGE('',*,*,#192,.T.);
#243=ORIENTED_EDGE('',*,*,#193,.F.);
#244=ORIENTED_EDGE('',*,*,#177,.T.);
#245=ORIENTED_EDGE('',*,*,#193,.T.);
#246=ORIENTED_EDGE('',*,*,#194,.T.);
#247=ORIENTED_EDGE('',*,*,#195,.T.);
#248=ORIENTED_EDGE('',*,*,#178,.T.);
#249=ORIENTED_EDGE('',*,*,#194,.F.);
#250=ORIENTED_EDGE('',*,*,#192,.F.);
#251=ORIENTED_EDGE('',*,*,#196,.F.);
#252=ORIENTED_EDGE('',*,*,#197,.F.);
#253=ORIENTED_EDGE('',*,*,#189,.T.);
#254=ORIENTED_EDGE('',*,*,#198,.T.);
#255=ORIENTED_EDGE('',*,*,#199,.T.);
#256=ORIENTED_EDGE('',*,*,#200,.T.);
#257=ORIENTED_EDGE('',*,*,#200,.F.);
#258=ORIENTED_EDGE('',*,*,#201,.F.);
#259=ORIENTED_EDGE('',*,*,#202,.F.);
#260=ORIENTED_EDGE('',*,*,#190,.F.);
#261=ORIENTED_EDGE('',*,*,#191,.T.);
#262=ORIENTED_EDGE('',*,*,#202,.T.);
#263=ORIENTED_EDGE('',*,*,#203,.T.);
#264=ORIENTED_EDGE('',*,*,#196,.T.);
#265=ORIENTED_EDGE('',*,*,#181,.T.);
#266=ORIENTED_EDGE('',*,*,#204,.T.);
#267=ORIENTED_EDGE('',*,*,#205,.T.);
#268=ORIENTED_EDGE('',*,*,#206,.T.);
#269=ORIENTED_EDGE('',*,*,#176,.F.);
#270=ORIENTED_EDGE('',*,*,#207,.F.);
#271=ORIENTED_EDGE('',*,*,#204,.F.);
#272=ORIENTED_EDGE('',*,*,#180,.F.);
#273=ORIENTED_EDGE('',*,*,#187,.T.);
#274=ORIENTED_EDGE('',*,*,#208,.T.);
#275=ORIENTED_EDGE('',*,*,#209,.T.);
#276=ORIENTED_EDGE('',*,*,#210,.T.);
#277=ORIENTED_EDGE('',*,*,#198,.F.);
#278=ORIENTED_EDGE('',*,*,#188,.F.);
#279=ORIENTED_EDGE('',*,*,#210,.F.);
#280=ORIENTED_EDGE('',*,*,#211,.F.);
#281=ORIENTED_EDGE('',*,*,#212,.T.);
#282=ORIENTED_EDGE('',*,*,#213,.T.);
#283=ORIENTED_EDGE('',*,*,#185,.T.);
#284=ORIENTED_EDGE('',*,*,#214,.T.);
#285=ORIENTED_EDGE('',*,*,#208,.F.);
#286=ORIENTED_EDGE('',*,*,#186,.F.);
#287=ORIENTED_EDGE('',*,*,#213,.F.);
#288=ORIENTED_EDGE('',*,*,#215,.F.);
#289=ORIENTED_EDGE('',*,*,#216,.T.);
#290=ORIENTED_EDGE('',*,*,#217,.T.);
#291=ORIENTED_EDGE('',*,*,#183,.T.);
#292=ORIENTED_EDGE('',*,*,#218,.T.);
#293=ORIENTED_EDGE('',*,*,#214,.F.);
#294=ORIENTED_EDGE('',*,*,#184,.F.);
#295=ORIENTED_EDGE('',*,*,#217,.F.);
#296=ORIENTED_EDGE('',*,*,#219,.F.);
#297=ORIENTED_EDGE('',*,*,#206,.F.);
#298=ORIENTED_EDGE('',*,*,#220,.F.);
#299=ORIENTED_EDGE('',*,*,#218,.F.);
#300=ORIENTED_EDGE('',*,*,#182,.F.);
#301=ORIENTED_EDGE('',*,*,#175,.F.);
#302=ORIENTED_EDGE('',*,*,#179,.T.);
#303=ORIENTED_EDGE('',*,*,#195,.F.);
#304=ORIENTED_EDGE('',*,*,#197,.T.);
#305=ORIENTED_EDGE('',*,*,#203,.F.);
#306=ORIENTED_EDGE('',*,*,#201,.T.);
#307=ORIENTED_EDGE('',*,*,#199,.F.);
#308=ORIENTED_EDGE('',*,*,#211,.T.);
#309=ORIENTED_EDGE('',*,*,#209,.F.);
#310=ORIENTED_EDGE('',*,*,#215,.T.);
#311=ORIENTED_EDGE('',*,*,#212,.F.);
#312=ORIENTED_EDGE('',*,*,#219,.T.);
#313=ORIENTED_EDGE('',*,*,#216,.F.);
#314=ORIENTED_EDGE('',*,*,#220,.T.);
#315=ORIENTED_EDGE('',*,*,#205,.F.);
#316=ORIENTED_EDGE('',*,*,#207,.T.);
#317=CYLINDRICAL_SURFACE('',#363,2.);
#318=CYLINDRICAL_SURFACE('',#375,2.);
#319=CYLINDRICAL_SURFACE('',#378,2.);
#320=CYLINDRICAL_SURFACE('',#381,2.);
#321=CYLINDRICAL_SURFACE('',#383,0.2);
#322=CYLINDRICAL_SURFACE('',#386,0.2);
#323=CYLINDRICAL_SURFACE('',#389,0.6);
#324=CYLINDRICAL_SURFACE('',#392,0.6);
#325=ADVANCED_FACE('',(#25),#317,.T.);
#326=ADVANCED_FACE('',(#26),#15,.T.);
#327=ADVANCED_FACE('',(#27),#16,.T.);
#328=ADVANCED_FACE('',(#28),#318,.T.);
#329=ADVANCED_FACE('',(#29),#17,.T.);
#330=ADVANCED_FACE('',(#30),#319,.T.);
#331=ADVANCED_FACE('',(#31),#18,.T.);
#332=ADVANCED_FACE('',(#32),#320,.T.);
#333=ADVANCED_FACE('',(#33),#321,.T.);
#334=ADVANCED_FACE('',(#34),#19,.T.);
#335=ADVANCED_FACE('',(#35),#322,.T.);
#336=ADVANCED_FACE('',(#36),#20,.T.);
#337=ADVANCED_FACE('',(#37),#323,.F.);
#338=ADVANCED_FACE('',(#38),#21,.T.);
#339=ADVANCED_FACE('',(#39),#324,.F.);
#340=ADVANCED_FACE('',(#40),#22,.T.);
#341=ADVANCED_FACE('',(#41),#23,.T.);
#342=ADVANCED_FACE('',(#42),#24,.T.);
#343=CLOSED_SHELL('',(#325,#326,#327,#328,#329,#330,#331,#332,#333,#334,
#335,#336,#337,#338,#339,#340,#341,#342));
#344=DERIVED_UNIT_ELEMENT(#346,1.);
#345=DERIVED_UNIT_ELEMENT(#603,3.);
#346=(
MASS_UNIT()
NAMED_UNIT(*)
SI_UNIT($,.GRAM.)
);
#347=DERIVED_UNIT((#344,#345));
#348=MEASURE_REPRESENTATION_ITEM('density measure',
POSITIVE_RATIO_MEASURE(1.),#347);
#349=PROPERTY_DEFINITION_REPRESENTATION(#354,#351);
#350=PROPERTY_DEFINITION_REPRESENTATION(#355,#352);
#351=REPRESENTATION('material name',(#353),#600);
#352=REPRESENTATION('density',(#348),#600);
#353=DESCRIPTIVE_REPRESENTATION_ITEM('Gen\X\E9rico','Gen\X\E9rico');
#354=PROPERTY_DEFINITION('material property','material name',#610);
#355=PROPERTY_DEFINITION('material property','density of part',#610);
#356=DATE_TIME_ROLE('creation_date');
#357=APPLIED_DATE_AND_TIME_ASSIGNMENT(#358,#356,(#610));
#358=DATE_AND_TIME(#359,#360);
#359=CALENDAR_DATE(2021,24,4);
#360=LOCAL_TIME(0,0,0.,#361);
#361=COORDINATED_UNIVERSAL_TIME_OFFSET(0,0,.BEHIND.);
#362=AXIS2_PLACEMENT_3D('placement',#499,#397,#398);
#363=AXIS2_PLACEMENT_3D('',#500,#399,#400);
#364=AXIS2_PLACEMENT_3D('',#503,#401,#402);
#365=AXIS2_PLACEMENT_3D('',#507,#404,#405);
#366=AXIS2_PLACEMENT_3D('',#509,#407,#408);
#367=AXIS2_PLACEMENT_3D('',#515,#412,#413);
#368=AXIS2_PLACEMENT_3D('',#519,#415,#416);
#369=AXIS2_PLACEMENT_3D('',#523,#418,#419);
#370=AXIS2_PLACEMENT_3D('',#527,#421,#422);
#371=AXIS2_PLACEMENT_3D('',#531,#424,#425);
#372=AXIS2_PLACEMENT_3D('',#535,#427,#428);
#373=AXIS2_PLACEMENT_3D('',#539,#430,#431);
#374=AXIS2_PLACEMENT_3D('',#542,#433,#434);
#375=AXIS2_PLACEMENT_3D('',#543,#435,#436);
#376=AXIS2_PLACEMENT_3D('',#546,#438,#439);
#377=AXIS2_PLACEMENT_3D('',#547,#440,#441);
#378=AXIS2_PLACEMENT_3D('',#551,#444,#445);
#379=AXIS2_PLACEMENT_3D('',#555,#447,#448);
#380=AXIS2_PLACEMENT_3D('',#557,#450,#451);
#381=AXIS2_PLACEMENT_3D('',#561,#454,#455);
#382=AXIS2_PLACEMENT_3D('',#562,#456,#457);
#383=AXIS2_PLACEMENT_3D('',#563,#458,#459);
#384=AXIS2_PLACEMENT_3D('',#567,#461,#462);
#385=AXIS2_PLACEMENT_3D('',#569,#464,#465);
#386=AXIS2_PLACEMENT_3D('',#571,#467,#468);
#387=AXIS2_PLACEMENT_3D('',#575,#470,#471);
#388=AXIS2_PLACEMENT_3D('',#577,#473,#474);
#389=AXIS2_PLACEMENT_3D('',#579,#476,#477);
#390=AXIS2_PLACEMENT_3D('',#582,#478,#479);
#391=AXIS2_PLACEMENT_3D('',#585,#482,#483);
#392=AXIS2_PLACEMENT_3D('',#587,#485,#486);
#393=AXIS2_PLACEMENT_3D('',#590,#487,#488);
#394=AXIS2_PLACEMENT_3D('',#593,#491,#492);
#395=AXIS2_PLACEMENT_3D('',#595,#494,#495);
#396=AXIS2_PLACEMENT_3D('',#597,#497,#498);
#397=DIRECTION('axis',(0.,0.,1.));
#398=DIRECTION('refdir',(1.,0.,0.));
#399=DIRECTION('center_axis',(0.,0.,-1.));
#400=DIRECTION('ref_axis',(0.707106781186548,0.707106781186547,0.));
#401=DIRECTION('center_axis',(0.,0.,1.));
#402=DIRECTION('ref_axis',(0.707106781186548,0.707106781186547,0.));
#403=DIRECTION('',(0.,0.,1.));
#404=DIRECTION('center_axis',(0.,0.,-1.));
#405=DIRECTION('ref_axis',(0.707106781186548,0.707106781186547,0.));
#406=DIRECTION('',(0.,0.,-1.));
#407=DIRECTION('center_axis',(4.7168769193591E-16,1.,0.));
#408=DIRECTION('ref_axis',(1.,-4.7168769193591E-16,0.));
#409=DIRECTION('',(1.,-4.7168769193591E-16,0.));
#410=DIRECTION('',(0.,0.,-1.));
#411=DIRECTION('',(-1.,4.7168769193591E-16,0.));
#412=DIRECTION('center_axis',(0.,0.,-1.));
#413=DIRECTION('ref_axis',(-1.,0.,0.));
#414=DIRECTION('',(0.,-1.,0.));
#415=DIRECTION('center_axis',(0.,0.,1.));
#416=DIRECTION('ref_axis',(0.382683432365086,-0.923879532511288,0.));
#417=DIRECTION('',(-0.707106781186547,0.707106781186548,0.));
#418=DIRECTION('center_axis',(0.,0.,-1.));
#419=DIRECTION('ref_axis',(-0.382683432365089,0.923879532511287,0.));
#420=DIRECTION('',(0.,-1.,0.));
#421=DIRECTION('center_axis',(0.,0.,-1.));
#422=DIRECTION('ref_axis',(-0.382683432365086,-0.923879532511288,0.));
#423=DIRECTION('',(0.707106781186548,0.707106781186547,0.));
#424=DIRECTION('center_axis',(0.,0.,1.));
#425=DIRECTION('ref_axis',(0.382683432365086,0.923879532511288,0.));
#426=DIRECTION('',(0.,-1.,0.));
#427=DIRECTION('center_axis',(0.,0.,1.));
#428=DIRECTION('ref_axis',(0.707106781186548,-0.707106781186547,0.));
#429=DIRECTION('',(-1.,-4.44089209850063E-16,0.));
#430=DIRECTION('center_axis',(0.,0.,1.));
#431=DIRECTION('ref_axis',(-0.707106781186548,-0.707106781186548,0.));
#432=DIRECTION('',(0.,1.,0.));
#433=DIRECTION('center_axis',(0.,0.,1.));
#434=DIRECTION('ref_axis',(-0.707106781186548,0.707106781186548,0.));
#435=DIRECTION('center_axis',(0.,0.,-1.));
#436=DIRECTION('ref_axis',(-0.707106781186548,0.707106781186548,0.));
#437=DIRECTION('',(0.,0.,1.));
#438=DIRECTION('center_axis',(0.,0.,-1.));
#439=DIRECTION('ref_axis',(-0.707106781186548,0.707106781186548,0.));
#440=DIRECTION('center_axis',(-1.,0.,0.));
#441=DIRECTION('ref_axis',(0.,1.,0.));
#442=DIRECTION('',(0.,0.,-1.));
#443=DIRECTION('',(0.,-1.,0.));
#444=DIRECTION('center_axis',(0.,0.,-1.));
#445=DIRECTION('ref_axis',(0.707106781186548,-0.707106781186547,0.));
#446=DIRECTION('',(0.,0.,1.));
#447=DIRECTION('center_axis',(0.,0.,-1.));
#448=DIRECTION('ref_axis',(0.707106781186548,-0.707106781186547,0.));
#449=DIRECTION('',(0.,0.,-1.));
#450=DIRECTION('center_axis',(4.44089209850063E-16,-1.,0.));
#451=DIRECTION('ref_axis',(-1.,-4.44089209850063E-16,0.));
#452=DIRECTION('',(1.,4.44089209850063E-16,0.));
#453=DIRECTION('',(0.,0.,1.));
#454=DIRECTION('center_axis',(0.,0.,-1.));
#455=DIRECTION('ref_axis',(-0.707106781186548,-0.707106781186548,0.));
#456=DIRECTION('center_axis',(0.,0.,-1.));
#457=DIRECTION('ref_axis',(-0.707106781186548,-0.707106781186548,0.));
#458=DIRECTION('center_axis',(0.,0.,-1.));
#459=DIRECTION('ref_axis',(0.382683432365086,-0.923879532511288,0.));
#460=DIRECTION('',(0.,0.,1.));
#461=DIRECTION('center_axis',(0.,0.,-1.));
#462=DIRECTION('ref_axis',(0.382683432365086,-0.923879532511288,0.));
#463=DIRECTION('',(0.,0.,-1.));
#464=DIRECTION('center_axis',(1.,0.,0.));
#465=DIRECTION('ref_axis',(0.,-1.,0.));
#466=DIRECTION('',(0.,1.,0.));
#467=DIRECTION('center_axis',(0.,0.,-1.));
#468=DIRECTION('ref_axis',(0.382683432365086,0.923879532511288,0.));
#469=DIRECTION('',(0.,0.,1.));
#470=DIRECTION('center_axis',(0.,0.,-1.));
#471=DIRECTION('ref_axis',(0.382683432365086,0.923879532511288,0.));
#472=DIRECTION('',(0.,0.,-1.));
#473=DIRECTION('center_axis',(1.,0.,0.));
#474=DIRECTION('ref_axis',(0.,-1.,0.));
#475=DIRECTION('',(0.,1.,0.));
#476=DIRECTION('center_axis',(0.,0.,-1.));
#477=DIRECTION('ref_axis',(-0.382683432365086,-0.923879532511288,0.));
#478=DIRECTION('center_axis',(0.,0.,1.));
#479=DIRECTION('ref_axis',(-0.382683432365086,-0.923879532511288,0.));
#480=DIRECTION('',(0.,0.,-1.));
#481=DIRECTION('',(0.,0.,1.));
#482=DIRECTION('center_axis',(-0.707106781186547,0.707106781186548,0.));
#483=DIRECTION('ref_axis',(0.707106781186548,0.707106781186547,0.));
#484=DIRECTION('',(-0.707106781186548,-0.707106781186547,0.));
#485=DIRECTION('center_axis',(0.,0.,-1.));
#486=DIRECTION('ref_axis',(-0.382683432365089,0.923879532511287,0.));
#487=DIRECTION('center_axis',(0.,0.,1.));
#488=DIRECTION('ref_axis',(-0.382683432365089,0.923879532511287,0.));
#489=DIRECTION('',(0.,0.,-1.));
#490=DIRECTION('',(0.,0.,1.));
#491=DIRECTION('center_axis',(1.,0.,0.));
#492=DIRECTION('ref_axis',(0.,-1.,0.));
#493=DIRECTION('',(0.,1.,0.));
#494=DIRECTION('center_axis',(-0.707106781186548,-0.707106781186547,0.));
#495=DIRECTION('ref_axis',(-0.707106781186547,0.707106781186548,0.));
#496=DIRECTION('',(0.707106781186547,-0.707106781186548,0.));
#497=DIRECTION('center_axis',(0.,0.,1.));
#498=DIRECTION('ref_axis',(1.,0.,0.));
#499=CARTESIAN_POINT('',(0.,0.,0.));
#500=CARTESIAN_POINT('Origin',(-34.4729644434569,14.7310174000862,0.));
#501=CARTESIAN_POINT('',(-32.4729644434569,14.7310174000862,-10.));
#502=CARTESIAN_POINT('',(-34.4729644434569,16.7310174000862,-10.));
#503=CARTESIAN_POINT('Origin',(-34.4729644434569,14.7310174000862,-10.));
#504=CARTESIAN_POINT('',(-34.4729644434569,16.7310174000862,0.));
#505=CARTESIAN_POINT('',(-34.4729644434569,16.7310174000862,0.));
#506=CARTESIAN_POINT('',(-32.4729644434569,14.7310174000862,0.));
#507=CARTESIAN_POINT('Origin',(-34.4729644434569,14.7310174000862,0.));
#508=CARTESIAN_POINT('',(-32.4729644434569,14.7310174000862,0.));
#509=CARTESIAN_POINT('Origin',(-37.1804140700035,16.7310174000862,0.));
#510=CARTESIAN_POINT('',(-35.1804140700035,16.7310174000862,-10.));
#511=CARTESIAN_POINT('',(-32.4729644434569,16.7310174000862,-10.));
#512=CARTESIAN_POINT('',(-35.1804140700035,16.7310174000862,0.));
#513=CARTESIAN_POINT('',(-35.1804140700035,16.7310174000862,0.));
#514=CARTESIAN_POINT('',(-32.4729644434569,16.7310174000862,0.));
#515=CARTESIAN_POINT('Origin',(-34.6804140700035,0.510581912877608,-10.));
#516=CARTESIAN_POINT('',(-32.4729644434569,13.2138601125609,-10.));
#517=CARTESIAN_POINT('',(-32.4729644434569,12.7310174000862,-10.));
#518=CARTESIAN_POINT('',(-32.8143857996942,13.0724387563235,-10.));
#519=CARTESIAN_POINT('Origin',(-32.6729644434569,13.2138601125609,-10.));
#520=CARTESIAN_POINT('',(-33.9318191310856,14.189872087715,-10.));
#521=CARTESIAN_POINT('',(-34.9560831997976,15.2141361564269,-10.));
#522=CARTESIAN_POINT('',(-34.9560831997976,13.7656080190031,-10.));
#523=CARTESIAN_POINT('Origin',(-34.3560831997976,13.7656080190031,-10.));
#524=CARTESIAN_POINT('',(-34.9560831997976,-13.0369945667013,-10.));
#525=CARTESIAN_POINT('',(-34.9560831997976,-14.4855227041251,-10.));
#526=CARTESIAN_POINT('',(-33.9318191310856,-13.4612586354132,-10.));
#527=CARTESIAN_POINT('Origin',(-34.3560831997976,-13.0369945667013,-10.));
#528=CARTESIAN_POINT('',(-32.5218354262408,-12.0512749305683,-10.));
#529=CARTESIAN_POINT('',(-32.1804140700035,-11.709853574331,-10.));
#530=CARTESIAN_POINT('',(-32.1804140700035,-12.1926962868056,-10.));
#531=CARTESIAN_POINT('Origin',(-32.3804140700035,-12.1926962868056,-10.));
#532=CARTESIAN_POINT('',(-32.1804140700035,-13.709853574331,-10.));
#533=CARTESIAN_POINT('',(-32.1804140700035,-15.709853574331,-10.));
#534=CARTESIAN_POINT('',(-34.1804140700035,-15.709853574331,-10.));
#535=CARTESIAN_POINT('Origin',(-34.1804140700035,-13.709853574331,-10.));
#536=CARTESIAN_POINT('',(-35.1804140700035,-15.709853574331,-10.));
#537=CARTESIAN_POINT('',(-37.1804140700035,-15.709853574331,-10.));
#538=CARTESIAN_POINT('',(-37.1804140700035,-13.709853574331,-10.));
#539=CARTESIAN_POINT('Origin',(-35.1804140700035,-13.709853574331,-10.));
#540=CARTESIAN_POINT('',(-37.1804140700035,14.7310174000862,-10.));
#541=CARTESIAN_POINT('',(-37.1804140700035,16.7310174000862,-10.));
#542=CARTESIAN_POINT('Origin',(-35.1804140700035,14.7310174000862,-10.));
#543=CARTESIAN_POINT('Origin',(-35.1804140700035,14.7310174000862,0.));
#544=CARTESIAN_POINT('',(-37.1804140700035,14.7310174000862,0.));
#545=CARTESIAN_POINT('',(-37.1804140700035,14.7310174000862,0.));
#546=CARTESIAN_POINT('Origin',(-35.1804140700035,14.7310174000862,0.));
#547=CARTESIAN_POINT('Origin',(-37.1804140700035,-15.709853574331,0.));
#548=CARTESIAN_POINT('',(-37.1804140700035,-13.709853574331,0.));
#549=CARTESIAN_POINT('',(-37.1804140700035,-13.709853574331,0.));
#550=CARTESIAN_POINT('',(-37.1804140700035,16.7310174000862,0.));
#551=CARTESIAN_POINT('Origin',(-34.1804140700035,-13.709853574331,0.));
#552=CARTESIAN_POINT('',(-32.1804140700035,-13.709853574331,0.));
#553=CARTESIAN_POINT('',(-32.1804140700035,-13.709853574331,0.));
#554=CARTESIAN_POINT('',(-34.1804140700035,-15.709853574331,0.));
#555=CARTESIAN_POINT('Origin',(-34.1804140700035,-13.709853574331,0.));
#556=CARTESIAN_POINT('',(-34.1804140700035,-15.709853574331,0.));
#557=CARTESIAN_POINT('Origin',(-32.1804140700035,-15.709853574331,0.));
#558=CARTESIAN_POINT('',(-35.1804140700035,-15.709853574331,0.));
#559=CARTESIAN_POINT('',(-37.1804140700035,-15.709853574331,0.));
#560=CARTESIAN_POINT('',(-35.1804140700035,-15.709853574331,0.));
#561=CARTESIAN_POINT('Origin',(-35.1804140700035,-13.709853574331,0.));
#562=CARTESIAN_POINT('Origin',(-35.1804140700035,-13.709853574331,0.));
#563=CARTESIAN_POINT('Origin',(-32.6729644434569,13.2138601125609,0.));
#564=CARTESIAN_POINT('',(-32.4729644434569,13.2138601125609,0.));
#565=CARTESIAN_POINT('',(-32.4729644434569,13.2138601125609,0.));
#566=CARTESIAN_POINT('',(-32.8143857996942,13.0724387563235,0.));
#567=CARTESIAN_POINT('Origin',(-32.6729644434569,13.2138601125609,0.));
#568=CARTESIAN_POINT('',(-32.8143857996942,13.0724387563235,0.));
#569=CARTESIAN_POINT('Origin',(-32.4729644434569,16.7310174000862,0.));
#570=CARTESIAN_POINT('',(-32.4729644434569,12.7310174000862,0.));
#571=CARTESIAN_POINT('Origin',(-32.3804140700035,-12.1926962868056,0.));
#572=CARTESIAN_POINT('',(-32.5218354262408,-12.0512749305683,0.));
#573=CARTESIAN_POINT('',(-32.5218354262408,-12.0512749305683,0.));
#574=CARTESIAN_POINT('',(-32.1804140700035,-12.1926962868056,0.));
#575=CARTESIAN_POINT('Origin',(-32.3804140700035,-12.1926962868056,0.));
#576=CARTESIAN_POINT('',(-32.1804140700035,-12.1926962868056,0.));
#577=CARTESIAN_POINT('Origin',(-32.1804140700035,-11.709853574331,0.));
#578=CARTESIAN_POINT('',(-32.1804140700035,-15.709853574331,0.));
#579=CARTESIAN_POINT('Origin',(-34.3560831997976,-13.0369945667013,0.));
#580=CARTESIAN_POINT('',(-34.9560831997976,-13.0369945667013,0.));
#581=CARTESIAN_POINT('',(-33.9318191310856,-13.4612586354132,0.));
#582=CARTESIAN_POINT('Origin',(-34.3560831997976,-13.0369945667013,0.));
#583=CARTESIAN_POINT('',(-33.9318191310856,-13.4612586354132,0.));
#584=CARTESIAN_POINT('',(-34.9560831997976,-13.0369945667013,0.));
#585=CARTESIAN_POINT('Origin',(-34.9560831997976,-14.4855227041251,0.));
#586=CARTESIAN_POINT('',(-32.1804140700035,-11.709853574331,0.));
#587=CARTESIAN_POINT('Origin',(-34.3560831997976,13.7656080190031,0.));
#588=CARTESIAN_POINT('',(-33.9318191310856,14.189872087715,0.));
#589=CARTESIAN_POINT('',(-34.9560831997976,13.7656080190031,0.));
#590=CARTESIAN_POINT('Origin',(-34.3560831997976,13.7656080190031,0.));
#591=CARTESIAN_POINT('',(-34.9560831997976,13.7656080190031,0.));
#592=CARTESIAN_POINT('',(-33.9318191310856,14.189872087715,0.));
#593=CARTESIAN_POINT('Origin',(-34.9560831997976,15.2141361564269,0.));
#594=CARTESIAN_POINT('',(-34.9560831997976,-14.4855227041251,0.));
#595=CARTESIAN_POINT('Origin',(-32.4729644434569,12.7310174000862,0.));
#596=CARTESIAN_POINT('',(-34.9560831997976,15.2141361564269,0.));
#597=CARTESIAN_POINT('Origin',(-34.6804140700035,0.510581912877608,0.));
#598=UNCERTAINTY_MEASURE_WITH_UNIT(LENGTH_MEASURE(0.01),#602,
'DISTANCE_ACCURACY_VALUE',
'Maximum model space distance between geometric entities at asserted c
onnectivities');
#599=UNCERTAINTY_MEASURE_WITH_UNIT(LENGTH_MEASURE(0.01),#602,
'DISTANCE_ACCURACY_VALUE',
'Maximum model space distance between geometric entities at asserted c
onnectivities');
#600=(
GEOMETRIC_REPRESENTATION_CONTEXT(3)
GLOBAL_UNCERTAINTY_ASSIGNED_CONTEXT((#598))
GLOBAL_UNIT_ASSIGNED_CONTEXT((#602,#604,#605))
REPRESENTATION_CONTEXT('','3D')
);
#601=(
GEOMETRIC_REPRESENTATION_CONTEXT(3)
GLOBAL_UNCERTAINTY_ASSIGNED_CONTEXT((#599))
GLOBAL_UNIT_ASSIGNED_CONTEXT((#602,#604,#605))
REPRESENTATION_CONTEXT('','3D')
);
#602=(
LENGTH_UNIT()
NAMED_UNIT(*)
SI_UNIT(.MILLI.,.METRE.)
);
#603=(
LENGTH_UNIT()
NAMED_UNIT(*)
SI_UNIT(.CENTI.,.METRE.)
);
#604=(
NAMED_UNIT(*)
PLANE_ANGLE_UNIT()
SI_UNIT($,.RADIAN.)
);
#605=(
NAMED_UNIT(*)
SI_UNIT($,.STERADIAN.)
SOLID_ANGLE_UNIT()
);
#606=SHAPE_DEFINITION_REPRESENTATION(#607,#608);
#607=PRODUCT_DEFINITION_SHAPE('',$,#610);
#608=SHAPE_REPRESENTATION('',(#362),#600);
#609=PRODUCT_DEFINITION_CONTEXT('part definition',#614,'design');
#610=PRODUCT_DEFINITION('Cap','Cap',#611,#609);
#611=PRODUCT_DEFINITION_FORMATION('',$,#616);
#612=PRODUCT_RELATED_PRODUCT_CATEGORY('Cap','Cap',(#616));
#613=APPLICATION_PROTOCOL_DEFINITION('international standard',
'automotive_design',2009,#614);
#614=APPLICATION_CONTEXT(
'Core Data for Automotive Mechanical Design Process');
#615=PRODUCT_CONTEXT('part definition',#614,'mechanical');
#616=PRODUCT('Cap','Cap',$,(#615));
#617=PRESENTATION_STYLE_ASSIGNMENT((#618));
#618=SURFACE_STYLE_USAGE(.BOTH.,#621);
#619=SURFACE_STYLE_RENDERING_WITH_PROPERTIES($,#625,(#620));
#620=SURFACE_STYLE_TRANSPARENT(0.);
#621=SURFACE_SIDE_STYLE('',(#622,#619));
#622=SURFACE_STYLE_FILL_AREA(#623);
#623=FILL_AREA_STYLE('',(#624));
#624=FILL_AREA_STYLE_COLOUR('',#625);
#625=COLOUR_RGB('',0.749019607843137,0.749019607843137,0.749019607843137);
ENDSEC;
END-ISO-10303-21;
