ISO-10303-21;
HEADER;
/* Generated by software containing ST-Developer
 * from STEP Tools, Inc. (www.steptools.com) 
 */

FILE_DESCRIPTION(
/* description */ (''),
/* implementation_level */ '2;1');

FILE_NAME(
/* name */ 
'C:\\Users\\svale\\OneDrive\\Upwork\\Controller\\Hand\\Cap1v1.ipt.stp',

/* time_stamp */ '2021-06-20T10:01:37-05:00',
/* author */ ('svale'),
/* organization */ (''),
/* preprocessor_version */ 'ST-DEVELOPER v18.1',
/* originating_system */ 'Autodesk Inventor 2021',
/* authorisation */ '');

FILE_SCHEMA (('AUTOMOTIVE_DESIGN { 1 0 10303 214 3 1 1 }'));
ENDSEC;

DATA;
#10=MECHANICAL_DESIGN_GEOMETRIC_PRESENTATION_REPRESENTATION('',(#13),#357);
#11=SHAPE_REPRESENTATION_RELATIONSHIP('SRR','None',#364,#12);
#12=ADVANCED_BREP_SHAPE_REPRESENTATION('',(#14),#356);
#13=STYLED_ITEM('',(#373),#14);
#14=MANIFOLD_SOLID_BREP('S\X\F3lido1',#201);
#15=FACE_BOUND('',#40,.T.);
#16=FACE_BOUND('',#41,.T.);
#17=FACE_BOUND('',#47,.T.);
#18=FACE_BOUND('',#48,.T.);
#19=PLANE('',#232);
#20=PLANE('',#233);
#21=PLANE('',#237);
#22=PLANE('',#238);
#23=PLANE('',#239);
#24=PLANE('',#240);
#25=FACE_OUTER_BOUND('',#35,.T.);
#26=FACE_OUTER_BOUND('',#36,.T.);
#27=FACE_OUTER_BOUND('',#37,.T.);
#28=FACE_OUTER_BOUND('',#38,.T.);
#29=FACE_OUTER_BOUND('',#39,.T.);
#30=FACE_OUTER_BOUND('',#42,.T.);
#31=FACE_OUTER_BOUND('',#43,.T.);
#32=FACE_OUTER_BOUND('',#44,.T.);
#33=FACE_OUTER_BOUND('',#45,.T.);
#34=FACE_OUTER_BOUND('',#46,.T.);
#35=EDGE_LOOP('',(#135,#136,#137,#138,#139));
#36=EDGE_LOOP('',(#140,#141,#142,#143,#144));
#37=EDGE_LOOP('',(#145,#146,#147,#148));
#38=EDGE_LOOP('',(#149,#150,#151,#152));
#39=EDGE_LOOP('',(#153,#154,#155,#156,#157,#158));
#40=EDGE_LOOP('',(#159,#160));
#41=EDGE_LOOP('',(#161,#162));
#42=EDGE_LOOP('',(#163,#164,#165,#166));
#43=EDGE_LOOP('',(#167,#168,#169,#170));
#44=EDGE_LOOP('',(#171,#172,#173,#174));
#45=EDGE_LOOP('',(#175,#176,#177,#178));
#46=EDGE_LOOP('',(#179,#180,#181,#182,#183,#184));
#47=EDGE_LOOP('',(#185));
#48=EDGE_LOOP('',(#186));
#49=LINE('',#306,#65);
#50=LINE('',#314,#66);
#51=LINE('',#321,#67);
#52=LINE('',#324,#68);
#53=LINE('',#327,#69);
#54=LINE('',#329,#70);
#55=LINE('',#330,#71);
#56=LINE('',#333,#72);
#57=LINE('',#335,#73);
#58=LINE('',#337,#74);
#59=LINE('',#341,#75);
#60=LINE('',#345,#76);
#61=LINE('',#346,#77);
#62=LINE('',#349,#78);
#63=LINE('',#350,#79);
#64=LINE('',#352,#80);
#65=VECTOR('',#249,1.25);
#66=VECTOR('',#258,1.25);
#67=VECTOR('',#265,10.);
#68=VECTOR('',#268,10.);
#69=VECTOR('',#271,10.);
#70=VECTOR('',#272,10.);
#71=VECTOR('',#273,10.);
#72=VECTOR('',#276,10.);
#73=VECTOR('',#277,10.);
#74=VECTOR('',#278,10.);
#75=VECTOR('',#283,10.);
#76=VECTOR('',#288,10.);
#77=VECTOR('',#289,10.);
#78=VECTOR('',#292,10.);
#79=VECTOR('',#293,10.);
#80=VECTOR('',#296,10.);
#81=CIRCLE('',#222,1.25);
#82=CIRCLE('',#223,1.25);
#83=CIRCLE('',#224,1.25);
#84=CIRCLE('',#226,1.25);
#85=CIRCLE('',#227,1.25);
#86=CIRCLE('',#228,1.25);
#87=CIRCLE('',#230,2.);
#88=CIRCLE('',#231,2.);
#89=CIRCLE('',#234,2.);
#90=CIRCLE('',#236,2.);
#91=VERTEX_POINT('',#301);
#92=VERTEX_POINT('',#302);
#93=VERTEX_POINT('',#305);
#94=VERTEX_POINT('',#309);
#95=VERTEX_POINT('',#310);
#96=VERTEX_POINT('',#313);
#97=VERTEX_POINT('',#317);
#98=VERTEX_POINT('',#318);
#99=VERTEX_POINT('',#320);
#100=VERTEX_POINT('',#322);
#101=VERTEX_POINT('',#326);
#102=VERTEX_POINT('',#328);
#103=VERTEX_POINT('',#332);
#104=VERTEX_POINT('',#334);
#105=VERTEX_POINT('',#336);
#106=VERTEX_POINT('',#340);
#107=VERTEX_POINT('',#344);
#108=VERTEX_POINT('',#348);
#109=EDGE_CURVE('',#91,#92,#81,.T.);
#110=EDGE_CURVE('',#92,#91,#82,.T.);
#111=EDGE_CURVE('',#92,#93,#49,.T.);
#112=EDGE_CURVE('',#93,#93,#83,.T.);
#113=EDGE_CURVE('',#94,#95,#84,.T.);
#114=EDGE_CURVE('',#95,#94,#85,.T.);
#115=EDGE_CURVE('',#95,#96,#50,.T.);
#116=EDGE_CURVE('',#96,#96,#86,.T.);
#117=EDGE_CURVE('',#97,#98,#87,.T.);
#118=EDGE_CURVE('',#98,#99,#51,.T.);
#119=EDGE_CURVE('',#99,#100,#88,.T.);
#120=EDGE_CURVE('',#100,#97,#52,.T.);
#121=EDGE_CURVE('',#101,#98,#53,.T.);
#122=EDGE_CURVE('',#102,#101,#54,.T.);
#123=EDGE_CURVE('',#102,#99,#55,.T.);
#124=EDGE_CURVE('',#97,#103,#56,.T.);
#125=EDGE_CURVE('',#103,#104,#57,.T.);
#126=EDGE_CURVE('',#104,#105,#58,.T.);
#127=EDGE_CURVE('',#101,#105,#89,.T.);
#128=EDGE_CURVE('',#105,#106,#59,.T.);
#129=EDGE_CURVE('',#106,#102,#90,.T.);
#130=EDGE_CURVE('',#104,#107,#60,.T.);
#131=EDGE_CURVE('',#107,#106,#61,.T.);
#132=EDGE_CURVE('',#108,#103,#62,.T.);
#133=EDGE_CURVE('',#107,#108,#63,.T.);
#134=EDGE_CURVE('',#100,#108,#64,.T.);
#135=ORIENTED_EDGE('',*,*,#109,.F.);
#136=ORIENTED_EDGE('',*,*,#110,.F.);
#137=ORIENTED_EDGE('',*,*,#111,.T.);
#138=ORIENTED_EDGE('',*,*,#112,.F.);
#139=ORIENTED_EDGE('',*,*,#111,.F.);
#140=ORIENTED_EDGE('',*,*,#113,.F.);
#141=ORIENTED_EDGE('',*,*,#114,.F.);
#142=ORIENTED_EDGE('',*,*,#115,.T.);
#143=ORIENTED_EDGE('',*,*,#116,.F.);
#144=ORIENTED_EDGE('',*,*,#115,.F.);
#145=ORIENTED_EDGE('',*,*,#117,.T.);
#146=ORIENTED_EDGE('',*,*,#118,.T.);
#147=ORIENTED_EDGE('',*,*,#119,.T.);
#148=ORIENTED_EDGE('',*,*,#120,.T.);
#149=ORIENTED_EDGE('',*,*,#118,.F.);
#150=ORIENTED_EDGE('',*,*,#121,.F.);
#151=ORIENTED_EDGE('',*,*,#122,.F.);
#152=ORIENTED_EDGE('',*,*,#123,.T.);
#153=ORIENTED_EDGE('',*,*,#117,.F.);
#154=ORIENTED_EDGE('',*,*,#124,.T.);
#155=ORIENTED_EDGE('',*,*,#125,.T.);
#156=ORIENTED_EDGE('',*,*,#126,.T.);
#157=ORIENTED_EDGE('',*,*,#127,.F.);
#158=ORIENTED_EDGE('',*,*,#121,.T.);
#159=ORIENTED_EDGE('',*,*,#109,.T.);
#160=ORIENTED_EDGE('',*,*,#110,.T.);
#161=ORIENTED_EDGE('',*,*,#113,.T.);
#162=ORIENTED_EDGE('',*,*,#114,.T.);
#163=ORIENTED_EDGE('',*,*,#127,.T.);
#164=ORIENTED_EDGE('',*,*,#128,.T.);
#165=ORIENTED_EDGE('',*,*,#129,.T.);
#166=ORIENTED_EDGE('',*,*,#122,.T.);
#167=ORIENTED_EDGE('',*,*,#128,.F.);
#168=ORIENTED_EDGE('',*,*,#126,.F.);
#169=ORIENTED_EDGE('',*,*,#130,.T.);
#170=ORIENTED_EDGE('',*,*,#131,.T.);
#171=ORIENTED_EDGE('',*,*,#125,.F.);
#172=ORIENTED_EDGE('',*,*,#132,.F.);
#173=ORIENTED_EDGE('',*,*,#133,.F.);
#174=ORIENTED_EDGE('',*,*,#130,.F.);
#175=ORIENTED_EDGE('',*,*,#120,.F.);
#176=ORIENTED_EDGE('',*,*,#134,.T.);
#177=ORIENTED_EDGE('',*,*,#132,.T.);
#178=ORIENTED_EDGE('',*,*,#124,.F.);
#179=ORIENTED_EDGE('',*,*,#119,.F.);
#180=ORIENTED_EDGE('',*,*,#123,.F.);
#181=ORIENTED_EDGE('',*,*,#129,.F.);
#182=ORIENTED_EDGE('',*,*,#131,.F.);
#183=ORIENTED_EDGE('',*,*,#133,.T.);
#184=ORIENTED_EDGE('',*,*,#134,.F.);
#185=ORIENTED_EDGE('',*,*,#112,.T.);
#186=ORIENTED_EDGE('',*,*,#116,.T.);
#187=CYLINDRICAL_SURFACE('',#221,1.25);
#188=CYLINDRICAL_SURFACE('',#225,1.25);
#189=CYLINDRICAL_SURFACE('',#229,2.);
#190=CYLINDRICAL_SURFACE('',#235,2.);
#191=ADVANCED_FACE('',(#25),#187,.F.);
#192=ADVANCED_FACE('',(#26),#188,.F.);
#193=ADVANCED_FACE('',(#27),#189,.T.);
#194=ADVANCED_FACE('',(#28),#19,.T.);
#195=ADVANCED_FACE('',(#29,#15,#16),#20,.T.);
#196=ADVANCED_FACE('',(#30),#190,.T.);
#197=ADVANCED_FACE('',(#31),#21,.T.);
#198=ADVANCED_FACE('',(#32),#22,.F.);
#199=ADVANCED_FACE('',(#33),#23,.T.);
#200=ADVANCED_FACE('',(#34,#17,#18),#24,.F.);
#201=CLOSED_SHELL('',(#191,#192,#193,#194,#195,#196,#197,#198,#199,#200));
#202=DERIVED_UNIT_ELEMENT(#204,1.);
#203=DERIVED_UNIT_ELEMENT(#359,3.);
#204=(
MASS_UNIT()
NAMED_UNIT(*)
SI_UNIT($,.GRAM.)
);
#205=DERIVED_UNIT((#202,#203));
#206=MEASURE_REPRESENTATION_ITEM('density measure',
POSITIVE_RATIO_MEASURE(1.),#205);
#207=PROPERTY_DEFINITION_REPRESENTATION(#212,#209);
#208=PROPERTY_DEFINITION_REPRESENTATION(#213,#210);
#209=REPRESENTATION('material name',(#211),#356);
#210=REPRESENTATION('density',(#206),#356);
#211=DESCRIPTIVE_REPRESENTATION_ITEM('Gen\X\E9rico','Gen\X\E9rico');
#212=PROPERTY_DEFINITION('material property','material name',#366);
#213=PROPERTY_DEFINITION('material property','density of part',#366);
#214=DATE_TIME_ROLE('creation_date');
#215=APPLIED_DATE_AND_TIME_ASSIGNMENT(#216,#214,(#366));
#216=DATE_AND_TIME(#217,#218);
#217=CALENDAR_DATE(2021,3,5);
#218=LOCAL_TIME(0,0,0.,#219);
#219=COORDINATED_UNIVERSAL_TIME_OFFSET(0,0,.BEHIND.);
#220=AXIS2_PLACEMENT_3D('placement',#299,#241,#242);
#221=AXIS2_PLACEMENT_3D('',#300,#243,#244);
#222=AXIS2_PLACEMENT_3D('',#303,#245,#246);
#223=AXIS2_PLACEMENT_3D('',#304,#247,#248);
#224=AXIS2_PLACEMENT_3D('',#307,#250,#251);
#225=AXIS2_PLACEMENT_3D('',#308,#252,#253);
#226=AXIS2_PLACEMENT_3D('',#311,#254,#255);
#227=AXIS2_PLACEMENT_3D('',#312,#256,#257);
#228=AXIS2_PLACEMENT_3D('',#315,#259,#260);
#229=AXIS2_PLACEMENT_3D('',#316,#261,#262);
#230=AXIS2_PLACEMENT_3D('',#319,#263,#264);
#231=AXIS2_PLACEMENT_3D('',#323,#266,#267);
#232=AXIS2_PLACEMENT_3D('',#325,#269,#270);
#233=AXIS2_PLACEMENT_3D('',#331,#274,#275);
#234=AXIS2_PLACEMENT_3D('',#338,#279,#280);
#235=AXIS2_PLACEMENT_3D('',#339,#281,#282);
#236=AXIS2_PLACEMENT_3D('',#342,#284,#285);
#237=AXIS2_PLACEMENT_3D('',#343,#286,#287);
#238=AXIS2_PLACEMENT_3D('',#347,#290,#291);
#239=AXIS2_PLACEMENT_3D('',#351,#294,#295);
#240=AXIS2_PLACEMENT_3D('',#353,#297,#298);
#241=DIRECTION('axis',(0.,0.,1.));
#242=DIRECTION('refdir',(1.,0.,0.));
#243=DIRECTION('center_axis',(0.,0.,1.));
#244=DIRECTION('ref_axis',(1.,0.,0.));
#245=DIRECTION('center_axis',(0.,0.,-1.));
#246=DIRECTION('ref_axis',(1.,0.,0.));
#247=DIRECTION('center_axis',(0.,0.,-1.));
#248=DIRECTION('ref_axis',(1.,0.,0.));
#249=DIRECTION('',(0.,0.,-1.));
#250=DIRECTION('center_axis',(0.,0.,1.));
#251=DIRECTION('ref_axis',(1.,0.,0.));
#252=DIRECTION('center_axis',(0.,0.,1.));
#253=DIRECTION('ref_axis',(1.,0.,0.));
#254=DIRECTION('center_axis',(0.,0.,-1.));
#255=DIRECTION('ref_axis',(1.,0.,0.));
#256=DIRECTION('center_axis',(0.,0.,-1.));
#257=DIRECTION('ref_axis',(1.,0.,0.));
#258=DIRECTION('',(0.,0.,-1.));
#259=DIRECTION('center_axis',(0.,0.,1.));
#260=DIRECTION('ref_axis',(1.,0.,0.));
#261=DIRECTION('center_axis',(0.,0.,1.));
#262=DIRECTION('ref_axis',(-0.707106781186547,0.707106781186548,0.));
#263=DIRECTION('center_axis',(0.,0.,-1.));
#264=DIRECTION('ref_axis',(-0.707106781186547,0.707106781186548,0.));
#265=DIRECTION('',(0.,0.,-1.));
#266=DIRECTION('center_axis',(0.,0.,1.));
#267=DIRECTION('ref_axis',(-0.707106781186547,0.707106781186548,0.));
#268=DIRECTION('',(0.,0.,1.));
#269=DIRECTION('center_axis',(0.,1.,0.));
#270=DIRECTION('ref_axis',(-1.,0.,0.));
#271=DIRECTION('',(-1.,0.,0.));
#272=DIRECTION('',(0.,0.,1.));
#273=DIRECTION('',(-1.,0.,0.));
#274=DIRECTION('center_axis',(0.,0.,1.));
#275=DIRECTION('ref_axis',(1.,0.,0.));
#276=DIRECTION('',(0.,-1.,0.));
#277=DIRECTION('',(1.,0.,0.));
#278=DIRECTION('',(0.,1.,0.));
#279=DIRECTION('center_axis',(0.,0.,-1.));
#280=DIRECTION('ref_axis',(0.707106781186548,0.707106781186548,0.));
#281=DIRECTION('center_axis',(0.,0.,1.));
#282=DIRECTION('ref_axis',(0.707106781186548,0.707106781186548,0.));
#283=DIRECTION('',(0.,0.,-1.));
#284=DIRECTION('center_axis',(0.,0.,1.));
#285=DIRECTION('ref_axis',(0.707106781186548,0.707106781186548,0.));
#286=DIRECTION('center_axis',(1.,0.,0.));
#287=DIRECTION('ref_axis',(0.,1.,0.));
#288=DIRECTION('',(0.,0.,-1.));
#289=DIRECTION('',(0.,1.,0.));
#290=DIRECTION('center_axis',(0.,1.,0.));
#291=DIRECTION('ref_axis',(1.,0.,0.));
#292=DIRECTION('',(0.,0.,1.));
#293=DIRECTION('',(-1.,0.,0.));
#294=DIRECTION('center_axis',(-1.,0.,0.));
#295=DIRECTION('ref_axis',(0.,-1.,0.));
#296=DIRECTION('',(0.,-1.,0.));
#297=DIRECTION('center_axis',(0.,0.,1.));
#298=DIRECTION('ref_axis',(1.,0.,0.));
#299=CARTESIAN_POINT('',(0.,0.,0.));
#300=CARTESIAN_POINT('Origin',(4.14050929033957,14.9912675700546,-15.2689751901478));
#301=CARTESIAN_POINT('',(5.39050929033957,14.9912675700546,3.));
#302=CARTESIAN_POINT('',(2.89050929033957,14.9912675700546,3.));
#303=CARTESIAN_POINT('Origin',(4.14050929033957,14.9912675700546,3.));
#304=CARTESIAN_POINT('Origin',(4.14050929033957,14.9912675700546,3.));
#305=CARTESIAN_POINT('',(2.89050929033957,14.9912675700546,0.));
#306=CARTESIAN_POINT('',(2.89050929033957,14.9912675700546,-15.2689751901478));
#307=CARTESIAN_POINT('Origin',(4.14050929033957,14.9912675700546,0.));
#308=CARTESIAN_POINT('Origin',(10.1405092903396,14.9912675700546,-15.2689751901478));
#309=CARTESIAN_POINT('',(11.3905092903396,14.9912675700546,3.));
#310=CARTESIAN_POINT('',(8.89050929033957,14.9912675700546,3.));
#311=CARTESIAN_POINT('Origin',(10.1405092903396,14.9912675700546,3.));
#312=CARTESIAN_POINT('Origin',(10.1405092903396,14.9912675700546,3.));
#313=CARTESIAN_POINT('',(8.89050929033957,14.9912675700546,0.));
#314=CARTESIAN_POINT('',(8.89050929033957,14.9912675700546,-15.2689751901478));
#315=CARTESIAN_POINT('Origin',(10.1405092903396,14.9912675700546,0.));
#316=CARTESIAN_POINT('Origin',(2.,15.9912675700546,0.));
#317=CARTESIAN_POINT('',(0.,15.9912675700546,3.));
#318=CARTESIAN_POINT('',(2.,17.9912675700546,3.));
#319=CARTESIAN_POINT('Origin',(2.,15.9912675700546,3.));
#320=CARTESIAN_POINT('',(2.,17.9912675700546,0.));
#321=CARTESIAN_POINT('',(2.,17.9912675700546,0.));
#322=CARTESIAN_POINT('',(0.,15.9912675700546,0.));
#323=CARTESIAN_POINT('Origin',(2.,15.9912675700546,0.));
#324=CARTESIAN_POINT('',(0.,15.9912675700546,0.));
#325=CARTESIAN_POINT('Origin',(14.2810185806791,17.9912675700546,0.));
#326=CARTESIAN_POINT('',(12.2810185806791,17.9912675700546,3.));
#327=CARTESIAN_POINT('',(14.2810185806791,17.9912675700546,3.));
#328=CARTESIAN_POINT('',(12.2810185806791,17.9912675700546,0.));
#329=CARTESIAN_POINT('',(12.2810185806791,17.9912675700546,0.));
#330=CARTESIAN_POINT('',(14.2810185806791,17.9912675700546,0.));
#331=CARTESIAN_POINT('Origin',(7.14050929033957,8.99563378502729,3.));
#332=CARTESIAN_POINT('',(0.,7.,3.));
#333=CARTESIAN_POINT('',(0.,17.9912675700546,3.));
#334=CARTESIAN_POINT('',(14.2810185806791,7.,3.));
#335=CARTESIAN_POINT('',(3.57025464516978,7.,3.));
#336=CARTESIAN_POINT('',(14.2810185806791,15.9912675700546,3.));
#337=CARTESIAN_POINT('',(14.2810185806791,2.,3.));
#338=CARTESIAN_POINT('Origin',(12.2810185806791,15.9912675700546,3.));
#339=CARTESIAN_POINT('Origin',(12.2810185806791,15.9912675700546,0.));
#340=CARTESIAN_POINT('',(14.2810185806791,15.9912675700546,0.));
#341=CARTESIAN_POINT('',(14.2810185806791,15.9912675700546,0.));
#342=CARTESIAN_POINT('Origin',(12.2810185806791,15.9912675700546,0.));
#343=CARTESIAN_POINT('Origin',(14.2810185806791,2.,0.));
#344=CARTESIAN_POINT('',(14.2810185806791,7.,0.));
#345=CARTESIAN_POINT('',(14.2810185806791,7.,1.5));
#346=CARTESIAN_POINT('',(14.2810185806791,2.,0.));
#347=CARTESIAN_POINT('Origin',(0.,7.,3.));
#348=CARTESIAN_POINT('',(0.,7.,0.));
#349=CARTESIAN_POINT('',(0.,7.,1.5));
#350=CARTESIAN_POINT('',(3.57025464516978,7.,0.));
#351=CARTESIAN_POINT('Origin',(0.,17.9912675700546,0.));
#352=CARTESIAN_POINT('',(0.,17.9912675700546,0.));
#353=CARTESIAN_POINT('Origin',(7.14050929033957,8.99563378502729,0.));
#354=UNCERTAINTY_MEASURE_WITH_UNIT(LENGTH_MEASURE(0.01),#358,
'DISTANCE_ACCURACY_VALUE',
'Maximum model space distance between geometric entities at asserted c
onnectivities');
#355=UNCERTAINTY_MEASURE_WITH_UNIT(LENGTH_MEASURE(0.01),#358,
'DISTANCE_ACCURACY_VALUE',
'Maximum model space distance between geometric entities at asserted c
onnectivities');
#356=(
GEOMETRIC_REPRESENTATION_CONTEXT(3)
GLOBAL_UNCERTAINTY_ASSIGNED_CONTEXT((#354))
GLOBAL_UNIT_ASSIGNED_CONTEXT((#358,#360,#361))
REPRESENTATION_CONTEXT('','3D')
);
#357=(
GEOMETRIC_REPRESENTATION_CONTEXT(3)
GLOBAL_UNCERTAINTY_ASSIGNED_CONTEXT((#355))
GLOBAL_UNIT_ASSIGNED_CONTEXT((#358,#360,#361))
REPRESENTATION_CONTEXT('','3D')
);
#358=(
LENGTH_UNIT()
NAMED_UNIT(*)
SI_UNIT(.MILLI.,.METRE.)
);
#359=(
LENGTH_UNIT()
NAMED_UNIT(*)
SI_UNIT(.CENTI.,.METRE.)
);
#360=(
NAMED_UNIT(*)
PLANE_ANGLE_UNIT()
SI_UNIT($,.RADIAN.)
);
#361=(
NAMED_UNIT(*)
SI_UNIT($,.STERADIAN.)
SOLID_ANGLE_UNIT()
);
#362=SHAPE_DEFINITION_REPRESENTATION(#363,#364);
#363=PRODUCT_DEFINITION_SHAPE('',$,#366);
#364=SHAPE_REPRESENTATION('',(#220),#356);
#365=PRODUCT_DEFINITION_CONTEXT('part definition',#370,'design');
#366=PRODUCT_DEFINITION('Cap1v1','Cap1v1',#367,#365);
#367=PRODUCT_DEFINITION_FORMATION('',$,#372);
#368=PRODUCT_RELATED_PRODUCT_CATEGORY('Cap1v1','Cap1v1',(#372));
#369=APPLICATION_PROTOCOL_DEFINITION('international standard',
'automotive_design',2009,#370);
#370=APPLICATION_CONTEXT(
'Core Data for Automotive Mechanical Design Process');
#371=PRODUCT_CONTEXT('part definition',#370,'mechanical');
#372=PRODUCT('Cap1v1','Cap1v1',$,(#371));
#373=PRESENTATION_STYLE_ASSIGNMENT((#374));
#374=SURFACE_STYLE_USAGE(.BOTH.,#377);
#375=SURFACE_STYLE_RENDERING_WITH_PROPERTIES($,#381,(#376));
#376=SURFACE_STYLE_TRANSPARENT(0.);
#377=SURFACE_SIDE_STYLE('',(#378,#375));
#378=SURFACE_STYLE_FILL_AREA(#379);
#379=FILL_AREA_STYLE('',(#380));
#380=FILL_AREA_STYLE_COLOUR('',#381);
#381=COLOUR_RGB('',0.749019607843137,0.749019607843137,0.749019607843137);
ENDSEC;
END-ISO-10303-21;
