ISO-10303-21;
HEADER;
/* Generated by software containing ST-Developer
 * from STEP Tools, Inc. (www.steptools.com) 
 */

FILE_DESCRIPTION(
/* description */ (''),
/* implementation_level */ '2;1');

FILE_NAME(
/* name */ 
'C:\\Users\\svale\\OneDrive\\Upwork\\Controller\\Hand\\HeimJoint.ipt.s
tp',
/* time_stamp */ '2021-06-20T10:01:50-05:00',
/* author */ ('svale'),
/* organization */ (''),
/* preprocessor_version */ 'ST-DEVELOPER v18.1',
/* originating_system */ 'Autodesk Inventor 2021',
/* authorisation */ '');

FILE_SCHEMA (('AUTOMOTIVE_DESIGN { 1 0 10303 214 3 1 1 }'));
ENDSEC;

DATA;
#10=MECHANICAL_DESIGN_GEOMETRIC_PRESENTATION_REPRESENTATION('',(#17,#18,
#19),#468);
#11=GEOMETRICALLY_BOUNDED_WIREFRAME_SHAPE_REPRESENTATION('',(#12),#467);
#12=GEOMETRIC_CURVE_SET('Boceto2',(#16,#115));
#13=SHAPE_REPRESENTATION_RELATIONSHIP('SRR','None',#475,#15);
#14=SHAPE_REPRESENTATION_RELATIONSHIP('SRR','None',#475,#11);
#15=ADVANCED_BREP_SHAPE_REPRESENTATION('',(#20),#467);
#16=TRIMMED_CURVE('',#114,(#462,PARAMETER_VALUE(1.04569643358783)),(#463,
PARAMETER_VALUE(5.23748887359176)),.T.,.PARAMETER.);
#17=STYLED_ITEM('',(#484),#20);
#18=STYLED_ITEM('',(#485),#16);
#19=STYLED_ITEM('',(#486),#115);
#20=MANIFOLD_SOLID_BREP('S\X\F3lido1',#247);
#21=FACE_BOUND('',#55,.T.);
#22=FACE_BOUND('',#56,.T.);
#23=FACE_BOUND('',#57,.T.);
#24=FACE_BOUND('',#58,.T.);
#25=FACE_BOUND('',#59,.T.);
#26=FACE_BOUND('',#64,.T.);
#27=FACE_BOUND('',#65,.T.);
#28=FACE_BOUND('',#66,.T.);
#29=FACE_BOUND('',#67,.T.);
#30=FACE_BOUND('',#68,.T.);
#31=PLANE('',#286);
#32=PLANE('',#287);
#33=PLANE('',#289);
#34=PLANE('',#290);
#35=PLANE('',#293);
#36=(
BOUNDED_SURFACE()
B_SPLINE_SURFACE(2,2,((#403,#404,#405,#406,#407,#408,#409,#410,#411),(#412,
#413,#414,#415,#416,#417,#418,#419,#420),(#421,#422,#423,#424,#425,#426,
#427,#428,#429)),.UNSPECIFIED.,.F.,.T.,.F.)
B_SPLINE_SURFACE_WITH_KNOTS((3,3),(3,2,2,2,3),(-0.297779895218994,-1.83227516288992E-16),
(-3.14159265358979,-1.5707963267949,0.,1.5707963267949,3.14159265358979),
 .UNSPECIFIED.)
GEOMETRIC_REPRESENTATION_ITEM()
RATIONAL_B_SPLINE_SURFACE(((1.,0.707106781186548,1.,0.707106781186548,1.,
0.707106781186548,1.,0.707106781186548,1.),(0.988936352868283,0.699283601275055,
0.988936352868283,0.699283601275055,0.988936352868283,0.699283601275055,
0.988936352868283,0.699283601275055,0.988936352868283),(1.,0.707106781186548,
1.,0.707106781186548,1.,0.707106781186548,1.,0.707106781186548,1.)))
REPRESENTATION_ITEM('')
SURFACE()
);
#37=FACE_OUTER_BOUND('',#48,.T.);
#38=FACE_OUTER_BOUND('',#49,.T.);
#39=FACE_OUTER_BOUND('',#50,.T.);
#40=FACE_OUTER_BOUND('',#51,.T.);
#41=FACE_OUTER_BOUND('',#52,.T.);
#42=FACE_OUTER_BOUND('',#53,.T.);
#43=FACE_OUTER_BOUND('',#54,.T.);
#44=FACE_OUTER_BOUND('',#60,.T.);
#45=FACE_OUTER_BOUND('',#61,.T.);
#46=FACE_OUTER_BOUND('',#62,.T.);
#47=FACE_OUTER_BOUND('',#63,.T.);
#48=EDGE_LOOP('',(#169,#170,#171,#172,#173));
#49=EDGE_LOOP('',(#174,#175,#176,#177,#178));
#50=EDGE_LOOP('',(#179,#180,#181,#182,#183));
#51=EDGE_LOOP('',(#184,#185,#186,#187,#188));
#52=EDGE_LOOP('',(#189,#190,#191,#192));
#53=EDGE_LOOP('',(#193,#194,#195,#196));
#54=EDGE_LOOP('',(#197,#198,#199,#200));
#55=EDGE_LOOP('',(#201,#202));
#56=EDGE_LOOP('',(#203,#204));
#57=EDGE_LOOP('',(#205,#206));
#58=EDGE_LOOP('',(#207,#208));
#59=EDGE_LOOP('',(#209));
#60=EDGE_LOOP('',(#210,#211,#212,#213));
#61=EDGE_LOOP('',(#214,#215,#216,#217));
#62=EDGE_LOOP('',(#218,#219,#220,#221));
#63=EDGE_LOOP('',(#222,#223,#224,#225));
#64=EDGE_LOOP('',(#226));
#65=EDGE_LOOP('',(#227));
#66=EDGE_LOOP('',(#228));
#67=EDGE_LOOP('',(#229));
#68=EDGE_LOOP('',(#230));
#69=LINE('',#377,#83);
#70=LINE('',#385,#84);
#71=LINE('',#393,#85);
#72=LINE('',#401,#86);
#73=LINE('',#438,#87);
#74=LINE('',#440,#88);
#75=LINE('',#442,#89);
#76=LINE('',#443,#90);
#77=LINE('',#446,#91);
#78=LINE('',#449,#92);
#79=LINE('',#452,#93);
#80=LINE('',#453,#94);
#81=LINE('',#456,#95);
#82=LINE('',#457,#96);
#83=VECTOR('',#304,0.8564303);
#84=VECTOR('',#313,0.8564303);
#85=VECTOR('',#322,0.8564303);
#86=VECTOR('',#331,0.8564303);
#87=VECTOR('',#342,10.);
#88=VECTOR('',#343,10.);
#89=VECTOR('',#344,10.);
#90=VECTOR('',#345,10.);
#91=VECTOR('',#348,10.);
#92=VECTOR('',#351,10.);
#93=VECTOR('',#354,10.);
#94=VECTOR('',#355,10.);
#95=VECTOR('',#358,10.);
#96=VECTOR('',#359,10.);
#97=CIRCLE('',#268,0.8564303);
#98=CIRCLE('',#269,0.8564303);
#99=CIRCLE('',#270,0.8564303);
#100=CIRCLE('',#272,0.8564303);
#101=CIRCLE('',#273,0.8564303);
#102=CIRCLE('',#274,0.8564303);
#103=CIRCLE('',#276,0.8564303);
#104=CIRCLE('',#277,0.8564303);
#105=CIRCLE('',#278,0.8564303);
#106=CIRCLE('',#280,0.8564303);
#107=CIRCLE('',#281,0.8564303);
#108=CIRCLE('',#282,0.8564303);
#109=CIRCLE('',#283,5.39999999999994);
#110=CIRCLE('',#284,13.6333333333334);
#111=CIRCLE('',#285,5.99999999999993);
#112=CIRCLE('',#288,11.);
#113=CIRCLE('',#292,11.);
#114=CIRCLE('',#294,11.);
#115=CIRCLE('',#295,6.);
#116=VERTEX_POINT('',#372);
#117=VERTEX_POINT('',#373);
#118=VERTEX_POINT('',#376);
#119=VERTEX_POINT('',#380);
#120=VERTEX_POINT('',#381);
#121=VERTEX_POINT('',#384);
#122=VERTEX_POINT('',#388);
#123=VERTEX_POINT('',#389);
#124=VERTEX_POINT('',#392);
#125=VERTEX_POINT('',#396);
#126=VERTEX_POINT('',#397);
#127=VERTEX_POINT('',#400);
#128=VERTEX_POINT('',#430);
#129=VERTEX_POINT('',#432);
#130=VERTEX_POINT('',#436);
#131=VERTEX_POINT('',#437);
#132=VERTEX_POINT('',#439);
#133=VERTEX_POINT('',#441);
#134=VERTEX_POINT('',#445);
#135=VERTEX_POINT('',#447);
#136=VERTEX_POINT('',#451);
#137=VERTEX_POINT('',#455);
#138=EDGE_CURVE('',#116,#117,#97,.T.);
#139=EDGE_CURVE('',#117,#116,#98,.T.);
#140=EDGE_CURVE('',#117,#118,#69,.T.);
#141=EDGE_CURVE('',#118,#118,#99,.T.);
#142=EDGE_CURVE('',#119,#120,#100,.T.);
#143=EDGE_CURVE('',#120,#119,#101,.T.);
#144=EDGE_CURVE('',#120,#121,#70,.T.);
#145=EDGE_CURVE('',#121,#121,#102,.T.);
#146=EDGE_CURVE('',#122,#123,#103,.T.);
#147=EDGE_CURVE('',#123,#122,#104,.T.);
#148=EDGE_CURVE('',#123,#124,#71,.T.);
#149=EDGE_CURVE('',#124,#124,#105,.T.);
#150=EDGE_CURVE('',#125,#126,#106,.T.);
#151=EDGE_CURVE('',#126,#125,#107,.T.);
#152=EDGE_CURVE('',#126,#127,#72,.T.);
#153=EDGE_CURVE('',#127,#127,#108,.T.);
#154=EDGE_CURVE('',#128,#128,#109,.T.);
#155=EDGE_CURVE('',#128,#129,#110,.T.);
#156=EDGE_CURVE('',#129,#129,#111,.T.);
#157=EDGE_CURVE('',#130,#131,#73,.T.);
#158=EDGE_CURVE('',#131,#132,#74,.T.);
#159=EDGE_CURVE('',#132,#133,#75,.T.);
#160=EDGE_CURVE('',#133,#130,#76,.T.);
#161=EDGE_CURVE('',#131,#134,#77,.T.);
#162=EDGE_CURVE('',#134,#135,#112,.T.);
#163=EDGE_CURVE('',#135,#132,#78,.T.);
#164=EDGE_CURVE('',#130,#136,#79,.T.);
#165=EDGE_CURVE('',#136,#134,#80,.T.);
#166=EDGE_CURVE('',#137,#135,#81,.T.);
#167=EDGE_CURVE('',#137,#133,#82,.T.);
#168=EDGE_CURVE('',#136,#137,#113,.T.);
#169=ORIENTED_EDGE('',*,*,#138,.F.);
#170=ORIENTED_EDGE('',*,*,#139,.F.);
#171=ORIENTED_EDGE('',*,*,#140,.T.);
#172=ORIENTED_EDGE('',*,*,#141,.F.);
#173=ORIENTED_EDGE('',*,*,#140,.F.);
#174=ORIENTED_EDGE('',*,*,#142,.F.);
#175=ORIENTED_EDGE('',*,*,#143,.F.);
#176=ORIENTED_EDGE('',*,*,#144,.T.);
#177=ORIENTED_EDGE('',*,*,#145,.F.);
#178=ORIENTED_EDGE('',*,*,#144,.F.);
#179=ORIENTED_EDGE('',*,*,#146,.F.);
#180=ORIENTED_EDGE('',*,*,#147,.F.);
#181=ORIENTED_EDGE('',*,*,#148,.T.);
#182=ORIENTED_EDGE('',*,*,#149,.F.);
#183=ORIENTED_EDGE('',*,*,#148,.F.);
#184=ORIENTED_EDGE('',*,*,#150,.F.);
#185=ORIENTED_EDGE('',*,*,#151,.F.);
#186=ORIENTED_EDGE('',*,*,#152,.T.);
#187=ORIENTED_EDGE('',*,*,#153,.F.);
#188=ORIENTED_EDGE('',*,*,#152,.F.);
#189=ORIENTED_EDGE('',*,*,#154,.F.);
#190=ORIENTED_EDGE('',*,*,#155,.T.);
#191=ORIENTED_EDGE('',*,*,#156,.F.);
#192=ORIENTED_EDGE('',*,*,#155,.F.);
#193=ORIENTED_EDGE('',*,*,#157,.T.);
#194=ORIENTED_EDGE('',*,*,#158,.T.);
#195=ORIENTED_EDGE('',*,*,#159,.T.);
#196=ORIENTED_EDGE('',*,*,#160,.T.);
#197=ORIENTED_EDGE('',*,*,#158,.F.);
#198=ORIENTED_EDGE('',*,*,#161,.T.);
#199=ORIENTED_EDGE('',*,*,#162,.T.);
#200=ORIENTED_EDGE('',*,*,#163,.T.);
#201=ORIENTED_EDGE('',*,*,#138,.T.);
#202=ORIENTED_EDGE('',*,*,#139,.T.);
#203=ORIENTED_EDGE('',*,*,#142,.T.);
#204=ORIENTED_EDGE('',*,*,#143,.T.);
#205=ORIENTED_EDGE('',*,*,#146,.T.);
#206=ORIENTED_EDGE('',*,*,#147,.T.);
#207=ORIENTED_EDGE('',*,*,#150,.T.);
#208=ORIENTED_EDGE('',*,*,#151,.T.);
#209=ORIENTED_EDGE('',*,*,#154,.T.);
#210=ORIENTED_EDGE('',*,*,#157,.F.);
#211=ORIENTED_EDGE('',*,*,#164,.T.);
#212=ORIENTED_EDGE('',*,*,#165,.T.);
#213=ORIENTED_EDGE('',*,*,#161,.F.);
#214=ORIENTED_EDGE('',*,*,#159,.F.);
#215=ORIENTED_EDGE('',*,*,#163,.F.);
#216=ORIENTED_EDGE('',*,*,#166,.F.);
#217=ORIENTED_EDGE('',*,*,#167,.T.);
#218=ORIENTED_EDGE('',*,*,#168,.T.);
#219=ORIENTED_EDGE('',*,*,#166,.T.);
#220=ORIENTED_EDGE('',*,*,#162,.F.);
#221=ORIENTED_EDGE('',*,*,#165,.F.);
#222=ORIENTED_EDGE('',*,*,#168,.F.);
#223=ORIENTED_EDGE('',*,*,#164,.F.);
#224=ORIENTED_EDGE('',*,*,#160,.F.);
#225=ORIENTED_EDGE('',*,*,#167,.F.);
#226=ORIENTED_EDGE('',*,*,#141,.T.);
#227=ORIENTED_EDGE('',*,*,#145,.T.);
#228=ORIENTED_EDGE('',*,*,#149,.T.);
#229=ORIENTED_EDGE('',*,*,#153,.T.);
#230=ORIENTED_EDGE('',*,*,#156,.T.);
#231=CYLINDRICAL_SURFACE('',#267,0.8564303);
#232=CYLINDRICAL_SURFACE('',#271,0.8564303);
#233=CYLINDRICAL_SURFACE('',#275,0.8564303);
#234=CYLINDRICAL_SURFACE('',#279,0.8564303);
#235=CYLINDRICAL_SURFACE('',#291,11.);
#236=ADVANCED_FACE('',(#37),#231,.F.);
#237=ADVANCED_FACE('',(#38),#232,.F.);
#238=ADVANCED_FACE('',(#39),#233,.F.);
#239=ADVANCED_FACE('',(#40),#234,.F.);
#240=ADVANCED_FACE('',(#41),#36,.T.);
#241=ADVANCED_FACE('',(#42),#31,.T.);
#242=ADVANCED_FACE('',(#43,#21,#22,#23,#24,#25),#32,.T.);
#243=ADVANCED_FACE('',(#44),#33,.T.);
#244=ADVANCED_FACE('',(#45),#34,.T.);
#245=ADVANCED_FACE('',(#46),#235,.T.);
#246=ADVANCED_FACE('',(#47,#26,#27,#28,#29,#30),#35,.F.);
#247=CLOSED_SHELL('',(#236,#237,#238,#239,#240,#241,#242,#243,#244,#245,
#246));
#248=DERIVED_UNIT_ELEMENT(#250,1.);
#249=DERIVED_UNIT_ELEMENT(#470,3.);
#250=(
MASS_UNIT()
NAMED_UNIT(*)
SI_UNIT($,.GRAM.)
);
#251=DERIVED_UNIT((#248,#249));
#252=MEASURE_REPRESENTATION_ITEM('density measure',
POSITIVE_RATIO_MEASURE(1.),#251);
#253=PROPERTY_DEFINITION_REPRESENTATION(#258,#255);
#254=PROPERTY_DEFINITION_REPRESENTATION(#259,#256);
#255=REPRESENTATION('material name',(#257),#467);
#256=REPRESENTATION('density',(#252),#467);
#257=DESCRIPTIVE_REPRESENTATION_ITEM('Gen\X\E9rico','Gen\X\E9rico');
#258=PROPERTY_DEFINITION('material property','material name',#477);
#259=PROPERTY_DEFINITION('material property','density of part',#477);
#260=DATE_TIME_ROLE('creation_date');
#261=APPLIED_DATE_AND_TIME_ASSIGNMENT(#262,#260,(#477));
#262=DATE_AND_TIME(#263,#264);
#263=CALENDAR_DATE(2021,28,5);
#264=LOCAL_TIME(0,0,0.,#265);
#265=COORDINATED_UNIVERSAL_TIME_OFFSET(0,0,.BEHIND.);
#266=AXIS2_PLACEMENT_3D('placement',#370,#296,#297);
#267=AXIS2_PLACEMENT_3D('',#371,#298,#299);
#268=AXIS2_PLACEMENT_3D('',#374,#300,#301);
#269=AXIS2_PLACEMENT_3D('',#375,#302,#303);
#270=AXIS2_PLACEMENT_3D('',#378,#305,#306);
#271=AXIS2_PLACEMENT_3D('',#379,#307,#308);
#272=AXIS2_PLACEMENT_3D('',#382,#309,#310);
#273=AXIS2_PLACEMENT_3D('',#383,#311,#312);
#274=AXIS2_PLACEMENT_3D('',#386,#314,#315);
#275=AXIS2_PLACEMENT_3D('',#387,#316,#317);
#276=AXIS2_PLACEMENT_3D('',#390,#318,#319);
#277=AXIS2_PLACEMENT_3D('',#391,#320,#321);
#278=AXIS2_PLACEMENT_3D('',#394,#323,#324);
#279=AXIS2_PLACEMENT_3D('',#395,#325,#326);
#280=AXIS2_PLACEMENT_3D('',#398,#327,#328);
#281=AXIS2_PLACEMENT_3D('',#399,#329,#330);
#282=AXIS2_PLACEMENT_3D('',#402,#332,#333);
#283=AXIS2_PLACEMENT_3D('',#431,#334,#335);
#284=AXIS2_PLACEMENT_3D('',#433,#336,#337);
#285=AXIS2_PLACEMENT_3D('',#434,#338,#339);
#286=AXIS2_PLACEMENT_3D('',#435,#340,#341);
#287=AXIS2_PLACEMENT_3D('',#444,#346,#347);
#288=AXIS2_PLACEMENT_3D('',#448,#349,#350);
#289=AXIS2_PLACEMENT_3D('',#450,#352,#353);
#290=AXIS2_PLACEMENT_3D('',#454,#356,#357);
#291=AXIS2_PLACEMENT_3D('',#458,#360,#361);
#292=AXIS2_PLACEMENT_3D('',#459,#362,#363);
#293=AXIS2_PLACEMENT_3D('',#460,#364,#365);
#294=AXIS2_PLACEMENT_3D('',#461,#366,#367);
#295=AXIS2_PLACEMENT_3D('',#464,#368,#369);
#296=DIRECTION('axis',(0.,0.,1.));
#297=DIRECTION('refdir',(1.,0.,0.));
#298=DIRECTION('center_axis',(0.,0.,1.));
#299=DIRECTION('ref_axis',(1.,0.,0.));
#300=DIRECTION('center_axis',(0.,0.,-1.));
#301=DIRECTION('ref_axis',(1.,0.,0.));
#302=DIRECTION('center_axis',(0.,0.,-1.));
#303=DIRECTION('ref_axis',(1.,0.,0.));
#304=DIRECTION('',(0.,0.,-1.));
#305=DIRECTION('center_axis',(0.,0.,1.));
#306=DIRECTION('ref_axis',(1.,0.,0.));
#307=DIRECTION('center_axis',(0.,0.,1.));
#308=DIRECTION('ref_axis',(1.,0.,0.));
#309=DIRECTION('center_axis',(0.,0.,-1.));
#310=DIRECTION('ref_axis',(1.,0.,0.));
#311=DIRECTION('center_axis',(0.,0.,-1.));
#312=DIRECTION('ref_axis',(1.,0.,0.));
#313=DIRECTION('',(0.,0.,-1.));
#314=DIRECTION('center_axis',(0.,0.,1.));
#315=DIRECTION('ref_axis',(1.,0.,0.));
#316=DIRECTION('center_axis',(0.,0.,1.));
#317=DIRECTION('ref_axis',(1.,0.,0.));
#318=DIRECTION('center_axis',(0.,0.,-1.));
#319=DIRECTION('ref_axis',(1.,0.,0.));
#320=DIRECTION('center_axis',(0.,0.,-1.));
#321=DIRECTION('ref_axis',(1.,0.,0.));
#322=DIRECTION('',(0.,0.,-1.));
#323=DIRECTION('center_axis',(0.,0.,1.));
#324=DIRECTION('ref_axis',(1.,0.,0.));
#325=DIRECTION('center_axis',(0.,0.,1.));
#326=DIRECTION('ref_axis',(1.,0.,0.));
#327=DIRECTION('center_axis',(0.,0.,-1.));
#328=DIRECTION('ref_axis',(1.,0.,0.));
#329=DIRECTION('center_axis',(0.,0.,-1.));
#330=DIRECTION('ref_axis',(1.,0.,0.));
#331=DIRECTION('',(0.,0.,-1.));
#332=DIRECTION('center_axis',(0.,0.,1.));
#333=DIRECTION('ref_axis',(1.,0.,0.));
#334=DIRECTION('center_axis',(0.,0.,-1.));
#335=DIRECTION('ref_axis',(-1.,0.,0.));
#336=DIRECTION('center_axis',(1.22469670400343E-16,1.,0.));
#337=DIRECTION('ref_axis',(1.,-1.22469670400343E-16,0.));
#338=DIRECTION('center_axis',(0.,0.,1.));
#339=DIRECTION('ref_axis',(-1.,0.,0.));
#340=DIRECTION('center_axis',(-0.707106781186548,0.,0.707106781186548));
#341=DIRECTION('ref_axis',(0.707106781186548,0.,0.707106781186548));
#342=DIRECTION('',(0.654328857262248,-0.379087711628537,0.654328857262248));
#343=DIRECTION('',(0.,1.,0.));
#344=DIRECTION('',(-0.654328857262248,-0.379087711628537,-0.654328857262248));
#345=DIRECTION('',(0.,-1.,0.));
#346=DIRECTION('center_axis',(0.,0.,1.));
#347=DIRECTION('ref_axis',(1.,0.,0.));
#348=DIRECTION('',(0.865273869531179,-0.501299442156621,0.));
#349=DIRECTION('center_axis',(0.,0.,1.));
#350=DIRECTION('ref_axis',(-0.501299442156621,-0.865273869531179,0.));
#351=DIRECTION('',(-0.865273869531179,-0.501299442156621,0.));
#352=DIRECTION('center_axis',(-0.501299442156621,-0.865273869531179,0.));
#353=DIRECTION('ref_axis',(0.865273869531179,-0.501299442156621,0.));
#354=DIRECTION('',(0.865273869531179,-0.501299442156621,0.));
#355=DIRECTION('',(0.,0.,1.));
#356=DIRECTION('center_axis',(-0.501299442156621,0.865273869531179,0.));
#357=DIRECTION('ref_axis',(-0.865273869531179,-0.501299442156621,0.));
#358=DIRECTION('',(0.,0.,1.));
#359=DIRECTION('',(-0.865273869531179,-0.501299442156621,0.));
#360=DIRECTION('center_axis',(0.,0.,1.));
#361=DIRECTION('ref_axis',(1.,-2.52323414687535E-16,0.));
#362=DIRECTION('center_axis',(0.,0.,1.));
#363=DIRECTION('ref_axis',(-0.501299442156621,-0.865273869531179,0.));
#364=DIRECTION('center_axis',(0.,0.,1.));
#365=DIRECTION('ref_axis',(1.,0.,0.));
#366=DIRECTION('center_axis',(0.,0.,-1.));
#367=DIRECTION('ref_axis',(-1.,0.,0.));
#368=DIRECTION('center_axis',(0.,0.,-1.));
#369=DIRECTION('ref_axis',(-1.,0.,0.));
#370=CARTESIAN_POINT('',(0.,0.,0.));
#371=CARTESIAN_POINT('Origin',(5.29479337151902,-8.,-33.0095956675303));
#372=CARTESIAN_POINT('',(6.15122367151902,-8.,4.));
#373=CARTESIAN_POINT('',(4.43836307151902,-8.,4.));
#374=CARTESIAN_POINT('Origin',(5.29479337151902,-8.,4.));
#375=CARTESIAN_POINT('Origin',(5.29479337151902,-8.,4.));
#376=CARTESIAN_POINT('',(4.43836307151902,-8.,0.));
#377=CARTESIAN_POINT('',(4.43836307151902,-8.,-33.0095956675303));
#378=CARTESIAN_POINT('Origin',(5.29479337151902,-8.,0.));
#379=CARTESIAN_POINT('Origin',(-4.7052066284809,0.000419404356091967,-33.0095956675303));
#380=CARTESIAN_POINT('',(-3.8487763284809,0.000419404356091967,4.));
#381=CARTESIAN_POINT('',(-5.5616369284809,0.000419404356091862,4.));
#382=CARTESIAN_POINT('Origin',(-4.7052066284809,0.000419404356091967,4.));
#383=CARTESIAN_POINT('Origin',(-4.7052066284809,0.000419404356091967,4.));
#384=CARTESIAN_POINT('',(-5.5616369284809,0.000419404356091862,0.));
#385=CARTESIAN_POINT('',(-5.5616369284809,0.000419404356091862,-33.0095956675303));
#386=CARTESIAN_POINT('Origin',(-4.7052066284809,0.000419404356091967,0.));
#387=CARTESIAN_POINT('Origin',(5.29479337151902,8.,-33.0095956675303));
#388=CARTESIAN_POINT('',(6.15122367151902,8.,4.));
#389=CARTESIAN_POINT('',(4.43836307151902,8.,4.));
#390=CARTESIAN_POINT('Origin',(5.29479337151902,8.,4.));
#391=CARTESIAN_POINT('Origin',(5.29479337151902,8.,4.));
#392=CARTESIAN_POINT('',(4.43836307151902,8.,0.));
#393=CARTESIAN_POINT('',(4.43836307151902,8.,-33.0095956675303));
#394=CARTESIAN_POINT('Origin',(5.29479337151902,8.,0.));
#395=CARTESIAN_POINT('Origin',(13.294793371519,1.17722961765097E-15,-33.0095956675303));
#396=CARTESIAN_POINT('',(14.151223671519,1.17722961765097E-15,4.));
#397=CARTESIAN_POINT('',(12.438363071519,1.07234715509219E-15,4.));
#398=CARTESIAN_POINT('Origin',(13.294793371519,1.17722961765097E-15,4.));
#399=CARTESIAN_POINT('Origin',(13.294793371519,1.17722961765097E-15,4.));
#400=CARTESIAN_POINT('',(12.438363071519,1.07234715509219E-15,0.));
#401=CARTESIAN_POINT('',(12.438363071519,1.07234715509219E-15,-33.0095956675303));
#402=CARTESIAN_POINT('Origin',(13.294793371519,1.17722961765097E-15,0.));
#403=CARTESIAN_POINT('Ctrl Pts',(9.69479337151897,0.000419404356092334,
4.));
#404=CARTESIAN_POINT('Ctrl Pts',(9.69479337151897,-5.39958059564384,4.));
#405=CARTESIAN_POINT('Ctrl Pts',(4.29479337151903,-5.39958059564384,4.));
#406=CARTESIAN_POINT('Ctrl Pts',(-1.1052066284809,-5.39958059564384,4.));
#407=CARTESIAN_POINT('Ctrl Pts',(-1.1052066284809,0.000419404356092334,
4.));
#408=CARTESIAN_POINT('Ctrl Pts',(-1.1052066284809,5.40041940435603,4.));
#409=CARTESIAN_POINT('Ctrl Pts',(4.29479337151903,5.40041940435603,4.));
#410=CARTESIAN_POINT('Ctrl Pts',(9.69479337151897,5.40041940435603,4.));
#411=CARTESIAN_POINT('Ctrl Pts',(9.69479337151897,0.000419404356092334,
4.));
#412=CARTESIAN_POINT('Ctrl Pts',(10.294793371519,0.000419404356092334,2.045));
#413=CARTESIAN_POINT('Ctrl Pts',(10.294793371519,-5.99958059564384,2.045));
#414=CARTESIAN_POINT('Ctrl Pts',(4.29479337151903,-5.99958059564384,2.045));
#415=CARTESIAN_POINT('Ctrl Pts',(-1.7052066284809,-5.99958059564384,2.045));
#416=CARTESIAN_POINT('Ctrl Pts',(-1.7052066284809,0.000419404356092334,
2.045));
#417=CARTESIAN_POINT('Ctrl Pts',(-1.7052066284809,6.00041940435603,2.045));
#418=CARTESIAN_POINT('Ctrl Pts',(4.29479337151903,6.00041940435603,2.045));
#419=CARTESIAN_POINT('Ctrl Pts',(10.294793371519,6.00041940435603,2.045));
#420=CARTESIAN_POINT('Ctrl Pts',(10.294793371519,0.000419404356092334,2.045));
#421=CARTESIAN_POINT('Ctrl Pts',(10.294793371519,0.000419404356092334,0.));
#422=CARTESIAN_POINT('Ctrl Pts',(10.294793371519,-5.99958059564384,0.));
#423=CARTESIAN_POINT('Ctrl Pts',(4.29479337151903,-5.99958059564384,0.));
#424=CARTESIAN_POINT('Ctrl Pts',(-1.7052066284809,-5.99958059564384,0.));
#425=CARTESIAN_POINT('Ctrl Pts',(-1.7052066284809,0.000419404356092334,
0.));
#426=CARTESIAN_POINT('Ctrl Pts',(-1.7052066284809,6.00041940435603,0.));
#427=CARTESIAN_POINT('Ctrl Pts',(4.29479337151903,6.00041940435603,0.));
#428=CARTESIAN_POINT('Ctrl Pts',(10.294793371519,6.00041940435603,0.));
#429=CARTESIAN_POINT('Ctrl Pts',(10.294793371519,0.000419404356092334,0.));
#430=CARTESIAN_POINT('',(9.69479337151897,0.000419404356092334,4.));
#431=CARTESIAN_POINT('Origin',(4.29479337151903,0.000419404356092334,4.));
#432=CARTESIAN_POINT('',(10.294793371519,0.000419404356092334,0.));
#433=CARTESIAN_POINT('Origin',(-3.33853996181439,0.000419404356093269,-2.4980018054066E-15));
#434=CARTESIAN_POINT('Origin',(4.29479337151903,0.000419404356092334,0.));
#435=CARTESIAN_POINT('Origin',(-11.1960555730956,1.,2.));
#436=CARTESIAN_POINT('',(-13.1960555730956,-2.,0.));
#437=CARTESIAN_POINT('',(-9.19605557309558,-4.31741398791221,4.));
#438=CARTESIAN_POINT('',(-12.7118351099314,-2.28053481864248,0.484220463164147));
#439=CARTESIAN_POINT('',(-9.19605557309558,4.31741398791221,4.));
#440=CARTESIAN_POINT('',(-9.19605557309558,1.,4.));
#441=CARTESIAN_POINT('',(-13.1960555730956,2.,0.));
#442=CARTESIAN_POINT('',(-8.75344126059399,4.57384413767254,4.44261431250158));
#443=CARTESIAN_POINT('',(-13.1960555730956,2.,0.));
#444=CARTESIAN_POINT('Origin',(1.54936889921173,0.,4.));
#445=CARTESIAN_POINT('',(-0.219500492203807,-9.51801256484298,4.));
#446=CARTESIAN_POINT('',(-13.1960555730956,-2.,4.));
#447=CARTESIAN_POINT('',(-0.219500492203808,9.51801256484297,4.));
#448=CARTESIAN_POINT('Origin',(5.29479337151902,1.97512178333085E-16,4.));
#449=CARTESIAN_POINT('',(-0.219500492203808,9.51801256484297,4.));
#450=CARTESIAN_POINT('Origin',(-13.1960555730956,-2.,0.));
#451=CARTESIAN_POINT('',(-0.219500492203807,-9.51801256484298,0.));
#452=CARTESIAN_POINT('',(-13.1960555730956,-2.,0.));
#453=CARTESIAN_POINT('',(-0.219500492203807,-9.51801256484298,0.));
#454=CARTESIAN_POINT('Origin',(-0.219500492203808,9.51801256484297,0.));
#455=CARTESIAN_POINT('',(-0.219500492203808,9.51801256484297,0.));
#456=CARTESIAN_POINT('',(-0.219500492203808,9.51801256484297,0.));
#457=CARTESIAN_POINT('',(-0.219500492203808,9.51801256484297,0.));
#458=CARTESIAN_POINT('Origin',(5.29479337151902,1.97512178333085E-16,0.));
#459=CARTESIAN_POINT('Origin',(5.29479337151902,1.97512178333085E-16,0.));
#460=CARTESIAN_POINT('Origin',(1.54936889921173,0.,0.));
#461=CARTESIAN_POINT('Origin',(5.29479337151902,1.97512178333085E-16,0.));
#462=CARTESIAN_POINT('',(-0.219500492203808,9.51801256484298,0.));
#463=CARTESIAN_POINT('',(-0.219500492203802,-9.51801256484298,0.));
#464=CARTESIAN_POINT('Origin',(5.29479337151902,1.97512178333085E-16,0.));
#465=UNCERTAINTY_MEASURE_WITH_UNIT(LENGTH_MEASURE(0.01),#469,
'DISTANCE_ACCURACY_VALUE',
'Maximum model space distance between geometric entities at asserted c
onnectivities');
#466=UNCERTAINTY_MEASURE_WITH_UNIT(LENGTH_MEASURE(0.01),#469,
'DISTANCE_ACCURACY_VALUE',
'Maximum model space distance between geometric entities at asserted c
onnectivities');
#467=(
GEOMETRIC_REPRESENTATION_CONTEXT(3)
GLOBAL_UNCERTAINTY_ASSIGNED_CONTEXT((#465))
GLOBAL_UNIT_ASSIGNED_CONTEXT((#469,#471,#472))
REPRESENTATION_CONTEXT('','3D')
);
#468=(
GEOMETRIC_REPRESENTATION_CONTEXT(3)
GLOBAL_UNCERTAINTY_ASSIGNED_CONTEXT((#466))
GLOBAL_UNIT_ASSIGNED_CONTEXT((#469,#471,#472))
REPRESENTATION_CONTEXT('','3D')
);
#469=(
LENGTH_UNIT()
NAMED_UNIT(*)
SI_UNIT(.MILLI.,.METRE.)
);
#470=(
LENGTH_UNIT()
NAMED_UNIT(*)
SI_UNIT(.CENTI.,.METRE.)
);
#471=(
NAMED_UNIT(*)
PLANE_ANGLE_UNIT()
SI_UNIT($,.RADIAN.)
);
#472=(
NAMED_UNIT(*)
SI_UNIT($,.STERADIAN.)
SOLID_ANGLE_UNIT()
);
#473=SHAPE_DEFINITION_REPRESENTATION(#474,#475);
#474=PRODUCT_DEFINITION_SHAPE('',$,#477);
#475=SHAPE_REPRESENTATION('',(#266),#467);
#476=PRODUCT_DEFINITION_CONTEXT('part definition',#481,'design');
#477=PRODUCT_DEFINITION('HeimJoint','HeimJoint',#478,#476);
#478=PRODUCT_DEFINITION_FORMATION('',$,#483);
#479=PRODUCT_RELATED_PRODUCT_CATEGORY('HeimJoint','HeimJoint',(#483));
#480=APPLICATION_PROTOCOL_DEFINITION('international standard',
'automotive_design',2009,#481);
#481=APPLICATION_CONTEXT(
'Core Data for Automotive Mechanical Design Process');
#482=PRODUCT_CONTEXT('part definition',#481,'mechanical');
#483=PRODUCT('HeimJoint','HeimJoint',$,(#482));
#484=PRESENTATION_STYLE_ASSIGNMENT((#487));
#485=PRESENTATION_STYLE_ASSIGNMENT((#488));
#486=PRESENTATION_STYLE_ASSIGNMENT((#489));
#487=SURFACE_STYLE_USAGE(.BOTH.,#492);
#488=SURFACE_STYLE_USAGE(.BOTH.,#493);
#489=SURFACE_STYLE_USAGE(.BOTH.,#494);
#490=SURFACE_STYLE_RENDERING_WITH_PROPERTIES($,#504,(#491));
#491=SURFACE_STYLE_TRANSPARENT(0.);
#492=SURFACE_SIDE_STYLE('',(#495,#490));
#493=SURFACE_SIDE_STYLE('',(#496));
#494=SURFACE_SIDE_STYLE('',(#497));
#495=SURFACE_STYLE_FILL_AREA(#498);
#496=SURFACE_STYLE_FILL_AREA(#499);
#497=SURFACE_STYLE_FILL_AREA(#500);
#498=FILL_AREA_STYLE('',(#501));
#499=FILL_AREA_STYLE('',(#502));
#500=FILL_AREA_STYLE('',(#503));
#501=FILL_AREA_STYLE_COLOUR('',#504);
#502=FILL_AREA_STYLE_COLOUR('',#505);
#503=FILL_AREA_STYLE_COLOUR('',#506);
#504=COLOUR_RGB('',0.749019607843137,0.749019607843137,0.749019607843137);
#505=COLOUR_RGB('',1.,1.,0.);
#506=COLOUR_RGB('',0.,0.,0.);
ENDSEC;
END-ISO-10303-21;
