ISO-10303-21;
HEADER;
/* Generated by software containing ST-Developer
 * from STEP Tools, Inc. (www.steptools.com) 
 */

FILE_DESCRIPTION(
/* description */ (''),
/* implementation_level */ '2;1');

FILE_NAME(
/* name */ 
'C:\\Users\\svale\\OneDrive\\Upwork\\Controller\\Hand\\Holder.ipt.stp',

/* time_stamp */ '2021-06-20T10:01:51-05:00',
/* author */ ('svale'),
/* organization */ (''),
/* preprocessor_version */ 'ST-DEVELOPER v18.1',
/* originating_system */ 'Autodesk Inventor 2021',
/* authorisation */ '');

FILE_SCHEMA (('AUTOMOTIVE_DESIGN { 1 0 10303 214 3 1 1 }'));
ENDSEC;

DATA;
#10=MECHANICAL_DESIGN_GEOMETRIC_PRESENTATION_REPRESENTATION('',(#23,#24,
#25,#26,#27,#28,#29),#619);
#11=GEOMETRICALLY_BOUNDED_WIREFRAME_SHAPE_REPRESENTATION('',(#12,#13),#618);
#12=GEOMETRIC_CURVE_SET('Boceto5',(#17,#18,#19,#20));
#13=GEOMETRIC_CURVE_SET('Boceto6',(#21,#22));
#14=SHAPE_REPRESENTATION_RELATIONSHIP('SRR','None',#626,#16);
#15=SHAPE_REPRESENTATION_RELATIONSHIP('SRR','None',#626,#11);
#16=ADVANCED_BREP_SHAPE_REPRESENTATION('',(#30),#618);
#17=POLYLINE('',(#604,#605));
#18=POLYLINE('',(#606,#607));
#19=POLYLINE('',(#608,#609));
#20=POLYLINE('',(#610,#611));
#21=POLYLINE('',(#612,#613));
#22=POLYLINE('',(#614,#615));
#23=STYLED_ITEM('',(#635),#30);
#24=STYLED_ITEM('',(#636),#17);
#25=STYLED_ITEM('',(#636),#18);
#26=STYLED_ITEM('',(#636),#19);
#27=STYLED_ITEM('',(#636),#20);
#28=STYLED_ITEM('',(#636),#21);
#29=STYLED_ITEM('',(#636),#22);
#30=MANIFOLD_SOLID_BREP('S\X\F3lido1',#343);
#31=FACE_BOUND('',#130,.T.);
#32=FACE_BOUND('',#131,.T.);
#33=FACE_BOUND('',#137,.T.);
#34=FACE_BOUND('',#138,.T.);
#35=PLANE('',#391);
#36=PLANE('',#392);
#37=PLANE('',#393);
#38=PLANE('',#402);
#39=PLANE('',#403);
#40=PLANE('',#404);
#41=LINE('',#525,#63);
#42=LINE('',#526,#64);
#43=LINE('',#538,#65);
#44=LINE('',#539,#66);
#45=LINE('',#551,#67);
#46=LINE('',#552,#68);
#47=LINE('',#554,#69);
#48=LINE('',#555,#70);
#49=LINE('',#567,#71);
#50=LINE('',#568,#72);
#51=LINE('',#570,#73);
#52=LINE('',#571,#74);
#53=LINE('',#573,#75);
#54=LINE('',#574,#76);
#55=LINE('',#576,#77);
#56=LINE('',#577,#78);
#57=LINE('',#579,#79);
#58=LINE('',#581,#80);
#59=LINE('',#593,#81);
#60=LINE('',#597,#82);
#61=LINE('',#600,#83);
#62=LINE('',#602,#84);
#63=VECTOR('',#419,10.);
#64=VECTOR('',#420,10.);
#65=VECTOR('',#433,10.);
#66=VECTOR('',#434,10.);
#67=VECTOR('',#447,10.);
#68=VECTOR('',#448,10.);
#69=VECTOR('',#451,10.);
#70=VECTOR('',#452,10.);
#71=VECTOR('',#465,10.);
#72=VECTOR('',#466,10.);
#73=VECTOR('',#469,10.);
#74=VECTOR('',#470,10.);
#75=VECTOR('',#473,10.);
#76=VECTOR('',#474,10.);
#77=VECTOR('',#477,10.);
#78=VECTOR('',#478,10.);
#79=VECTOR('',#481,10.);
#80=VECTOR('',#484,10.);
#81=VECTOR('',#497,1.3);
#82=VECTOR('',#502,1.3);
#83=VECTOR('',#507,10.);
#84=VECTOR('',#510,10.);
#85=CYLINDRICAL_SURFACE('',#367,1.);
#86=CYLINDRICAL_SURFACE('',#373,1.);
#87=CYLINDRICAL_SURFACE('',#379,1.);
#88=CYLINDRICAL_SURFACE('',#381,1.);
#89=CYLINDRICAL_SURFACE('',#386,1.);
#90=CYLINDRICAL_SURFACE('',#388,1.);
#91=CYLINDRICAL_SURFACE('',#389,1.);
#92=CYLINDRICAL_SURFACE('',#390,1.);
#93=CYLINDRICAL_SURFACE('',#398,1.3);
#94=CYLINDRICAL_SURFACE('',#400,1.3);
#95=FACE_OUTER_BOUND('',#115,.T.);
#96=FACE_OUTER_BOUND('',#116,.T.);
#97=FACE_OUTER_BOUND('',#117,.T.);
#98=FACE_OUTER_BOUND('',#118,.T.);
#99=FACE_OUTER_BOUND('',#119,.T.);
#100=FACE_OUTER_BOUND('',#120,.T.);
#101=FACE_OUTER_BOUND('',#121,.T.);
#102=FACE_OUTER_BOUND('',#122,.T.);
#103=FACE_OUTER_BOUND('',#123,.T.);
#104=FACE_OUTER_BOUND('',#124,.T.);
#105=FACE_OUTER_BOUND('',#125,.T.);
#106=FACE_OUTER_BOUND('',#126,.T.);
#107=FACE_OUTER_BOUND('',#127,.T.);
#108=FACE_OUTER_BOUND('',#128,.T.);
#109=FACE_OUTER_BOUND('',#129,.T.);
#110=FACE_OUTER_BOUND('',#132,.T.);
#111=FACE_OUTER_BOUND('',#133,.T.);
#112=FACE_OUTER_BOUND('',#134,.T.);
#113=FACE_OUTER_BOUND('',#135,.T.);
#114=FACE_OUTER_BOUND('',#136,.T.);
#115=EDGE_LOOP('',(#231,#232,#233));
#116=EDGE_LOOP('',(#234,#235,#236,#237));
#117=EDGE_LOOP('',(#238,#239,#240));
#118=EDGE_LOOP('',(#241,#242,#243,#244));
#119=EDGE_LOOP('',(#245,#246,#247));
#120=EDGE_LOOP('',(#248,#249,#250,#251));
#121=EDGE_LOOP('',(#252,#253,#254,#255));
#122=EDGE_LOOP('',(#256,#257,#258));
#123=EDGE_LOOP('',(#259,#260,#261,#262));
#124=EDGE_LOOP('',(#263,#264,#265,#266));
#125=EDGE_LOOP('',(#267,#268,#269,#270));
#126=EDGE_LOOP('',(#271,#272,#273,#274));
#127=EDGE_LOOP('',(#275,#276,#277,#278));
#128=EDGE_LOOP('',(#279,#280,#281,#282));
#129=EDGE_LOOP('',(#283,#284,#285,#286));
#130=EDGE_LOOP('',(#287,#288));
#131=EDGE_LOOP('',(#289,#290));
#132=EDGE_LOOP('',(#291,#292,#293,#294,#295));
#133=EDGE_LOOP('',(#296,#297,#298,#299,#300));
#134=EDGE_LOOP('',(#301,#302,#303,#304));
#135=EDGE_LOOP('',(#305,#306,#307,#308));
#136=EDGE_LOOP('',(#309,#310,#311,#312,#313,#314,#315,#316));
#137=EDGE_LOOP('',(#317));
#138=EDGE_LOOP('',(#318));
#139=CIRCLE('',#364,1.);
#140=CIRCLE('',#365,1.);
#141=CIRCLE('',#366,1.);
#142=CIRCLE('',#368,1.);
#143=CIRCLE('',#370,1.);
#144=CIRCLE('',#371,1.);
#145=CIRCLE('',#372,1.);
#146=CIRCLE('',#374,1.);
#147=CIRCLE('',#376,1.);
#148=CIRCLE('',#377,1.);
#149=CIRCLE('',#378,1.);
#150=CIRCLE('',#380,1.);
#151=CIRCLE('',#383,1.);
#152=CIRCLE('',#384,0.999999999999999);
#153=CIRCLE('',#385,1.);
#154=CIRCLE('',#387,1.);
#155=CIRCLE('',#394,1.3);
#156=CIRCLE('',#395,1.3);
#157=CIRCLE('',#396,1.3);
#158=CIRCLE('',#397,1.3);
#159=CIRCLE('',#399,1.3);
#160=CIRCLE('',#401,1.3);
#161=VERTEX_POINT('',#515);
#162=VERTEX_POINT('',#516);
#163=VERTEX_POINT('',#518);
#164=VERTEX_POINT('',#522);
#165=VERTEX_POINT('',#523);
#166=VERTEX_POINT('',#528);
#167=VERTEX_POINT('',#529);
#168=VERTEX_POINT('',#531);
#169=VERTEX_POINT('',#535);
#170=VERTEX_POINT('',#536);
#171=VERTEX_POINT('',#541);
#172=VERTEX_POINT('',#542);
#173=VERTEX_POINT('',#544);
#174=VERTEX_POINT('',#548);
#175=VERTEX_POINT('',#549);
#176=VERTEX_POINT('',#557);
#177=VERTEX_POINT('',#558);
#178=VERTEX_POINT('',#560);
#179=VERTEX_POINT('',#564);
#180=VERTEX_POINT('',#565);
#181=VERTEX_POINT('',#583);
#182=VERTEX_POINT('',#584);
#183=VERTEX_POINT('',#587);
#184=VERTEX_POINT('',#588);
#185=VERTEX_POINT('',#592);
#186=VERTEX_POINT('',#596);
#187=EDGE_CURVE('',#161,#162,#139,.F.);
#188=EDGE_CURVE('',#163,#161,#140,.F.);
#189=EDGE_CURVE('',#162,#163,#141,.F.);
#190=EDGE_CURVE('',#164,#165,#142,.T.);
#191=EDGE_CURVE('',#165,#163,#41,.T.);
#192=EDGE_CURVE('',#161,#164,#42,.T.);
#193=EDGE_CURVE('',#166,#167,#143,.F.);
#194=EDGE_CURVE('',#168,#166,#144,.F.);
#195=EDGE_CURVE('',#167,#168,#145,.F.);
#196=EDGE_CURVE('',#169,#170,#146,.T.);
#197=EDGE_CURVE('',#170,#168,#43,.T.);
#198=EDGE_CURVE('',#166,#169,#44,.T.);
#199=EDGE_CURVE('',#171,#172,#147,.F.);
#200=EDGE_CURVE('',#173,#171,#148,.F.);
#201=EDGE_CURVE('',#172,#173,#149,.F.);
#202=EDGE_CURVE('',#174,#175,#150,.T.);
#203=EDGE_CURVE('',#175,#173,#45,.T.);
#204=EDGE_CURVE('',#171,#174,#46,.T.);
#205=EDGE_CURVE('',#162,#172,#47,.T.);
#206=EDGE_CURVE('',#173,#161,#48,.T.);
#207=EDGE_CURVE('',#176,#177,#151,.F.);
#208=EDGE_CURVE('',#178,#176,#152,.F.);
#209=EDGE_CURVE('',#177,#178,#153,.F.);
#210=EDGE_CURVE('',#179,#180,#154,.T.);
#211=EDGE_CURVE('',#180,#178,#49,.T.);
#212=EDGE_CURVE('',#176,#179,#50,.T.);
#213=EDGE_CURVE('',#172,#177,#51,.T.);
#214=EDGE_CURVE('',#178,#171,#52,.T.);
#215=EDGE_CURVE('',#177,#167,#53,.T.);
#216=EDGE_CURVE('',#168,#176,#54,.T.);
#217=EDGE_CURVE('',#167,#162,#55,.T.);
#218=EDGE_CURVE('',#163,#166,#56,.T.);
#219=EDGE_CURVE('',#175,#164,#57,.T.);
#220=EDGE_CURVE('',#180,#174,#58,.T.);
#221=EDGE_CURVE('',#181,#182,#155,.T.);
#222=EDGE_CURVE('',#182,#181,#156,.T.);
#223=EDGE_CURVE('',#183,#184,#157,.T.);
#224=EDGE_CURVE('',#184,#183,#158,.T.);
#225=EDGE_CURVE('',#184,#185,#59,.T.);
#226=EDGE_CURVE('',#185,#185,#159,.T.);
#227=EDGE_CURVE('',#182,#186,#60,.T.);
#228=EDGE_CURVE('',#186,#186,#160,.T.);
#229=EDGE_CURVE('',#170,#179,#61,.T.);
#230=EDGE_CURVE('',#165,#169,#62,.T.);
#231=ORIENTED_EDGE('',*,*,#187,.F.);
#232=ORIENTED_EDGE('',*,*,#188,.F.);
#233=ORIENTED_EDGE('',*,*,#189,.F.);
#234=ORIENTED_EDGE('',*,*,#190,.T.);
#235=ORIENTED_EDGE('',*,*,#191,.T.);
#236=ORIENTED_EDGE('',*,*,#188,.T.);
#237=ORIENTED_EDGE('',*,*,#192,.T.);
#238=ORIENTED_EDGE('',*,*,#193,.F.);
#239=ORIENTED_EDGE('',*,*,#194,.F.);
#240=ORIENTED_EDGE('',*,*,#195,.F.);
#241=ORIENTED_EDGE('',*,*,#196,.T.);
#242=ORIENTED_EDGE('',*,*,#197,.T.);
#243=ORIENTED_EDGE('',*,*,#194,.T.);
#244=ORIENTED_EDGE('',*,*,#198,.T.);
#245=ORIENTED_EDGE('',*,*,#199,.F.);
#246=ORIENTED_EDGE('',*,*,#200,.F.);
#247=ORIENTED_EDGE('',*,*,#201,.F.);
#248=ORIENTED_EDGE('',*,*,#202,.T.);
#249=ORIENTED_EDGE('',*,*,#203,.T.);
#250=ORIENTED_EDGE('',*,*,#200,.T.);
#251=ORIENTED_EDGE('',*,*,#204,.T.);
#252=ORIENTED_EDGE('',*,*,#187,.T.);
#253=ORIENTED_EDGE('',*,*,#205,.T.);
#254=ORIENTED_EDGE('',*,*,#201,.T.);
#255=ORIENTED_EDGE('',*,*,#206,.T.);
#256=ORIENTED_EDGE('',*,*,#207,.F.);
#257=ORIENTED_EDGE('',*,*,#208,.F.);
#258=ORIENTED_EDGE('',*,*,#209,.F.);
#259=ORIENTED_EDGE('',*,*,#210,.T.);
#260=ORIENTED_EDGE('',*,*,#211,.T.);
#261=ORIENTED_EDGE('',*,*,#208,.T.);
#262=ORIENTED_EDGE('',*,*,#212,.T.);
#263=ORIENTED_EDGE('',*,*,#199,.T.);
#264=ORIENTED_EDGE('',*,*,#213,.T.);
#265=ORIENTED_EDGE('',*,*,#209,.T.);
#266=ORIENTED_EDGE('',*,*,#214,.T.);
#267=ORIENTED_EDGE('',*,*,#207,.T.);
#268=ORIENTED_EDGE('',*,*,#215,.T.);
#269=ORIENTED_EDGE('',*,*,#195,.T.);
#270=ORIENTED_EDGE('',*,*,#216,.T.);
#271=ORIENTED_EDGE('',*,*,#193,.T.);
#272=ORIENTED_EDGE('',*,*,#217,.T.);
#273=ORIENTED_EDGE('',*,*,#189,.T.);
#274=ORIENTED_EDGE('',*,*,#218,.T.);
#275=ORIENTED_EDGE('',*,*,#192,.F.);
#276=ORIENTED_EDGE('',*,*,#206,.F.);
#277=ORIENTED_EDGE('',*,*,#203,.F.);
#278=ORIENTED_EDGE('',*,*,#219,.T.);
#279=ORIENTED_EDGE('',*,*,#204,.F.);
#280=ORIENTED_EDGE('',*,*,#214,.F.);
#281=ORIENTED_EDGE('',*,*,#211,.F.);
#282=ORIENTED_EDGE('',*,*,#220,.T.);
#283=ORIENTED_EDGE('',*,*,#205,.F.);
#284=ORIENTED_EDGE('',*,*,#217,.F.);
#285=ORIENTED_EDGE('',*,*,#215,.F.);
#286=ORIENTED_EDGE('',*,*,#213,.F.);
#287=ORIENTED_EDGE('',*,*,#221,.T.);
#288=ORIENTED_EDGE('',*,*,#222,.T.);
#289=ORIENTED_EDGE('',*,*,#223,.T.);
#290=ORIENTED_EDGE('',*,*,#224,.T.);
#291=ORIENTED_EDGE('',*,*,#223,.F.);
#292=ORIENTED_EDGE('',*,*,#224,.F.);
#293=ORIENTED_EDGE('',*,*,#225,.T.);
#294=ORIENTED_EDGE('',*,*,#226,.F.);
#295=ORIENTED_EDGE('',*,*,#225,.F.);
#296=ORIENTED_EDGE('',*,*,#221,.F.);
#297=ORIENTED_EDGE('',*,*,#222,.F.);
#298=ORIENTED_EDGE('',*,*,#227,.T.);
#299=ORIENTED_EDGE('',*,*,#228,.F.);
#300=ORIENTED_EDGE('',*,*,#227,.F.);
#301=ORIENTED_EDGE('',*,*,#197,.F.);
#302=ORIENTED_EDGE('',*,*,#229,.T.);
#303=ORIENTED_EDGE('',*,*,#212,.F.);
#304=ORIENTED_EDGE('',*,*,#216,.F.);
#305=ORIENTED_EDGE('',*,*,#191,.F.);
#306=ORIENTED_EDGE('',*,*,#230,.T.);
#307=ORIENTED_EDGE('',*,*,#198,.F.);
#308=ORIENTED_EDGE('',*,*,#218,.F.);
#309=ORIENTED_EDGE('',*,*,#190,.F.);
#310=ORIENTED_EDGE('',*,*,#219,.F.);
#311=ORIENTED_EDGE('',*,*,#202,.F.);
#312=ORIENTED_EDGE('',*,*,#220,.F.);
#313=ORIENTED_EDGE('',*,*,#210,.F.);
#314=ORIENTED_EDGE('',*,*,#229,.F.);
#315=ORIENTED_EDGE('',*,*,#196,.F.);
#316=ORIENTED_EDGE('',*,*,#230,.F.);
#317=ORIENTED_EDGE('',*,*,#226,.T.);
#318=ORIENTED_EDGE('',*,*,#228,.T.);
#319=SPHERICAL_SURFACE('',#363,1.);
#320=SPHERICAL_SURFACE('',#369,1.);
#321=SPHERICAL_SURFACE('',#375,1.);
#322=SPHERICAL_SURFACE('',#382,0.999999999999999);
#323=ADVANCED_FACE('',(#95),#319,.T.);
#324=ADVANCED_FACE('',(#96),#85,.T.);
#325=ADVANCED_FACE('',(#97),#320,.T.);
#326=ADVANCED_FACE('',(#98),#86,.T.);
#327=ADVANCED_FACE('',(#99),#321,.T.);
#328=ADVANCED_FACE('',(#100),#87,.T.);
#329=ADVANCED_FACE('',(#101),#88,.T.);
#330=ADVANCED_FACE('',(#102),#322,.T.);
#331=ADVANCED_FACE('',(#103),#89,.T.);
#332=ADVANCED_FACE('',(#104),#90,.T.);
#333=ADVANCED_FACE('',(#105),#91,.T.);
#334=ADVANCED_FACE('',(#106),#92,.T.);
#335=ADVANCED_FACE('',(#107),#35,.T.);
#336=ADVANCED_FACE('',(#108),#36,.T.);
#337=ADVANCED_FACE('',(#109,#31,#32),#37,.T.);
#338=ADVANCED_FACE('',(#110),#93,.F.);
#339=ADVANCED_FACE('',(#111),#94,.F.);
#340=ADVANCED_FACE('',(#112),#38,.T.);
#341=ADVANCED_FACE('',(#113),#39,.T.);
#342=ADVANCED_FACE('',(#114,#33,#34),#40,.F.);
#343=CLOSED_SHELL('',(#323,#324,#325,#326,#327,#328,#329,#330,#331,#332,
#333,#334,#335,#336,#337,#338,#339,#340,#341,#342));
#344=DERIVED_UNIT_ELEMENT(#346,1.);
#345=DERIVED_UNIT_ELEMENT(#621,3.);
#346=(
MASS_UNIT()
NAMED_UNIT(*)
SI_UNIT($,.GRAM.)
);
#347=DERIVED_UNIT((#344,#345));
#348=MEASURE_REPRESENTATION_ITEM('density measure',
POSITIVE_RATIO_MEASURE(1.),#347);
#349=PROPERTY_DEFINITION_REPRESENTATION(#354,#351);
#350=PROPERTY_DEFINITION_REPRESENTATION(#355,#352);
#351=REPRESENTATION('material name',(#353),#618);
#352=REPRESENTATION('density',(#348),#618);
#353=DESCRIPTIVE_REPRESENTATION_ITEM('Gen\X\E9rico','Gen\X\E9rico');
#354=PROPERTY_DEFINITION('material property','material name',#628);
#355=PROPERTY_DEFINITION('material property','density of part',#628);
#356=DATE_TIME_ROLE('creation_date');
#357=APPLIED_DATE_AND_TIME_ASSIGNMENT(#358,#356,(#628));
#358=DATE_AND_TIME(#359,#360);
#359=CALENDAR_DATE(2021,20,4);
#360=LOCAL_TIME(0,0,0.,#361);
#361=COORDINATED_UNIVERSAL_TIME_OFFSET(0,0,.BEHIND.);
#362=AXIS2_PLACEMENT_3D('placement',#513,#405,#406);
#363=AXIS2_PLACEMENT_3D('',#514,#407,#408);
#364=AXIS2_PLACEMENT_3D('',#517,#409,#410);
#365=AXIS2_PLACEMENT_3D('',#519,#411,#412);
#366=AXIS2_PLACEMENT_3D('',#520,#413,#414);
#367=AXIS2_PLACEMENT_3D('',#521,#415,#416);
#368=AXIS2_PLACEMENT_3D('',#524,#417,#418);
#369=AXIS2_PLACEMENT_3D('',#527,#421,#422);
#370=AXIS2_PLACEMENT_3D('',#530,#423,#424);
#371=AXIS2_PLACEMENT_3D('',#532,#425,#426);
#372=AXIS2_PLACEMENT_3D('',#533,#427,#428);
#373=AXIS2_PLACEMENT_3D('',#534,#429,#430);
#374=AXIS2_PLACEMENT_3D('',#537,#431,#432);
#375=AXIS2_PLACEMENT_3D('',#540,#435,#436);
#376=AXIS2_PLACEMENT_3D('',#543,#437,#438);
#377=AXIS2_PLACEMENT_3D('',#545,#439,#440);
#378=AXIS2_PLACEMENT_3D('',#546,#441,#442);
#379=AXIS2_PLACEMENT_3D('',#547,#443,#444);
#380=AXIS2_PLACEMENT_3D('',#550,#445,#446);
#381=AXIS2_PLACEMENT_3D('',#553,#449,#450);
#382=AXIS2_PLACEMENT_3D('',#556,#453,#454);
#383=AXIS2_PLACEMENT_3D('',#559,#455,#456);
#384=AXIS2_PLACEMENT_3D('',#561,#457,#458);
#385=AXIS2_PLACEMENT_3D('',#562,#459,#460);
#386=AXIS2_PLACEMENT_3D('',#563,#461,#462);
#387=AXIS2_PLACEMENT_3D('',#566,#463,#464);
#388=AXIS2_PLACEMENT_3D('',#569,#467,#468);
#389=AXIS2_PLACEMENT_3D('',#572,#471,#472);
#390=AXIS2_PLACEMENT_3D('',#575,#475,#476);
#391=AXIS2_PLACEMENT_3D('',#578,#479,#480);
#392=AXIS2_PLACEMENT_3D('',#580,#482,#483);
#393=AXIS2_PLACEMENT_3D('',#582,#485,#486);
#394=AXIS2_PLACEMENT_3D('',#585,#487,#488);
#395=AXIS2_PLACEMENT_3D('',#586,#489,#490);
#396=AXIS2_PLACEMENT_3D('',#589,#491,#492);
#397=AXIS2_PLACEMENT_3D('',#590,#493,#494);
#398=AXIS2_PLACEMENT_3D('',#591,#495,#496);
#399=AXIS2_PLACEMENT_3D('',#594,#498,#499);
#400=AXIS2_PLACEMENT_3D('',#595,#500,#501);
#401=AXIS2_PLACEMENT_3D('',#598,#503,#504);
#402=AXIS2_PLACEMENT_3D('',#599,#505,#506);
#403=AXIS2_PLACEMENT_3D('',#601,#508,#509);
#404=AXIS2_PLACEMENT_3D('',#603,#511,#512);
#405=DIRECTION('axis',(0.,0.,1.));
#406=DIRECTION('refdir',(1.,0.,0.));
#407=DIRECTION('center_axis',(-0.408248290463865,0.408248290463862,-0.816496580927726));
#408=DIRECTION('ref_axis',(-0.577350269189627,0.577350269189625,0.577350269189626));
#409=DIRECTION('center_axis',(-1.,-2.22044604925031E-15,-2.22044604925031E-15));
#410=DIRECTION('ref_axis',(-2.22044604925031E-15,1.,0.));
#411=DIRECTION('center_axis',(0.,0.,1.));
#412=DIRECTION('ref_axis',(-1.,0.,0.));
#413=DIRECTION('center_axis',(1.11022302462516E-15,1.,0.));
#414=DIRECTION('ref_axis',(0.,0.,1.));
#415=DIRECTION('center_axis',(0.,0.,1.));
#416=DIRECTION('ref_axis',(-0.707106781186548,0.707106781186547,0.));
#417=DIRECTION('center_axis',(0.,0.,1.));
#418=DIRECTION('ref_axis',(-0.707106781186548,0.707106781186547,0.));
#419=DIRECTION('',(0.,0.,1.));
#420=DIRECTION('',(0.,0.,-1.));
#421=DIRECTION('center_axis',(-0.408248290463863,-0.408248290463863,-0.816496580927726));
#422=DIRECTION('ref_axis',(-0.577350269189626,-0.577350269189626,0.577350269189626));
#423=DIRECTION('center_axis',(0.,-1.,0.));
#424=DIRECTION('ref_axis',(-1.,0.,0.));
#425=DIRECTION('center_axis',(0.,0.,1.));
#426=DIRECTION('ref_axis',(0.,-1.,0.));
#427=DIRECTION('center_axis',(-1.,0.,0.));
#428=DIRECTION('ref_axis',(0.,0.,1.));
#429=DIRECTION('center_axis',(0.,0.,1.));
#430=DIRECTION('ref_axis',(-0.707106781186548,-0.707106781186547,0.));
#431=DIRECTION('center_axis',(0.,0.,1.));
#432=DIRECTION('ref_axis',(-0.707106781186548,-0.707106781186547,0.));
#433=DIRECTION('',(0.,0.,1.));
#434=DIRECTION('',(0.,0.,-1.));
#435=DIRECTION('center_axis',(0.408248290463864,0.408248290463863,-0.816496580927726));
#436=DIRECTION('ref_axis',(0.577350269189627,0.577350269189625,0.577350269189626));
#437=DIRECTION('center_axis',(-1.11022302462516E-15,1.,0.));
#438=DIRECTION('ref_axis',(1.,1.11022302462516E-15,0.));
#439=DIRECTION('center_axis',(0.,0.,1.));
#440=DIRECTION('ref_axis',(0.,1.,0.));
#441=DIRECTION('center_axis',(1.,5.55111512312578E-16,0.));
#442=DIRECTION('ref_axis',(0.,0.,1.));
#443=DIRECTION('center_axis',(0.,0.,1.));
#444=DIRECTION('ref_axis',(0.707106781186548,0.707106781186547,0.));
#445=DIRECTION('center_axis',(0.,0.,1.));
#446=DIRECTION('ref_axis',(0.707106781186548,0.707106781186547,0.));
#447=DIRECTION('',(0.,0.,1.));
#448=DIRECTION('',(0.,0.,-1.));
#449=DIRECTION('center_axis',(-1.,-1.1686558153949E-16,0.));
#450=DIRECTION('ref_axis',(-1.96261557335472E-16,0.707106781186548,0.707106781186547));
#451=DIRECTION('',(1.,1.1686558153949E-16,0.));
#452=DIRECTION('',(-1.,-1.1686558153949E-16,0.));
#453=DIRECTION('center_axis',(-0.408248290463863,-0.816496580927726,-0.408248290463863));
#454=DIRECTION('ref_axis',(0.577350269189626,-0.577350269189625,0.577350269189627));
#455=DIRECTION('center_axis',(1.,0.,2.22044604925031E-15));
#456=DIRECTION('ref_axis',(0.,-1.,0.));
#457=DIRECTION('center_axis',(0.,0.,1.));
#458=DIRECTION('ref_axis',(1.,5.55111512312579E-16,0.));
#459=DIRECTION('center_axis',(0.,-1.,0.));
#460=DIRECTION('ref_axis',(0.,0.,1.));
#461=DIRECTION('center_axis',(0.,0.,1.));
#462=DIRECTION('ref_axis',(0.707106781186548,-0.707106781186548,0.));
#463=DIRECTION('center_axis',(0.,0.,1.));
#464=DIRECTION('ref_axis',(0.707106781186548,-0.707106781186548,0.));
#465=DIRECTION('',(0.,0.,1.));
#466=DIRECTION('',(0.,0.,-1.));
#467=DIRECTION('center_axis',(-4.62592926927148E-16,1.,0.));
#468=DIRECTION('ref_axis',(0.707106781186548,0.,0.707106781186548));
#469=DIRECTION('',(4.62592926927148E-16,-1.,0.));
#470=DIRECTION('',(-4.62592926927148E-16,1.,0.));
#471=DIRECTION('center_axis',(1.,1.1686558153949E-16,0.));
#472=DIRECTION('ref_axis',(0.,-0.707106781186548,0.707106781186548));
#473=DIRECTION('',(-1.,-1.1686558153949E-16,0.));
#474=DIRECTION('',(1.,1.1686558153949E-16,0.));
#475=DIRECTION('center_axis',(0.,-1.,0.));
#476=DIRECTION('ref_axis',(-0.707106781186548,0.,0.707106781186547));
#477=DIRECTION('',(0.,1.,0.));
#478=DIRECTION('',(0.,-1.,0.));
#479=DIRECTION('center_axis',(-1.1686558153949E-16,1.,0.));
#480=DIRECTION('ref_axis',(-1.,-1.1686558153949E-16,0.));
#481=DIRECTION('',(-1.,-1.1686558153949E-16,0.));
#482=DIRECTION('center_axis',(1.,4.62592926927148E-16,0.));
#483=DIRECTION('ref_axis',(-4.62592926927148E-16,1.,0.));
#484=DIRECTION('',(-4.62592926927148E-16,1.,0.));
#485=DIRECTION('center_axis',(0.,0.,1.));
#486=DIRECTION('ref_axis',(1.,0.,0.));
#487=DIRECTION('center_axis',(0.,0.,-1.));
#488=DIRECTION('ref_axis',(1.,0.,0.));
#489=DIRECTION('center_axis',(0.,0.,-1.));
#490=DIRECTION('ref_axis',(1.,0.,0.));
#491=DIRECTION('center_axis',(0.,0.,-1.));
#492=DIRECTION('ref_axis',(1.,0.,0.));
#493=DIRECTION('center_axis',(0.,0.,-1.));
#494=DIRECTION('ref_axis',(1.,0.,0.));
#495=DIRECTION('center_axis',(0.,0.,1.));
#496=DIRECTION('ref_axis',(1.,0.,0.));
#497=DIRECTION('',(0.,0.,-1.));
#498=DIRECTION('center_axis',(0.,0.,1.));
#499=DIRECTION('ref_axis',(1.,0.,0.));
#500=DIRECTION('center_axis',(0.,0.,1.));
#501=DIRECTION('ref_axis',(1.,0.,0.));
#502=DIRECTION('',(0.,0.,-1.));
#503=DIRECTION('center_axis',(0.,0.,1.));
#504=DIRECTION('ref_axis',(1.,0.,0.));
#505=DIRECTION('center_axis',(1.1686558153949E-16,-1.,0.));
#506=DIRECTION('ref_axis',(1.,1.1686558153949E-16,0.));
#507=DIRECTION('',(1.,1.1686558153949E-16,0.));
#508=DIRECTION('center_axis',(-1.,0.,0.));
#509=DIRECTION('ref_axis',(0.,-1.,0.));
#510=DIRECTION('',(0.,-1.,0.));
#511=DIRECTION('center_axis',(0.,0.,1.));
#512=DIRECTION('ref_axis',(1.,0.,0.));
#513=CARTESIAN_POINT('',(0.,0.,0.));
#514=CARTESIAN_POINT('Origin',(-14.1266278486116,7.94641149508162,4.));
#515=CARTESIAN_POINT('',(-14.1266278486116,8.94641149508162,4.));
#516=CARTESIAN_POINT('',(-14.1266278486116,7.94641149508162,5.));
#517=CARTESIAN_POINT('Origin',(-14.1266278486116,7.94641149508162,4.));
#518=CARTESIAN_POINT('',(-15.1266278486116,7.94641149508162,4.));
#519=CARTESIAN_POINT('Origin',(-14.1266278486116,7.94641149508162,4.));
#520=CARTESIAN_POINT('Origin',(-14.1266278486116,7.94641149508162,4.));
#521=CARTESIAN_POINT('Origin',(-14.1266278486116,7.94641149508162,0.));
#522=CARTESIAN_POINT('',(-14.1266278486116,8.94641149508162,0.));
#523=CARTESIAN_POINT('',(-15.1266278486116,7.94641149508162,0.));
#524=CARTESIAN_POINT('Origin',(-14.1266278486116,7.94641149508162,0.));
#525=CARTESIAN_POINT('',(-15.1266278486116,7.94641149508162,0.));
#526=CARTESIAN_POINT('',(-14.1266278486116,8.94641149508162,0.));
#527=CARTESIAN_POINT('Origin',(-14.1266278486116,3.94641149508162,4.));
#528=CARTESIAN_POINT('',(-15.1266278486116,3.94641149508162,4.));
#529=CARTESIAN_POINT('',(-14.1266278486116,3.94641149508162,5.));
#530=CARTESIAN_POINT('Origin',(-14.1266278486116,3.94641149508162,4.));
#531=CARTESIAN_POINT('',(-14.1266278486116,2.94641149508162,4.));
#532=CARTESIAN_POINT('Origin',(-14.1266278486116,3.94641149508162,4.));
#533=CARTESIAN_POINT('Origin',(-14.1266278486116,3.94641149508162,4.));
#534=CARTESIAN_POINT('Origin',(-14.1266278486116,3.94641149508162,0.));
#535=CARTESIAN_POINT('',(-15.1266278486116,3.94641149508162,0.));
#536=CARTESIAN_POINT('',(-14.1266278486116,2.94641149508162,0.));
#537=CARTESIAN_POINT('Origin',(-14.1266278486116,3.94641149508162,0.));
#538=CARTESIAN_POINT('',(-14.1266278486116,2.94641149508162,0.));
#539=CARTESIAN_POINT('',(-15.1266278486116,3.94641149508162,0.));
#540=CARTESIAN_POINT('Origin',(2.87337215138842,7.94641149508162,4.));
#541=CARTESIAN_POINT('',(3.87337215138842,7.94641149508162,4.));
#542=CARTESIAN_POINT('',(2.87337215138842,7.94641149508162,5.));
#543=CARTESIAN_POINT('Origin',(2.87337215138842,7.94641149508162,4.));
#544=CARTESIAN_POINT('',(2.87337215138842,8.94641149508162,4.));
#545=CARTESIAN_POINT('Origin',(2.87337215138842,7.94641149508162,4.));
#546=CARTESIAN_POINT('Origin',(2.87337215138842,7.94641149508162,4.));
#547=CARTESIAN_POINT('Origin',(2.87337215138842,7.94641149508162,0.));
#548=CARTESIAN_POINT('',(3.87337215138842,7.94641149508162,0.));
#549=CARTESIAN_POINT('',(2.87337215138842,8.94641149508162,0.));
#550=CARTESIAN_POINT('Origin',(2.87337215138842,7.94641149508162,0.));
#551=CARTESIAN_POINT('',(2.87337215138842,8.94641149508162,0.));
#552=CARTESIAN_POINT('',(3.87337215138842,7.94641149508162,0.));
#553=CARTESIAN_POINT('Origin',(-0.876627848611581,7.94641149508162,4.));
#554=CARTESIAN_POINT('',(-0.876627848611581,7.94641149508162,5.));
#555=CARTESIAN_POINT('',(-0.876627848611581,8.94641149508162,4.));
#556=CARTESIAN_POINT('Origin',(2.87337215138842,3.94641149508162,4.));
#557=CARTESIAN_POINT('',(2.87337215138842,2.94641149508162,4.));
#558=CARTESIAN_POINT('',(2.87337215138842,3.94641149508162,5.));
#559=CARTESIAN_POINT('Origin',(2.87337215138842,3.94641149508162,4.));
#560=CARTESIAN_POINT('',(3.87337215138842,3.94641149508162,4.));
#561=CARTESIAN_POINT('Origin',(2.87337215138842,3.94641149508162,4.));
#562=CARTESIAN_POINT('Origin',(2.87337215138842,3.94641149508162,4.));
#563=CARTESIAN_POINT('Origin',(2.87337215138842,3.94641149508162,0.));
#564=CARTESIAN_POINT('',(2.87337215138842,2.94641149508162,0.));
#565=CARTESIAN_POINT('',(3.87337215138842,3.94641149508162,0.));
#566=CARTESIAN_POINT('Origin',(2.87337215138842,3.94641149508162,0.));
#567=CARTESIAN_POINT('',(3.87337215138842,3.94641149508162,0.));
#568=CARTESIAN_POINT('',(2.87337215138842,2.94641149508162,0.));
#569=CARTESIAN_POINT('Origin',(2.87337215138842,4.44641149508162,4.));
#570=CARTESIAN_POINT('',(2.87337215138842,4.44641149508162,5.));
#571=CARTESIAN_POINT('',(3.87337215138842,4.44641149508162,4.));
#572=CARTESIAN_POINT('Origin',(-10.3766278486116,3.94641149508162,4.));
#573=CARTESIAN_POINT('',(-10.3766278486116,3.94641149508162,5.));
#574=CARTESIAN_POINT('',(-10.3766278486116,2.94641149508162,4.));
#575=CARTESIAN_POINT('Origin',(-14.1266278486116,7.44641149508162,4.));
#576=CARTESIAN_POINT('',(-14.1266278486116,7.44641149508162,5.));
#577=CARTESIAN_POINT('',(-15.1266278486116,7.44641149508162,4.));
#578=CARTESIAN_POINT('Origin',(3.87337215138842,8.94641149508162,0.));
#579=CARTESIAN_POINT('',(3.87337215138842,8.94641149508162,0.));
#580=CARTESIAN_POINT('Origin',(3.87337215138842,2.94641149508162,0.));
#581=CARTESIAN_POINT('',(3.87337215138842,2.94641149508162,0.));
#582=CARTESIAN_POINT('Origin',(-5.62662784861158,5.94641149508162,5.));
#583=CARTESIAN_POINT('',(-10.8266278486116,5.94641149508161,5.));
#584=CARTESIAN_POINT('',(-13.4266278486116,5.94641149508161,5.));
#585=CARTESIAN_POINT('Origin',(-12.1266278486116,5.94641149508161,5.));
#586=CARTESIAN_POINT('Origin',(-12.1266278486116,5.94641149508161,5.));
#587=CARTESIAN_POINT('',(2.17337215138842,5.94641149508162,5.));
#588=CARTESIAN_POINT('',(-0.426627848611582,5.94641149508162,5.));
#589=CARTESIAN_POINT('Origin',(0.873372151388419,5.94641149508162,5.));
#590=CARTESIAN_POINT('Origin',(0.873372151388419,5.94641149508162,5.));
#591=CARTESIAN_POINT('Origin',(0.873372151388419,5.94641149508162,-15.5426385841741));
#592=CARTESIAN_POINT('',(-0.426627848611582,5.94641149508162,0.));
#593=CARTESIAN_POINT('',(-0.426627848611582,5.94641149508162,-15.5426385841741));
#594=CARTESIAN_POINT('Origin',(0.873372151388419,5.94641149508162,0.));
#595=CARTESIAN_POINT('Origin',(-12.1266278486116,5.94641149508161,-15.5426385841741));
#596=CARTESIAN_POINT('',(-13.4266278486116,5.94641149508161,0.));
#597=CARTESIAN_POINT('',(-13.4266278486116,5.94641149508161,-15.5426385841741));
#598=CARTESIAN_POINT('Origin',(-12.1266278486116,5.94641149508161,0.));
#599=CARTESIAN_POINT('Origin',(-15.1266278486116,2.94641149508162,0.));
#600=CARTESIAN_POINT('',(-15.1266278486116,2.94641149508162,0.));
#601=CARTESIAN_POINT('Origin',(-15.1266278486116,8.94641149508162,0.));
#602=CARTESIAN_POINT('',(-15.1266278486116,8.94641149508162,0.));
#603=CARTESIAN_POINT('Origin',(-5.62662784861158,5.94641149508162,0.));
#604=CARTESIAN_POINT('polyline point',(3.87337215138842,3.94641149508162,
5.));
#605=CARTESIAN_POINT('polyline point',(3.87337215138842,7.94641149508162,
5.));
#606=CARTESIAN_POINT('polyline point',(-15.1266278486116,7.94641149508162,
5.));
#607=CARTESIAN_POINT('polyline point',(-15.1266278486116,3.94641149508162,
5.));
#608=CARTESIAN_POINT('polyline point',(-14.1266278486116,2.94641149508162,
5.));
#609=CARTESIAN_POINT('polyline point',(2.87337215138842,2.94641149508162,
5.));
#610=CARTESIAN_POINT('polyline point',(2.87337215138842,8.94641149508162,
5.));
#611=CARTESIAN_POINT('polyline point',(-14.1266278486116,8.94641149508162,
5.));
#612=CARTESIAN_POINT('polyline point',(-14.1266278486116,2.94641149508162,
0.));
#613=CARTESIAN_POINT('polyline point',(2.87337215138842,2.94641149508162,
0.));
#614=CARTESIAN_POINT('polyline point',(2.87337215138842,2.94641149508162,
5.));
#615=CARTESIAN_POINT('polyline point',(-14.1266278486116,2.94641149508162,
5.));
#616=UNCERTAINTY_MEASURE_WITH_UNIT(LENGTH_MEASURE(0.01),#620,
'DISTANCE_ACCURACY_VALUE',
'Maximum model space distance between geometric entities at asserted c
onnectivities');
#617=UNCERTAINTY_MEASURE_WITH_UNIT(LENGTH_MEASURE(0.01),#620,
'DISTANCE_ACCURACY_VALUE',
'Maximum model space distance between geometric entities at asserted c
onnectivities');
#618=(
GEOMETRIC_REPRESENTATION_CONTEXT(3)
GLOBAL_UNCERTAINTY_ASSIGNED_CONTEXT((#616))
GLOBAL_UNIT_ASSIGNED_CONTEXT((#620,#622,#623))
REPRESENTATION_CONTEXT('','3D')
);
#619=(
GEOMETRIC_REPRESENTATION_CONTEXT(3)
GLOBAL_UNCERTAINTY_ASSIGNED_CONTEXT((#617))
GLOBAL_UNIT_ASSIGNED_CONTEXT((#620,#622,#623))
REPRESENTATION_CONTEXT('','3D')
);
#620=(
LENGTH_UNIT()
NAMED_UNIT(*)
SI_UNIT(.MILLI.,.METRE.)
);
#621=(
LENGTH_UNIT()
NAMED_UNIT(*)
SI_UNIT(.CENTI.,.METRE.)
);
#622=(
NAMED_UNIT(*)
PLANE_ANGLE_UNIT()
SI_UNIT($,.RADIAN.)
);
#623=(
NAMED_UNIT(*)
SI_UNIT($,.STERADIAN.)
SOLID_ANGLE_UNIT()
);
#624=SHAPE_DEFINITION_REPRESENTATION(#625,#626);
#625=PRODUCT_DEFINITION_SHAPE('',$,#628);
#626=SHAPE_REPRESENTATION('',(#362),#618);
#627=PRODUCT_DEFINITION_CONTEXT('part definition',#632,'design');
#628=PRODUCT_DEFINITION('Holder','Holder',#629,#627);
#629=PRODUCT_DEFINITION_FORMATION('',$,#634);
#630=PRODUCT_RELATED_PRODUCT_CATEGORY('Holder','Holder',(#634));
#631=APPLICATION_PROTOCOL_DEFINITION('international standard',
'automotive_design',2009,#632);
#632=APPLICATION_CONTEXT(
'Core Data for Automotive Mechanical Design Process');
#633=PRODUCT_CONTEXT('part definition',#632,'mechanical');
#634=PRODUCT('Holder','Holder',$,(#633));
#635=PRESENTATION_STYLE_ASSIGNMENT((#637));
#636=PRESENTATION_STYLE_ASSIGNMENT((#638));
#637=SURFACE_STYLE_USAGE(.BOTH.,#641);
#638=SURFACE_STYLE_USAGE(.BOTH.,#642);
#639=SURFACE_STYLE_RENDERING_WITH_PROPERTIES($,#649,(#640));
#640=SURFACE_STYLE_TRANSPARENT(0.);
#641=SURFACE_SIDE_STYLE('',(#643,#639));
#642=SURFACE_SIDE_STYLE('',(#644));
#643=SURFACE_STYLE_FILL_AREA(#645);
#644=SURFACE_STYLE_FILL_AREA(#646);
#645=FILL_AREA_STYLE('',(#647));
#646=FILL_AREA_STYLE('',(#648));
#647=FILL_AREA_STYLE_COLOUR('',#649);
#648=FILL_AREA_STYLE_COLOUR('',#650);
#649=COLOUR_RGB('',0.749019607843137,0.749019607843137,0.749019607843137);
#650=COLOUR_RGB('',1.,1.,0.);
ENDSEC;
END-ISO-10303-21;
