ISO-10303-21;
HEADER;
/* Generated by software containing ST-Developer
 * from STEP Tools, Inc. (www.steptools.com) 
 */

FILE_DESCRIPTION(
/* description */ (''),
/* implementation_level */ '2;1');

FILE_NAME(
/* name */ 
'C:\\Users\\svale\\OneDrive\\Upwork\\Controller\\Hand\\Little_FingerV2
D2.ipt.stp',
/* time_stamp */ '2021-06-20T10:01:51-05:00',
/* author */ ('svale'),
/* organization */ (''),
/* preprocessor_version */ 'ST-DEVELOPER v18.1',
/* originating_system */ 'Autodesk Inventor 2021',
/* authorisation */ '');

FILE_SCHEMA (('AUTOMOTIVE_DESIGN { 1 0 10303 214 3 1 1 }'));
ENDSEC;

DATA;
#10=MECHANICAL_DESIGN_GEOMETRIC_PRESENTATION_REPRESENTATION('',(#13),#371);
#11=SHAPE_REPRESENTATION_RELATIONSHIP('SRR','None',#378,#12);
#12=ADVANCED_BREP_SHAPE_REPRESENTATION('',(#14),#370);
#13=STYLED_ITEM('',(#387),#14);
#14=MANIFOLD_SOLID_BREP('S\X\F3lido1',#185);
#15=FACE_BOUND('',#39,.T.);
#16=FACE_BOUND('',#43,.T.);
#17=FACE_BOUND('',#46,.T.);
#18=FACE_BOUND('',#48,.T.);
#19=FACE_BOUND('',#50,.T.);
#20=PLANE('',#212);
#21=PLANE('',#219);
#22=PLANE('',#228);
#23=PLANE('',#229);
#24=B_SPLINE_CURVE_WITH_KNOTS('',3,(#301,#302,#303,#304,#305,#306,#307,
#308,#309,#310,#311,#312,#313,#314),.UNSPECIFIED.,.F.,.F.,(4,2,2,2,2,2,
4),(0.403674832575192,0.425328888420616,0.486048340003426,0.607487243169045,
0.728926146334664,0.789645597917474,0.811299653762898),.UNSPECIFIED.);
#25=B_SPLINE_CURVE_WITH_KNOTS('',3,(#332,#333,#334,#335,#336,#337,#338,
#339,#340,#341,#342,#343,#344,#345,#346),.UNSPECIFIED.,.F.,.F.,(4,2,2,3,
2,2,4),(-0.203812410593853,-0.182158354748429,-0.121438903165619,0.,0.121438903165619,
0.182158354748429,0.203812410593853),.UNSPECIFIED.);
#26=FACE_OUTER_BOUND('',#36,.T.);
#27=FACE_OUTER_BOUND('',#37,.T.);
#28=FACE_OUTER_BOUND('',#38,.T.);
#29=FACE_OUTER_BOUND('',#40,.T.);
#30=FACE_OUTER_BOUND('',#41,.T.);
#31=FACE_OUTER_BOUND('',#42,.T.);
#32=FACE_OUTER_BOUND('',#44,.T.);
#33=FACE_OUTER_BOUND('',#45,.T.);
#34=FACE_OUTER_BOUND('',#47,.T.);
#35=FACE_OUTER_BOUND('',#49,.T.);
#36=EDGE_LOOP('',(#121,#122,#123,#124,#125));
#37=EDGE_LOOP('',(#126,#127,#128,#129));
#38=EDGE_LOOP('',(#130,#131,#132,#133));
#39=EDGE_LOOP('',(#134,#135));
#40=EDGE_LOOP('',(#136,#137,#138,#139));
#41=EDGE_LOOP('',(#140,#141,#142,#143));
#42=EDGE_LOOP('',(#144,#145,#146,#147));
#43=EDGE_LOOP('',(#148));
#44=EDGE_LOOP('',(#149,#150,#151,#152));
#45=EDGE_LOOP('',(#153,#154,#155,#156,#157,#158));
#46=EDGE_LOOP('',(#159,#160,#161,#162));
#47=EDGE_LOOP('',(#163,#164));
#48=EDGE_LOOP('',(#165));
#49=EDGE_LOOP('',(#166,#167));
#50=EDGE_LOOP('',(#168));
#51=LINE('',#296,#58);
#52=LINE('',#318,#59);
#53=LINE('',#322,#60);
#54=LINE('',#328,#61);
#55=LINE('',#349,#62);
#56=LINE('',#354,#63);
#57=LINE('',#362,#64);
#58=VECTOR('',#238,1.0564303);
#59=VECTOR('',#245,10.);
#60=VECTOR('',#250,10.);
#61=VECTOR('',#257,10.);
#62=VECTOR('',#266,10.);
#63=VECTOR('',#271,7.9);
#64=VECTOR('',#280,9.4);
#65=CIRCLE('',#206,1.0564303);
#66=CIRCLE('',#207,1.0564303);
#67=CIRCLE('',#208,1.0564303);
#68=CIRCLE('',#210,2.65020181125584);
#69=CIRCLE('',#211,2.65020181125584);
#70=CIRCLE('',#213,2.65020181125584);
#71=CIRCLE('',#214,4.);
#72=CIRCLE('',#216,4.);
#73=CIRCLE('',#218,2.65020181125584);
#74=CIRCLE('',#221,7.9);
#75=CIRCLE('',#222,7.9);
#76=CIRCLE('',#224,9.4);
#77=CIRCLE('',#225,9.4);
#78=CIRCLE('',#226,9.4);
#79=CIRCLE('',#227,9.4);
#80=VERTEX_POINT('',#291);
#81=VERTEX_POINT('',#292);
#82=VERTEX_POINT('',#295);
#83=VERTEX_POINT('',#299);
#84=VERTEX_POINT('',#300);
#85=VERTEX_POINT('',#315);
#86=VERTEX_POINT('',#317);
#87=VERTEX_POINT('',#321);
#88=VERTEX_POINT('',#323);
#89=VERTEX_POINT('',#327);
#90=VERTEX_POINT('',#331);
#91=VERTEX_POINT('',#351);
#92=VERTEX_POINT('',#353);
#93=VERTEX_POINT('',#357);
#94=VERTEX_POINT('',#358);
#95=VERTEX_POINT('',#361);
#96=VERTEX_POINT('',#363);
#97=EDGE_CURVE('',#80,#81,#65,.T.);
#98=EDGE_CURVE('',#81,#80,#66,.T.);
#99=EDGE_CURVE('',#81,#82,#51,.T.);
#100=EDGE_CURVE('',#82,#82,#67,.T.);
#101=EDGE_CURVE('',#83,#84,#24,.T.);
#102=EDGE_CURVE('',#85,#83,#68,.T.);
#103=EDGE_CURVE('',#85,#86,#52,.T.);
#104=EDGE_CURVE('',#84,#86,#69,.T.);
#105=EDGE_CURVE('',#87,#83,#53,.T.);
#106=EDGE_CURVE('',#87,#88,#70,.T.);
#107=EDGE_CURVE('',#88,#85,#71,.T.);
#108=EDGE_CURVE('',#89,#88,#54,.T.);
#109=EDGE_CURVE('',#86,#89,#72,.T.);
#110=EDGE_CURVE('',#90,#87,#25,.T.);
#111=EDGE_CURVE('',#89,#90,#73,.T.);
#112=EDGE_CURVE('',#84,#90,#55,.T.);
#113=EDGE_CURVE('',#91,#91,#74,.T.);
#114=EDGE_CURVE('',#91,#92,#56,.T.);
#115=EDGE_CURVE('',#92,#92,#75,.T.);
#116=EDGE_CURVE('',#93,#94,#76,.T.);
#117=EDGE_CURVE('',#94,#93,#77,.T.);
#118=EDGE_CURVE('',#94,#95,#57,.T.);
#119=EDGE_CURVE('',#95,#96,#78,.T.);
#120=EDGE_CURVE('',#96,#95,#79,.T.);
#121=ORIENTED_EDGE('',*,*,#97,.F.);
#122=ORIENTED_EDGE('',*,*,#98,.F.);
#123=ORIENTED_EDGE('',*,*,#99,.T.);
#124=ORIENTED_EDGE('',*,*,#100,.F.);
#125=ORIENTED_EDGE('',*,*,#99,.F.);
#126=ORIENTED_EDGE('',*,*,#101,.F.);
#127=ORIENTED_EDGE('',*,*,#102,.F.);
#128=ORIENTED_EDGE('',*,*,#103,.T.);
#129=ORIENTED_EDGE('',*,*,#104,.F.);
#130=ORIENTED_EDGE('',*,*,#105,.F.);
#131=ORIENTED_EDGE('',*,*,#106,.T.);
#132=ORIENTED_EDGE('',*,*,#107,.T.);
#133=ORIENTED_EDGE('',*,*,#102,.T.);
#134=ORIENTED_EDGE('',*,*,#97,.T.);
#135=ORIENTED_EDGE('',*,*,#98,.T.);
#136=ORIENTED_EDGE('',*,*,#108,.F.);
#137=ORIENTED_EDGE('',*,*,#109,.F.);
#138=ORIENTED_EDGE('',*,*,#103,.F.);
#139=ORIENTED_EDGE('',*,*,#107,.F.);
#140=ORIENTED_EDGE('',*,*,#110,.F.);
#141=ORIENTED_EDGE('',*,*,#111,.F.);
#142=ORIENTED_EDGE('',*,*,#108,.T.);
#143=ORIENTED_EDGE('',*,*,#106,.F.);
#144=ORIENTED_EDGE('',*,*,#112,.F.);
#145=ORIENTED_EDGE('',*,*,#104,.T.);
#146=ORIENTED_EDGE('',*,*,#109,.T.);
#147=ORIENTED_EDGE('',*,*,#111,.T.);
#148=ORIENTED_EDGE('',*,*,#100,.T.);
#149=ORIENTED_EDGE('',*,*,#113,.F.);
#150=ORIENTED_EDGE('',*,*,#114,.T.);
#151=ORIENTED_EDGE('',*,*,#115,.T.);
#152=ORIENTED_EDGE('',*,*,#114,.F.);
#153=ORIENTED_EDGE('',*,*,#116,.F.);
#154=ORIENTED_EDGE('',*,*,#117,.F.);
#155=ORIENTED_EDGE('',*,*,#118,.T.);
#156=ORIENTED_EDGE('',*,*,#119,.T.);
#157=ORIENTED_EDGE('',*,*,#120,.T.);
#158=ORIENTED_EDGE('',*,*,#118,.F.);
#159=ORIENTED_EDGE('',*,*,#105,.T.);
#160=ORIENTED_EDGE('',*,*,#101,.T.);
#161=ORIENTED_EDGE('',*,*,#112,.T.);
#162=ORIENTED_EDGE('',*,*,#110,.T.);
#163=ORIENTED_EDGE('',*,*,#116,.T.);
#164=ORIENTED_EDGE('',*,*,#117,.T.);
#165=ORIENTED_EDGE('',*,*,#113,.T.);
#166=ORIENTED_EDGE('',*,*,#120,.F.);
#167=ORIENTED_EDGE('',*,*,#119,.F.);
#168=ORIENTED_EDGE('',*,*,#115,.F.);
#169=CYLINDRICAL_SURFACE('',#205,1.0564303);
#170=CYLINDRICAL_SURFACE('',#209,2.65020181125584);
#171=CYLINDRICAL_SURFACE('',#215,4.);
#172=CYLINDRICAL_SURFACE('',#217,2.65020181125584);
#173=CYLINDRICAL_SURFACE('',#220,7.9);
#174=CYLINDRICAL_SURFACE('',#223,9.4);
#175=ADVANCED_FACE('',(#26),#169,.F.);
#176=ADVANCED_FACE('',(#27),#170,.F.);
#177=ADVANCED_FACE('',(#28,#15),#20,.F.);
#178=ADVANCED_FACE('',(#29),#171,.T.);
#179=ADVANCED_FACE('',(#30),#172,.F.);
#180=ADVANCED_FACE('',(#31,#16),#21,.T.);
#181=ADVANCED_FACE('',(#32),#173,.F.);
#182=ADVANCED_FACE('',(#33,#17),#174,.T.);
#183=ADVANCED_FACE('',(#34,#18),#22,.T.);
#184=ADVANCED_FACE('',(#35,#19),#23,.F.);
#185=CLOSED_SHELL('',(#175,#176,#177,#178,#179,#180,#181,#182,#183,#184));
#186=DERIVED_UNIT_ELEMENT(#188,1.);
#187=DERIVED_UNIT_ELEMENT(#373,3.);
#188=(
MASS_UNIT()
NAMED_UNIT(*)
SI_UNIT($,.GRAM.)
);
#189=DERIVED_UNIT((#186,#187));
#190=MEASURE_REPRESENTATION_ITEM('density measure',
POSITIVE_RATIO_MEASURE(1.),#189);
#191=PROPERTY_DEFINITION_REPRESENTATION(#196,#193);
#192=PROPERTY_DEFINITION_REPRESENTATION(#197,#194);
#193=REPRESENTATION('material name',(#195),#370);
#194=REPRESENTATION('density',(#190),#370);
#195=DESCRIPTIVE_REPRESENTATION_ITEM('Gen\X\E9rico','Gen\X\E9rico');
#196=PROPERTY_DEFINITION('material property','material name',#380);
#197=PROPERTY_DEFINITION('material property','density of part',#380);
#198=DATE_TIME_ROLE('creation_date');
#199=APPLIED_DATE_AND_TIME_ASSIGNMENT(#200,#198,(#380));
#200=DATE_AND_TIME(#201,#202);
#201=CALENDAR_DATE(2021,2,5);
#202=LOCAL_TIME(0,0,0.,#203);
#203=COORDINATED_UNIVERSAL_TIME_OFFSET(0,0,.BEHIND.);
#204=AXIS2_PLACEMENT_3D('placement',#289,#230,#231);
#205=AXIS2_PLACEMENT_3D('',#290,#232,#233);
#206=AXIS2_PLACEMENT_3D('',#293,#234,#235);
#207=AXIS2_PLACEMENT_3D('',#294,#236,#237);
#208=AXIS2_PLACEMENT_3D('',#297,#239,#240);
#209=AXIS2_PLACEMENT_3D('',#298,#241,#242);
#210=AXIS2_PLACEMENT_3D('',#316,#243,#244);
#211=AXIS2_PLACEMENT_3D('',#319,#246,#247);
#212=AXIS2_PLACEMENT_3D('',#320,#248,#249);
#213=AXIS2_PLACEMENT_3D('',#324,#251,#252);
#214=AXIS2_PLACEMENT_3D('',#325,#253,#254);
#215=AXIS2_PLACEMENT_3D('',#326,#255,#256);
#216=AXIS2_PLACEMENT_3D('',#329,#258,#259);
#217=AXIS2_PLACEMENT_3D('',#330,#260,#261);
#218=AXIS2_PLACEMENT_3D('',#347,#262,#263);
#219=AXIS2_PLACEMENT_3D('',#348,#264,#265);
#220=AXIS2_PLACEMENT_3D('',#350,#267,#268);
#221=AXIS2_PLACEMENT_3D('',#352,#269,#270);
#222=AXIS2_PLACEMENT_3D('',#355,#272,#273);
#223=AXIS2_PLACEMENT_3D('',#356,#274,#275);
#224=AXIS2_PLACEMENT_3D('',#359,#276,#277);
#225=AXIS2_PLACEMENT_3D('',#360,#278,#279);
#226=AXIS2_PLACEMENT_3D('',#364,#281,#282);
#227=AXIS2_PLACEMENT_3D('',#365,#283,#284);
#228=AXIS2_PLACEMENT_3D('',#366,#285,#286);
#229=AXIS2_PLACEMENT_3D('',#367,#287,#288);
#230=DIRECTION('axis',(0.,0.,1.));
#231=DIRECTION('refdir',(1.,0.,0.));
#232=DIRECTION('center_axis',(-1.,0.,0.));
#233=DIRECTION('ref_axis',(0.,0.,1.));
#234=DIRECTION('center_axis',(1.,0.,0.));
#235=DIRECTION('ref_axis',(0.,0.,1.));
#236=DIRECTION('center_axis',(1.,0.,0.));
#237=DIRECTION('ref_axis',(0.,0.,1.));
#238=DIRECTION('',(1.,0.,0.));
#239=DIRECTION('center_axis',(-1.,0.,0.));
#240=DIRECTION('ref_axis',(0.,0.,1.));
#241=DIRECTION('center_axis',(1.,0.,0.));
#242=DIRECTION('ref_axis',(0.,0.108172277148343,-0.994132163475532));
#243=DIRECTION('center_axis',(1.,0.,0.));
#244=DIRECTION('ref_axis',(0.,0.108172277148343,-0.994132163475532));
#245=DIRECTION('',(1.,0.,0.));
#246=DIRECTION('center_axis',(-1.,0.,0.));
#247=DIRECTION('ref_axis',(0.,0.108172277148343,-0.994132163475532));
#248=DIRECTION('center_axis',(1.,0.,0.));
#249=DIRECTION('ref_axis',(0.,0.,-1.));
#250=DIRECTION('',(0.,0.,-1.));
#251=DIRECTION('center_axis',(1.,0.,0.));
#252=DIRECTION('ref_axis',(0.,0.994857282855496,0.101286656324413));
#253=DIRECTION('center_axis',(-1.,0.,0.));
#254=DIRECTION('ref_axis',(0.,-0.74535599249993,-0.666666666666667));
#255=DIRECTION('center_axis',(1.,0.,0.));
#256=DIRECTION('ref_axis',(0.,1.,-6.93889390390723E-17));
#257=DIRECTION('',(-1.,0.,0.));
#258=DIRECTION('center_axis',(1.,0.,0.));
#259=DIRECTION('ref_axis',(0.,-0.74535599249993,-0.666666666666667));
#260=DIRECTION('center_axis',(1.,0.,0.));
#261=DIRECTION('ref_axis',(0.,0.994857282855496,0.101286656324413));
#262=DIRECTION('center_axis',(-1.,0.,0.));
#263=DIRECTION('ref_axis',(0.,0.994857282855496,0.101286656324413));
#264=DIRECTION('center_axis',(1.,0.,0.));
#265=DIRECTION('ref_axis',(0.,0.,-1.));
#266=DIRECTION('',(0.,0.,1.));
#267=DIRECTION('center_axis',(0.,0.,1.));
#268=DIRECTION('ref_axis',(-1.,0.,0.));
#269=DIRECTION('center_axis',(0.,0.,-1.));
#270=DIRECTION('ref_axis',(-1.,0.,0.));
#271=DIRECTION('',(0.,0.,-1.));
#272=DIRECTION('center_axis',(0.,0.,-1.));
#273=DIRECTION('ref_axis',(-1.,0.,0.));
#274=DIRECTION('center_axis',(0.,0.,1.));
#275=DIRECTION('ref_axis',(1.,0.,0.));
#276=DIRECTION('center_axis',(0.,0.,1.));
#277=DIRECTION('ref_axis',(1.,0.,0.));
#278=DIRECTION('center_axis',(0.,0.,1.));
#279=DIRECTION('ref_axis',(1.,0.,0.));
#280=DIRECTION('',(0.,0.,-1.));
#281=DIRECTION('center_axis',(0.,0.,1.));
#282=DIRECTION('ref_axis',(1.,0.,0.));
#283=DIRECTION('center_axis',(0.,0.,1.));
#284=DIRECTION('ref_axis',(1.,0.,0.));
#285=DIRECTION('center_axis',(0.,0.,1.));
#286=DIRECTION('ref_axis',(1.,0.,0.));
#287=DIRECTION('center_axis',(0.,0.,1.));
#288=DIRECTION('ref_axis',(1.,0.,0.));
#289=CARTESIAN_POINT('',(0.,0.,0.));
#290=CARTESIAN_POINT('Origin',(33.9899986107252,14.4,6.5));
#291=CARTESIAN_POINT('',(-2.,14.4,7.5564303));
#292=CARTESIAN_POINT('',(-2.,14.4,5.4435697));
#293=CARTESIAN_POINT('Origin',(-2.,14.4,6.5));
#294=CARTESIAN_POINT('Origin',(-2.,14.4,6.5));
#295=CARTESIAN_POINT('',(2.,14.4,5.4435697));
#296=CARTESIAN_POINT('',(33.9899986107252,14.4,5.4435697));
#297=CARTESIAN_POINT('Origin',(2.,14.4,6.5));
#298=CARTESIAN_POINT('Origin',(0.,11.7052543948265,1.1986824730628));
#299=CARTESIAN_POINT('',(-2.,9.18477000256403,2.01766236826478));
#300=CARTESIAN_POINT('',(2.,9.18477000256403,2.01766236826478));
#301=CARTESIAN_POINT('Ctrl Pts',(-2.,9.18477000256403,2.01766236826478));
#302=CARTESIAN_POINT('Ctrl Pts',(-1.94165269618194,9.19747523172094,2.05676385534368));
#303=CARTESIAN_POINT('Ctrl Pts',(-1.88077923166473,9.21014609529613,2.09269791190753));
#304=CARTESIAN_POINT('Ctrl Pts',(-1.64116183396661,9.25737532048399,2.21915173385606));
#305=CARTESIAN_POINT('Ctrl Pts',(-1.44821000288504,9.29000422697524,2.29139587841106));
#306=CARTESIAN_POINT('Ctrl Pts',(-0.842491374646055,9.37102983965607,2.45982555356047));
#307=CARTESIAN_POINT('Ctrl Pts',(-0.404796343885397,9.4,2.50611194172139));
#308=CARTESIAN_POINT('Ctrl Pts',(0.404796343885397,9.4,2.50611194172139));
#309=CARTESIAN_POINT('Ctrl Pts',(0.842491374646055,9.37102983965607,2.45982555356047));
#310=CARTESIAN_POINT('Ctrl Pts',(1.44821000288504,9.29000422697524,2.29139587841106));
#311=CARTESIAN_POINT('Ctrl Pts',(1.64116183396661,9.25737532048399,2.21915173385606));
#312=CARTESIAN_POINT('Ctrl Pts',(1.88077923166473,9.21014609529613,2.09269791190753));
#313=CARTESIAN_POINT('Ctrl Pts',(1.94165269618194,9.19747523172094,2.05676385534368));
#314=CARTESIAN_POINT('Ctrl Pts',(2.,9.18477000256403,2.01766236826478));
#315=CARTESIAN_POINT('',(-2.,11.4185760300003,3.83333333333334));
#316=CARTESIAN_POINT('Origin',(-2.,11.7052543948265,1.1986824730628));
#317=CARTESIAN_POINT('',(2.,11.4185760300003,3.83333333333334));
#318=CARTESIAN_POINT('',(0.,11.4185760300003,3.83333333333334));
#319=CARTESIAN_POINT('Origin',(2.,11.7052543948265,1.1986824730628));
#320=CARTESIAN_POINT('Origin',(-2.,13.9,6.5));
#321=CARTESIAN_POINT('',(-2.,9.18477000256403,10.9823376317352));
#322=CARTESIAN_POINT('',(-2.,9.18477000256403,0.));
#323=CARTESIAN_POINT('',(-2.,11.4185760300003,9.16666666666667));
#324=CARTESIAN_POINT('Origin',(-2.,11.7052543948265,11.8013175269372));
#325=CARTESIAN_POINT('Origin',(-2.,14.4,6.5));
#326=CARTESIAN_POINT('Origin',(0.,14.4,6.5));
#327=CARTESIAN_POINT('',(2.,11.4185760300003,9.16666666666667));
#328=CARTESIAN_POINT('',(0.,11.4185760300003,9.16666666666667));
#329=CARTESIAN_POINT('Origin',(2.,14.4,6.5));
#330=CARTESIAN_POINT('Origin',(0.,11.7052543948265,11.8013175269372));
#331=CARTESIAN_POINT('',(2.,9.18477000256403,10.9823376317352));
#332=CARTESIAN_POINT('Ctrl Pts',(2.,9.18477000256403,10.9823376317352));
#333=CARTESIAN_POINT('Ctrl Pts',(1.94165269618194,9.19747523172094,10.9432361446563));
#334=CARTESIAN_POINT('Ctrl Pts',(1.88077923166473,9.21014609529613,10.9073020880925));
#335=CARTESIAN_POINT('Ctrl Pts',(1.64116183396661,9.25737532048398,10.7808482661439));
#336=CARTESIAN_POINT('Ctrl Pts',(1.44821000288504,9.29000422697524,10.7086041215889));
#337=CARTESIAN_POINT('Ctrl Pts',(0.842491374646055,9.37102983965607,10.5401744464395));
#338=CARTESIAN_POINT('Ctrl Pts',(0.404796343885397,9.4,10.4938880582786));
#339=CARTESIAN_POINT('Ctrl Pts',(0.,9.4,10.4938880582786));
#340=CARTESIAN_POINT('Ctrl Pts',(-0.404796343885397,9.4,10.4938880582786));
#341=CARTESIAN_POINT('Ctrl Pts',(-0.842491374646055,9.37102983965607,10.5401744464395));
#342=CARTESIAN_POINT('Ctrl Pts',(-1.44821000288504,9.29000422697524,10.7086041215889));
#343=CARTESIAN_POINT('Ctrl Pts',(-1.64116183396661,9.25737532048399,10.7808482661439));
#344=CARTESIAN_POINT('Ctrl Pts',(-1.88077923166473,9.21014609529613,10.9073020880925));
#345=CARTESIAN_POINT('Ctrl Pts',(-1.94165269618194,9.19747523172094,10.9432361446563));
#346=CARTESIAN_POINT('Ctrl Pts',(-2.,9.18477000256403,10.9823376317352));
#347=CARTESIAN_POINT('Origin',(2.,11.7052543948265,11.8013175269372));
#348=CARTESIAN_POINT('Origin',(2.,13.9,6.5));
#349=CARTESIAN_POINT('',(2.,9.18477000256403,0.));
#350=CARTESIAN_POINT('Origin',(0.,0.,0.));
#351=CARTESIAN_POINT('',(7.9,9.67470971326409E-16,13.));
#352=CARTESIAN_POINT('Origin',(0.,0.,13.));
#353=CARTESIAN_POINT('',(7.9,9.67470971326409E-16,0.));
#354=CARTESIAN_POINT('',(7.9,9.67470971326409E-16,0.));
#355=CARTESIAN_POINT('Origin',(0.,0.,0.));
#356=CARTESIAN_POINT('Origin',(0.,0.,0.));
#357=CARTESIAN_POINT('',(9.4,0.,13.));
#358=CARTESIAN_POINT('',(-9.4,-1.15116799119851E-15,13.));
#359=CARTESIAN_POINT('Origin',(0.,0.,13.));
#360=CARTESIAN_POINT('Origin',(0.,0.,13.));
#361=CARTESIAN_POINT('',(-9.4,-1.15116799119851E-15,0.));
#362=CARTESIAN_POINT('',(-9.4,-1.15116799119851E-15,0.));
#363=CARTESIAN_POINT('',(9.4,0.,0.));
#364=CARTESIAN_POINT('Origin',(0.,0.,0.));
#365=CARTESIAN_POINT('Origin',(0.,0.,0.));
#366=CARTESIAN_POINT('Origin',(0.,0.,13.));
#367=CARTESIAN_POINT('Origin',(0.,0.,0.));
#368=UNCERTAINTY_MEASURE_WITH_UNIT(LENGTH_MEASURE(0.01),#372,
'DISTANCE_ACCURACY_VALUE',
'Maximum model space distance between geometric entities at asserted c
onnectivities');
#369=UNCERTAINTY_MEASURE_WITH_UNIT(LENGTH_MEASURE(0.01),#372,
'DISTANCE_ACCURACY_VALUE',
'Maximum model space distance between geometric entities at asserted c
onnectivities');
#370=(
GEOMETRIC_REPRESENTATION_CONTEXT(3)
GLOBAL_UNCERTAINTY_ASSIGNED_CONTEXT((#368))
GLOBAL_UNIT_ASSIGNED_CONTEXT((#372,#374,#375))
REPRESENTATION_CONTEXT('','3D')
);
#371=(
GEOMETRIC_REPRESENTATION_CONTEXT(3)
GLOBAL_UNCERTAINTY_ASSIGNED_CONTEXT((#369))
GLOBAL_UNIT_ASSIGNED_CONTEXT((#372,#374,#375))
REPRESENTATION_CONTEXT('','3D')
);
#372=(
LENGTH_UNIT()
NAMED_UNIT(*)
SI_UNIT(.MILLI.,.METRE.)
);
#373=(
LENGTH_UNIT()
NAMED_UNIT(*)
SI_UNIT(.CENTI.,.METRE.)
);
#374=(
NAMED_UNIT(*)
PLANE_ANGLE_UNIT()
SI_UNIT($,.RADIAN.)
);
#375=(
NAMED_UNIT(*)
SI_UNIT($,.STERADIAN.)
SOLID_ANGLE_UNIT()
);
#376=SHAPE_DEFINITION_REPRESENTATION(#377,#378);
#377=PRODUCT_DEFINITION_SHAPE('',$,#380);
#378=SHAPE_REPRESENTATION('',(#204),#370);
#379=PRODUCT_DEFINITION_CONTEXT('part definition',#384,'design');
#380=PRODUCT_DEFINITION('Little_FingerV2D2','Little_FingerV2D2',#381,#379);
#381=PRODUCT_DEFINITION_FORMATION('',$,#386);
#382=PRODUCT_RELATED_PRODUCT_CATEGORY('Little_FingerV2D2',
'Little_FingerV2D2',(#386));
#383=APPLICATION_PROTOCOL_DEFINITION('international standard',
'automotive_design',2009,#384);
#384=APPLICATION_CONTEXT(
'Core Data for Automotive Mechanical Design Process');
#385=PRODUCT_CONTEXT('part definition',#384,'mechanical');
#386=PRODUCT('Little_FingerV2D2','Little_FingerV2D2',$,(#385));
#387=PRESENTATION_STYLE_ASSIGNMENT((#388));
#388=SURFACE_STYLE_USAGE(.BOTH.,#391);
#389=SURFACE_STYLE_RENDERING_WITH_PROPERTIES($,#395,(#390));
#390=SURFACE_STYLE_TRANSPARENT(0.);
#391=SURFACE_SIDE_STYLE('',(#392,#389));
#392=SURFACE_STYLE_FILL_AREA(#393);
#393=FILL_AREA_STYLE('',(#394));
#394=FILL_AREA_STYLE_COLOUR('',#395);
#395=COLOUR_RGB('',0.749019607843137,0.749019607843137,0.749019607843137);
ENDSEC;
END-ISO-10303-21;
