ISO-10303-21;
HEADER;
/* Generated by software containing ST-Developer
 * from STEP Tools, Inc. (www.steptools.com) 
 */

FILE_DESCRIPTION(
/* description */ (''),
/* implementation_level */ '2;1');

FILE_NAME(
/* name */ 
'C:\\Users\\svale\\OneDrive\\Upwork\\Controller\\Hand\\Little_Finger_B
allV1D2.ipt.stp',
/* time_stamp */ '2021-06-20T10:01:53-05:00',
/* author */ ('svale'),
/* organization */ (''),
/* preprocessor_version */ 'ST-DEVELOPER v18.1',
/* originating_system */ 'Autodesk Inventor 2021',
/* authorisation */ '');

FILE_SCHEMA (('AUTOMOTIVE_DESIGN { 1 0 10303 214 3 1 1 }'));
ENDSEC;

DATA;
#10=MECHANICAL_DESIGN_GEOMETRIC_PRESENTATION_REPRESENTATION('',(#19,#20,
#21,#22,#23),#518);
#11=GEOMETRICALLY_BOUNDED_WIREFRAME_SHAPE_REPRESENTATION('',(#12),#517);
#12=GEOMETRIC_CURVE_SET('Boceto4',(#17,#18,#118,#16));
#13=SHAPE_REPRESENTATION_RELATIONSHIP('SRR','None',#525,#15);
#14=SHAPE_REPRESENTATION_RELATIONSHIP('SRR','None',#525,#11);
#15=ADVANCED_BREP_SHAPE_REPRESENTATION('',(#24),#517);
#16=POLYLINE('',(#513,#514));
#17=TRIMMED_CURVE('',#116,(#507,PARAMETER_VALUE(5.29530359657316)),(#508,
PARAMETER_VALUE(10.4126596713758)),.T.,.PARAMETER.);
#18=TRIMMED_CURVE('',#117,(#510,PARAMETER_VALUE(1.5707963267949)),(#511,
PARAMETER_VALUE(4.71238898038469)),.T.,.PARAMETER.);
#19=STYLED_ITEM('',(#534),#24);
#20=STYLED_ITEM('',(#535),#17);
#21=STYLED_ITEM('',(#536),#18);
#22=STYLED_ITEM('',(#535),#118);
#23=STYLED_ITEM('',(#536),#16);
#24=MANIFOLD_SOLID_BREP('S\X\F3lido1',#256);
#25=PLANE('',#287);
#26=PLANE('',#289);
#27=PLANE('',#290);
#28=PLANE('',#291);
#29=PLANE('',#292);
#30=PLANE('',#295);
#31=PLANE('',#304);
#32=PLANE('',#305);
#33=LINE('',#431,#45);
#34=LINE('',#451,#46);
#35=LINE('',#454,#47);
#36=LINE('',#457,#48);
#37=LINE('',#458,#49);
#38=LINE('',#460,#50);
#39=LINE('',#464,#51);
#40=LINE('',#465,#52);
#41=LINE('',#467,#53);
#42=LINE('',#469,#54);
#43=LINE('',#492,#55);
#44=LINE('',#500,#56);
#45=VECTOR('',#329,10.);
#46=VECTOR('',#334,10.);
#47=VECTOR('',#337,10.);
#48=VECTOR('',#340,10.);
#49=VECTOR('',#341,10.);
#50=VECTOR('',#344,10.);
#51=VECTOR('',#349,10.);
#52=VECTOR('',#350,10.);
#53=VECTOR('',#353,10.);
#54=VECTOR('',#354,10.);
#55=VECTOR('',#365,7.9);
#56=VECTOR('',#374,9.4);
#57=CYLINDRICAL_SURFACE('',#284,2.65020181125584);
#58=CYLINDRICAL_SURFACE('',#294,2.65020181125584);
#59=CYLINDRICAL_SURFACE('',#296,7.9);
#60=CYLINDRICAL_SURFACE('',#299,9.4);
#61=FACE_BOUND('',#83,.T.);
#62=FACE_BOUND('',#94,.T.);
#63=FACE_BOUND('',#96,.T.);
#64=FACE_BOUND('',#98,.T.);
#65=B_SPLINE_CURVE_WITH_KNOTS('',3,(#396,#397,#398,#399,#400,#401,#402,
#403,#404,#405,#406),.UNSPECIFIED.,.F.,.F.,(4,2,3,2,4),(-0.168016937923156,
-0.14578373019612,0.,0.14578373019612,0.168016937955403),.UNSPECIFIED.);
#66=B_SPLINE_CURVE_WITH_KNOTS('',3,(#414,#415,#416,#417,#418,#419,#420,
#421,#422,#423),.UNSPECIFIED.,.F.,.F.,(4,2,2,2,4),(0.611261010059349,0.633494217818632,
0.779277948014752,0.925061678210873,0.947294885970155),.UNSPECIFIED.);
#67=B_SPLINE_CURVE_WITH_KNOTS('',3,(#435,#436,#437,#438,#439,#440,#441,
#442,#443,#444,#445,#446,#447,#448),.UNSPECIFIED.,.F.,.F.,(4,2,2,2,2,2,
4),(0.398113980862521,0.421684153970108,0.481884941589487,0.602286516828245,
0.722688092067004,0.782888879686383,0.806459052793969),.UNSPECIFIED.);
#68=B_SPLINE_CURVE_WITH_KNOTS('',3,(#472,#473,#474,#475,#476,#477,#478,
#479,#480,#481,#482,#483,#484,#485,#486),.UNSPECIFIED.,.F.,.F.,(4,2,2,3,
2,2,4),(-0.204172535965724,-0.180602362858137,-0.120401575238758,0.,0.120401575238758,
0.180602362858137,0.204172535965724),.UNSPECIFIED.);
#69=FACE_OUTER_BOUND('',#82,.T.);
#70=FACE_OUTER_BOUND('',#84,.T.);
#71=FACE_OUTER_BOUND('',#85,.T.);
#72=FACE_OUTER_BOUND('',#86,.T.);
#73=FACE_OUTER_BOUND('',#87,.T.);
#74=FACE_OUTER_BOUND('',#88,.T.);
#75=FACE_OUTER_BOUND('',#89,.T.);
#76=FACE_OUTER_BOUND('',#90,.T.);
#77=FACE_OUTER_BOUND('',#91,.T.);
#78=FACE_OUTER_BOUND('',#92,.T.);
#79=FACE_OUTER_BOUND('',#93,.T.);
#80=FACE_OUTER_BOUND('',#95,.T.);
#81=FACE_OUTER_BOUND('',#97,.T.);
#82=EDGE_LOOP('',(#176,#177));
#83=EDGE_LOOP('',(#178,#179,#180,#181,#182,#183,#184,#185));
#84=EDGE_LOOP('',(#186,#187,#188,#189,#190,#191));
#85=EDGE_LOOP('',(#192,#193,#194,#195,#196,#197));
#86=EDGE_LOOP('',(#198,#199,#200));
#87=EDGE_LOOP('',(#201,#202,#203));
#88=EDGE_LOOP('',(#204,#205,#206));
#89=EDGE_LOOP('',(#207,#208,#209,#210,#211,#212));
#90=EDGE_LOOP('',(#213,#214,#215,#216,#217,#218));
#91=EDGE_LOOP('',(#219,#220,#221));
#92=EDGE_LOOP('',(#222,#223,#224,#225));
#93=EDGE_LOOP('',(#226,#227,#228,#229,#230,#231));
#94=EDGE_LOOP('',(#232,#233,#234,#235));
#95=EDGE_LOOP('',(#236,#237));
#96=EDGE_LOOP('',(#238));
#97=EDGE_LOOP('',(#239,#240));
#98=EDGE_LOOP('',(#241));
#99=CIRCLE('',#277,4.);
#100=CIRCLE('',#278,2.60747579521644);
#101=CIRCLE('',#279,3.46410161513776);
#102=CIRCLE('',#280,2.60747579521644);
#103=CIRCLE('',#281,2.60747579521644);
#104=CIRCLE('',#282,3.46410161513776);
#105=CIRCLE('',#283,2.60747579521644);
#106=CIRCLE('',#285,2.65020181125584);
#107=CIRCLE('',#286,2.65020181125584);
#108=CIRCLE('',#288,2.65020181125584);
#109=CIRCLE('',#293,2.65020181125584);
#110=CIRCLE('',#297,7.9);
#111=CIRCLE('',#298,7.9);
#112=CIRCLE('',#300,9.4);
#113=CIRCLE('',#301,9.4);
#114=CIRCLE('',#302,9.4);
#115=CIRCLE('',#303,9.4);
#116=CIRCLE('',#306,4.);
#117=CIRCLE('',#307,4.);
#118=CIRCLE('',#308,1.0564303);
#119=VERTEX_POINT('',#391);
#120=VERTEX_POINT('',#392);
#121=VERTEX_POINT('',#394);
#122=VERTEX_POINT('',#395);
#123=VERTEX_POINT('',#407);
#124=VERTEX_POINT('',#409);
#125=VERTEX_POINT('',#411);
#126=VERTEX_POINT('',#413);
#127=VERTEX_POINT('',#424);
#128=VERTEX_POINT('',#426);
#129=VERTEX_POINT('',#430);
#130=VERTEX_POINT('',#432);
#131=VERTEX_POINT('',#434);
#132=VERTEX_POINT('',#449);
#133=VERTEX_POINT('',#453);
#134=VERTEX_POINT('',#455);
#135=VERTEX_POINT('',#463);
#136=VERTEX_POINT('',#468);
#137=VERTEX_POINT('',#489);
#138=VERTEX_POINT('',#491);
#139=VERTEX_POINT('',#495);
#140=VERTEX_POINT('',#496);
#141=VERTEX_POINT('',#499);
#142=VERTEX_POINT('',#501);
#143=EDGE_CURVE('',#119,#120,#99,.T.);
#144=EDGE_CURVE('',#121,#122,#65,.T.);
#145=EDGE_CURVE('',#123,#121,#100,.T.);
#146=EDGE_CURVE('',#124,#123,#101,.T.);
#147=EDGE_CURVE('',#125,#124,#102,.T.);
#148=EDGE_CURVE('',#126,#125,#66,.T.);
#149=EDGE_CURVE('',#127,#126,#103,.T.);
#150=EDGE_CURVE('',#128,#127,#104,.T.);
#151=EDGE_CURVE('',#122,#128,#105,.T.);
#152=EDGE_CURVE('',#125,#129,#33,.T.);
#153=EDGE_CURVE('',#130,#129,#106,.T.);
#154=EDGE_CURVE('',#131,#130,#67,.T.);
#155=EDGE_CURVE('',#132,#131,#107,.T.);
#156=EDGE_CURVE('',#132,#126,#34,.T.);
#157=EDGE_CURVE('',#123,#133,#35,.T.);
#158=EDGE_CURVE('',#133,#134,#108,.T.);
#159=EDGE_CURVE('',#130,#134,#36,.T.);
#160=EDGE_CURVE('',#129,#124,#37,.T.);
#161=EDGE_CURVE('',#121,#133,#38,.T.);
#162=EDGE_CURVE('',#135,#128,#39,.T.);
#163=EDGE_CURVE('',#135,#122,#40,.T.);
#164=EDGE_CURVE('',#127,#132,#41,.T.);
#165=EDGE_CURVE('',#136,#131,#42,.T.);
#166=EDGE_CURVE('',#136,#135,#109,.T.);
#167=EDGE_CURVE('',#134,#136,#68,.T.);
#168=EDGE_CURVE('',#137,#137,#110,.T.);
#169=EDGE_CURVE('',#137,#138,#43,.T.);
#170=EDGE_CURVE('',#138,#138,#111,.T.);
#171=EDGE_CURVE('',#139,#140,#112,.T.);
#172=EDGE_CURVE('',#140,#139,#113,.T.);
#173=EDGE_CURVE('',#140,#141,#44,.T.);
#174=EDGE_CURVE('',#141,#142,#114,.T.);
#175=EDGE_CURVE('',#142,#141,#115,.T.);
#176=ORIENTED_EDGE('',*,*,#143,.T.);
#177=ORIENTED_EDGE('',*,*,#143,.F.);
#178=ORIENTED_EDGE('',*,*,#144,.F.);
#179=ORIENTED_EDGE('',*,*,#145,.F.);
#180=ORIENTED_EDGE('',*,*,#146,.F.);
#181=ORIENTED_EDGE('',*,*,#147,.F.);
#182=ORIENTED_EDGE('',*,*,#148,.F.);
#183=ORIENTED_EDGE('',*,*,#149,.F.);
#184=ORIENTED_EDGE('',*,*,#150,.F.);
#185=ORIENTED_EDGE('',*,*,#151,.F.);
#186=ORIENTED_EDGE('',*,*,#148,.T.);
#187=ORIENTED_EDGE('',*,*,#152,.T.);
#188=ORIENTED_EDGE('',*,*,#153,.F.);
#189=ORIENTED_EDGE('',*,*,#154,.F.);
#190=ORIENTED_EDGE('',*,*,#155,.F.);
#191=ORIENTED_EDGE('',*,*,#156,.T.);
#192=ORIENTED_EDGE('',*,*,#146,.T.);
#193=ORIENTED_EDGE('',*,*,#157,.T.);
#194=ORIENTED_EDGE('',*,*,#158,.T.);
#195=ORIENTED_EDGE('',*,*,#159,.F.);
#196=ORIENTED_EDGE('',*,*,#153,.T.);
#197=ORIENTED_EDGE('',*,*,#160,.T.);
#198=ORIENTED_EDGE('',*,*,#145,.T.);
#199=ORIENTED_EDGE('',*,*,#161,.T.);
#200=ORIENTED_EDGE('',*,*,#157,.F.);
#201=ORIENTED_EDGE('',*,*,#147,.T.);
#202=ORIENTED_EDGE('',*,*,#160,.F.);
#203=ORIENTED_EDGE('',*,*,#152,.F.);
#204=ORIENTED_EDGE('',*,*,#151,.T.);
#205=ORIENTED_EDGE('',*,*,#162,.F.);
#206=ORIENTED_EDGE('',*,*,#163,.T.);
#207=ORIENTED_EDGE('',*,*,#150,.T.);
#208=ORIENTED_EDGE('',*,*,#164,.T.);
#209=ORIENTED_EDGE('',*,*,#155,.T.);
#210=ORIENTED_EDGE('',*,*,#165,.F.);
#211=ORIENTED_EDGE('',*,*,#166,.T.);
#212=ORIENTED_EDGE('',*,*,#162,.T.);
#213=ORIENTED_EDGE('',*,*,#144,.T.);
#214=ORIENTED_EDGE('',*,*,#163,.F.);
#215=ORIENTED_EDGE('',*,*,#166,.F.);
#216=ORIENTED_EDGE('',*,*,#167,.F.);
#217=ORIENTED_EDGE('',*,*,#158,.F.);
#218=ORIENTED_EDGE('',*,*,#161,.F.);
#219=ORIENTED_EDGE('',*,*,#149,.T.);
#220=ORIENTED_EDGE('',*,*,#156,.F.);
#221=ORIENTED_EDGE('',*,*,#164,.F.);
#222=ORIENTED_EDGE('',*,*,#168,.F.);
#223=ORIENTED_EDGE('',*,*,#169,.T.);
#224=ORIENTED_EDGE('',*,*,#170,.T.);
#225=ORIENTED_EDGE('',*,*,#169,.F.);
#226=ORIENTED_EDGE('',*,*,#171,.F.);
#227=ORIENTED_EDGE('',*,*,#172,.F.);
#228=ORIENTED_EDGE('',*,*,#173,.T.);
#229=ORIENTED_EDGE('',*,*,#174,.T.);
#230=ORIENTED_EDGE('',*,*,#175,.T.);
#231=ORIENTED_EDGE('',*,*,#173,.F.);
#232=ORIENTED_EDGE('',*,*,#165,.T.);
#233=ORIENTED_EDGE('',*,*,#154,.T.);
#234=ORIENTED_EDGE('',*,*,#159,.T.);
#235=ORIENTED_EDGE('',*,*,#167,.T.);
#236=ORIENTED_EDGE('',*,*,#171,.T.);
#237=ORIENTED_EDGE('',*,*,#172,.T.);
#238=ORIENTED_EDGE('',*,*,#168,.T.);
#239=ORIENTED_EDGE('',*,*,#175,.F.);
#240=ORIENTED_EDGE('',*,*,#174,.F.);
#241=ORIENTED_EDGE('',*,*,#170,.F.);
#242=SPHERICAL_SURFACE('',#276,4.);
#243=ADVANCED_FACE('',(#69,#61),#242,.T.);
#244=ADVANCED_FACE('',(#70),#57,.F.);
#245=ADVANCED_FACE('',(#71),#25,.T.);
#246=ADVANCED_FACE('',(#72),#26,.T.);
#247=ADVANCED_FACE('',(#73),#27,.T.);
#248=ADVANCED_FACE('',(#74),#28,.T.);
#249=ADVANCED_FACE('',(#75),#29,.F.);
#250=ADVANCED_FACE('',(#76),#58,.F.);
#251=ADVANCED_FACE('',(#77),#30,.T.);
#252=ADVANCED_FACE('',(#78),#59,.F.);
#253=ADVANCED_FACE('',(#79,#62),#60,.T.);
#254=ADVANCED_FACE('',(#80,#63),#31,.T.);
#255=ADVANCED_FACE('',(#81,#64),#32,.F.);
#256=CLOSED_SHELL('',(#243,#244,#245,#246,#247,#248,#249,#250,#251,#252,
#253,#254,#255));
#257=DERIVED_UNIT_ELEMENT(#259,1.);
#258=DERIVED_UNIT_ELEMENT(#520,3.);
#259=(
MASS_UNIT()
NAMED_UNIT(*)
SI_UNIT($,.GRAM.)
);
#260=DERIVED_UNIT((#257,#258));
#261=MEASURE_REPRESENTATION_ITEM('density measure',
POSITIVE_RATIO_MEASURE(1.),#260);
#262=PROPERTY_DEFINITION_REPRESENTATION(#267,#264);
#263=PROPERTY_DEFINITION_REPRESENTATION(#268,#265);
#264=REPRESENTATION('material name',(#266),#517);
#265=REPRESENTATION('density',(#261),#517);
#266=DESCRIPTIVE_REPRESENTATION_ITEM('Gen\X\E9rico','Gen\X\E9rico');
#267=PROPERTY_DEFINITION('material property','material name',#527);
#268=PROPERTY_DEFINITION('material property','density of part',#527);
#269=DATE_TIME_ROLE('creation_date');
#270=APPLIED_DATE_AND_TIME_ASSIGNMENT(#271,#269,(#527));
#271=DATE_AND_TIME(#272,#273);
#272=CALENDAR_DATE(2021,2,5);
#273=LOCAL_TIME(0,0,0.,#274);
#274=COORDINATED_UNIVERSAL_TIME_OFFSET(0,0,.BEHIND.);
#275=AXIS2_PLACEMENT_3D('placement',#389,#309,#310);
#276=AXIS2_PLACEMENT_3D('',#390,#311,#312);
#277=AXIS2_PLACEMENT_3D('',#393,#313,#314);
#278=AXIS2_PLACEMENT_3D('',#408,#315,#316);
#279=AXIS2_PLACEMENT_3D('',#410,#317,#318);
#280=AXIS2_PLACEMENT_3D('',#412,#319,#320);
#281=AXIS2_PLACEMENT_3D('',#425,#321,#322);
#282=AXIS2_PLACEMENT_3D('',#427,#323,#324);
#283=AXIS2_PLACEMENT_3D('',#428,#325,#326);
#284=AXIS2_PLACEMENT_3D('',#429,#327,#328);
#285=AXIS2_PLACEMENT_3D('',#433,#330,#331);
#286=AXIS2_PLACEMENT_3D('',#450,#332,#333);
#287=AXIS2_PLACEMENT_3D('',#452,#335,#336);
#288=AXIS2_PLACEMENT_3D('',#456,#338,#339);
#289=AXIS2_PLACEMENT_3D('',#459,#342,#343);
#290=AXIS2_PLACEMENT_3D('',#461,#345,#346);
#291=AXIS2_PLACEMENT_3D('',#462,#347,#348);
#292=AXIS2_PLACEMENT_3D('',#466,#351,#352);
#293=AXIS2_PLACEMENT_3D('',#470,#355,#356);
#294=AXIS2_PLACEMENT_3D('',#471,#357,#358);
#295=AXIS2_PLACEMENT_3D('',#487,#359,#360);
#296=AXIS2_PLACEMENT_3D('',#488,#361,#362);
#297=AXIS2_PLACEMENT_3D('',#490,#363,#364);
#298=AXIS2_PLACEMENT_3D('',#493,#366,#367);
#299=AXIS2_PLACEMENT_3D('',#494,#368,#369);
#300=AXIS2_PLACEMENT_3D('',#497,#370,#371);
#301=AXIS2_PLACEMENT_3D('',#498,#372,#373);
#302=AXIS2_PLACEMENT_3D('',#502,#375,#376);
#303=AXIS2_PLACEMENT_3D('',#503,#377,#378);
#304=AXIS2_PLACEMENT_3D('',#504,#379,#380);
#305=AXIS2_PLACEMENT_3D('',#505,#381,#382);
#306=AXIS2_PLACEMENT_3D('',#506,#383,#384);
#307=AXIS2_PLACEMENT_3D('',#509,#385,#386);
#308=AXIS2_PLACEMENT_3D('',#512,#387,#388);
#309=DIRECTION('axis',(0.,0.,1.));
#310=DIRECTION('refdir',(1.,0.,0.));
#311=DIRECTION('center_axis',(1.,0.,0.));
#312=DIRECTION('ref_axis',(0.,-1.,0.));
#313=DIRECTION('center_axis',(0.,0.,1.));
#314=DIRECTION('ref_axis',(0.,1.,0.));
#315=DIRECTION('center_axis',(0.,-1.,0.));
#316=DIRECTION('ref_axis',(0.,0.,-1.));
#317=DIRECTION('center_axis',(-1.,0.,0.));
#318=DIRECTION('ref_axis',(0.,0.,1.));
#319=DIRECTION('center_axis',(0.,-1.,0.));
#320=DIRECTION('ref_axis',(0.,0.,-1.));
#321=DIRECTION('center_axis',(0.,-1.,0.));
#322=DIRECTION('ref_axis',(0.,0.,-1.));
#323=DIRECTION('center_axis',(1.,0.,0.));
#324=DIRECTION('ref_axis',(0.,0.,-1.));
#325=DIRECTION('center_axis',(0.,-1.,0.));
#326=DIRECTION('ref_axis',(0.,0.,-1.));
#327=DIRECTION('center_axis',(1.,0.,0.));
#328=DIRECTION('ref_axis',(0.,0.129981500556463,-0.991516419184821));
#329=DIRECTION('',(1.,0.,0.));
#330=DIRECTION('center_axis',(-1.,0.,0.));
#331=DIRECTION('ref_axis',(0.,0.129981500556463,-0.991516419184821));
#332=DIRECTION('center_axis',(1.,0.,0.));
#333=DIRECTION('ref_axis',(0.,0.129981500556463,-0.991516419184821));
#334=DIRECTION('',(1.,0.,0.));
#335=DIRECTION('center_axis',(1.,0.,0.));
#336=DIRECTION('ref_axis',(0.,0.,-1.));
#337=DIRECTION('',(0.,0.,1.));
#338=DIRECTION('center_axis',(-1.,0.,0.));
#339=DIRECTION('ref_axis',(0.,0.997082117325,0.0763364350143174));
#340=DIRECTION('',(0.,0.,1.));
#341=DIRECTION('',(0.,0.,1.));
#342=DIRECTION('center_axis',(0.,1.,0.));
#343=DIRECTION('ref_axis',(0.,0.,1.));
#344=DIRECTION('',(1.,0.,0.));
#345=DIRECTION('center_axis',(0.,1.,0.));
#346=DIRECTION('ref_axis',(0.,0.,1.));
#347=DIRECTION('center_axis',(0.,1.,0.));
#348=DIRECTION('ref_axis',(0.,0.,1.));
#349=DIRECTION('',(0.,0.,-1.));
#350=DIRECTION('',(1.,0.,0.));
#351=DIRECTION('center_axis',(1.,0.,0.));
#352=DIRECTION('ref_axis',(0.,0.,-1.));
#353=DIRECTION('',(0.,0.,-1.));
#354=DIRECTION('',(0.,0.,-1.));
#355=DIRECTION('center_axis',(1.,0.,0.));
#356=DIRECTION('ref_axis',(0.,0.997082117325,0.0763364350143174));
#357=DIRECTION('center_axis',(1.,0.,0.));
#358=DIRECTION('ref_axis',(0.,0.997082117325,0.0763364350143174));
#359=DIRECTION('center_axis',(0.,1.,0.));
#360=DIRECTION('ref_axis',(0.,0.,1.));
#361=DIRECTION('center_axis',(0.,0.,1.));
#362=DIRECTION('ref_axis',(-1.,0.,0.));
#363=DIRECTION('center_axis',(0.,0.,-1.));
#364=DIRECTION('ref_axis',(-1.,0.,0.));
#365=DIRECTION('',(0.,0.,-1.));
#366=DIRECTION('center_axis',(0.,0.,-1.));
#367=DIRECTION('ref_axis',(-1.,0.,0.));
#368=DIRECTION('center_axis',(0.,0.,1.));
#369=DIRECTION('ref_axis',(1.,0.,0.));
#370=DIRECTION('center_axis',(0.,0.,1.));
#371=DIRECTION('ref_axis',(1.,0.,0.));
#372=DIRECTION('center_axis',(0.,0.,1.));
#373=DIRECTION('ref_axis',(1.,0.,0.));
#374=DIRECTION('',(0.,0.,-1.));
#375=DIRECTION('center_axis',(0.,0.,1.));
#376=DIRECTION('ref_axis',(1.,0.,0.));
#377=DIRECTION('center_axis',(0.,0.,1.));
#378=DIRECTION('ref_axis',(1.,0.,0.));
#379=DIRECTION('center_axis',(0.,0.,1.));
#380=DIRECTION('ref_axis',(1.,0.,0.));
#381=DIRECTION('center_axis',(0.,0.,1.));
#382=DIRECTION('ref_axis',(1.,0.,0.));
#383=DIRECTION('center_axis',(1.,0.,0.));
#384=DIRECTION('ref_axis',(0.,0.,-1.));
#385=DIRECTION('center_axis',(1.,0.,0.));
#386=DIRECTION('ref_axis',(0.,0.,-1.));
#387=DIRECTION('center_axis',(1.,0.,0.));
#388=DIRECTION('ref_axis',(0.,0.,-1.));
#389=CARTESIAN_POINT('',(0.,0.,0.));
#390=CARTESIAN_POINT('Origin',(0.,14.4,6.5));
#391=CARTESIAN_POINT('',(4.,14.4,6.5));
#392=CARTESIAN_POINT('',(-4.,14.4,6.5));
#393=CARTESIAN_POINT('Origin',(0.,14.4,6.5));
#394=CARTESIAN_POINT('',(1.67300030563046,11.3666734469628,8.5));
#395=CARTESIAN_POINT('',(-1.67300030563046,11.3666734469628,8.5));
#396=CARTESIAN_POINT('Ctrl Pts',(1.67300030563046,11.3666734469628,8.5));
#397=CARTESIAN_POINT('Ctrl Pts',(1.60518936458404,11.3322485497958,8.50451288521672));
#398=CARTESIAN_POINT('Ctrl Pts',(1.53588566953916,11.3001261666597,8.50940948450877));
#399=CARTESIAN_POINT('Ctrl Pts',(1.00279974504847,11.0749763073471,8.54739038315094));
#400=CARTESIAN_POINT('Ctrl Pts',(0.485945767320401,10.9830313546616,8.57950120864941));
#401=CARTESIAN_POINT('Ctrl Pts',(0.,10.9830313546616,8.57950120864941));
#402=CARTESIAN_POINT('Ctrl Pts',(-0.485945767320401,10.9830313546616,8.57950120864941));
#403=CARTESIAN_POINT('Ctrl Pts',(-1.00279974504847,11.0749763073471,8.54739038315094));
#404=CARTESIAN_POINT('Ctrl Pts',(-1.53588566964147,11.3001261667029,8.50940948450148));
#405=CARTESIAN_POINT('Ctrl Pts',(-1.6051893646398,11.3322485498241,8.50451288521301));
#406=CARTESIAN_POINT('Ctrl Pts',(-1.67300030563046,11.3666734469628,8.5));
#407=CARTESIAN_POINT('',(2.,11.3666734469628,8.17300030563046));
#408=CARTESIAN_POINT('Origin',(0.,11.3666734469628,6.5));
#409=CARTESIAN_POINT('',(2.,11.3666734469628,4.82699969436954));
#410=CARTESIAN_POINT('Origin',(2.,14.4,6.5));
#411=CARTESIAN_POINT('',(1.67300030563046,11.3666734469628,4.5));
#412=CARTESIAN_POINT('Origin',(0.,11.3666734469628,6.5));
#413=CARTESIAN_POINT('',(-1.67300030563046,11.3666734469628,4.5));
#414=CARTESIAN_POINT('Ctrl Pts',(-1.67300030563046,11.3666734469628,4.5));
#415=CARTESIAN_POINT('Ctrl Pts',(-1.6051893646398,11.3322485498241,4.495487114787));
#416=CARTESIAN_POINT('Ctrl Pts',(-1.53588566964147,11.3001261667029,4.49059051549852));
#417=CARTESIAN_POINT('Ctrl Pts',(-1.00279974504847,11.0749763073471,4.45260961684906));
#418=CARTESIAN_POINT('Ctrl Pts',(-0.485945767320401,10.9830313546616,4.42049879135059));
#419=CARTESIAN_POINT('Ctrl Pts',(0.485945767320401,10.9830313546616,4.42049879135059));
#420=CARTESIAN_POINT('Ctrl Pts',(1.00279974504847,11.0749763073471,4.45260961684906));
#421=CARTESIAN_POINT('Ctrl Pts',(1.53588566964147,11.3001261667029,4.49059051549852));
#422=CARTESIAN_POINT('Ctrl Pts',(1.6051893646398,11.3322485498241,4.495487114787));
#423=CARTESIAN_POINT('Ctrl Pts',(1.67300030563046,11.3666734469628,4.5));
#424=CARTESIAN_POINT('',(-2.,11.3666734469628,4.82699969436954));
#425=CARTESIAN_POINT('Origin',(0.,11.3666734469628,6.5));
#426=CARTESIAN_POINT('',(-2.,11.3666734469628,8.17300030563046));
#427=CARTESIAN_POINT('Origin',(-2.,14.4,6.5));
#428=CARTESIAN_POINT('Origin',(0.,11.3666734469628,6.5));
#429=CARTESIAN_POINT('Origin',(0.,11.7111506551673,1.87228138998649));
#430=CARTESIAN_POINT('',(2.,11.3666734469628,4.5));
#431=CARTESIAN_POINT('',(0.,11.3666734469628,4.5));
#432=CARTESIAN_POINT('',(2.,9.18477000256403,2.67288768432567));
#433=CARTESIAN_POINT('Origin',(2.,11.7111506551673,1.87228138998649));
#434=CARTESIAN_POINT('',(-2.,9.18477000256403,2.67288768432567));
#435=CARTESIAN_POINT('Ctrl Pts',(-2.,9.18477000256403,2.67288768432567));
#436=CARTESIAN_POINT('Ctrl Pts',(-1.93702310784328,9.19848333281381,2.71616125395755));
#437=CARTESIAN_POINT('Ctrl Pts',(-1.87097533471445,9.21218395552361,2.75558563458513));
#438=CARTESIAN_POINT('Ctrl Pts',(-1.62724807103538,9.25980092838266,2.88429937047214));
#439=CARTESIAN_POINT('Ctrl Pts',(-1.43591711025031,9.29187403850713,2.956019179364));
#440=CARTESIAN_POINT('Ctrl Pts',(-0.835309581394883,9.37152128018101,3.12325885591162));
#441=CARTESIAN_POINT('Ctrl Pts',(-0.401338584129194,9.4,3.16925952762159));
#442=CARTESIAN_POINT('Ctrl Pts',(0.401338584129194,9.4,3.16925952762159));
#443=CARTESIAN_POINT('Ctrl Pts',(0.835309581394883,9.37152128018101,3.12325885591162));
#444=CARTESIAN_POINT('Ctrl Pts',(1.43591711025031,9.29187403850713,2.956019179364));
#445=CARTESIAN_POINT('Ctrl Pts',(1.62724807103538,9.25980092838266,2.88429937047214));
#446=CARTESIAN_POINT('Ctrl Pts',(1.87097533471445,9.21218395552361,2.75558563458513));
#447=CARTESIAN_POINT('Ctrl Pts',(1.93702310784328,9.19848333281381,2.71616125395755));
#448=CARTESIAN_POINT('Ctrl Pts',(2.,9.18477000256403,2.67288768432567));
#449=CARTESIAN_POINT('',(-2.,11.3666734469628,4.5));
#450=CARTESIAN_POINT('Origin',(-2.,11.7111506551673,1.87228138998649));
#451=CARTESIAN_POINT('',(0.,11.3666734469628,4.5));
#452=CARTESIAN_POINT('Origin',(2.,8.65,6.5));
#453=CARTESIAN_POINT('',(2.,11.3666734469628,8.5));
#454=CARTESIAN_POINT('',(2.,11.3666734469628,4.5));
#455=CARTESIAN_POINT('',(2.,9.18477000256403,10.3271123156743));
#456=CARTESIAN_POINT('Origin',(2.,11.7111506551673,11.1277186100135));
#457=CARTESIAN_POINT('',(2.,9.18477000256403,0.));
#458=CARTESIAN_POINT('',(2.,11.3666734469628,4.5));
#459=CARTESIAN_POINT('Origin',(0.,11.3666734469628,4.5));
#460=CARTESIAN_POINT('',(0.,11.3666734469628,8.5));
#461=CARTESIAN_POINT('Origin',(0.,11.3666734469628,4.5));
#462=CARTESIAN_POINT('Origin',(0.,11.3666734469628,4.5));
#463=CARTESIAN_POINT('',(-2.,11.3666734469628,8.5));
#464=CARTESIAN_POINT('',(-2.,11.3666734469628,4.5));
#465=CARTESIAN_POINT('',(0.,11.3666734469628,8.5));
#466=CARTESIAN_POINT('Origin',(-2.,8.65,6.5));
#467=CARTESIAN_POINT('',(-2.,11.3666734469628,4.5));
#468=CARTESIAN_POINT('',(-2.,9.18477000256403,10.3271123156743));
#469=CARTESIAN_POINT('',(-2.,9.18477000256403,0.));
#470=CARTESIAN_POINT('Origin',(-2.,11.7111506551673,11.1277186100135));
#471=CARTESIAN_POINT('Origin',(0.,11.7111506551673,11.1277186100135));
#472=CARTESIAN_POINT('Ctrl Pts',(2.,9.18477000256403,10.3271123156743));
#473=CARTESIAN_POINT('Ctrl Pts',(1.93702310784328,9.19848333281381,10.2838387460425));
#474=CARTESIAN_POINT('Ctrl Pts',(1.87097533471445,9.21218395552361,10.2444143654149));
#475=CARTESIAN_POINT('Ctrl Pts',(1.62724807103538,9.25980092838267,10.1157006295279));
#476=CARTESIAN_POINT('Ctrl Pts',(1.4359171102503,9.29187403850713,10.043980820636));
#477=CARTESIAN_POINT('Ctrl Pts',(0.835309581394881,9.37152128018101,9.87674114408838));
#478=CARTESIAN_POINT('Ctrl Pts',(0.401338584129192,9.4,9.83074047237841));
#479=CARTESIAN_POINT('Ctrl Pts',(0.,9.4,9.83074047237841));
#480=CARTESIAN_POINT('Ctrl Pts',(-0.401338584129193,9.4,9.83074047237841));
#481=CARTESIAN_POINT('Ctrl Pts',(-0.835309581394882,9.37152128018101,9.87674114408838));
#482=CARTESIAN_POINT('Ctrl Pts',(-1.4359171102503,9.29187403850713,10.043980820636));
#483=CARTESIAN_POINT('Ctrl Pts',(-1.62724807103538,9.25980092838267,10.1157006295279));
#484=CARTESIAN_POINT('Ctrl Pts',(-1.87097533471445,9.21218395552361,10.2444143654149));
#485=CARTESIAN_POINT('Ctrl Pts',(-1.93702310784328,9.19848333281381,10.2838387460425));
#486=CARTESIAN_POINT('Ctrl Pts',(-2.,9.18477000256403,10.3271123156743));
#487=CARTESIAN_POINT('Origin',(0.,11.3666734469628,4.5));
#488=CARTESIAN_POINT('Origin',(0.,0.,0.));
#489=CARTESIAN_POINT('',(7.9,9.67470971326409E-16,13.));
#490=CARTESIAN_POINT('Origin',(0.,0.,13.));
#491=CARTESIAN_POINT('',(7.9,9.67470971326409E-16,0.));
#492=CARTESIAN_POINT('',(7.9,9.67470971326409E-16,0.));
#493=CARTESIAN_POINT('Origin',(0.,0.,0.));
#494=CARTESIAN_POINT('Origin',(0.,0.,0.));
#495=CARTESIAN_POINT('',(9.4,0.,13.));
#496=CARTESIAN_POINT('',(-9.4,-1.15116799119851E-15,13.));
#497=CARTESIAN_POINT('Origin',(0.,0.,13.));
#498=CARTESIAN_POINT('Origin',(0.,0.,13.));
#499=CARTESIAN_POINT('',(-9.4,-1.15116799119851E-15,0.));
#500=CARTESIAN_POINT('',(-9.4,-1.15116799119851E-15,0.));
#501=CARTESIAN_POINT('',(9.4,0.,0.));
#502=CARTESIAN_POINT('Origin',(0.,0.,0.));
#503=CARTESIAN_POINT('Origin',(0.,0.,0.));
#504=CARTESIAN_POINT('Origin',(0.,0.,13.));
#505=CARTESIAN_POINT('Origin',(0.,0.,0.));
#506=CARTESIAN_POINT('Origin',(2.,14.4,6.5));
#507=CARTESIAN_POINT('',(2.,11.0605527205142,4.29816170722397));
#508=CARTESIAN_POINT('',(2.,11.0605527205142,8.70183829277604));
#509=CARTESIAN_POINT('Origin',(2.,14.4,6.5));
#510=CARTESIAN_POINT('',(2.,18.4,6.5));
#511=CARTESIAN_POINT('',(2.,10.4,6.5));
#512=CARTESIAN_POINT('Origin',(2.,14.4,6.5));
#513=CARTESIAN_POINT('polyline point',(2.,18.4,6.5));
#514=CARTESIAN_POINT('polyline point',(2.,10.4,6.5));
#515=UNCERTAINTY_MEASURE_WITH_UNIT(LENGTH_MEASURE(0.01),#519,
'DISTANCE_ACCURACY_VALUE',
'Maximum model space distance between geometric entities at asserted c
onnectivities');
#516=UNCERTAINTY_MEASURE_WITH_UNIT(LENGTH_MEASURE(0.01),#519,
'DISTANCE_ACCURACY_VALUE',
'Maximum model space distance between geometric entities at asserted c
onnectivities');
#517=(
GEOMETRIC_REPRESENTATION_CONTEXT(3)
GLOBAL_UNCERTAINTY_ASSIGNED_CONTEXT((#515))
GLOBAL_UNIT_ASSIGNED_CONTEXT((#519,#521,#522))
REPRESENTATION_CONTEXT('','3D')
);
#518=(
GEOMETRIC_REPRESENTATION_CONTEXT(3)
GLOBAL_UNCERTAINTY_ASSIGNED_CONTEXT((#516))
GLOBAL_UNIT_ASSIGNED_CONTEXT((#519,#521,#522))
REPRESENTATION_CONTEXT('','3D')
);
#519=(
LENGTH_UNIT()
NAMED_UNIT(*)
SI_UNIT(.MILLI.,.METRE.)
);
#520=(
LENGTH_UNIT()
NAMED_UNIT(*)
SI_UNIT(.CENTI.,.METRE.)
);
#521=(
NAMED_UNIT(*)
PLANE_ANGLE_UNIT()
SI_UNIT($,.RADIAN.)
);
#522=(
NAMED_UNIT(*)
SI_UNIT($,.STERADIAN.)
SOLID_ANGLE_UNIT()
);
#523=SHAPE_DEFINITION_REPRESENTATION(#524,#525);
#524=PRODUCT_DEFINITION_SHAPE('',$,#527);
#525=SHAPE_REPRESENTATION('',(#275),#517);
#526=PRODUCT_DEFINITION_CONTEXT('part definition',#531,'design');
#527=PRODUCT_DEFINITION('Little_Finger_BallV1D2',
'Little_Finger_BallV1D2',#528,#526);
#528=PRODUCT_DEFINITION_FORMATION('',$,#533);
#529=PRODUCT_RELATED_PRODUCT_CATEGORY('Little_Finger_BallV1D2',
'Little_Finger_BallV1D2',(#533));
#530=APPLICATION_PROTOCOL_DEFINITION('international standard',
'automotive_design',2009,#531);
#531=APPLICATION_CONTEXT(
'Core Data for Automotive Mechanical Design Process');
#532=PRODUCT_CONTEXT('part definition',#531,'mechanical');
#533=PRODUCT('Little_Finger_BallV1D2','Little_Finger_BallV1D2',$,(#532));
#534=PRESENTATION_STYLE_ASSIGNMENT((#537));
#535=PRESENTATION_STYLE_ASSIGNMENT((#538));
#536=PRESENTATION_STYLE_ASSIGNMENT((#539));
#537=SURFACE_STYLE_USAGE(.BOTH.,#542);
#538=SURFACE_STYLE_USAGE(.BOTH.,#543);
#539=SURFACE_STYLE_USAGE(.BOTH.,#544);
#540=SURFACE_STYLE_RENDERING_WITH_PROPERTIES($,#554,(#541));
#541=SURFACE_STYLE_TRANSPARENT(0.);
#542=SURFACE_SIDE_STYLE('',(#545,#540));
#543=SURFACE_SIDE_STYLE('',(#546));
#544=SURFACE_SIDE_STYLE('',(#547));
#545=SURFACE_STYLE_FILL_AREA(#548);
#546=SURFACE_STYLE_FILL_AREA(#549);
#547=SURFACE_STYLE_FILL_AREA(#550);
#548=FILL_AREA_STYLE('',(#551));
#549=FILL_AREA_STYLE('',(#552));
#550=FILL_AREA_STYLE('',(#553));
#551=FILL_AREA_STYLE_COLOUR('',#554);
#552=FILL_AREA_STYLE_COLOUR('',#555);
#553=FILL_AREA_STYLE_COLOUR('',#556);
#554=COLOUR_RGB('',0.749019607843137,0.749019607843137,0.749019607843137);
#555=COLOUR_RGB('',1.,0.,1.);
#556=COLOUR_RGB('',0.,0.,0.);
ENDSEC;
END-ISO-10303-21;
