ISO-10303-21;
HEADER;
/* Generated by software containing ST-Developer
 * from STEP Tools, Inc. (www.steptools.com) 
 */

FILE_DESCRIPTION(
/* description */ (''),
/* implementation_level */ '2;1');

FILE_NAME(
/* name */ 
'C:\\Users\\svale\\OneDrive\\Upwork\\Controller\\Hand\\Part2.ipt.stp',
/* time_stamp */ '2021-06-20T10:02:19-05:00',
/* author */ ('svale'),
/* organization */ (''),
/* preprocessor_version */ 'ST-DEVELOPER v18.1',
/* originating_system */ 'Autodesk Inventor 2021',
/* authorisation */ '');

FILE_SCHEMA (('AUTOMOTIVE_DESIGN { 1 0 10303 214 3 1 1 }'));
ENDSEC;

DATA;
#10=MECHANICAL_DESIGN_GEOMETRIC_PRESENTATION_REPRESENTATION('',(#13),#291);
#11=SHAPE_REPRESENTATION_RELATIONSHIP('SRR','None',#298,#12);
#12=ADVANCED_BREP_SHAPE_REPRESENTATION('',(#14),#290);
#13=STYLED_ITEM('',(#307),#14);
#14=MANIFOLD_SOLID_BREP('S\X\F3lido1',#159);
#15=FACE_BOUND('',#38,.T.);
#16=FACE_BOUND('',#39,.T.);
#17=FACE_BOUND('',#41,.T.);
#18=FACE_BOUND('',#42,.T.);
#19=PLANE('',#187);
#20=PLANE('',#191);
#21=PLANE('',#195);
#22=PLANE('',#196);
#23=FACE_OUTER_BOUND('',#31,.T.);
#24=FACE_OUTER_BOUND('',#32,.T.);
#25=FACE_OUTER_BOUND('',#33,.T.);
#26=FACE_OUTER_BOUND('',#34,.T.);
#27=FACE_OUTER_BOUND('',#35,.T.);
#28=FACE_OUTER_BOUND('',#36,.T.);
#29=FACE_OUTER_BOUND('',#37,.T.);
#30=FACE_OUTER_BOUND('',#40,.T.);
#31=EDGE_LOOP('',(#107,#108,#109,#110,#111));
#32=EDGE_LOOP('',(#112,#113,#114,#115,#116));
#33=EDGE_LOOP('',(#117,#118,#119,#120));
#34=EDGE_LOOP('',(#121,#122,#123,#124));
#35=EDGE_LOOP('',(#125,#126,#127,#128));
#36=EDGE_LOOP('',(#129,#130,#131,#132));
#37=EDGE_LOOP('',(#133,#134,#135,#136));
#38=EDGE_LOOP('',(#137,#138));
#39=EDGE_LOOP('',(#139,#140));
#40=EDGE_LOOP('',(#141,#142,#143,#144));
#41=EDGE_LOOP('',(#145));
#42=EDGE_LOOP('',(#146));
#43=LINE('',#252,#53);
#44=LINE('',#260,#54);
#45=LINE('',#265,#55);
#46=LINE('',#267,#56);
#47=LINE('',#269,#57);
#48=LINE('',#270,#58);
#49=LINE('',#276,#59);
#50=LINE('',#279,#60);
#51=LINE('',#281,#61);
#52=LINE('',#282,#62);
#53=VECTOR('',#205,1.05);
#54=VECTOR('',#214,1.05);
#55=VECTOR('',#219,10.);
#56=VECTOR('',#220,10.);
#57=VECTOR('',#221,10.);
#58=VECTOR('',#222,10.);
#59=VECTOR('',#229,10.);
#60=VECTOR('',#232,10.);
#61=VECTOR('',#233,10.);
#62=VECTOR('',#234,10.);
#63=CIRCLE('',#180,1.05);
#64=CIRCLE('',#181,1.05);
#65=CIRCLE('',#182,1.05);
#66=CIRCLE('',#184,1.05);
#67=CIRCLE('',#185,1.05);
#68=CIRCLE('',#186,1.05);
#69=CIRCLE('',#189,2.5);
#70=CIRCLE('',#190,2.5);
#71=CIRCLE('',#193,2.5);
#72=CIRCLE('',#194,2.5);
#73=VERTEX_POINT('',#247);
#74=VERTEX_POINT('',#248);
#75=VERTEX_POINT('',#251);
#76=VERTEX_POINT('',#255);
#77=VERTEX_POINT('',#256);
#78=VERTEX_POINT('',#259);
#79=VERTEX_POINT('',#263);
#80=VERTEX_POINT('',#264);
#81=VERTEX_POINT('',#266);
#82=VERTEX_POINT('',#268);
#83=VERTEX_POINT('',#272);
#84=VERTEX_POINT('',#274);
#85=VERTEX_POINT('',#278);
#86=VERTEX_POINT('',#280);
#87=EDGE_CURVE('',#73,#74,#63,.T.);
#88=EDGE_CURVE('',#74,#73,#64,.T.);
#89=EDGE_CURVE('',#74,#75,#43,.T.);
#90=EDGE_CURVE('',#75,#75,#65,.T.);
#91=EDGE_CURVE('',#76,#77,#66,.T.);
#92=EDGE_CURVE('',#77,#76,#67,.T.);
#93=EDGE_CURVE('',#77,#78,#44,.T.);
#94=EDGE_CURVE('',#78,#78,#68,.T.);
#95=EDGE_CURVE('',#79,#80,#45,.T.);
#96=EDGE_CURVE('',#80,#81,#46,.T.);
#97=EDGE_CURVE('',#82,#81,#47,.T.);
#98=EDGE_CURVE('',#79,#82,#48,.T.);
#99=EDGE_CURVE('',#83,#79,#69,.T.);
#100=EDGE_CURVE('',#84,#82,#70,.T.);
#101=EDGE_CURVE('',#83,#84,#49,.T.);
#102=EDGE_CURVE('',#85,#83,#50,.T.);
#103=EDGE_CURVE('',#86,#84,#51,.T.);
#104=EDGE_CURVE('',#85,#86,#52,.T.);
#105=EDGE_CURVE('',#80,#85,#71,.T.);
#106=EDGE_CURVE('',#81,#86,#72,.T.);
#107=ORIENTED_EDGE('',*,*,#87,.F.);
#108=ORIENTED_EDGE('',*,*,#88,.F.);
#109=ORIENTED_EDGE('',*,*,#89,.T.);
#110=ORIENTED_EDGE('',*,*,#90,.F.);
#111=ORIENTED_EDGE('',*,*,#89,.F.);
#112=ORIENTED_EDGE('',*,*,#91,.F.);
#113=ORIENTED_EDGE('',*,*,#92,.F.);
#114=ORIENTED_EDGE('',*,*,#93,.T.);
#115=ORIENTED_EDGE('',*,*,#94,.F.);
#116=ORIENTED_EDGE('',*,*,#93,.F.);
#117=ORIENTED_EDGE('',*,*,#95,.T.);
#118=ORIENTED_EDGE('',*,*,#96,.T.);
#119=ORIENTED_EDGE('',*,*,#97,.F.);
#120=ORIENTED_EDGE('',*,*,#98,.F.);
#121=ORIENTED_EDGE('',*,*,#99,.T.);
#122=ORIENTED_EDGE('',*,*,#98,.T.);
#123=ORIENTED_EDGE('',*,*,#100,.F.);
#124=ORIENTED_EDGE('',*,*,#101,.F.);
#125=ORIENTED_EDGE('',*,*,#102,.T.);
#126=ORIENTED_EDGE('',*,*,#101,.T.);
#127=ORIENTED_EDGE('',*,*,#103,.F.);
#128=ORIENTED_EDGE('',*,*,#104,.F.);
#129=ORIENTED_EDGE('',*,*,#105,.T.);
#130=ORIENTED_EDGE('',*,*,#104,.T.);
#131=ORIENTED_EDGE('',*,*,#106,.F.);
#132=ORIENTED_EDGE('',*,*,#96,.F.);
#133=ORIENTED_EDGE('',*,*,#106,.T.);
#134=ORIENTED_EDGE('',*,*,#103,.T.);
#135=ORIENTED_EDGE('',*,*,#100,.T.);
#136=ORIENTED_EDGE('',*,*,#97,.T.);
#137=ORIENTED_EDGE('',*,*,#87,.T.);
#138=ORIENTED_EDGE('',*,*,#88,.T.);
#139=ORIENTED_EDGE('',*,*,#91,.T.);
#140=ORIENTED_EDGE('',*,*,#92,.T.);
#141=ORIENTED_EDGE('',*,*,#105,.F.);
#142=ORIENTED_EDGE('',*,*,#95,.F.);
#143=ORIENTED_EDGE('',*,*,#99,.F.);
#144=ORIENTED_EDGE('',*,*,#102,.F.);
#145=ORIENTED_EDGE('',*,*,#90,.T.);
#146=ORIENTED_EDGE('',*,*,#94,.T.);
#147=CYLINDRICAL_SURFACE('',#179,1.05);
#148=CYLINDRICAL_SURFACE('',#183,1.05);
#149=CYLINDRICAL_SURFACE('',#188,2.5);
#150=CYLINDRICAL_SURFACE('',#192,2.5);
#151=ADVANCED_FACE('',(#23),#147,.F.);
#152=ADVANCED_FACE('',(#24),#148,.F.);
#153=ADVANCED_FACE('',(#25),#19,.T.);
#154=ADVANCED_FACE('',(#26),#149,.T.);
#155=ADVANCED_FACE('',(#27),#20,.T.);
#156=ADVANCED_FACE('',(#28),#150,.T.);
#157=ADVANCED_FACE('',(#29,#15,#16),#21,.T.);
#158=ADVANCED_FACE('',(#30,#17,#18),#22,.F.);
#159=CLOSED_SHELL('',(#151,#152,#153,#154,#155,#156,#157,#158));
#160=DERIVED_UNIT_ELEMENT(#162,1.);
#161=DERIVED_UNIT_ELEMENT(#293,3.);
#162=(
MASS_UNIT()
NAMED_UNIT(*)
SI_UNIT($,.GRAM.)
);
#163=DERIVED_UNIT((#160,#161));
#164=MEASURE_REPRESENTATION_ITEM('density measure',
POSITIVE_RATIO_MEASURE(1.),#163);
#165=PROPERTY_DEFINITION_REPRESENTATION(#170,#167);
#166=PROPERTY_DEFINITION_REPRESENTATION(#171,#168);
#167=REPRESENTATION('material name',(#169),#290);
#168=REPRESENTATION('density',(#164),#290);
#169=DESCRIPTIVE_REPRESENTATION_ITEM('Gen\X\E9rico','Gen\X\E9rico');
#170=PROPERTY_DEFINITION('material property','material name',#300);
#171=PROPERTY_DEFINITION('material property','density of part',#300);
#172=DATE_TIME_ROLE('creation_date');
#173=APPLIED_DATE_AND_TIME_ASSIGNMENT(#174,#172,(#300));
#174=DATE_AND_TIME(#175,#176);
#175=CALENDAR_DATE(2021,19,4);
#176=LOCAL_TIME(0,0,0.,#177);
#177=COORDINATED_UNIVERSAL_TIME_OFFSET(0,0,.BEHIND.);
#178=AXIS2_PLACEMENT_3D('placement',#245,#197,#198);
#179=AXIS2_PLACEMENT_3D('',#246,#199,#200);
#180=AXIS2_PLACEMENT_3D('',#249,#201,#202);
#181=AXIS2_PLACEMENT_3D('',#250,#203,#204);
#182=AXIS2_PLACEMENT_3D('',#253,#206,#207);
#183=AXIS2_PLACEMENT_3D('',#254,#208,#209);
#184=AXIS2_PLACEMENT_3D('',#257,#210,#211);
#185=AXIS2_PLACEMENT_3D('',#258,#212,#213);
#186=AXIS2_PLACEMENT_3D('',#261,#215,#216);
#187=AXIS2_PLACEMENT_3D('',#262,#217,#218);
#188=AXIS2_PLACEMENT_3D('',#271,#223,#224);
#189=AXIS2_PLACEMENT_3D('',#273,#225,#226);
#190=AXIS2_PLACEMENT_3D('',#275,#227,#228);
#191=AXIS2_PLACEMENT_3D('',#277,#230,#231);
#192=AXIS2_PLACEMENT_3D('',#283,#235,#236);
#193=AXIS2_PLACEMENT_3D('',#284,#237,#238);
#194=AXIS2_PLACEMENT_3D('',#285,#239,#240);
#195=AXIS2_PLACEMENT_3D('',#286,#241,#242);
#196=AXIS2_PLACEMENT_3D('',#287,#243,#244);
#197=DIRECTION('axis',(0.,0.,1.));
#198=DIRECTION('refdir',(1.,0.,0.));
#199=DIRECTION('center_axis',(0.,0.,1.));
#200=DIRECTION('ref_axis',(1.,0.,0.));
#201=DIRECTION('center_axis',(0.,0.,-1.));
#202=DIRECTION('ref_axis',(1.,0.,0.));
#203=DIRECTION('center_axis',(0.,0.,-1.));
#204=DIRECTION('ref_axis',(1.,0.,0.));
#205=DIRECTION('',(0.,0.,-1.));
#206=DIRECTION('center_axis',(0.,0.,1.));
#207=DIRECTION('ref_axis',(1.,0.,0.));
#208=DIRECTION('center_axis',(0.,0.,1.));
#209=DIRECTION('ref_axis',(1.,0.,0.));
#210=DIRECTION('center_axis',(0.,0.,-1.));
#211=DIRECTION('ref_axis',(1.,0.,0.));
#212=DIRECTION('center_axis',(0.,0.,-1.));
#213=DIRECTION('ref_axis',(1.,0.,0.));
#214=DIRECTION('',(0.,0.,-1.));
#215=DIRECTION('center_axis',(0.,0.,1.));
#216=DIRECTION('ref_axis',(1.,0.,0.));
#217=DIRECTION('center_axis',(-1.,9.71445146547012E-17,0.));
#218=DIRECTION('ref_axis',(-9.71445146547012E-17,-1.,0.));
#219=DIRECTION('',(-9.71445146547012E-17,-1.,0.));
#220=DIRECTION('',(0.,0.,1.));
#221=DIRECTION('',(-9.71445146547012E-17,-1.,0.));
#222=DIRECTION('',(0.,0.,1.));
#223=DIRECTION('center_axis',(0.,0.,1.));
#224=DIRECTION('ref_axis',(1.,2.87896122119878E-17,0.));
#225=DIRECTION('center_axis',(0.,0.,1.));
#226=DIRECTION('ref_axis',(1.,2.87896122119878E-17,0.));
#227=DIRECTION('center_axis',(0.,0.,1.));
#228=DIRECTION('ref_axis',(1.,2.87896122119878E-17,0.));
#229=DIRECTION('',(0.,0.,1.));
#230=DIRECTION('center_axis',(1.,5.55111512312578E-17,0.));
#231=DIRECTION('ref_axis',(-5.55111512312578E-17,1.,0.));
#232=DIRECTION('',(-5.55111512312578E-17,1.,0.));
#233=DIRECTION('',(-5.55111512312578E-17,1.,0.));
#234=DIRECTION('',(0.,0.,1.));
#235=DIRECTION('center_axis',(0.,0.,1.));
#236=DIRECTION('ref_axis',(-1.,0.,0.));
#237=DIRECTION('center_axis',(0.,0.,1.));
#238=DIRECTION('ref_axis',(-1.,0.,0.));
#239=DIRECTION('center_axis',(0.,0.,1.));
#240=DIRECTION('ref_axis',(-1.,0.,0.));
#241=DIRECTION('center_axis',(0.,0.,1.));
#242=DIRECTION('ref_axis',(1.,0.,0.));
#243=DIRECTION('center_axis',(0.,0.,1.));
#244=DIRECTION('ref_axis',(1.,0.,0.));
#245=CARTESIAN_POINT('',(0.,0.,0.));
#246=CARTESIAN_POINT('Origin',(0.,-20.,-21.8069758011279));
#247=CARTESIAN_POINT('',(1.05,-20.,4.));
#248=CARTESIAN_POINT('',(-1.05,-20.,4.));
#249=CARTESIAN_POINT('Origin',(0.,-20.,4.));
#250=CARTESIAN_POINT('Origin',(0.,-20.,4.));
#251=CARTESIAN_POINT('',(-1.05,-20.,0.));
#252=CARTESIAN_POINT('',(-1.05,-20.,-21.8069758011279));
#253=CARTESIAN_POINT('Origin',(0.,-20.,0.));
#254=CARTESIAN_POINT('Origin',(0.,0.,-21.8069758011279));
#255=CARTESIAN_POINT('',(1.05,0.,4.));
#256=CARTESIAN_POINT('',(-1.05,-1.28587913910472E-16,4.));
#257=CARTESIAN_POINT('Origin',(0.,0.,4.));
#258=CARTESIAN_POINT('Origin',(0.,0.,4.));
#259=CARTESIAN_POINT('',(-1.05,-1.28587913910472E-16,0.));
#260=CARTESIAN_POINT('',(-1.05,-1.28587913910472E-16,-21.8069758011279));
#261=CARTESIAN_POINT('Origin',(0.,0.,0.));
#262=CARTESIAN_POINT('Origin',(-2.5,2.34187669256869E-16,0.));
#263=CARTESIAN_POINT('',(-2.5,2.34187669256869E-16,0.));
#264=CARTESIAN_POINT('',(-2.5,-20.,0.));
#265=CARTESIAN_POINT('',(-2.5,2.34187669256869E-16,0.));
#266=CARTESIAN_POINT('',(-2.5,-20.,4.));
#267=CARTESIAN_POINT('',(-2.5,-20.,0.));
#268=CARTESIAN_POINT('',(-2.5,0.,4.));
#269=CARTESIAN_POINT('',(-2.5,2.34187669256869E-16,4.));
#270=CARTESIAN_POINT('',(-2.5,2.34187669256869E-16,0.));
#271=CARTESIAN_POINT('Origin',(0.,0.,0.));
#272=CARTESIAN_POINT('',(2.5,7.19740305299694E-17,0.));
#273=CARTESIAN_POINT('Origin',(0.,0.,0.));
#274=CARTESIAN_POINT('',(2.5,0.,4.));
#275=CARTESIAN_POINT('Origin',(0.,0.,4.));
#276=CARTESIAN_POINT('',(2.5,7.19740305299694E-17,0.));
#277=CARTESIAN_POINT('Origin',(2.5,-20.,0.));
#278=CARTESIAN_POINT('',(2.5,-20.,0.));
#279=CARTESIAN_POINT('',(2.5,-20.,0.));
#280=CARTESIAN_POINT('',(2.5,-20.,4.));
#281=CARTESIAN_POINT('',(2.5,-20.,4.));
#282=CARTESIAN_POINT('',(2.5,-20.,0.));
#283=CARTESIAN_POINT('Origin',(0.,-20.,0.));
#284=CARTESIAN_POINT('Origin',(0.,-20.,0.));
#285=CARTESIAN_POINT('Origin',(0.,-20.,4.));
#286=CARTESIAN_POINT('Origin',(2.77555756156289E-16,-10.,4.));
#287=CARTESIAN_POINT('Origin',(2.77555756156289E-16,-10.,0.));
#288=UNCERTAINTY_MEASURE_WITH_UNIT(LENGTH_MEASURE(0.01),#292,
'DISTANCE_ACCURACY_VALUE',
'Maximum model space distance between geometric entities at asserted c
onnectivities');
#289=UNCERTAINTY_MEASURE_WITH_UNIT(LENGTH_MEASURE(0.01),#292,
'DISTANCE_ACCURACY_VALUE',
'Maximum model space distance between geometric entities at asserted c
onnectivities');
#290=(
GEOMETRIC_REPRESENTATION_CONTEXT(3)
GLOBAL_UNCERTAINTY_ASSIGNED_CONTEXT((#288))
GLOBAL_UNIT_ASSIGNED_CONTEXT((#292,#294,#295))
REPRESENTATION_CONTEXT('','3D')
);
#291=(
GEOMETRIC_REPRESENTATION_CONTEXT(3)
GLOBAL_UNCERTAINTY_ASSIGNED_CONTEXT((#289))
GLOBAL_UNIT_ASSIGNED_CONTEXT((#292,#294,#295))
REPRESENTATION_CONTEXT('','3D')
);
#292=(
LENGTH_UNIT()
NAMED_UNIT(*)
SI_UNIT(.MILLI.,.METRE.)
);
#293=(
LENGTH_UNIT()
NAMED_UNIT(*)
SI_UNIT(.CENTI.,.METRE.)
);
#294=(
NAMED_UNIT(*)
PLANE_ANGLE_UNIT()
SI_UNIT($,.RADIAN.)
);
#295=(
NAMED_UNIT(*)
SI_UNIT($,.STERADIAN.)
SOLID_ANGLE_UNIT()
);
#296=SHAPE_DEFINITION_REPRESENTATION(#297,#298);
#297=PRODUCT_DEFINITION_SHAPE('',$,#300);
#298=SHAPE_REPRESENTATION('',(#178),#290);
#299=PRODUCT_DEFINITION_CONTEXT('part definition',#304,'design');
#300=PRODUCT_DEFINITION('Part2','Part2',#301,#299);
#301=PRODUCT_DEFINITION_FORMATION('',$,#306);
#302=PRODUCT_RELATED_PRODUCT_CATEGORY('Part2','Part2',(#306));
#303=APPLICATION_PROTOCOL_DEFINITION('international standard',
'automotive_design',2009,#304);
#304=APPLICATION_CONTEXT(
'Core Data for Automotive Mechanical Design Process');
#305=PRODUCT_CONTEXT('part definition',#304,'mechanical');
#306=PRODUCT('Part2','Part2',$,(#305));
#307=PRESENTATION_STYLE_ASSIGNMENT((#308));
#308=SURFACE_STYLE_USAGE(.BOTH.,#311);
#309=SURFACE_STYLE_RENDERING_WITH_PROPERTIES($,#315,(#310));
#310=SURFACE_STYLE_TRANSPARENT(0.);
#311=SURFACE_SIDE_STYLE('',(#312,#309));
#312=SURFACE_STYLE_FILL_AREA(#313);
#313=FILL_AREA_STYLE('',(#314));
#314=FILL_AREA_STYLE_COLOUR('',#315);
#315=COLOUR_RGB('',0.749019607843137,0.749019607843137,0.749019607843137);
ENDSEC;
END-ISO-10303-21;
