ISO-10303-21;
HEADER;
/* Generated by software containing ST-Developer
 * from STEP Tools, Inc. (www.steptools.com) 
 */

FILE_DESCRIPTION(
/* description */ (''),
/* implementation_level */ '2;1');

FILE_NAME(
/* name */ 
'C:\\Users\\svale\\OneDrive\\Upwork\\Controller\\Hand\\ROD1V1D2ballv1.
ipt.stp',
/* time_stamp */ '2021-06-20T10:02:35-05:00',
/* author */ ('svale'),
/* organization */ (''),
/* preprocessor_version */ 'ST-DEVELOPER v18.1',
/* originating_system */ 'Autodesk Inventor 2021',
/* authorisation */ '');

FILE_SCHEMA (('AUTOMOTIVE_DESIGN { 1 0 10303 214 3 1 1 }'));
ENDSEC;

DATA;
#10=MECHANICAL_DESIGN_GEOMETRIC_PRESENTATION_REPRESENTATION('',(#20,#21,
#22,#23,#24),#478);
#11=GEOMETRICALLY_BOUNDED_WIREFRAME_SHAPE_REPRESENTATION('',(#12),#477);
#12=GEOMETRIC_CURVE_SET('Boceto24',(#16,#17,#18,#19));
#13=SHAPE_REPRESENTATION_RELATIONSHIP('SRR','None',#485,#15);
#14=SHAPE_REPRESENTATION_RELATIONSHIP('SRR','None',#485,#11);
#15=ADVANCED_BREP_SHAPE_REPRESENTATION('',(#25),#477);
#16=POLYLINE('',(#467,#468));
#17=POLYLINE('',(#469,#470));
#18=POLYLINE('',(#471,#472));
#19=POLYLINE('',(#473,#474));
#20=STYLED_ITEM('',(#494),#25);
#21=STYLED_ITEM('',(#495),#16);
#22=STYLED_ITEM('',(#496),#17);
#23=STYLED_ITEM('',(#496),#18);
#24=STYLED_ITEM('',(#496),#19);
#25=MANIFOLD_SOLID_BREP('S\X\F3lido1',#236);
#26=FACE_BOUND('',#56,.T.);
#27=FACE_BOUND('',#58,.T.);
#28=FACE_BOUND('',#62,.T.);
#29=FACE_BOUND('',#64,.T.);
#30=SPHERICAL_SURFACE('',#271,4.1);
#31=SPHERICAL_SURFACE('',#273,5.);
#32=PLANE('',#259);
#33=PLANE('',#262);
#34=PLANE('',#265);
#35=PLANE('',#268);
#36=PLANE('',#286);
#37=PLANE('',#287);
#38=FACE_OUTER_BOUND('',#50,.T.);
#39=FACE_OUTER_BOUND('',#51,.T.);
#40=FACE_OUTER_BOUND('',#52,.T.);
#41=FACE_OUTER_BOUND('',#53,.T.);
#42=FACE_OUTER_BOUND('',#54,.T.);
#43=FACE_OUTER_BOUND('',#55,.T.);
#44=FACE_OUTER_BOUND('',#57,.T.);
#45=FACE_OUTER_BOUND('',#59,.T.);
#46=FACE_OUTER_BOUND('',#60,.T.);
#47=FACE_OUTER_BOUND('',#61,.T.);
#48=FACE_OUTER_BOUND('',#63,.T.);
#49=FACE_OUTER_BOUND('',#65,.T.);
#50=EDGE_LOOP('',(#158,#159,#160,#161));
#51=EDGE_LOOP('',(#162,#163,#164,#165));
#52=EDGE_LOOP('',(#166,#167,#168,#169));
#53=EDGE_LOOP('',(#170,#171,#172,#173));
#54=EDGE_LOOP('',(#174,#175,#176,#177));
#55=EDGE_LOOP('',(#178,#179));
#56=EDGE_LOOP('',(#180,#181,#182,#183));
#57=EDGE_LOOP('',(#184,#185,#186,#187,#188,#189,#190));
#58=EDGE_LOOP('',(#191,#192,#193,#194));
#59=EDGE_LOOP('',(#195,#196,#197,#198,#199));
#60=EDGE_LOOP('',(#200,#201,#202,#203,#204));
#61=EDGE_LOOP('',(#205,#206));
#62=EDGE_LOOP('',(#207,#208));
#63=EDGE_LOOP('',(#209,#210));
#64=EDGE_LOOP('',(#211));
#65=EDGE_LOOP('',(#212,#213,#214,#215,#216,#217,#218,#219));
#66=B_SPLINE_CURVE_WITH_KNOTS('',3,(#372,#373,#374,#375,#376,#377,#378,
#379,#380,#381,#382,#383,#384,#385,#386,#387,#388,#389,#390),
 .UNSPECIFIED.,.F.,.F.,(4,2,2,2,3,2,2,2,4),(0.922537325049048,0.999310505714261,
1.07608368637947,1.15306672655577,1.23004976673206,1.30703280690836,1.38401584708465,
1.46078902774987,1.53756220841508),.UNSPECIFIED.);
#67=B_SPLINE_CURVE_WITH_KNOTS('',3,(#442,#443,#444,#445,#446,#447,#448,
#449,#450,#451),.UNSPECIFIED.,.F.,.F.,(4,2,2,2,4),(0.615024883366032,0.692007923542327,
0.768990963718621,0.845764144383835,0.922537325049048),.UNSPECIFIED.);
#68=B_SPLINE_CURVE_WITH_KNOTS('',3,(#452,#453,#454,#455,#456,#457,#458,
#459,#460,#461),.UNSPECIFIED.,.F.,.F.,(4,2,2,2,4),(0.307512441683016,0.384285622348229,
0.461058803013443,0.538041843189737,0.615024883366032),.UNSPECIFIED.);
#69=CIRCLE('',#257,4.);
#70=CIRCLE('',#258,4.);
#71=CIRCLE('',#260,4.98026692138792);
#72=CIRCLE('',#261,4.07591199712049);
#73=CIRCLE('',#263,4.8811777188933);
#74=CIRCLE('',#264,3.95422507242828);
#75=CIRCLE('',#266,4.85779188430858);
#76=CIRCLE('',#267,3.92532062273317);
#77=CIRCLE('',#269,4.8811777188933);
#78=CIRCLE('',#270,3.95422507242828);
#79=CIRCLE('',#272,4.1);
#80=CIRCLE('',#274,2.);
#81=CIRCLE('',#275,2.);
#82=CIRCLE('',#276,5.);
#83=CIRCLE('',#277,2.);
#84=CIRCLE('',#278,5.);
#85=CIRCLE('',#280,1.55);
#86=CIRCLE('',#281,1.55);
#87=CIRCLE('',#282,1.55);
#88=CIRCLE('',#284,4.);
#89=CIRCLE('',#285,4.);
#90=LINE('',#368,#97);
#91=LINE('',#397,#98);
#92=LINE('',#400,#99);
#93=LINE('',#406,#100);
#94=LINE('',#412,#101);
#95=LINE('',#437,#102);
#96=LINE('',#466,#103);
#97=VECTOR('',#293,4.);
#98=VECTOR('',#302,10.);
#99=VECTOR('',#305,10.);
#100=VECTOR('',#312,10.);
#101=VECTOR('',#319,10.);
#102=VECTOR('',#348,1.55);
#103=VECTOR('',#363,2.);
#104=VERTEX_POINT('',#366);
#105=VERTEX_POINT('',#367);
#106=VERTEX_POINT('',#369);
#107=VERTEX_POINT('',#371);
#108=VERTEX_POINT('',#393);
#109=VERTEX_POINT('',#394);
#110=VERTEX_POINT('',#396);
#111=VERTEX_POINT('',#398);
#112=VERTEX_POINT('',#402);
#113=VERTEX_POINT('',#404);
#114=VERTEX_POINT('',#408);
#115=VERTEX_POINT('',#410);
#116=VERTEX_POINT('',#417);
#117=VERTEX_POINT('',#418);
#118=VERTEX_POINT('',#421);
#119=VERTEX_POINT('',#422);
#120=VERTEX_POINT('',#424);
#121=VERTEX_POINT('',#426);
#122=VERTEX_POINT('',#429);
#123=VERTEX_POINT('',#432);
#124=VERTEX_POINT('',#433);
#125=VERTEX_POINT('',#436);
#126=VERTEX_POINT('',#441);
#127=EDGE_CURVE('',#104,#105,#90,.T.);
#128=EDGE_CURVE('',#104,#106,#69,.T.);
#129=EDGE_CURVE('',#107,#106,#66,.T.);
#130=EDGE_CURVE('',#105,#107,#70,.T.);
#131=EDGE_CURVE('',#108,#109,#71,.T.);
#132=EDGE_CURVE('',#110,#108,#91,.T.);
#133=EDGE_CURVE('',#111,#110,#72,.T.);
#134=EDGE_CURVE('',#109,#111,#92,.T.);
#135=EDGE_CURVE('',#109,#112,#73,.T.);
#136=EDGE_CURVE('',#113,#111,#74,.T.);
#137=EDGE_CURVE('',#112,#113,#93,.T.);
#138=EDGE_CURVE('',#112,#114,#75,.T.);
#139=EDGE_CURVE('',#115,#113,#76,.T.);
#140=EDGE_CURVE('',#115,#114,#94,.T.);
#141=EDGE_CURVE('',#114,#108,#77,.T.);
#142=EDGE_CURVE('',#110,#115,#78,.T.);
#143=EDGE_CURVE('',#116,#117,#79,.T.);
#144=EDGE_CURVE('',#118,#119,#80,.T.);
#145=EDGE_CURVE('',#120,#118,#81,.T.);
#146=EDGE_CURVE('',#120,#121,#82,.T.);
#147=EDGE_CURVE('',#119,#120,#83,.T.);
#148=EDGE_CURVE('',#122,#119,#84,.T.);
#149=EDGE_CURVE('',#123,#124,#85,.T.);
#150=EDGE_CURVE('',#124,#123,#86,.T.);
#151=EDGE_CURVE('',#124,#125,#95,.T.);
#152=EDGE_CURVE('',#125,#125,#87,.T.);
#153=EDGE_CURVE('',#107,#105,#88,.T.);
#154=EDGE_CURVE('',#126,#107,#67,.T.);
#155=EDGE_CURVE('',#106,#126,#68,.T.);
#156=EDGE_CURVE('',#106,#104,#89,.T.);
#157=EDGE_CURVE('',#118,#126,#96,.T.);
#158=ORIENTED_EDGE('',*,*,#127,.F.);
#159=ORIENTED_EDGE('',*,*,#128,.T.);
#160=ORIENTED_EDGE('',*,*,#129,.F.);
#161=ORIENTED_EDGE('',*,*,#130,.F.);
#162=ORIENTED_EDGE('',*,*,#131,.F.);
#163=ORIENTED_EDGE('',*,*,#132,.F.);
#164=ORIENTED_EDGE('',*,*,#133,.F.);
#165=ORIENTED_EDGE('',*,*,#134,.F.);
#166=ORIENTED_EDGE('',*,*,#135,.F.);
#167=ORIENTED_EDGE('',*,*,#134,.T.);
#168=ORIENTED_EDGE('',*,*,#136,.F.);
#169=ORIENTED_EDGE('',*,*,#137,.F.);
#170=ORIENTED_EDGE('',*,*,#138,.F.);
#171=ORIENTED_EDGE('',*,*,#137,.T.);
#172=ORIENTED_EDGE('',*,*,#139,.F.);
#173=ORIENTED_EDGE('',*,*,#140,.T.);
#174=ORIENTED_EDGE('',*,*,#141,.F.);
#175=ORIENTED_EDGE('',*,*,#140,.F.);
#176=ORIENTED_EDGE('',*,*,#142,.F.);
#177=ORIENTED_EDGE('',*,*,#132,.T.);
#178=ORIENTED_EDGE('',*,*,#143,.T.);
#179=ORIENTED_EDGE('',*,*,#143,.F.);
#180=ORIENTED_EDGE('',*,*,#139,.T.);
#181=ORIENTED_EDGE('',*,*,#136,.T.);
#182=ORIENTED_EDGE('',*,*,#133,.T.);
#183=ORIENTED_EDGE('',*,*,#142,.T.);
#184=ORIENTED_EDGE('',*,*,#144,.F.);
#185=ORIENTED_EDGE('',*,*,#145,.F.);
#186=ORIENTED_EDGE('',*,*,#146,.T.);
#187=ORIENTED_EDGE('',*,*,#146,.F.);
#188=ORIENTED_EDGE('',*,*,#147,.F.);
#189=ORIENTED_EDGE('',*,*,#148,.F.);
#190=ORIENTED_EDGE('',*,*,#148,.T.);
#191=ORIENTED_EDGE('',*,*,#138,.T.);
#192=ORIENTED_EDGE('',*,*,#141,.T.);
#193=ORIENTED_EDGE('',*,*,#131,.T.);
#194=ORIENTED_EDGE('',*,*,#135,.T.);
#195=ORIENTED_EDGE('',*,*,#149,.F.);
#196=ORIENTED_EDGE('',*,*,#150,.F.);
#197=ORIENTED_EDGE('',*,*,#151,.T.);
#198=ORIENTED_EDGE('',*,*,#152,.F.);
#199=ORIENTED_EDGE('',*,*,#151,.F.);
#200=ORIENTED_EDGE('',*,*,#127,.T.);
#201=ORIENTED_EDGE('',*,*,#153,.F.);
#202=ORIENTED_EDGE('',*,*,#154,.F.);
#203=ORIENTED_EDGE('',*,*,#155,.F.);
#204=ORIENTED_EDGE('',*,*,#156,.T.);
#205=ORIENTED_EDGE('',*,*,#153,.T.);
#206=ORIENTED_EDGE('',*,*,#130,.T.);
#207=ORIENTED_EDGE('',*,*,#149,.T.);
#208=ORIENTED_EDGE('',*,*,#150,.T.);
#209=ORIENTED_EDGE('',*,*,#156,.F.);
#210=ORIENTED_EDGE('',*,*,#128,.F.);
#211=ORIENTED_EDGE('',*,*,#152,.T.);
#212=ORIENTED_EDGE('',*,*,#144,.T.);
#213=ORIENTED_EDGE('',*,*,#147,.T.);
#214=ORIENTED_EDGE('',*,*,#145,.T.);
#215=ORIENTED_EDGE('',*,*,#157,.T.);
#216=ORIENTED_EDGE('',*,*,#154,.T.);
#217=ORIENTED_EDGE('',*,*,#129,.T.);
#218=ORIENTED_EDGE('',*,*,#155,.T.);
#219=ORIENTED_EDGE('',*,*,#157,.F.);
#220=CYLINDRICAL_SURFACE('',#256,4.);
#221=CYLINDRICAL_SURFACE('',#279,1.55);
#222=CYLINDRICAL_SURFACE('',#283,4.);
#223=CYLINDRICAL_SURFACE('',#288,2.);
#224=ADVANCED_FACE('',(#38),#220,.T.);
#225=ADVANCED_FACE('',(#39),#32,.F.);
#226=ADVANCED_FACE('',(#40),#33,.F.);
#227=ADVANCED_FACE('',(#41),#34,.F.);
#228=ADVANCED_FACE('',(#42),#35,.F.);
#229=ADVANCED_FACE('',(#43,#26),#30,.F.);
#230=ADVANCED_FACE('',(#44,#27),#31,.T.);
#231=ADVANCED_FACE('',(#45),#221,.F.);
#232=ADVANCED_FACE('',(#46),#222,.T.);
#233=ADVANCED_FACE('',(#47,#28),#36,.F.);
#234=ADVANCED_FACE('',(#48,#29),#37,.T.);
#235=ADVANCED_FACE('',(#49),#223,.T.);
#236=CLOSED_SHELL('',(#224,#225,#226,#227,#228,#229,#230,#231,#232,#233,
#234,#235));
#237=DERIVED_UNIT_ELEMENT(#239,1.);
#238=DERIVED_UNIT_ELEMENT(#480,3.);
#239=(
MASS_UNIT()
NAMED_UNIT(*)
SI_UNIT($,.GRAM.)
);
#240=DERIVED_UNIT((#237,#238));
#241=MEASURE_REPRESENTATION_ITEM('density measure',
POSITIVE_RATIO_MEASURE(1.),#240);
#242=PROPERTY_DEFINITION_REPRESENTATION(#247,#244);
#243=PROPERTY_DEFINITION_REPRESENTATION(#248,#245);
#244=REPRESENTATION('material name',(#246),#477);
#245=REPRESENTATION('density',(#241),#477);
#246=DESCRIPTIVE_REPRESENTATION_ITEM('Gen\X\E9rico','Gen\X\E9rico');
#247=PROPERTY_DEFINITION('material property','material name',#487);
#248=PROPERTY_DEFINITION('material property','density of part',#487);
#249=DATE_TIME_ROLE('creation_date');
#250=APPLIED_DATE_AND_TIME_ASSIGNMENT(#251,#249,(#487));
#251=DATE_AND_TIME(#252,#253);
#252=CALENDAR_DATE(2021,25,4);
#253=LOCAL_TIME(0,0,0.,#254);
#254=COORDINATED_UNIVERSAL_TIME_OFFSET(0,0,.BEHIND.);
#255=AXIS2_PLACEMENT_3D('placement',#364,#289,#290);
#256=AXIS2_PLACEMENT_3D('',#365,#291,#292);
#257=AXIS2_PLACEMENT_3D('',#370,#294,#295);
#258=AXIS2_PLACEMENT_3D('',#391,#296,#297);
#259=AXIS2_PLACEMENT_3D('',#392,#298,#299);
#260=AXIS2_PLACEMENT_3D('',#395,#300,#301);
#261=AXIS2_PLACEMENT_3D('',#399,#303,#304);
#262=AXIS2_PLACEMENT_3D('',#401,#306,#307);
#263=AXIS2_PLACEMENT_3D('',#403,#308,#309);
#264=AXIS2_PLACEMENT_3D('',#405,#310,#311);
#265=AXIS2_PLACEMENT_3D('',#407,#313,#314);
#266=AXIS2_PLACEMENT_3D('',#409,#315,#316);
#267=AXIS2_PLACEMENT_3D('',#411,#317,#318);
#268=AXIS2_PLACEMENT_3D('',#413,#320,#321);
#269=AXIS2_PLACEMENT_3D('',#414,#322,#323);
#270=AXIS2_PLACEMENT_3D('',#415,#324,#325);
#271=AXIS2_PLACEMENT_3D('',#416,#326,#327);
#272=AXIS2_PLACEMENT_3D('',#419,#328,#329);
#273=AXIS2_PLACEMENT_3D('',#420,#330,#331);
#274=AXIS2_PLACEMENT_3D('',#423,#332,#333);
#275=AXIS2_PLACEMENT_3D('',#425,#334,#335);
#276=AXIS2_PLACEMENT_3D('',#427,#336,#337);
#277=AXIS2_PLACEMENT_3D('',#428,#338,#339);
#278=AXIS2_PLACEMENT_3D('',#430,#340,#341);
#279=AXIS2_PLACEMENT_3D('',#431,#342,#343);
#280=AXIS2_PLACEMENT_3D('',#434,#344,#345);
#281=AXIS2_PLACEMENT_3D('',#435,#346,#347);
#282=AXIS2_PLACEMENT_3D('',#438,#349,#350);
#283=AXIS2_PLACEMENT_3D('',#439,#351,#352);
#284=AXIS2_PLACEMENT_3D('',#440,#353,#354);
#285=AXIS2_PLACEMENT_3D('',#462,#355,#356);
#286=AXIS2_PLACEMENT_3D('',#463,#357,#358);
#287=AXIS2_PLACEMENT_3D('',#464,#359,#360);
#288=AXIS2_PLACEMENT_3D('',#465,#361,#362);
#289=DIRECTION('axis',(0.,0.,1.));
#290=DIRECTION('refdir',(1.,0.,0.));
#291=DIRECTION('center_axis',(0.,0.,1.));
#292=DIRECTION('ref_axis',(1.,0.,0.));
#293=DIRECTION('',(0.,0.,-1.));
#294=DIRECTION('center_axis',(0.,0.,-1.));
#295=DIRECTION('ref_axis',(1.,0.,0.));
#296=DIRECTION('center_axis',(0.,0.,-1.));
#297=DIRECTION('ref_axis',(1.,0.,0.));
#298=DIRECTION('center_axis',(-0.89446152833148,-0.447144914244715,0.));
#299=DIRECTION('ref_axis',(0.447144914244715,-0.89446152833148,0.));
#300=DIRECTION('center_axis',(-0.89446152833148,-0.447144914244715,0.));
#301=DIRECTION('ref_axis',(0.,0.,-1.));
#302=DIRECTION('',(0.,0.,1.));
#303=DIRECTION('center_axis',(0.89446152833148,0.447144914244715,0.));
#304=DIRECTION('ref_axis',(0.,0.,-1.));
#305=DIRECTION('',(0.,0.,1.));
#306=DIRECTION('center_axis',(-0.707106781186547,-0.707106781186548,0.));
#307=DIRECTION('ref_axis',(0.707106781186548,-0.707106781186547,0.));
#308=DIRECTION('center_axis',(-0.707106781186547,-0.707106781186548,0.));
#309=DIRECTION('ref_axis',(0.,0.,1.));
#310=DIRECTION('center_axis',(0.707106781186547,0.707106781186548,0.));
#311=DIRECTION('ref_axis',(0.,0.,1.));
#312=DIRECTION('',(0.,0.,1.));
#313=DIRECTION('center_axis',(-0.779895701882796,-0.625909493604899,0.));
#314=DIRECTION('ref_axis',(0.625909493604899,-0.779895701882796,0.));
#315=DIRECTION('center_axis',(-0.779895701882796,-0.625909493604899,0.));
#316=DIRECTION('ref_axis',(0.,0.,1.));
#317=DIRECTION('center_axis',(0.779895701882796,0.625909493604899,0.));
#318=DIRECTION('ref_axis',(0.,0.,1.));
#319=DIRECTION('',(0.,0.,1.));
#320=DIRECTION('center_axis',(-0.707106781186547,-0.707106781186548,0.));
#321=DIRECTION('ref_axis',(0.707106781186548,-0.707106781186547,0.));
#322=DIRECTION('center_axis',(-0.707106781186547,-0.707106781186548,0.));
#323=DIRECTION('ref_axis',(0.,0.,1.));
#324=DIRECTION('center_axis',(0.707106781186547,0.707106781186548,0.));
#325=DIRECTION('ref_axis',(0.,0.,1.));
#326=DIRECTION('center_axis',(0.,0.,1.));
#327=DIRECTION('ref_axis',(1.,0.,0.));
#328=DIRECTION('center_axis',(-1.22464679914735E-16,1.,0.));
#329=DIRECTION('ref_axis',(-1.,-1.22464679914735E-16,0.));
#330=DIRECTION('center_axis',(0.,0.,1.));
#331=DIRECTION('ref_axis',(1.,0.,0.));
#332=DIRECTION('center_axis',(-1.,0.,0.));
#333=DIRECTION('ref_axis',(0.,1.,0.));
#334=DIRECTION('center_axis',(-1.,0.,0.));
#335=DIRECTION('ref_axis',(0.,1.,0.));
#336=DIRECTION('center_axis',(1.22464679914735E-16,-1.,0.));
#337=DIRECTION('ref_axis',(-1.,-1.22464679914735E-16,0.));
#338=DIRECTION('center_axis',(-1.,0.,0.));
#339=DIRECTION('ref_axis',(0.,1.,0.));
#340=DIRECTION('center_axis',(1.22464679914735E-16,-1.,0.));
#341=DIRECTION('ref_axis',(-1.,-1.22464679914735E-16,0.));
#342=DIRECTION('center_axis',(0.,0.,-1.));
#343=DIRECTION('ref_axis',(-1.,0.,0.));
#344=DIRECTION('center_axis',(0.,0.,1.));
#345=DIRECTION('ref_axis',(-1.,0.,0.));
#346=DIRECTION('center_axis',(0.,0.,1.));
#347=DIRECTION('ref_axis',(-1.,0.,0.));
#348=DIRECTION('',(0.,0.,1.));
#349=DIRECTION('center_axis',(0.,0.,-1.));
#350=DIRECTION('ref_axis',(-1.,0.,0.));
#351=DIRECTION('center_axis',(0.,0.,1.));
#352=DIRECTION('ref_axis',(1.,0.,0.));
#353=DIRECTION('center_axis',(0.,0.,-1.));
#354=DIRECTION('ref_axis',(1.,0.,0.));
#355=DIRECTION('center_axis',(0.,0.,-1.));
#356=DIRECTION('ref_axis',(1.,0.,0.));
#357=DIRECTION('center_axis',(0.,0.,1.));
#358=DIRECTION('ref_axis',(1.,0.,0.));
#359=DIRECTION('center_axis',(0.,0.,1.));
#360=DIRECTION('ref_axis',(1.,0.,0.));
#361=DIRECTION('center_axis',(1.,0.,0.));
#362=DIRECTION('ref_axis',(0.,1.,0.));
#363=DIRECTION('',(-1.,0.,0.));
#364=CARTESIAN_POINT('',(0.,0.,0.));
#365=CARTESIAN_POINT('Origin',(0.0205567443491611,0.,0.));
#366=CARTESIAN_POINT('',(-3.97944325565084,-4.89858719658941E-16,2.));
#367=CARTESIAN_POINT('',(-3.97944325565084,-4.89858719658941E-16,-2.));
#368=CARTESIAN_POINT('',(-3.97944325565084,-4.89858719658941E-16,0.));
#369=CARTESIAN_POINT('',(4.02055674434916,0.,2.));
#370=CARTESIAN_POINT('Origin',(0.0205567443491611,0.,2.));
#371=CARTESIAN_POINT('',(4.02055674434916,0.,-2.));
#372=CARTESIAN_POINT('Ctrl Pts',(4.02055674434916,6.93889390390723E-17,
-2.));
#373=CARTESIAN_POINT('Ctrl Pts',(4.02055674434916,0.255910602217378,-2.));
#374=CARTESIAN_POINT('Ctrl Pts',(3.99374068105047,0.525890150977711,-1.94792781173826));
#375=CARTESIAN_POINT('Ctrl Pts',(3.89708642642812,1.01748151622875,-1.74233015984916));
#376=CARTESIAN_POINT('Ctrl Pts',(3.82828996449016,1.23939333961253,-1.58903378513366));
#377=CARTESIAN_POINT('Ctrl Pts',(3.69595767944684,1.58951165626207,-1.23891546848412));
#378=CARTESIAN_POINT('Ctrl Pts',(3.62294876927052,1.74245741947245,-1.01716471901564));
#379=CARTESIAN_POINT('Ctrl Pts',(3.51620761625503,1.94777116895352,-0.52627720252657));
#380=CARTESIAN_POINT('Ctrl Pts',(3.48465835948692,2.,-0.256610133920982));
#381=CARTESIAN_POINT('Ctrl Pts',(3.48465835948692,2.,0.));
#382=CARTESIAN_POINT('Ctrl Pts',(3.48465835948692,2.,0.256610133920982));
#383=CARTESIAN_POINT('Ctrl Pts',(3.51620761625503,1.94777116895352,0.526277202526571));
#384=CARTESIAN_POINT('Ctrl Pts',(3.62294876927052,1.74245741947245,1.01716471901564));
#385=CARTESIAN_POINT('Ctrl Pts',(3.69595767944684,1.58951165626207,1.23891546848412));
#386=CARTESIAN_POINT('Ctrl Pts',(3.82828996449016,1.23939333961253,1.58903378513366));
#387=CARTESIAN_POINT('Ctrl Pts',(3.89708642642812,1.01748151622875,1.74233015984916));
#388=CARTESIAN_POINT('Ctrl Pts',(3.99374068105047,0.52589015097771,1.94792781173826));
#389=CARTESIAN_POINT('Ctrl Pts',(4.02055674434916,0.255910602217377,2.));
#390=CARTESIAN_POINT('Ctrl Pts',(4.02055674434916,-4.16333634234434E-16,
2.));
#391=CARTESIAN_POINT('Origin',(0.0205567443491611,0.,-2.));
#392=CARTESIAN_POINT('Origin',(59.4751326148358,5.64993528102316,2.));
#393=CARTESIAN_POINT('',(61.2637122718146,2.07208916769724,4.51831466697527));
#394=CARTESIAN_POINT('',(61.2637122718146,2.07208916769724,-4.51831466697527));
#395=CARTESIAN_POINT('Origin',(62.2003598611242,0.198434324374313,0.));
#396=CARTESIAN_POINT('',(61.2637122718146,2.07208916769724,3.49645069031494));
#397=CARTESIAN_POINT('',(61.2637122718146,2.07208916769724,2.));
#398=CARTESIAN_POINT('',(61.2637122718146,2.07208916769724,-3.49645069031494));
#399=CARTESIAN_POINT('Origin',(62.2003598611242,0.198434324374315,0.));
#400=CARTESIAN_POINT('',(61.2637122718146,2.07208916769724,2.));
#401=CARTESIAN_POINT('Origin',(61.2637122718146,2.07208916769724,2.));
#402=CARTESIAN_POINT('',(63.2637122718146,0.072089167697241,-4.78145742158901));
#403=CARTESIAN_POINT('Origin',(62.5696082273978,0.766193212114137,0.));
#404=CARTESIAN_POINT('',(63.2637122718146,0.072089167697241,-3.83044841689177));
#405=CARTESIAN_POINT('Origin',(62.5696082273978,0.766193212114138,0.));
#406=CARTESIAN_POINT('',(63.2637122718146,0.072089167697241,2.));
#407=CARTESIAN_POINT('Origin',(63.2637122718146,0.072089167697241,2.));
#408=CARTESIAN_POINT('',(63.2637122718146,0.072089167697241,4.78145742158901));
#409=CARTESIAN_POINT('Origin',(62.7268121878887,0.741077371379444,0.));
#410=CARTESIAN_POINT('',(63.2637122718146,0.072089167697241,3.83044841689177));
#411=CARTESIAN_POINT('Origin',(62.7268121878887,0.741077371379445,0.));
#412=CARTESIAN_POINT('',(63.2637122718146,0.072089167697241,2.));
#413=CARTESIAN_POINT('Origin',(61.2637122718146,2.07208916769724,2.));
#414=CARTESIAN_POINT('Origin',(62.5696082273978,0.766193212114137,0.));
#415=CARTESIAN_POINT('Origin',(62.5696082273978,0.766193212114138,0.));
#416=CARTESIAN_POINT('Origin',(61.8034150152836,1.94289029309402E-15,0.));
#417=CARTESIAN_POINT('',(61.8034150152836,1.94289029309402E-15,-4.1));
#418=CARTESIAN_POINT('',(61.8034150152836,1.94289029309402E-15,4.1));
#419=CARTESIAN_POINT('Origin',(61.8034150152836,1.94289029309402E-15,0.));
#420=CARTESIAN_POINT('Origin',(61.8034150152836,-2.77555756156289E-16,0.));
#421=CARTESIAN_POINT('',(57.2208393203278,-2.,2.44929359829471E-16));
#422=CARTESIAN_POINT('',(57.2208393203278,-8.38759421824102E-16,2.));
#423=CARTESIAN_POINT('Origin',(57.2208393203278,0.,0.));
#424=CARTESIAN_POINT('',(57.2208393203278,-8.38759421824102E-16,-2.));
#425=CARTESIAN_POINT('Origin',(57.2208393203278,0.,0.));
#426=CARTESIAN_POINT('',(61.8034150152836,-2.77555756156289E-16,-5.));
#427=CARTESIAN_POINT('Origin',(61.8034150152836,-2.77555756156289E-16,0.));
#428=CARTESIAN_POINT('Origin',(57.2208393203278,0.,0.));
#429=CARTESIAN_POINT('',(61.8034150152836,-2.77555756156289E-16,5.));
#430=CARTESIAN_POINT('Origin',(61.8034150152836,-2.77555756156289E-16,0.));
#431=CARTESIAN_POINT('Origin',(0.0205567443491611,0.,62.6018356498886));
#432=CARTESIAN_POINT('',(-1.52944325565084,0.,-2.));
#433=CARTESIAN_POINT('',(1.57055674434916,-1.8982025386784E-16,-2.));
#434=CARTESIAN_POINT('Origin',(0.0205567443491611,0.,-2.));
#435=CARTESIAN_POINT('Origin',(0.0205567443491611,0.,-2.));
#436=CARTESIAN_POINT('',(1.57055674434916,-1.8982025386784E-16,2.));
#437=CARTESIAN_POINT('',(1.57055674434916,-1.8982025386784E-16,62.6018356498886));
#438=CARTESIAN_POINT('Origin',(0.0205567443491611,0.,2.));
#439=CARTESIAN_POINT('Origin',(0.0205567443491611,0.,0.));
#440=CARTESIAN_POINT('Origin',(0.0205567443491611,0.,-2.));
#441=CARTESIAN_POINT('',(3.48465835948692,-2.,-2.44929359829471E-16));
#442=CARTESIAN_POINT('Ctrl Pts',(3.48465835948692,-2.,-2.08166817117217E-16));
#443=CARTESIAN_POINT('Ctrl Pts',(3.48465835948692,-2.,-0.256610133920982));
#444=CARTESIAN_POINT('Ctrl Pts',(3.51620761625503,-1.94777116895352,-0.526277202526571));
#445=CARTESIAN_POINT('Ctrl Pts',(3.62294876927052,-1.74245741947245,-1.01716471901564));
#446=CARTESIAN_POINT('Ctrl Pts',(3.69595767944684,-1.58951165626207,-1.23891546848412));
#447=CARTESIAN_POINT('Ctrl Pts',(3.82828996449016,-1.23939333961253,-1.58903378513366));
#448=CARTESIAN_POINT('Ctrl Pts',(3.89708642642812,-1.01748151622875,-1.74233015984916));
#449=CARTESIAN_POINT('Ctrl Pts',(3.99374068105047,-0.525890150977711,-1.94792781173826));
#450=CARTESIAN_POINT('Ctrl Pts',(4.02055674434916,-0.255910602217378,-2.));
#451=CARTESIAN_POINT('Ctrl Pts',(4.02055674434916,2.08166817117217E-16,
-2.));
#452=CARTESIAN_POINT('Ctrl Pts',(4.02055674434916,-3.46944695195361E-16,
2.));
#453=CARTESIAN_POINT('Ctrl Pts',(4.02055674434916,-0.255910602217378,2.));
#454=CARTESIAN_POINT('Ctrl Pts',(3.99374068105047,-0.525890150977711,1.94792781173826));
#455=CARTESIAN_POINT('Ctrl Pts',(3.89708642642812,-1.01748151622875,1.74233015984916));
#456=CARTESIAN_POINT('Ctrl Pts',(3.82828996449016,-1.23939333961253,1.58903378513366));
#457=CARTESIAN_POINT('Ctrl Pts',(3.69595767944684,-1.58951165626207,1.23891546848412));
#458=CARTESIAN_POINT('Ctrl Pts',(3.62294876927052,-1.74245741947245,1.01716471901564));
#459=CARTESIAN_POINT('Ctrl Pts',(3.51620761625503,-1.94777116895352,0.526277202526571));
#460=CARTESIAN_POINT('Ctrl Pts',(3.48465835948692,-2.,0.256610133920982));
#461=CARTESIAN_POINT('Ctrl Pts',(3.48465835948692,-2.,2.08166817117217E-16));
#462=CARTESIAN_POINT('Origin',(0.0205567443491611,0.,2.));
#463=CARTESIAN_POINT('Origin',(0.0205567443491611,0.,-2.));
#464=CARTESIAN_POINT('Origin',(0.0205567443491611,0.,2.));
#465=CARTESIAN_POINT('Origin',(0.,0.,0.));
#466=CARTESIAN_POINT('',(0.,-2.,-2.44929359829471E-16));
#467=CARTESIAN_POINT('polyline point',(66.7540786541479,0.,-0.700663638864341));
#468=CARTESIAN_POINT('polyline point',(61.1027513764193,0.,4.95066363886433));
#469=CARTESIAN_POINT('polyline point',(61.1027513764193,0.,4.95066363886433));
#470=CARTESIAN_POINT('polyline point',(61.1027513764193,0.,-0.700663638864341));
#471=CARTESIAN_POINT('polyline point',(61.1027513764193,0.,-0.700663638864341));
#472=CARTESIAN_POINT('polyline point',(66.7540786541479,0.,-0.700663638864341));
#473=CARTESIAN_POINT('polyline point',(66.7540786541479,0.,-0.700663638864341));
#474=CARTESIAN_POINT('polyline point',(66.0534150152836,0.,0.));
#475=UNCERTAINTY_MEASURE_WITH_UNIT(LENGTH_MEASURE(0.01),#479,
'DISTANCE_ACCURACY_VALUE',
'Maximum model space distance between geometric entities at asserted c
onnectivities');
#476=UNCERTAINTY_MEASURE_WITH_UNIT(LENGTH_MEASURE(0.01),#479,
'DISTANCE_ACCURACY_VALUE',
'Maximum model space distance between geometric entities at asserted c
onnectivities');
#477=(
GEOMETRIC_REPRESENTATION_CONTEXT(3)
GLOBAL_UNCERTAINTY_ASSIGNED_CONTEXT((#475))
GLOBAL_UNIT_ASSIGNED_CONTEXT((#479,#481,#482))
REPRESENTATION_CONTEXT('','3D')
);
#478=(
GEOMETRIC_REPRESENTATION_CONTEXT(3)
GLOBAL_UNCERTAINTY_ASSIGNED_CONTEXT((#476))
GLOBAL_UNIT_ASSIGNED_CONTEXT((#479,#481,#482))
REPRESENTATION_CONTEXT('','3D')
);
#479=(
LENGTH_UNIT()
NAMED_UNIT(*)
SI_UNIT(.MILLI.,.METRE.)
);
#480=(
LENGTH_UNIT()
NAMED_UNIT(*)
SI_UNIT(.CENTI.,.METRE.)
);
#481=(
NAMED_UNIT(*)
PLANE_ANGLE_UNIT()
SI_UNIT($,.RADIAN.)
);
#482=(
NAMED_UNIT(*)
SI_UNIT($,.STERADIAN.)
SOLID_ANGLE_UNIT()
);
#483=SHAPE_DEFINITION_REPRESENTATION(#484,#485);
#484=PRODUCT_DEFINITION_SHAPE('',$,#487);
#485=SHAPE_REPRESENTATION('',(#255),#477);
#486=PRODUCT_DEFINITION_CONTEXT('part definition',#491,'design');
#487=PRODUCT_DEFINITION('ROD1V1D2ballv1','ROD1V1D2ballv1',#488,#486);
#488=PRODUCT_DEFINITION_FORMATION('',$,#493);
#489=PRODUCT_RELATED_PRODUCT_CATEGORY('ROD1V1D2ballv1','ROD1V1D2ballv1',
(#493));
#490=APPLICATION_PROTOCOL_DEFINITION('international standard',
'automotive_design',2009,#491);
#491=APPLICATION_CONTEXT(
'Core Data for Automotive Mechanical Design Process');
#492=PRODUCT_CONTEXT('part definition',#491,'mechanical');
#493=PRODUCT('ROD1V1D2ballv1','ROD1V1D2ballv1',$,(#492));
#494=PRESENTATION_STYLE_ASSIGNMENT((#497));
#495=PRESENTATION_STYLE_ASSIGNMENT((#498));
#496=PRESENTATION_STYLE_ASSIGNMENT((#499));
#497=SURFACE_STYLE_USAGE(.BOTH.,#502);
#498=SURFACE_STYLE_USAGE(.BOTH.,#503);
#499=SURFACE_STYLE_USAGE(.BOTH.,#504);
#500=SURFACE_STYLE_RENDERING_WITH_PROPERTIES($,#514,(#501));
#501=SURFACE_STYLE_TRANSPARENT(0.);
#502=SURFACE_SIDE_STYLE('',(#505,#500));
#503=SURFACE_SIDE_STYLE('',(#506));
#504=SURFACE_SIDE_STYLE('',(#507));
#505=SURFACE_STYLE_FILL_AREA(#508);
#506=SURFACE_STYLE_FILL_AREA(#509);
#507=SURFACE_STYLE_FILL_AREA(#510);
#508=FILL_AREA_STYLE('',(#511));
#509=FILL_AREA_STYLE('',(#512));
#510=FILL_AREA_STYLE('',(#513));
#511=FILL_AREA_STYLE_COLOUR('',#514);
#512=FILL_AREA_STYLE_COLOUR('',#515);
#513=FILL_AREA_STYLE_COLOUR('',#516);
#514=COLOUR_RGB('',0.749019607843137,0.749019607843137,0.749019607843137);
#515=COLOUR_RGB('',1.,0.,1.);
#516=COLOUR_RGB('',0.,0.,0.);
ENDSEC;
END-ISO-10303-21;
