ISO-10303-21;
HEADER;
/* Generated by software containing ST-Developer
 * from STEP Tools, Inc. (www.steptools.com) 
 */

FILE_DESCRIPTION(
/* description */ (''),
/* implementation_level */ '2;1');

FILE_NAME(
/* name */ 
'C:\\Users\\svale\\OneDrive\\Upwork\\Controller\\Hand\\ROD2V2D2_70mm.i
pt.stp',
/* time_stamp */ '2021-06-20T10:02:55-05:00',
/* author */ ('svale'),
/* organization */ (''),
/* preprocessor_version */ 'ST-DEVELOPER v18.1',
/* originating_system */ 'Autodesk Inventor 2021',
/* authorisation */ '');

FILE_SCHEMA (('AUTOMOTIVE_DESIGN { 1 0 10303 214 3 1 1 }'));
ENDSEC;

DATA;
#10=MECHANICAL_DESIGN_GEOMETRIC_PRESENTATION_REPRESENTATION('',(#19,#20),
#438);
#11=GEOMETRICALLY_BOUNDED_WIREFRAME_SHAPE_REPRESENTATION('',(#12),#437);
#12=GEOMETRIC_CURVE_SET('Boceto18',(#16,#17,#18));
#13=SHAPE_REPRESENTATION_RELATIONSHIP('SRR','None',#445,#15);
#14=SHAPE_REPRESENTATION_RELATIONSHIP('SRR','None',#445,#11);
#15=ADVANCED_BREP_SHAPE_REPRESENTATION('',(#21),#437);
#16=POLYLINE('',(#429,#430));
#17=POLYLINE('',(#431,#432));
#18=POLYLINE('',(#433,#434));
#19=STYLED_ITEM('',(#454),#21);
#20=STYLED_ITEM('',(#455),#16);
#21=MANIFOLD_SOLID_BREP('S\X\F3lido1',#203);
#22=FACE_BOUND('',#47,.T.);
#23=FACE_BOUND('',#49,.T.);
#24=FACE_BOUND('',#53,.T.);
#25=FACE_BOUND('',#55,.T.);
#26=PLANE('',#226);
#27=PLANE('',#234);
#28=PLANE('',#235);
#29=PLANE('',#243);
#30=PLANE('',#244);
#31=FACE_OUTER_BOUND('',#42,.T.);
#32=FACE_OUTER_BOUND('',#43,.T.);
#33=FACE_OUTER_BOUND('',#44,.T.);
#34=FACE_OUTER_BOUND('',#45,.T.);
#35=FACE_OUTER_BOUND('',#46,.T.);
#36=FACE_OUTER_BOUND('',#48,.T.);
#37=FACE_OUTER_BOUND('',#50,.T.);
#38=FACE_OUTER_BOUND('',#51,.T.);
#39=FACE_OUTER_BOUND('',#52,.T.);
#40=FACE_OUTER_BOUND('',#54,.T.);
#41=FACE_OUTER_BOUND('',#56,.T.);
#42=EDGE_LOOP('',(#134,#135,#136,#137));
#43=EDGE_LOOP('',(#138,#139,#140,#141));
#44=EDGE_LOOP('',(#142,#143,#144,#145));
#45=EDGE_LOOP('',(#146,#147,#148,#149,#150,#151,#152,#153));
#46=EDGE_LOOP('',(#154));
#47=EDGE_LOOP('',(#155,#156));
#48=EDGE_LOOP('',(#157,#158));
#49=EDGE_LOOP('',(#159,#160));
#50=EDGE_LOOP('',(#161,#162,#163,#164,#165));
#51=EDGE_LOOP('',(#166,#167,#168,#169,#170));
#52=EDGE_LOOP('',(#171,#172));
#53=EDGE_LOOP('',(#173,#174));
#54=EDGE_LOOP('',(#175,#176));
#55=EDGE_LOOP('',(#177));
#56=EDGE_LOOP('',(#178,#179,#180,#181,#182,#183,#184,#185));
#57=B_SPLINE_CURVE_WITH_KNOTS('',3,(#310,#311,#312,#313,#314,#315,#316,
#317,#318,#319,#320,#321,#322,#323,#324,#325,#326,#327,#328),
 .UNSPECIFIED.,.F.,.F.,(4,2,2,2,3,2,2,2,4),(0.922537325049048,0.999310505714261,
1.07608368637947,1.15306672655577,1.23004976673206,1.30703280690836,1.38401584708465,
1.46078902774987,1.53756220841508),.UNSPECIFIED.);
#58=B_SPLINE_CURVE_WITH_KNOTS('',3,(#350,#351,#352,#353,#354,#355,#356,
#357,#358,#359),.UNSPECIFIED.,.F.,.F.,(4,2,2,2,4),(0.610183468441548,0.686495001492079,
0.762806534542609,0.839040868602466,0.915275202662322),.UNSPECIFIED.);
#59=B_SPLINE_CURVE_WITH_KNOTS('',3,(#361,#362,#363,#364,#365,#366,#367,
#368,#369,#370),.UNSPECIFIED.,.F.,.F.,(4,2,2,2,4),(0.305091734220774,0.381326068280631,
0.457560402340488,0.533871935391018,0.610183468441548),.UNSPECIFIED.);
#60=B_SPLINE_CURVE_WITH_KNOTS('',3,(#372,#373,#374,#375,#376,#377,#378,
#379,#380,#381,#382,#383,#384,#385,#386,#387,#388,#389,#390),
 .UNSPECIFIED.,.F.,.F.,(4,2,2,2,3,2,2,2,4),(0.915275202662322,0.991509536722179,
1.06774387078204,1.14405540383257,1.2203669368831,1.29667846993363,1.37299000298416,
1.44922433704401,1.52545867110387),.UNSPECIFIED.);
#61=B_SPLINE_CURVE_WITH_KNOTS('',3,(#404,#405,#406,#407,#408,#409,#410,
#411,#412,#413),.UNSPECIFIED.,.F.,.F.,(4,2,2,2,4),(0.615024883366032,0.692007923542327,
0.768990963718621,0.845764144383835,0.922537325049048),.UNSPECIFIED.);
#62=B_SPLINE_CURVE_WITH_KNOTS('',3,(#414,#415,#416,#417,#418,#419,#420,
#421,#422,#423),.UNSPECIFIED.,.F.,.F.,(4,2,2,2,4),(0.307512441683016,0.384285622348229,
0.461058803013443,0.538041843189737,0.615024883366032),.UNSPECIFIED.);
#63=CIRCLE('',#224,4.);
#64=CIRCLE('',#225,4.);
#65=CIRCLE('',#228,3.2);
#66=CIRCLE('',#229,3.2);
#67=CIRCLE('',#231,5.);
#68=CIRCLE('',#232,5.);
#69=CIRCLE('',#233,5.);
#70=CIRCLE('',#237,1.0564303);
#71=CIRCLE('',#238,1.0564303);
#72=CIRCLE('',#239,1.0564303);
#73=CIRCLE('',#241,4.);
#74=CIRCLE('',#242,4.);
#75=LINE('',#306,#83);
#76=LINE('',#333,#84);
#77=LINE('',#335,#85);
#78=LINE('',#337,#86);
#79=LINE('',#338,#87);
#80=LINE('',#348,#88);
#81=LINE('',#399,#89);
#82=LINE('',#428,#90);
#83=VECTOR('',#250,4.);
#84=VECTOR('',#257,10.);
#85=VECTOR('',#258,10.);
#86=VECTOR('',#259,10.);
#87=VECTOR('',#260,10.);
#88=VECTOR('',#273,5.);
#89=VECTOR('',#286,1.0564303);
#90=VECTOR('',#301,2.);
#91=VERTEX_POINT('',#304);
#92=VERTEX_POINT('',#305);
#93=VERTEX_POINT('',#307);
#94=VERTEX_POINT('',#309);
#95=VERTEX_POINT('',#331);
#96=VERTEX_POINT('',#332);
#97=VERTEX_POINT('',#334);
#98=VERTEX_POINT('',#336);
#99=VERTEX_POINT('',#343);
#100=VERTEX_POINT('',#344);
#101=VERTEX_POINT('',#347);
#102=VERTEX_POINT('',#349);
#103=VERTEX_POINT('',#360);
#104=VERTEX_POINT('',#394);
#105=VERTEX_POINT('',#395);
#106=VERTEX_POINT('',#398);
#107=VERTEX_POINT('',#403);
#108=EDGE_CURVE('',#91,#92,#75,.T.);
#109=EDGE_CURVE('',#91,#93,#63,.T.);
#110=EDGE_CURVE('',#94,#93,#57,.T.);
#111=EDGE_CURVE('',#92,#94,#64,.T.);
#112=EDGE_CURVE('',#95,#96,#76,.T.);
#113=EDGE_CURVE('',#97,#95,#77,.T.);
#114=EDGE_CURVE('',#98,#97,#78,.T.);
#115=EDGE_CURVE('',#96,#98,#79,.T.);
#116=EDGE_CURVE('',#96,#95,#65,.T.);
#117=EDGE_CURVE('',#97,#98,#66,.T.);
#118=EDGE_CURVE('',#99,#100,#67,.T.);
#119=EDGE_CURVE('',#100,#99,#68,.T.);
#120=EDGE_CURVE('',#100,#101,#80,.T.);
#121=EDGE_CURVE('',#102,#101,#58,.T.);
#122=EDGE_CURVE('',#103,#102,#59,.T.);
#123=EDGE_CURVE('',#103,#103,#69,.T.);
#124=EDGE_CURVE('',#101,#103,#60,.T.);
#125=EDGE_CURVE('',#104,#105,#70,.T.);
#126=EDGE_CURVE('',#105,#104,#71,.T.);
#127=EDGE_CURVE('',#105,#106,#81,.T.);
#128=EDGE_CURVE('',#106,#106,#72,.T.);
#129=EDGE_CURVE('',#94,#92,#73,.T.);
#130=EDGE_CURVE('',#107,#94,#61,.T.);
#131=EDGE_CURVE('',#93,#107,#62,.T.);
#132=EDGE_CURVE('',#93,#91,#74,.T.);
#133=EDGE_CURVE('',#102,#107,#82,.T.);
#134=ORIENTED_EDGE('',*,*,#108,.F.);
#135=ORIENTED_EDGE('',*,*,#109,.T.);
#136=ORIENTED_EDGE('',*,*,#110,.F.);
#137=ORIENTED_EDGE('',*,*,#111,.F.);
#138=ORIENTED_EDGE('',*,*,#112,.F.);
#139=ORIENTED_EDGE('',*,*,#113,.F.);
#140=ORIENTED_EDGE('',*,*,#114,.F.);
#141=ORIENTED_EDGE('',*,*,#115,.F.);
#142=ORIENTED_EDGE('',*,*,#116,.F.);
#143=ORIENTED_EDGE('',*,*,#115,.T.);
#144=ORIENTED_EDGE('',*,*,#117,.F.);
#145=ORIENTED_EDGE('',*,*,#113,.T.);
#146=ORIENTED_EDGE('',*,*,#118,.F.);
#147=ORIENTED_EDGE('',*,*,#119,.F.);
#148=ORIENTED_EDGE('',*,*,#120,.T.);
#149=ORIENTED_EDGE('',*,*,#121,.F.);
#150=ORIENTED_EDGE('',*,*,#122,.F.);
#151=ORIENTED_EDGE('',*,*,#123,.F.);
#152=ORIENTED_EDGE('',*,*,#124,.F.);
#153=ORIENTED_EDGE('',*,*,#120,.F.);
#154=ORIENTED_EDGE('',*,*,#123,.T.);
#155=ORIENTED_EDGE('',*,*,#116,.T.);
#156=ORIENTED_EDGE('',*,*,#112,.T.);
#157=ORIENTED_EDGE('',*,*,#118,.T.);
#158=ORIENTED_EDGE('',*,*,#119,.T.);
#159=ORIENTED_EDGE('',*,*,#117,.T.);
#160=ORIENTED_EDGE('',*,*,#114,.T.);
#161=ORIENTED_EDGE('',*,*,#125,.F.);
#162=ORIENTED_EDGE('',*,*,#126,.F.);
#163=ORIENTED_EDGE('',*,*,#127,.T.);
#164=ORIENTED_EDGE('',*,*,#128,.F.);
#165=ORIENTED_EDGE('',*,*,#127,.F.);
#166=ORIENTED_EDGE('',*,*,#108,.T.);
#167=ORIENTED_EDGE('',*,*,#129,.F.);
#168=ORIENTED_EDGE('',*,*,#130,.F.);
#169=ORIENTED_EDGE('',*,*,#131,.F.);
#170=ORIENTED_EDGE('',*,*,#132,.T.);
#171=ORIENTED_EDGE('',*,*,#129,.T.);
#172=ORIENTED_EDGE('',*,*,#111,.T.);
#173=ORIENTED_EDGE('',*,*,#125,.T.);
#174=ORIENTED_EDGE('',*,*,#126,.T.);
#175=ORIENTED_EDGE('',*,*,#132,.F.);
#176=ORIENTED_EDGE('',*,*,#109,.F.);
#177=ORIENTED_EDGE('',*,*,#128,.T.);
#178=ORIENTED_EDGE('',*,*,#122,.T.);
#179=ORIENTED_EDGE('',*,*,#133,.T.);
#180=ORIENTED_EDGE('',*,*,#130,.T.);
#181=ORIENTED_EDGE('',*,*,#110,.T.);
#182=ORIENTED_EDGE('',*,*,#131,.T.);
#183=ORIENTED_EDGE('',*,*,#133,.F.);
#184=ORIENTED_EDGE('',*,*,#121,.T.);
#185=ORIENTED_EDGE('',*,*,#124,.T.);
#186=CYLINDRICAL_SURFACE('',#223,4.);
#187=CYLINDRICAL_SURFACE('',#227,3.2);
#188=CYLINDRICAL_SURFACE('',#230,5.);
#189=CYLINDRICAL_SURFACE('',#236,1.0564303);
#190=CYLINDRICAL_SURFACE('',#240,4.);
#191=CYLINDRICAL_SURFACE('',#245,2.);
#192=ADVANCED_FACE('',(#31),#186,.T.);
#193=ADVANCED_FACE('',(#32),#26,.F.);
#194=ADVANCED_FACE('',(#33),#187,.F.);
#195=ADVANCED_FACE('',(#34),#188,.T.);
#196=ADVANCED_FACE('',(#35,#22),#27,.F.);
#197=ADVANCED_FACE('',(#36,#23),#28,.T.);
#198=ADVANCED_FACE('',(#37),#189,.F.);
#199=ADVANCED_FACE('',(#38),#190,.T.);
#200=ADVANCED_FACE('',(#39,#24),#29,.F.);
#201=ADVANCED_FACE('',(#40,#25),#30,.T.);
#202=ADVANCED_FACE('',(#41),#191,.T.);
#203=CLOSED_SHELL('',(#192,#193,#194,#195,#196,#197,#198,#199,#200,#201,
#202));
#204=DERIVED_UNIT_ELEMENT(#206,1.);
#205=DERIVED_UNIT_ELEMENT(#440,3.);
#206=(
MASS_UNIT()
NAMED_UNIT(*)
SI_UNIT($,.GRAM.)
);
#207=DERIVED_UNIT((#204,#205));
#208=MEASURE_REPRESENTATION_ITEM('density measure',
POSITIVE_RATIO_MEASURE(1.),#207);
#209=PROPERTY_DEFINITION_REPRESENTATION(#214,#211);
#210=PROPERTY_DEFINITION_REPRESENTATION(#215,#212);
#211=REPRESENTATION('material name',(#213),#437);
#212=REPRESENTATION('density',(#208),#437);
#213=DESCRIPTIVE_REPRESENTATION_ITEM('Gen\X\E9rico','Gen\X\E9rico');
#214=PROPERTY_DEFINITION('material property','material name',#447);
#215=PROPERTY_DEFINITION('material property','density of part',#447);
#216=DATE_TIME_ROLE('creation_date');
#217=APPLIED_DATE_AND_TIME_ASSIGNMENT(#218,#216,(#447));
#218=DATE_AND_TIME(#219,#220);
#219=CALENDAR_DATE(2021,25,4);
#220=LOCAL_TIME(0,0,0.,#221);
#221=COORDINATED_UNIVERSAL_TIME_OFFSET(0,0,.BEHIND.);
#222=AXIS2_PLACEMENT_3D('placement',#302,#246,#247);
#223=AXIS2_PLACEMENT_3D('',#303,#248,#249);
#224=AXIS2_PLACEMENT_3D('',#308,#251,#252);
#225=AXIS2_PLACEMENT_3D('',#329,#253,#254);
#226=AXIS2_PLACEMENT_3D('',#330,#255,#256);
#227=AXIS2_PLACEMENT_3D('',#339,#261,#262);
#228=AXIS2_PLACEMENT_3D('',#340,#263,#264);
#229=AXIS2_PLACEMENT_3D('',#341,#265,#266);
#230=AXIS2_PLACEMENT_3D('',#342,#267,#268);
#231=AXIS2_PLACEMENT_3D('',#345,#269,#270);
#232=AXIS2_PLACEMENT_3D('',#346,#271,#272);
#233=AXIS2_PLACEMENT_3D('',#371,#274,#275);
#234=AXIS2_PLACEMENT_3D('',#391,#276,#277);
#235=AXIS2_PLACEMENT_3D('',#392,#278,#279);
#236=AXIS2_PLACEMENT_3D('',#393,#280,#281);
#237=AXIS2_PLACEMENT_3D('',#396,#282,#283);
#238=AXIS2_PLACEMENT_3D('',#397,#284,#285);
#239=AXIS2_PLACEMENT_3D('',#400,#287,#288);
#240=AXIS2_PLACEMENT_3D('',#401,#289,#290);
#241=AXIS2_PLACEMENT_3D('',#402,#291,#292);
#242=AXIS2_PLACEMENT_3D('',#424,#293,#294);
#243=AXIS2_PLACEMENT_3D('',#425,#295,#296);
#244=AXIS2_PLACEMENT_3D('',#426,#297,#298);
#245=AXIS2_PLACEMENT_3D('',#427,#299,#300);
#246=DIRECTION('axis',(0.,0.,1.));
#247=DIRECTION('refdir',(1.,0.,0.));
#248=DIRECTION('center_axis',(0.,0.,1.));
#249=DIRECTION('ref_axis',(1.,0.,0.));
#250=DIRECTION('',(0.,0.,-1.));
#251=DIRECTION('center_axis',(0.,0.,-1.));
#252=DIRECTION('ref_axis',(1.,0.,0.));
#253=DIRECTION('center_axis',(0.,0.,-1.));
#254=DIRECTION('ref_axis',(1.,0.,0.));
#255=DIRECTION('center_axis',(-1.,0.,0.));
#256=DIRECTION('ref_axis',(0.,-1.,0.));
#257=DIRECTION('',(0.,-1.,0.));
#258=DIRECTION('',(0.,0.,-1.));
#259=DIRECTION('',(0.,1.,0.));
#260=DIRECTION('',(0.,0.,1.));
#261=DIRECTION('center_axis',(0.,0.,1.));
#262=DIRECTION('ref_axis',(1.,3.46944695195361E-16,0.));
#263=DIRECTION('center_axis',(0.,0.,1.));
#264=DIRECTION('ref_axis',(-0.661437827766148,-0.75,0.));
#265=DIRECTION('center_axis',(0.,0.,-1.));
#266=DIRECTION('ref_axis',(-0.661437827766148,-0.75,0.));
#267=DIRECTION('center_axis',(0.,0.,1.));
#268=DIRECTION('ref_axis',(1.,0.,0.));
#269=DIRECTION('center_axis',(0.,0.,1.));
#270=DIRECTION('ref_axis',(1.,0.,0.));
#271=DIRECTION('center_axis',(0.,0.,1.));
#272=DIRECTION('ref_axis',(1.,0.,0.));
#273=DIRECTION('',(0.,0.,-1.));
#274=DIRECTION('center_axis',(0.,0.,-1.));
#275=DIRECTION('ref_axis',(1.,0.,0.));
#276=DIRECTION('center_axis',(0.,0.,1.));
#277=DIRECTION('ref_axis',(1.,0.,0.));
#278=DIRECTION('center_axis',(0.,0.,1.));
#279=DIRECTION('ref_axis',(1.,0.,0.));
#280=DIRECTION('center_axis',(0.,0.,-1.));
#281=DIRECTION('ref_axis',(-1.,0.,0.));
#282=DIRECTION('center_axis',(0.,0.,1.));
#283=DIRECTION('ref_axis',(-1.,0.,0.));
#284=DIRECTION('center_axis',(0.,0.,1.));
#285=DIRECTION('ref_axis',(-1.,0.,0.));
#286=DIRECTION('',(0.,0.,1.));
#287=DIRECTION('center_axis',(0.,0.,-1.));
#288=DIRECTION('ref_axis',(-1.,0.,0.));
#289=DIRECTION('center_axis',(0.,0.,1.));
#290=DIRECTION('ref_axis',(1.,0.,0.));
#291=DIRECTION('center_axis',(0.,0.,-1.));
#292=DIRECTION('ref_axis',(1.,0.,0.));
#293=DIRECTION('center_axis',(0.,0.,-1.));
#294=DIRECTION('ref_axis',(1.,0.,0.));
#295=DIRECTION('center_axis',(0.,0.,1.));
#296=DIRECTION('ref_axis',(1.,0.,0.));
#297=DIRECTION('center_axis',(0.,0.,1.));
#298=DIRECTION('ref_axis',(1.,0.,0.));
#299=DIRECTION('center_axis',(1.,0.,0.));
#300=DIRECTION('ref_axis',(0.,1.,0.));
#301=DIRECTION('',(-1.,0.,0.));
#302=CARTESIAN_POINT('',(0.,0.,0.));
#303=CARTESIAN_POINT('Origin',(3.,0.,0.));
#304=CARTESIAN_POINT('',(-1.,-4.89858719658941E-16,2.));
#305=CARTESIAN_POINT('',(-1.,-4.89858719658941E-16,-2.));
#306=CARTESIAN_POINT('',(-1.,-4.89858719658941E-16,0.));
#307=CARTESIAN_POINT('',(7.,0.,2.));
#308=CARTESIAN_POINT('Origin',(3.,0.,2.));
#309=CARTESIAN_POINT('',(7.,0.,-2.));
#310=CARTESIAN_POINT('Ctrl Pts',(7.,6.93889390390723E-17,-2.));
#311=CARTESIAN_POINT('Ctrl Pts',(7.,0.255910602217378,-2.));
#312=CARTESIAN_POINT('Ctrl Pts',(6.97318393670131,0.525890150977711,-1.94792781173826));
#313=CARTESIAN_POINT('Ctrl Pts',(6.87652968207896,1.01748151622875,-1.74233015984916));
#314=CARTESIAN_POINT('Ctrl Pts',(6.807733220141,1.23939333961253,-1.58903378513366));
#315=CARTESIAN_POINT('Ctrl Pts',(6.67540093509768,1.58951165626207,-1.23891546848412));
#316=CARTESIAN_POINT('Ctrl Pts',(6.60239202492136,1.74245741947245,-1.01716471901564));
#317=CARTESIAN_POINT('Ctrl Pts',(6.49565087190587,1.94777116895352,-0.526277202526571));
#318=CARTESIAN_POINT('Ctrl Pts',(6.46410161513776,2.,-0.256610133920982));
#319=CARTESIAN_POINT('Ctrl Pts',(6.46410161513776,2.,0.));
#320=CARTESIAN_POINT('Ctrl Pts',(6.46410161513776,2.,0.256610133920982));
#321=CARTESIAN_POINT('Ctrl Pts',(6.49565087190587,1.94777116895352,0.526277202526571));
#322=CARTESIAN_POINT('Ctrl Pts',(6.60239202492136,1.74245741947245,1.01716471901564));
#323=CARTESIAN_POINT('Ctrl Pts',(6.67540093509768,1.58951165626207,1.23891546848412));
#324=CARTESIAN_POINT('Ctrl Pts',(6.807733220141,1.23939333961253,1.58903378513366));
#325=CARTESIAN_POINT('Ctrl Pts',(6.87652968207896,1.01748151622875,1.74233015984916));
#326=CARTESIAN_POINT('Ctrl Pts',(6.97318393670131,0.52589015097771,1.94792781173826));
#327=CARTESIAN_POINT('Ctrl Pts',(7.,0.255910602217377,2.));
#328=CARTESIAN_POINT('Ctrl Pts',(7.,-4.16333634234434E-16,2.));
#329=CARTESIAN_POINT('Origin',(3.,0.,-2.));
#330=CARTESIAN_POINT('Origin',(67.8910798753961,2.4,2.));
#331=CARTESIAN_POINT('',(67.8910798753961,2.4,-2.));
#332=CARTESIAN_POINT('',(67.8910798753961,-2.4,-2.));
#333=CARTESIAN_POINT('',(67.8910798753961,1.2,-2.));
#334=CARTESIAN_POINT('',(67.8910798753961,2.4,6.5));
#335=CARTESIAN_POINT('',(67.8910798753961,2.4,2.));
#336=CARTESIAN_POINT('',(67.8910798753961,-2.4,6.5));
#337=CARTESIAN_POINT('',(67.8910798753961,1.2,6.5));
#338=CARTESIAN_POINT('',(67.8910798753961,-2.4,2.));
#339=CARTESIAN_POINT('Origin',(70.0076809242478,-6.93889390390723E-17,2.));
#340=CARTESIAN_POINT('Origin',(70.0076809242478,-6.93889390390723E-17,-2.));
#341=CARTESIAN_POINT('Origin',(70.0076809242478,-6.93889390390723E-17,6.5));
#342=CARTESIAN_POINT('Origin',(70.0076809242478,0.,2.));
#343=CARTESIAN_POINT('',(75.0076809242478,0.,6.5));
#344=CARTESIAN_POINT('',(65.0076809242478,-6.12323399573677E-16,6.5));
#345=CARTESIAN_POINT('Origin',(70.0076809242478,0.,6.5));
#346=CARTESIAN_POINT('Origin',(70.0076809242478,0.,6.5));
#347=CARTESIAN_POINT('',(65.0076809242478,-5.49022986423592E-16,2.));
#348=CARTESIAN_POINT('',(65.0076809242478,-6.12323399573677E-16,2.));
#349=CARTESIAN_POINT('',(65.4251052292919,-2.,-2.44929359829471E-16));
#350=CARTESIAN_POINT('Ctrl Pts',(65.4251052292919,-2.,0.));
#351=CARTESIAN_POINT('Ctrl Pts',(65.4251052292919,-2.,0.254371776835101));
#352=CARTESIAN_POINT('Ctrl Pts',(65.4016850904623,-1.94857820072065,0.523440598111858));
#353=CARTESIAN_POINT('Ctrl Pts',(65.3202740755684,-1.74366591114023,1.01517352454281));
#354=CARTESIAN_POINT('Ctrl Pts',(65.2637728224526,-1.59029445166571,1.23813267308049));
#355=CARTESIAN_POINT('Ctrl Pts',(65.1599785066774,-1.23831080168552,1.59011632306067));
#356=CARTESIAN_POINT('Ctrl Pts',(65.1055201586561,-1.01528423068512,1.74362287272866));
#357=CARTESIAN_POINT('Ctrl Pts',(65.028910835707,-0.523288307694095,1.94863856765519));
#358=CARTESIAN_POINT('Ctrl Pts',(65.0076809242478,-0.25411444686619,2.));
#359=CARTESIAN_POINT('Ctrl Pts',(65.0076809242478,-3.46944695195361E-16,
2.));
#360=CARTESIAN_POINT('',(65.0076809242478,0.,-2.));
#361=CARTESIAN_POINT('Ctrl Pts',(65.0076809242478,6.93889390390723E-17,
-2.));
#362=CARTESIAN_POINT('Ctrl Pts',(65.0076809242478,-0.254114446866189,-2.));
#363=CARTESIAN_POINT('Ctrl Pts',(65.028910835707,-0.523288307694096,-1.94863856765519));
#364=CARTESIAN_POINT('Ctrl Pts',(65.1055201586561,-1.01528423068512,-1.74362287272866));
#365=CARTESIAN_POINT('Ctrl Pts',(65.1599785066774,-1.23831080168552,-1.59011632306067));
#366=CARTESIAN_POINT('Ctrl Pts',(65.2637728224526,-1.59029445166571,-1.23813267308049));
#367=CARTESIAN_POINT('Ctrl Pts',(65.3202740755684,-1.74366591114023,-1.01517352454281));
#368=CARTESIAN_POINT('Ctrl Pts',(65.4016850904623,-1.94857820072065,-0.523440598111857));
#369=CARTESIAN_POINT('Ctrl Pts',(65.4251052292919,-2.,-0.254371776835101));
#370=CARTESIAN_POINT('Ctrl Pts',(65.4251052292919,-2.,-6.93889390390723E-17));
#371=CARTESIAN_POINT('Origin',(70.0076809242478,0.,-2.));
#372=CARTESIAN_POINT('Ctrl Pts',(65.0076809242478,-4.85722573273506E-16,
2.));
#373=CARTESIAN_POINT('Ctrl Pts',(65.0076809242478,0.254114446866189,2.));
#374=CARTESIAN_POINT('Ctrl Pts',(65.028910835707,0.523288307694094,1.94863856765519));
#375=CARTESIAN_POINT('Ctrl Pts',(65.1055201586561,1.01528423068511,1.74362287272866));
#376=CARTESIAN_POINT('Ctrl Pts',(65.1599785066774,1.23831080168552,1.59011632306067));
#377=CARTESIAN_POINT('Ctrl Pts',(65.2637728224526,1.5902944516657,1.23813267308049));
#378=CARTESIAN_POINT('Ctrl Pts',(65.3202740755684,1.74366591114023,1.01517352454281));
#379=CARTESIAN_POINT('Ctrl Pts',(65.4016850904623,1.94857820072065,0.523440598111858));
#380=CARTESIAN_POINT('Ctrl Pts',(65.4251052292919,2.,0.254371776835101));
#381=CARTESIAN_POINT('Ctrl Pts',(65.4251052292919,2.,0.));
#382=CARTESIAN_POINT('Ctrl Pts',(65.4251052292919,2.,-0.254371776835101));
#383=CARTESIAN_POINT('Ctrl Pts',(65.4016850904623,1.94857820072065,-0.523440598111858));
#384=CARTESIAN_POINT('Ctrl Pts',(65.3202740755684,1.74366591114023,-1.01517352454281));
#385=CARTESIAN_POINT('Ctrl Pts',(65.2637728224526,1.59029445166571,-1.23813267308049));
#386=CARTESIAN_POINT('Ctrl Pts',(65.1599785066774,1.23831080168552,-1.59011632306067));
#387=CARTESIAN_POINT('Ctrl Pts',(65.1055201586561,1.01528423068512,-1.74362287272866));
#388=CARTESIAN_POINT('Ctrl Pts',(65.028910835707,0.523288307694095,-1.94863856765519));
#389=CARTESIAN_POINT('Ctrl Pts',(65.0076809242478,0.254114446866189,-2.));
#390=CARTESIAN_POINT('Ctrl Pts',(65.0076809242478,0.,-2.));
#391=CARTESIAN_POINT('Origin',(70.0076809242478,0.,-2.));
#392=CARTESIAN_POINT('Origin',(70.0076809242478,0.,6.5));
#393=CARTESIAN_POINT('Origin',(3.,0.,69.5613583579307));
#394=CARTESIAN_POINT('',(1.9435697,0.,-2.));
#395=CARTESIAN_POINT('',(4.0564303,-1.29375398541728E-16,-2.));
#396=CARTESIAN_POINT('Origin',(3.,0.,-2.));
#397=CARTESIAN_POINT('Origin',(3.,0.,-2.));
#398=CARTESIAN_POINT('',(4.0564303,-1.29375398541728E-16,2.));
#399=CARTESIAN_POINT('',(4.0564303,-1.29375398541728E-16,69.5613583579307));
#400=CARTESIAN_POINT('Origin',(3.,0.,2.));
#401=CARTESIAN_POINT('Origin',(3.,0.,0.));
#402=CARTESIAN_POINT('Origin',(3.,0.,-2.));
#403=CARTESIAN_POINT('',(6.46410161513776,-2.,-2.44929359829471E-16));
#404=CARTESIAN_POINT('Ctrl Pts',(6.46410161513776,-2.,-2.77555756156289E-16));
#405=CARTESIAN_POINT('Ctrl Pts',(6.46410161513776,-2.,-0.256610133920982));
#406=CARTESIAN_POINT('Ctrl Pts',(6.49565087190587,-1.94777116895352,-0.526277202526571));
#407=CARTESIAN_POINT('Ctrl Pts',(6.60239202492136,-1.74245741947245,-1.01716471901564));
#408=CARTESIAN_POINT('Ctrl Pts',(6.67540093509768,-1.58951165626207,-1.23891546848412));
#409=CARTESIAN_POINT('Ctrl Pts',(6.807733220141,-1.23939333961253,-1.58903378513366));
#410=CARTESIAN_POINT('Ctrl Pts',(6.87652968207896,-1.01748151622875,-1.74233015984916));
#411=CARTESIAN_POINT('Ctrl Pts',(6.97318393670131,-0.52589015097771,-1.94792781173826));
#412=CARTESIAN_POINT('Ctrl Pts',(7.,-0.255910602217378,-2.));
#413=CARTESIAN_POINT('Ctrl Pts',(7.,2.77555756156289E-16,-2.));
#414=CARTESIAN_POINT('Ctrl Pts',(7.,-2.08166817117217E-16,2.));
#415=CARTESIAN_POINT('Ctrl Pts',(7.,-0.255910602217378,2.));
#416=CARTESIAN_POINT('Ctrl Pts',(6.97318393670131,-0.525890150977711,1.94792781173826));
#417=CARTESIAN_POINT('Ctrl Pts',(6.87652968207896,-1.01748151622875,1.74233015984916));
#418=CARTESIAN_POINT('Ctrl Pts',(6.807733220141,-1.23939333961253,1.58903378513366));
#419=CARTESIAN_POINT('Ctrl Pts',(6.67540093509768,-1.58951165626207,1.23891546848412));
#420=CARTESIAN_POINT('Ctrl Pts',(6.60239202492136,-1.74245741947245,1.01716471901564));
#421=CARTESIAN_POINT('Ctrl Pts',(6.49565087190587,-1.94777116895352,0.526277202526571));
#422=CARTESIAN_POINT('Ctrl Pts',(6.46410161513776,-2.,0.256610133920982));
#423=CARTESIAN_POINT('Ctrl Pts',(6.46410161513776,-2.,1.38777878078145E-16));
#424=CARTESIAN_POINT('Origin',(3.,0.,2.));
#425=CARTESIAN_POINT('Origin',(3.,0.,-2.));
#426=CARTESIAN_POINT('Origin',(3.,0.,2.));
#427=CARTESIAN_POINT('Origin',(0.,0.,0.));
#428=CARTESIAN_POINT('',(0.,-2.,-2.44929359829471E-16));
#429=CARTESIAN_POINT('polyline point',(67.8910798753961,5.,-2.));
#430=CARTESIAN_POINT('polyline point',(67.8910798753961,5.,6.5));
#431=CARTESIAN_POINT('polyline point',(67.8910798753961,5.,-2.));
#432=CARTESIAN_POINT('polyline point',(67.8910798753961,6.02467022648729,
7.03117524810327));
#433=CARTESIAN_POINT('polyline point',(67.8910798753961,6.02467022648729,
7.03117524810327));
#434=CARTESIAN_POINT('polyline point',(67.8910798753961,11.0147219039951,
11.0568918763838));
#435=UNCERTAINTY_MEASURE_WITH_UNIT(LENGTH_MEASURE(0.01),#439,
'DISTANCE_ACCURACY_VALUE',
'Maximum model space distance between geometric entities at asserted c
onnectivities');
#436=UNCERTAINTY_MEASURE_WITH_UNIT(LENGTH_MEASURE(0.01),#439,
'DISTANCE_ACCURACY_VALUE',
'Maximum model space distance between geometric entities at asserted c
onnectivities');
#437=(
GEOMETRIC_REPRESENTATION_CONTEXT(3)
GLOBAL_UNCERTAINTY_ASSIGNED_CONTEXT((#435))
GLOBAL_UNIT_ASSIGNED_CONTEXT((#439,#441,#442))
REPRESENTATION_CONTEXT('','3D')
);
#438=(
GEOMETRIC_REPRESENTATION_CONTEXT(3)
GLOBAL_UNCERTAINTY_ASSIGNED_CONTEXT((#436))
GLOBAL_UNIT_ASSIGNED_CONTEXT((#439,#441,#442))
REPRESENTATION_CONTEXT('','3D')
);
#439=(
LENGTH_UNIT()
NAMED_UNIT(*)
SI_UNIT(.MILLI.,.METRE.)
);
#440=(
LENGTH_UNIT()
NAMED_UNIT(*)
SI_UNIT(.CENTI.,.METRE.)
);
#441=(
NAMED_UNIT(*)
PLANE_ANGLE_UNIT()
SI_UNIT($,.RADIAN.)
);
#442=(
NAMED_UNIT(*)
SI_UNIT($,.STERADIAN.)
SOLID_ANGLE_UNIT()
);
#443=SHAPE_DEFINITION_REPRESENTATION(#444,#445);
#444=PRODUCT_DEFINITION_SHAPE('',$,#447);
#445=SHAPE_REPRESENTATION('',(#222),#437);
#446=PRODUCT_DEFINITION_CONTEXT('part definition',#451,'design');
#447=PRODUCT_DEFINITION('ROD2V2D2_70mm','ROD2V2D2_70mm',#448,#446);
#448=PRODUCT_DEFINITION_FORMATION('',$,#453);
#449=PRODUCT_RELATED_PRODUCT_CATEGORY('ROD2V2D2_70mm','ROD2V2D2_70mm',(#453));
#450=APPLICATION_PROTOCOL_DEFINITION('international standard',
'automotive_design',2009,#451);
#451=APPLICATION_CONTEXT(
'Core Data for Automotive Mechanical Design Process');
#452=PRODUCT_CONTEXT('part definition',#451,'mechanical');
#453=PRODUCT('ROD2V2D2_70mm','ROD2V2D2_70mm',$,(#452));
#454=PRESENTATION_STYLE_ASSIGNMENT((#456));
#455=PRESENTATION_STYLE_ASSIGNMENT((#457));
#456=SURFACE_STYLE_USAGE(.BOTH.,#460);
#457=SURFACE_STYLE_USAGE(.BOTH.,#461);
#458=SURFACE_STYLE_RENDERING_WITH_PROPERTIES($,#468,(#459));
#459=SURFACE_STYLE_TRANSPARENT(0.);
#460=SURFACE_SIDE_STYLE('',(#462,#458));
#461=SURFACE_SIDE_STYLE('',(#463));
#462=SURFACE_STYLE_FILL_AREA(#464);
#463=SURFACE_STYLE_FILL_AREA(#465);
#464=FILL_AREA_STYLE('',(#466));
#465=FILL_AREA_STYLE('',(#467));
#466=FILL_AREA_STYLE_COLOUR('',#468);
#467=FILL_AREA_STYLE_COLOUR('',#469);
#468=COLOUR_RGB('',0.749019607843137,0.749019607843137,0.749019607843137);
#469=COLOUR_RGB('',1.,1.,0.);
ENDSEC;
END-ISO-10303-21;
