ISO-10303-21;
HEADER;
/* Generated by software containing ST-Developer
 * from STEP Tools, Inc. (www.steptools.com) 
 */

FILE_DESCRIPTION(
/* description */ (''),
/* implementation_level */ '2;1');

FILE_NAME(
/* name */ 
'C:\\Users\\svale\\OneDrive\\Upwork\\Controller\\Hand\\ThumbV2D2.ipt.s
tp',
/* time_stamp */ '2021-06-20T10:03:07-05:00',
/* author */ ('svale'),
/* organization */ (''),
/* preprocessor_version */ 'ST-DEVELOPER v18.1',
/* originating_system */ 'Autodesk Inventor 2021',
/* authorisation */ '');

FILE_SCHEMA (('AUTOMOTIVE_DESIGN { 1 0 10303 214 3 1 1 }'));
ENDSEC;

DATA;
#10=MECHANICAL_DESIGN_GEOMETRIC_PRESENTATION_REPRESENTATION('',(#13),#363);
#11=SHAPE_REPRESENTATION_RELATIONSHIP('SRR','None',#370,#12);
#12=ADVANCED_BREP_SHAPE_REPRESENTATION('',(#14),#362);
#13=STYLED_ITEM('',(#379),#14);
#14=MANIFOLD_SOLID_BREP('S\X\F3lido1',#185);
#15=FACE_BOUND('',#39,.T.);
#16=FACE_BOUND('',#43,.T.);
#17=FACE_BOUND('',#46,.T.);
#18=FACE_BOUND('',#48,.T.);
#19=FACE_BOUND('',#50,.T.);
#20=PLANE('',#212);
#21=PLANE('',#219);
#22=PLANE('',#228);
#23=PLANE('',#229);
#24=B_SPLINE_CURVE_WITH_KNOTS('',3,(#301,#302,#303,#304,#305,#306,#307,
#308,#309,#310),.UNSPECIFIED.,.F.,.F.,(4,2,2,2,4),(0.467653139240832,0.529224968029065,
0.665582613264395,0.801940258499725,0.863512087287957),.UNSPECIFIED.);
#25=B_SPLINE_CURVE_WITH_KNOTS('',3,(#328,#329,#330,#331,#332,#333,#334,
#335,#336,#337,#338),.UNSPECIFIED.,.F.,.F.,(4,2,3,2,4),(-0.197929473647631,
-0.13635764523533,0.,0.13635764523533,0.197929474023563),.UNSPECIFIED.);
#26=FACE_OUTER_BOUND('',#36,.T.);
#27=FACE_OUTER_BOUND('',#37,.T.);
#28=FACE_OUTER_BOUND('',#38,.T.);
#29=FACE_OUTER_BOUND('',#40,.T.);
#30=FACE_OUTER_BOUND('',#41,.T.);
#31=FACE_OUTER_BOUND('',#42,.T.);
#32=FACE_OUTER_BOUND('',#44,.T.);
#33=FACE_OUTER_BOUND('',#45,.T.);
#34=FACE_OUTER_BOUND('',#47,.T.);
#35=FACE_OUTER_BOUND('',#49,.T.);
#36=EDGE_LOOP('',(#121,#122,#123,#124,#125));
#37=EDGE_LOOP('',(#126,#127,#128,#129));
#38=EDGE_LOOP('',(#130,#131,#132,#133));
#39=EDGE_LOOP('',(#134,#135));
#40=EDGE_LOOP('',(#136,#137,#138,#139));
#41=EDGE_LOOP('',(#140,#141,#142,#143));
#42=EDGE_LOOP('',(#144,#145,#146,#147));
#43=EDGE_LOOP('',(#148));
#44=EDGE_LOOP('',(#149,#150,#151,#152));
#45=EDGE_LOOP('',(#153,#154,#155,#156,#157,#158));
#46=EDGE_LOOP('',(#159,#160,#161,#162));
#47=EDGE_LOOP('',(#163,#164));
#48=EDGE_LOOP('',(#165));
#49=EDGE_LOOP('',(#166,#167));
#50=EDGE_LOOP('',(#168));
#51=LINE('',#296,#58);
#52=LINE('',#314,#59);
#53=LINE('',#318,#60);
#54=LINE('',#324,#61);
#55=LINE('',#341,#62);
#56=LINE('',#346,#63);
#57=LINE('',#354,#64);
#58=VECTOR('',#238,1.0564303);
#59=VECTOR('',#245,10.);
#60=VECTOR('',#250,10.);
#61=VECTOR('',#257,10.);
#62=VECTOR('',#266,10.);
#63=VECTOR('',#271,10.5);
#64=VECTOR('',#280,12.);
#65=CIRCLE('',#206,1.0564303);
#66=CIRCLE('',#207,1.0564303);
#67=CIRCLE('',#208,1.0564303);
#68=CIRCLE('',#210,2.65020181125584);
#69=CIRCLE('',#211,2.65020181125584);
#70=CIRCLE('',#213,2.65020181125584);
#71=CIRCLE('',#214,4.);
#72=CIRCLE('',#216,4.);
#73=CIRCLE('',#218,2.65020181125584);
#74=CIRCLE('',#221,10.5);
#75=CIRCLE('',#222,10.5);
#76=CIRCLE('',#224,12.);
#77=CIRCLE('',#225,12.);
#78=CIRCLE('',#226,12.);
#79=CIRCLE('',#227,12.);
#80=VERTEX_POINT('',#291);
#81=VERTEX_POINT('',#292);
#82=VERTEX_POINT('',#295);
#83=VERTEX_POINT('',#299);
#84=VERTEX_POINT('',#300);
#85=VERTEX_POINT('',#311);
#86=VERTEX_POINT('',#313);
#87=VERTEX_POINT('',#317);
#88=VERTEX_POINT('',#319);
#89=VERTEX_POINT('',#323);
#90=VERTEX_POINT('',#327);
#91=VERTEX_POINT('',#343);
#92=VERTEX_POINT('',#345);
#93=VERTEX_POINT('',#349);
#94=VERTEX_POINT('',#350);
#95=VERTEX_POINT('',#353);
#96=VERTEX_POINT('',#355);
#97=EDGE_CURVE('',#80,#81,#65,.T.);
#98=EDGE_CURVE('',#81,#80,#66,.T.);
#99=EDGE_CURVE('',#81,#82,#51,.T.);
#100=EDGE_CURVE('',#82,#82,#67,.T.);
#101=EDGE_CURVE('',#83,#84,#24,.T.);
#102=EDGE_CURVE('',#85,#83,#68,.T.);
#103=EDGE_CURVE('',#85,#86,#52,.T.);
#104=EDGE_CURVE('',#84,#86,#69,.T.);
#105=EDGE_CURVE('',#87,#83,#53,.T.);
#106=EDGE_CURVE('',#87,#88,#70,.T.);
#107=EDGE_CURVE('',#88,#85,#71,.T.);
#108=EDGE_CURVE('',#89,#88,#54,.T.);
#109=EDGE_CURVE('',#86,#89,#72,.T.);
#110=EDGE_CURVE('',#90,#87,#25,.T.);
#111=EDGE_CURVE('',#89,#90,#73,.T.);
#112=EDGE_CURVE('',#84,#90,#55,.T.);
#113=EDGE_CURVE('',#91,#91,#74,.T.);
#114=EDGE_CURVE('',#91,#92,#56,.T.);
#115=EDGE_CURVE('',#92,#92,#75,.T.);
#116=EDGE_CURVE('',#93,#94,#76,.T.);
#117=EDGE_CURVE('',#94,#93,#77,.T.);
#118=EDGE_CURVE('',#94,#95,#57,.T.);
#119=EDGE_CURVE('',#95,#96,#78,.T.);
#120=EDGE_CURVE('',#96,#95,#79,.T.);
#121=ORIENTED_EDGE('',*,*,#97,.F.);
#122=ORIENTED_EDGE('',*,*,#98,.F.);
#123=ORIENTED_EDGE('',*,*,#99,.T.);
#124=ORIENTED_EDGE('',*,*,#100,.F.);
#125=ORIENTED_EDGE('',*,*,#99,.F.);
#126=ORIENTED_EDGE('',*,*,#101,.F.);
#127=ORIENTED_EDGE('',*,*,#102,.F.);
#128=ORIENTED_EDGE('',*,*,#103,.T.);
#129=ORIENTED_EDGE('',*,*,#104,.F.);
#130=ORIENTED_EDGE('',*,*,#105,.F.);
#131=ORIENTED_EDGE('',*,*,#106,.T.);
#132=ORIENTED_EDGE('',*,*,#107,.T.);
#133=ORIENTED_EDGE('',*,*,#102,.T.);
#134=ORIENTED_EDGE('',*,*,#97,.T.);
#135=ORIENTED_EDGE('',*,*,#98,.T.);
#136=ORIENTED_EDGE('',*,*,#108,.F.);
#137=ORIENTED_EDGE('',*,*,#109,.F.);
#138=ORIENTED_EDGE('',*,*,#103,.F.);
#139=ORIENTED_EDGE('',*,*,#107,.F.);
#140=ORIENTED_EDGE('',*,*,#110,.F.);
#141=ORIENTED_EDGE('',*,*,#111,.F.);
#142=ORIENTED_EDGE('',*,*,#108,.T.);
#143=ORIENTED_EDGE('',*,*,#106,.F.);
#144=ORIENTED_EDGE('',*,*,#112,.F.);
#145=ORIENTED_EDGE('',*,*,#104,.T.);
#146=ORIENTED_EDGE('',*,*,#109,.T.);
#147=ORIENTED_EDGE('',*,*,#111,.T.);
#148=ORIENTED_EDGE('',*,*,#100,.T.);
#149=ORIENTED_EDGE('',*,*,#113,.F.);
#150=ORIENTED_EDGE('',*,*,#114,.T.);
#151=ORIENTED_EDGE('',*,*,#115,.T.);
#152=ORIENTED_EDGE('',*,*,#114,.F.);
#153=ORIENTED_EDGE('',*,*,#116,.F.);
#154=ORIENTED_EDGE('',*,*,#117,.F.);
#155=ORIENTED_EDGE('',*,*,#118,.T.);
#156=ORIENTED_EDGE('',*,*,#119,.T.);
#157=ORIENTED_EDGE('',*,*,#120,.T.);
#158=ORIENTED_EDGE('',*,*,#118,.F.);
#159=ORIENTED_EDGE('',*,*,#105,.T.);
#160=ORIENTED_EDGE('',*,*,#101,.T.);
#161=ORIENTED_EDGE('',*,*,#112,.T.);
#162=ORIENTED_EDGE('',*,*,#110,.T.);
#163=ORIENTED_EDGE('',*,*,#116,.T.);
#164=ORIENTED_EDGE('',*,*,#117,.T.);
#165=ORIENTED_EDGE('',*,*,#113,.T.);
#166=ORIENTED_EDGE('',*,*,#120,.F.);
#167=ORIENTED_EDGE('',*,*,#119,.F.);
#168=ORIENTED_EDGE('',*,*,#115,.F.);
#169=CYLINDRICAL_SURFACE('',#205,1.0564303);
#170=CYLINDRICAL_SURFACE('',#209,2.65020181125584);
#171=CYLINDRICAL_SURFACE('',#215,4.);
#172=CYLINDRICAL_SURFACE('',#217,2.65020181125584);
#173=CYLINDRICAL_SURFACE('',#220,10.5);
#174=CYLINDRICAL_SURFACE('',#223,12.);
#175=ADVANCED_FACE('',(#26),#169,.F.);
#176=ADVANCED_FACE('',(#27),#170,.F.);
#177=ADVANCED_FACE('',(#28,#15),#20,.F.);
#178=ADVANCED_FACE('',(#29),#171,.T.);
#179=ADVANCED_FACE('',(#30),#172,.F.);
#180=ADVANCED_FACE('',(#31,#16),#21,.T.);
#181=ADVANCED_FACE('',(#32),#173,.F.);
#182=ADVANCED_FACE('',(#33,#17),#174,.T.);
#183=ADVANCED_FACE('',(#34,#18),#22,.T.);
#184=ADVANCED_FACE('',(#35,#19),#23,.F.);
#185=CLOSED_SHELL('',(#175,#176,#177,#178,#179,#180,#181,#182,#183,#184));
#186=DERIVED_UNIT_ELEMENT(#188,1.);
#187=DERIVED_UNIT_ELEMENT(#365,3.);
#188=(
MASS_UNIT()
NAMED_UNIT(*)
SI_UNIT($,.GRAM.)
);
#189=DERIVED_UNIT((#186,#187));
#190=MEASURE_REPRESENTATION_ITEM('density measure',
POSITIVE_RATIO_MEASURE(1.),#189);
#191=PROPERTY_DEFINITION_REPRESENTATION(#196,#193);
#192=PROPERTY_DEFINITION_REPRESENTATION(#197,#194);
#193=REPRESENTATION('material name',(#195),#362);
#194=REPRESENTATION('density',(#190),#362);
#195=DESCRIPTIVE_REPRESENTATION_ITEM('Gen\X\E9rico','Gen\X\E9rico');
#196=PROPERTY_DEFINITION('material property','material name',#372);
#197=PROPERTY_DEFINITION('material property','density of part',#372);
#198=DATE_TIME_ROLE('creation_date');
#199=APPLIED_DATE_AND_TIME_ASSIGNMENT(#200,#198,(#372));
#200=DATE_AND_TIME(#201,#202);
#201=CALENDAR_DATE(2021,2,5);
#202=LOCAL_TIME(0,0,0.,#203);
#203=COORDINATED_UNIVERSAL_TIME_OFFSET(0,0,.BEHIND.);
#204=AXIS2_PLACEMENT_3D('placement',#289,#230,#231);
#205=AXIS2_PLACEMENT_3D('',#290,#232,#233);
#206=AXIS2_PLACEMENT_3D('',#293,#234,#235);
#207=AXIS2_PLACEMENT_3D('',#294,#236,#237);
#208=AXIS2_PLACEMENT_3D('',#297,#239,#240);
#209=AXIS2_PLACEMENT_3D('',#298,#241,#242);
#210=AXIS2_PLACEMENT_3D('',#312,#243,#244);
#211=AXIS2_PLACEMENT_3D('',#315,#246,#247);
#212=AXIS2_PLACEMENT_3D('',#316,#248,#249);
#213=AXIS2_PLACEMENT_3D('',#320,#251,#252);
#214=AXIS2_PLACEMENT_3D('',#321,#253,#254);
#215=AXIS2_PLACEMENT_3D('',#322,#255,#256);
#216=AXIS2_PLACEMENT_3D('',#325,#258,#259);
#217=AXIS2_PLACEMENT_3D('',#326,#260,#261);
#218=AXIS2_PLACEMENT_3D('',#339,#262,#263);
#219=AXIS2_PLACEMENT_3D('',#340,#264,#265);
#220=AXIS2_PLACEMENT_3D('',#342,#267,#268);
#221=AXIS2_PLACEMENT_3D('',#344,#269,#270);
#222=AXIS2_PLACEMENT_3D('',#347,#272,#273);
#223=AXIS2_PLACEMENT_3D('',#348,#274,#275);
#224=AXIS2_PLACEMENT_3D('',#351,#276,#277);
#225=AXIS2_PLACEMENT_3D('',#352,#278,#279);
#226=AXIS2_PLACEMENT_3D('',#356,#281,#282);
#227=AXIS2_PLACEMENT_3D('',#357,#283,#284);
#228=AXIS2_PLACEMENT_3D('',#358,#285,#286);
#229=AXIS2_PLACEMENT_3D('',#359,#287,#288);
#230=DIRECTION('axis',(0.,0.,1.));
#231=DIRECTION('refdir',(1.,0.,0.));
#232=DIRECTION('center_axis',(-1.,0.,0.));
#233=DIRECTION('ref_axis',(0.,0.,1.));
#234=DIRECTION('center_axis',(1.,0.,0.));
#235=DIRECTION('ref_axis',(0.,0.,1.));
#236=DIRECTION('center_axis',(1.,0.,0.));
#237=DIRECTION('ref_axis',(0.,0.,1.));
#238=DIRECTION('',(1.,0.,0.));
#239=DIRECTION('center_axis',(-1.,0.,0.));
#240=DIRECTION('ref_axis',(0.,0.,1.));
#241=DIRECTION('center_axis',(1.,0.,0.));
#242=DIRECTION('ref_axis',(0.,0.108172277148342,-0.994132163475532));
#243=DIRECTION('center_axis',(1.,0.,0.));
#244=DIRECTION('ref_axis',(0.,0.108172277148342,-0.994132163475532));
#245=DIRECTION('',(1.,0.,0.));
#246=DIRECTION('center_axis',(-1.,0.,0.));
#247=DIRECTION('ref_axis',(0.,0.108172277148342,-0.994132163475532));
#248=DIRECTION('center_axis',(1.,0.,0.));
#249=DIRECTION('ref_axis',(0.,0.,-1.));
#250=DIRECTION('',(0.,0.,-1.));
#251=DIRECTION('center_axis',(1.,0.,0.));
#252=DIRECTION('ref_axis',(0.,0.994857282855496,0.101286656324413));
#253=DIRECTION('center_axis',(-1.,0.,0.));
#254=DIRECTION('ref_axis',(0.,-0.745355992499929,-0.666666666666668));
#255=DIRECTION('center_axis',(1.,0.,0.));
#256=DIRECTION('ref_axis',(0.,1.,2.77555756156289E-16));
#257=DIRECTION('',(-1.,0.,0.));
#258=DIRECTION('center_axis',(1.,0.,0.));
#259=DIRECTION('ref_axis',(0.,-0.745355992499929,-0.666666666666668));
#260=DIRECTION('center_axis',(1.,0.,0.));
#261=DIRECTION('ref_axis',(0.,0.994857282855496,0.101286656324413));
#262=DIRECTION('center_axis',(-1.,0.,0.));
#263=DIRECTION('ref_axis',(0.,0.994857282855496,0.101286656324413));
#264=DIRECTION('center_axis',(1.,0.,0.));
#265=DIRECTION('ref_axis',(0.,0.,-1.));
#266=DIRECTION('',(0.,0.,1.));
#267=DIRECTION('center_axis',(0.,0.,1.));
#268=DIRECTION('ref_axis',(-1.,0.,0.));
#269=DIRECTION('center_axis',(0.,0.,-1.));
#270=DIRECTION('ref_axis',(-1.,0.,0.));
#271=DIRECTION('',(0.,0.,-1.));
#272=DIRECTION('center_axis',(0.,0.,-1.));
#273=DIRECTION('ref_axis',(-1.,0.,0.));
#274=DIRECTION('center_axis',(0.,0.,1.));
#275=DIRECTION('ref_axis',(1.,0.,0.));
#276=DIRECTION('center_axis',(0.,0.,1.));
#277=DIRECTION('ref_axis',(1.,0.,0.));
#278=DIRECTION('center_axis',(0.,0.,1.));
#279=DIRECTION('ref_axis',(1.,0.,0.));
#280=DIRECTION('',(0.,0.,-1.));
#281=DIRECTION('center_axis',(0.,0.,1.));
#282=DIRECTION('ref_axis',(1.,0.,0.));
#283=DIRECTION('center_axis',(0.,0.,1.));
#284=DIRECTION('ref_axis',(1.,0.,0.));
#285=DIRECTION('center_axis',(0.,0.,1.));
#286=DIRECTION('ref_axis',(1.,0.,0.));
#287=DIRECTION('center_axis',(0.,0.,1.));
#288=DIRECTION('ref_axis',(1.,0.,0.));
#289=CARTESIAN_POINT('',(0.,0.,0.));
#290=CARTESIAN_POINT('Origin',(40.8252262107277,17.,6.5));
#291=CARTESIAN_POINT('',(-2.,17.,7.5564303));
#292=CARTESIAN_POINT('',(-2.,17.,5.4435697));
#293=CARTESIAN_POINT('Origin',(-2.,17.,6.5));
#294=CARTESIAN_POINT('Origin',(-2.,17.,6.5));
#295=CARTESIAN_POINT('',(2.,17.,5.4435697));
#296=CARTESIAN_POINT('',(40.8252262107277,17.,5.4435697));
#297=CARTESIAN_POINT('Origin',(2.,17.,6.5));
#298=CARTESIAN_POINT('Origin',(0.,14.3052543948265,1.19868247306279));
#299=CARTESIAN_POINT('',(-2.,11.8321595661992,2.15124302704392));
#300=CARTESIAN_POINT('',(2.,11.8321595661992,2.15124302704392));
#301=CARTESIAN_POINT('Ctrl Pts',(-2.,11.8321595661992,2.15124302704392));
#302=CARTESIAN_POINT('Ctrl Pts',(-1.81326802886225,11.8637230301794,2.23318998486903));
#303=CARTESIAN_POINT('Ctrl Pts',(-1.61347825422294,11.8928653558244,2.29738246827094));
#304=CARTESIAN_POINT('Ctrl Pts',(-0.947088905902596,11.9714973720531,2.46071019551416));
#305=CARTESIAN_POINT('Ctrl Pts',(-0.454525484117766,12.,2.50611194172138));
#306=CARTESIAN_POINT('Ctrl Pts',(0.454525484117766,12.,2.50611194172138));
#307=CARTESIAN_POINT('Ctrl Pts',(0.947088905902596,11.9714973720531,2.46071019551416));
#308=CARTESIAN_POINT('Ctrl Pts',(1.61347825422294,11.8928653558244,2.29738246827094));
#309=CARTESIAN_POINT('Ctrl Pts',(1.81326802886225,11.8637230301794,2.23318998486903));
#310=CARTESIAN_POINT('Ctrl Pts',(2.,11.8321595661992,2.15124302704392));
#311=CARTESIAN_POINT('',(-2.,14.0185760300003,3.83333333333333));
#312=CARTESIAN_POINT('Origin',(-2.,14.3052543948265,1.19868247306279));
#313=CARTESIAN_POINT('',(2.,14.0185760300003,3.83333333333333));
#314=CARTESIAN_POINT('',(0.,14.0185760300003,3.83333333333333));
#315=CARTESIAN_POINT('Origin',(2.,14.3052543948265,1.19868247306279));
#316=CARTESIAN_POINT('Origin',(-2.,16.5,6.5));
#317=CARTESIAN_POINT('',(-2.,11.8321595661992,10.8487569729561));
#318=CARTESIAN_POINT('',(-2.,11.8321595661992,0.));
#319=CARTESIAN_POINT('',(-2.,14.0185760300003,9.16666666666667));
#320=CARTESIAN_POINT('Origin',(-2.,14.3052543948265,11.8013175269372));
#321=CARTESIAN_POINT('Origin',(-2.,17.,6.5));
#322=CARTESIAN_POINT('Origin',(0.,17.,6.5));
#323=CARTESIAN_POINT('',(2.,14.0185760300003,9.16666666666667));
#324=CARTESIAN_POINT('',(0.,14.0185760300003,9.16666666666667));
#325=CARTESIAN_POINT('Origin',(2.,17.,6.5));
#326=CARTESIAN_POINT('Origin',(0.,14.3052543948265,11.8013175269372));
#327=CARTESIAN_POINT('',(2.,11.8321595661992,10.8487569729561));
#328=CARTESIAN_POINT('Ctrl Pts',(2.,11.8321595661992,10.8487569729561));
#329=CARTESIAN_POINT('Ctrl Pts',(1.81326803837293,11.8637230285718,10.7668100193047));
#330=CARTESIAN_POINT('Ctrl Pts',(1.61347825295726,11.8928653559738,10.7026175314189));
#331=CARTESIAN_POINT('Ctrl Pts',(0.947088905902596,11.9714973720531,10.5392898044858));
#332=CARTESIAN_POINT('Ctrl Pts',(0.454525484117766,12.,10.4938880582786));
#333=CARTESIAN_POINT('Ctrl Pts',(0.,12.,10.4938880582786));
#334=CARTESIAN_POINT('Ctrl Pts',(-0.454525484117767,12.,10.4938880582786));
#335=CARTESIAN_POINT('Ctrl Pts',(-0.947088905902598,11.9714973720531,10.5392898044858));
#336=CARTESIAN_POINT('Ctrl Pts',(-1.61347825422295,11.8928653558244,10.7026175317291));
#337=CARTESIAN_POINT('Ctrl Pts',(-1.81326802886225,11.8637230301794,10.766810015131));
#338=CARTESIAN_POINT('Ctrl Pts',(-2.,11.8321595661992,10.8487569729561));
#339=CARTESIAN_POINT('Origin',(2.,14.3052543948265,11.8013175269372));
#340=CARTESIAN_POINT('Origin',(2.,16.5,6.5));
#341=CARTESIAN_POINT('',(2.,11.8321595661992,0.));
#342=CARTESIAN_POINT('Origin',(0.,0.,0.));
#343=CARTESIAN_POINT('',(10.5,1.28587913910472E-15,13.));
#344=CARTESIAN_POINT('Origin',(0.,0.,13.));
#345=CARTESIAN_POINT('',(10.5,1.28587913910472E-15,0.));
#346=CARTESIAN_POINT('',(10.5,1.28587913910472E-15,0.));
#347=CARTESIAN_POINT('Origin',(0.,0.,0.));
#348=CARTESIAN_POINT('Origin',(0.,0.,0.));
#349=CARTESIAN_POINT('',(12.,0.,13.));
#350=CARTESIAN_POINT('',(-12.,-1.46957615897682E-15,13.));
#351=CARTESIAN_POINT('Origin',(0.,0.,13.));
#352=CARTESIAN_POINT('Origin',(0.,0.,13.));
#353=CARTESIAN_POINT('',(-12.,-1.46957615897682E-15,0.));
#354=CARTESIAN_POINT('',(-12.,-1.46957615897682E-15,0.));
#355=CARTESIAN_POINT('',(12.,0.,0.));
#356=CARTESIAN_POINT('Origin',(0.,0.,0.));
#357=CARTESIAN_POINT('Origin',(0.,0.,0.));
#358=CARTESIAN_POINT('Origin',(0.,0.,13.));
#359=CARTESIAN_POINT('Origin',(0.,0.,0.));
#360=UNCERTAINTY_MEASURE_WITH_UNIT(LENGTH_MEASURE(0.01),#364,
'DISTANCE_ACCURACY_VALUE',
'Maximum model space distance between geometric entities at asserted c
onnectivities');
#361=UNCERTAINTY_MEASURE_WITH_UNIT(LENGTH_MEASURE(0.01),#364,
'DISTANCE_ACCURACY_VALUE',
'Maximum model space distance between geometric entities at asserted c
onnectivities');
#362=(
GEOMETRIC_REPRESENTATION_CONTEXT(3)
GLOBAL_UNCERTAINTY_ASSIGNED_CONTEXT((#360))
GLOBAL_UNIT_ASSIGNED_CONTEXT((#364,#366,#367))
REPRESENTATION_CONTEXT('','3D')
);
#363=(
GEOMETRIC_REPRESENTATION_CONTEXT(3)
GLOBAL_UNCERTAINTY_ASSIGNED_CONTEXT((#361))
GLOBAL_UNIT_ASSIGNED_CONTEXT((#364,#366,#367))
REPRESENTATION_CONTEXT('','3D')
);
#364=(
LENGTH_UNIT()
NAMED_UNIT(*)
SI_UNIT(.MILLI.,.METRE.)
);
#365=(
LENGTH_UNIT()
NAMED_UNIT(*)
SI_UNIT(.CENTI.,.METRE.)
);
#366=(
NAMED_UNIT(*)
PLANE_ANGLE_UNIT()
SI_UNIT($,.RADIAN.)
);
#367=(
NAMED_UNIT(*)
SI_UNIT($,.STERADIAN.)
SOLID_ANGLE_UNIT()
);
#368=SHAPE_DEFINITION_REPRESENTATION(#369,#370);
#369=PRODUCT_DEFINITION_SHAPE('',$,#372);
#370=SHAPE_REPRESENTATION('',(#204),#362);
#371=PRODUCT_DEFINITION_CONTEXT('part definition',#376,'design');
#372=PRODUCT_DEFINITION('ThumbV2D2','ThumbV2D2',#373,#371);
#373=PRODUCT_DEFINITION_FORMATION('',$,#378);
#374=PRODUCT_RELATED_PRODUCT_CATEGORY('ThumbV2D2','ThumbV2D2',(#378));
#375=APPLICATION_PROTOCOL_DEFINITION('international standard',
'automotive_design',2009,#376);
#376=APPLICATION_CONTEXT(
'Core Data for Automotive Mechanical Design Process');
#377=PRODUCT_CONTEXT('part definition',#376,'mechanical');
#378=PRODUCT('ThumbV2D2','ThumbV2D2',$,(#377));
#379=PRESENTATION_STYLE_ASSIGNMENT((#380));
#380=SURFACE_STYLE_USAGE(.BOTH.,#383);
#381=SURFACE_STYLE_RENDERING_WITH_PROPERTIES($,#387,(#382));
#382=SURFACE_STYLE_TRANSPARENT(0.);
#383=SURFACE_SIDE_STYLE('',(#384,#381));
#384=SURFACE_STYLE_FILL_AREA(#385);
#385=FILL_AREA_STYLE('',(#386));
#386=FILL_AREA_STYLE_COLOUR('',#387);
#387=COLOUR_RGB('',0.749019607843137,0.749019607843137,0.749019607843137);
ENDSEC;
END-ISO-10303-21;
