ISO-10303-21;
HEADER;
/* Generated by software containing ST-Developer
 * from STEP Tools, Inc. (www.steptools.com) 
 */

FILE_DESCRIPTION(
/* description */ (''),
/* implementation_level */ '2;1');

FILE_NAME(
/* name */ 
'C:\\Users\\svale\\OneDrive\\Upwork\\Controller\\Hand\\potentio_hand_f
lex_thumbV2.ipt.stp',
/* time_stamp */ '2021-06-20T10:02:27-05:00',
/* author */ ('svale'),
/* organization */ (''),
/* preprocessor_version */ 'ST-DEVELOPER v18.1',
/* originating_system */ 'Autodesk Inventor 2021',
/* authorisation */ '');

FILE_SCHEMA (('AUTOMOTIVE_DESIGN { 1 0 10303 214 3 1 1 }'));
ENDSEC;

DATA;
#10=MECHANICAL_DESIGN_GEOMETRIC_PRESENTATION_REPRESENTATION('',(#13),#161);
#11=SHAPE_REPRESENTATION_RELATIONSHIP('SRR','None',#168,#12);
#12=ADVANCED_BREP_SHAPE_REPRESENTATION('',(#14),#160);
#13=STYLED_ITEM('',(#177),#14);
#14=MANIFOLD_SOLID_BREP('S\X\F3lido1',#80);
#15=FACE_BOUND('',#26,.T.);
#16=FACE_BOUND('',#28,.T.);
#17=PLANE('',#109);
#18=PLANE('',#110);
#19=FACE_OUTER_BOUND('',#23,.T.);
#20=FACE_OUTER_BOUND('',#24,.T.);
#21=FACE_OUTER_BOUND('',#25,.T.);
#22=FACE_OUTER_BOUND('',#27,.T.);
#23=EDGE_LOOP('',(#56,#57,#58,#59,#60));
#24=EDGE_LOOP('',(#61,#62,#63,#64,#65,#66));
#25=EDGE_LOOP('',(#67,#68));
#26=EDGE_LOOP('',(#69,#70));
#27=EDGE_LOOP('',(#71,#72));
#28=EDGE_LOOP('',(#73));
#29=LINE('',#144,#31);
#30=LINE('',#152,#32);
#31=VECTOR('',#119,0.8564303);
#32=VECTOR('',#128,1.68343389789858);
#33=CIRCLE('',#101,0.8564303);
#34=CIRCLE('',#102,0.8564303);
#35=CIRCLE('',#103,0.8564303);
#36=CIRCLE('',#105,1.68343389789858);
#37=CIRCLE('',#106,1.68343389789858);
#38=CIRCLE('',#107,1.68343389789858);
#39=CIRCLE('',#108,1.68343389789858);
#40=VERTEX_POINT('',#139);
#41=VERTEX_POINT('',#140);
#42=VERTEX_POINT('',#143);
#43=VERTEX_POINT('',#147);
#44=VERTEX_POINT('',#148);
#45=VERTEX_POINT('',#151);
#46=VERTEX_POINT('',#153);
#47=EDGE_CURVE('',#40,#41,#33,.T.);
#48=EDGE_CURVE('',#41,#40,#34,.T.);
#49=EDGE_CURVE('',#41,#42,#29,.T.);
#50=EDGE_CURVE('',#42,#42,#35,.T.);
#51=EDGE_CURVE('',#43,#44,#36,.T.);
#52=EDGE_CURVE('',#44,#43,#37,.T.);
#53=EDGE_CURVE('',#44,#45,#30,.T.);
#54=EDGE_CURVE('',#46,#45,#38,.T.);
#55=EDGE_CURVE('',#45,#46,#39,.T.);
#56=ORIENTED_EDGE('',*,*,#47,.F.);
#57=ORIENTED_EDGE('',*,*,#48,.F.);
#58=ORIENTED_EDGE('',*,*,#49,.T.);
#59=ORIENTED_EDGE('',*,*,#50,.F.);
#60=ORIENTED_EDGE('',*,*,#49,.F.);
#61=ORIENTED_EDGE('',*,*,#51,.F.);
#62=ORIENTED_EDGE('',*,*,#52,.F.);
#63=ORIENTED_EDGE('',*,*,#53,.T.);
#64=ORIENTED_EDGE('',*,*,#54,.F.);
#65=ORIENTED_EDGE('',*,*,#55,.F.);
#66=ORIENTED_EDGE('',*,*,#53,.F.);
#67=ORIENTED_EDGE('',*,*,#54,.T.);
#68=ORIENTED_EDGE('',*,*,#55,.T.);
#69=ORIENTED_EDGE('',*,*,#47,.T.);
#70=ORIENTED_EDGE('',*,*,#48,.T.);
#71=ORIENTED_EDGE('',*,*,#51,.T.);
#72=ORIENTED_EDGE('',*,*,#52,.T.);
#73=ORIENTED_EDGE('',*,*,#50,.T.);
#74=CYLINDRICAL_SURFACE('',#100,0.8564303);
#75=CYLINDRICAL_SURFACE('',#104,1.68343389789858);
#76=ADVANCED_FACE('',(#19),#74,.F.);
#77=ADVANCED_FACE('',(#20),#75,.T.);
#78=ADVANCED_FACE('',(#21,#15),#17,.T.);
#79=ADVANCED_FACE('',(#22,#16),#18,.F.);
#80=CLOSED_SHELL('',(#76,#77,#78,#79));
#81=DERIVED_UNIT_ELEMENT(#83,1.);
#82=DERIVED_UNIT_ELEMENT(#163,3.);
#83=(
MASS_UNIT()
NAMED_UNIT(*)
SI_UNIT($,.GRAM.)
);
#84=DERIVED_UNIT((#81,#82));
#85=MEASURE_REPRESENTATION_ITEM('density measure',
POSITIVE_RATIO_MEASURE(1.),#84);
#86=PROPERTY_DEFINITION_REPRESENTATION(#91,#88);
#87=PROPERTY_DEFINITION_REPRESENTATION(#92,#89);
#88=REPRESENTATION('material name',(#90),#160);
#89=REPRESENTATION('density',(#85),#160);
#90=DESCRIPTIVE_REPRESENTATION_ITEM('Gen\X\E9rico','Gen\X\E9rico');
#91=PROPERTY_DEFINITION('material property','material name',#170);
#92=PROPERTY_DEFINITION('material property','density of part',#170);
#93=DATE_TIME_ROLE('creation_date');
#94=APPLIED_DATE_AND_TIME_ASSIGNMENT(#95,#93,(#170));
#95=DATE_AND_TIME(#96,#97);
#96=CALENDAR_DATE(2021,27,4);
#97=LOCAL_TIME(0,0,0.,#98);
#98=COORDINATED_UNIVERSAL_TIME_OFFSET(0,0,.BEHIND.);
#99=AXIS2_PLACEMENT_3D('placement',#137,#111,#112);
#100=AXIS2_PLACEMENT_3D('',#138,#113,#114);
#101=AXIS2_PLACEMENT_3D('',#141,#115,#116);
#102=AXIS2_PLACEMENT_3D('',#142,#117,#118);
#103=AXIS2_PLACEMENT_3D('',#145,#120,#121);
#104=AXIS2_PLACEMENT_3D('',#146,#122,#123);
#105=AXIS2_PLACEMENT_3D('',#149,#124,#125);
#106=AXIS2_PLACEMENT_3D('',#150,#126,#127);
#107=AXIS2_PLACEMENT_3D('',#154,#129,#130);
#108=AXIS2_PLACEMENT_3D('',#155,#131,#132);
#109=AXIS2_PLACEMENT_3D('',#156,#133,#134);
#110=AXIS2_PLACEMENT_3D('',#157,#135,#136);
#111=DIRECTION('axis',(0.,0.,1.));
#112=DIRECTION('refdir',(1.,0.,0.));
#113=DIRECTION('center_axis',(0.,0.,1.));
#114=DIRECTION('ref_axis',(1.,0.,0.));
#115=DIRECTION('center_axis',(0.,0.,-1.));
#116=DIRECTION('ref_axis',(1.,0.,0.));
#117=DIRECTION('center_axis',(0.,0.,-1.));
#118=DIRECTION('ref_axis',(1.,0.,0.));
#119=DIRECTION('',(0.,0.,-1.));
#120=DIRECTION('center_axis',(0.,0.,1.));
#121=DIRECTION('ref_axis',(1.,0.,0.));
#122=DIRECTION('center_axis',(0.,0.,-1.));
#123=DIRECTION('ref_axis',(1.,0.,0.));
#124=DIRECTION('center_axis',(0.,0.,-1.));
#125=DIRECTION('ref_axis',(1.,0.,0.));
#126=DIRECTION('center_axis',(0.,0.,-1.));
#127=DIRECTION('ref_axis',(1.,0.,0.));
#128=DIRECTION('',(0.,0.,1.));
#129=DIRECTION('center_axis',(0.,0.,1.));
#130=DIRECTION('ref_axis',(1.,0.,0.));
#131=DIRECTION('center_axis',(0.,0.,1.));
#132=DIRECTION('ref_axis',(1.,0.,0.));
#133=DIRECTION('center_axis',(0.,0.,1.));
#134=DIRECTION('ref_axis',(1.,0.,0.));
#135=DIRECTION('center_axis',(0.,0.,1.));
#136=DIRECTION('ref_axis',(1.,0.,0.));
#137=CARTESIAN_POINT('',(0.,0.,0.));
#138=CARTESIAN_POINT('Origin',(-15.0027358891517,37.5239895516959,-2.62775231926488));
#139=CARTESIAN_POINT('',(-14.1463055891517,37.5239895516959,3.00000011920929));
#140=CARTESIAN_POINT('',(-15.8591661891517,37.5239895516959,3.00000011920929));
#141=CARTESIAN_POINT('Origin',(-15.0027358891517,37.5239895516959,3.00000011920929));
#142=CARTESIAN_POINT('Origin',(-15.0027358891517,37.5239895516959,3.00000011920929));
#143=CARTESIAN_POINT('',(-15.8591661891517,37.5239895516959,1.19209289106692E-7));
#144=CARTESIAN_POINT('',(-15.8591661891517,37.5239895516959,-2.62775231926488));
#145=CARTESIAN_POINT('Origin',(-15.0027358891517,37.5239895516959,1.19209289106692E-7));
#146=CARTESIAN_POINT('Origin',(-15.0027358891517,37.5239895516959,3.00000011920929));
#147=CARTESIAN_POINT('',(-13.3193019912532,37.5239895516959,1.19209289106692E-7));
#148=CARTESIAN_POINT('',(-16.6861697870503,37.5239895516959,1.19209289106692E-7));
#149=CARTESIAN_POINT('Origin',(-15.0027358891517,37.5239895516959,1.19209289106692E-7));
#150=CARTESIAN_POINT('Origin',(-15.0027358891517,37.5239895516959,1.19209289106692E-7));
#151=CARTESIAN_POINT('',(-16.6861697870503,37.5239895516959,3.00000011920929));
#152=CARTESIAN_POINT('',(-16.6861697870503,37.5239895516959,3.00000011920929));
#153=CARTESIAN_POINT('',(-13.3193019912532,37.5239895516959,3.00000011920929));
#154=CARTESIAN_POINT('Origin',(-15.0027358891517,37.5239895516959,3.00000011920929));
#155=CARTESIAN_POINT('Origin',(-15.0027358891517,37.5239895516959,3.00000011920929));
#156=CARTESIAN_POINT('Origin',(-15.0027358891517,37.5239895516959,3.00000011920929));
#157=CARTESIAN_POINT('Origin',(-15.0027358891517,37.5239895516959,1.19209289106692E-7));
#158=UNCERTAINTY_MEASURE_WITH_UNIT(LENGTH_MEASURE(0.01),#162,
'DISTANCE_ACCURACY_VALUE',
'Maximum model space distance between geometric entities at asserted c
onnectivities');
#159=UNCERTAINTY_MEASURE_WITH_UNIT(LENGTH_MEASURE(0.01),#162,
'DISTANCE_ACCURACY_VALUE',
'Maximum model space distance between geometric entities at asserted c
onnectivities');
#160=(
GEOMETRIC_REPRESENTATION_CONTEXT(3)
GLOBAL_UNCERTAINTY_ASSIGNED_CONTEXT((#158))
GLOBAL_UNIT_ASSIGNED_CONTEXT((#162,#164,#165))
REPRESENTATION_CONTEXT('','3D')
);
#161=(
GEOMETRIC_REPRESENTATION_CONTEXT(3)
GLOBAL_UNCERTAINTY_ASSIGNED_CONTEXT((#159))
GLOBAL_UNIT_ASSIGNED_CONTEXT((#162,#164,#165))
REPRESENTATION_CONTEXT('','3D')
);
#162=(
LENGTH_UNIT()
NAMED_UNIT(*)
SI_UNIT(.MILLI.,.METRE.)
);
#163=(
LENGTH_UNIT()
NAMED_UNIT(*)
SI_UNIT(.CENTI.,.METRE.)
);
#164=(
NAMED_UNIT(*)
PLANE_ANGLE_UNIT()
SI_UNIT($,.RADIAN.)
);
#165=(
NAMED_UNIT(*)
SI_UNIT($,.STERADIAN.)
SOLID_ANGLE_UNIT()
);
#166=SHAPE_DEFINITION_REPRESENTATION(#167,#168);
#167=PRODUCT_DEFINITION_SHAPE('',$,#170);
#168=SHAPE_REPRESENTATION('',(#99),#160);
#169=PRODUCT_DEFINITION_CONTEXT('part definition',#174,'design');
#170=PRODUCT_DEFINITION('potentio_hand_flex_thumbV2',
'potentio_hand_flex_thumbV2',#171,#169);
#171=PRODUCT_DEFINITION_FORMATION('',$,#176);
#172=PRODUCT_RELATED_PRODUCT_CATEGORY('potentio_hand_flex_thumbV2',
'potentio_hand_flex_thumbV2',(#176));
#173=APPLICATION_PROTOCOL_DEFINITION('international standard',
'automotive_design',2009,#174);
#174=APPLICATION_CONTEXT(
'Core Data for Automotive Mechanical Design Process');
#175=PRODUCT_CONTEXT('part definition',#174,'mechanical');
#176=PRODUCT('potentio_hand_flex_thumbV2','potentio_hand_flex_thumbV2',
$,(#175));
#177=PRESENTATION_STYLE_ASSIGNMENT((#179));
#178=PRESENTATION_STYLE_ASSIGNMENT((#180));
#179=SURFACE_STYLE_USAGE(.BOTH.,#185);
#180=SURFACE_STYLE_USAGE(.BOTH.,#186);
#181=SURFACE_STYLE_RENDERING_WITH_PROPERTIES($,#193,(#183));
#182=SURFACE_STYLE_RENDERING_WITH_PROPERTIES($,#194,(#184));
#183=SURFACE_STYLE_TRANSPARENT(0.);
#184=SURFACE_STYLE_TRANSPARENT(0.);
#185=SURFACE_SIDE_STYLE('',(#187,#181));
#186=SURFACE_SIDE_STYLE('',(#188,#182));
#187=SURFACE_STYLE_FILL_AREA(#189);
#188=SURFACE_STYLE_FILL_AREA(#190);
#189=FILL_AREA_STYLE('',(#191));
#190=FILL_AREA_STYLE('',(#192));
#191=FILL_AREA_STYLE_COLOUR('',#193);
#192=FILL_AREA_STYLE_COLOUR('',#194);
#193=COLOUR_RGB('',0.749019607843137,0.749019607843137,0.749019607843137);
#194=COLOUR_RGB('',0.,0.,0.);
ENDSEC;
END-ISO-10303-21;
