ISO-10303-21;
HEADER;
/* Generated by software containing ST-Developer
 * from STEP Tools, Inc. (www.steptools.com) 
 */

FILE_DESCRIPTION(
/* description */ (''),
/* implementation_level */ '2;1');

FILE_NAME(
/* name */ 
'C:\\Users\\svale\\OneDrive\\Upwork\\Controller\\Hand\\screw.ipt.stp',
/* time_stamp */ '2021-06-20T10:03:03-05:00',
/* author */ ('svale'),
/* organization */ (''),
/* preprocessor_version */ 'ST-DEVELOPER v18.1',
/* originating_system */ 'Autodesk Inventor 2021',
/* authorisation */ '');

FILE_SCHEMA (('AUTOMOTIVE_DESIGN { 1 0 10303 214 3 1 1 }'));
ENDSEC;

DATA;
#10=MECHANICAL_DESIGN_GEOMETRIC_PRESENTATION_REPRESENTATION('',(#13,#14),
#215);
#11=SHAPE_REPRESENTATION_RELATIONSHIP('SRR','None',#222,#12);
#12=ADVANCED_BREP_SHAPE_REPRESENTATION('',(#15,#16),#214);
#13=STYLED_ITEM('',(#231),#15);
#14=STYLED_ITEM('',(#231),#16);
#15=MANIFOLD_SOLID_BREP('S\X\F3lido1',#109);
#16=MANIFOLD_SOLID_BREP('S\X\F3lido1',#110);
#17=FACE_BOUND('',#33,.T.);
#18=FACE_BOUND('',#35,.T.);
#19=PLANE('',#138);
#20=PLANE('',#139);
#21=PLANE('',#140);
#22=PLANE('',#142);
#23=FACE_OUTER_BOUND('',#30,.T.);
#24=FACE_OUTER_BOUND('',#31,.T.);
#25=FACE_OUTER_BOUND('',#32,.T.);
#26=FACE_OUTER_BOUND('',#34,.T.);
#27=FACE_OUTER_BOUND('',#36,.T.);
#28=FACE_OUTER_BOUND('',#37,.T.);
#29=FACE_OUTER_BOUND('',#38,.T.);
#30=EDGE_LOOP('',(#75,#76,#77,#78));
#31=EDGE_LOOP('',(#79,#80,#81,#82,#83,#84));
#32=EDGE_LOOP('',(#85,#86));
#33=EDGE_LOOP('',(#87));
#34=EDGE_LOOP('',(#88,#89));
#35=EDGE_LOOP('',(#90));
#36=EDGE_LOOP('',(#91));
#37=EDGE_LOOP('',(#92,#93));
#38=EDGE_LOOP('',(#94,#95,#96,#97,#98));
#39=LINE('',#188,#42);
#40=LINE('',#196,#43);
#41=LINE('',#211,#44);
#42=VECTOR('',#152,0.9);
#43=VECTOR('',#161,1.5);
#44=VECTOR('',#182,0.9);
#45=CIRCLE('',#131,0.9);
#46=CIRCLE('',#132,0.9);
#47=CIRCLE('',#134,1.5);
#48=CIRCLE('',#135,1.5);
#49=CIRCLE('',#136,1.5);
#50=CIRCLE('',#137,1.5);
#51=CIRCLE('',#141,0.9);
#52=CIRCLE('',#143,0.9);
#53=CIRCLE('',#144,0.9);
#54=VERTEX_POINT('',#185);
#55=VERTEX_POINT('',#187);
#56=VERTEX_POINT('',#191);
#57=VERTEX_POINT('',#192);
#58=VERTEX_POINT('',#195);
#59=VERTEX_POINT('',#197);
#60=VERTEX_POINT('',#203);
#61=VERTEX_POINT('',#206);
#62=VERTEX_POINT('',#207);
#63=EDGE_CURVE('',#54,#54,#45,.T.);
#64=EDGE_CURVE('',#54,#55,#39,.T.);
#65=EDGE_CURVE('',#55,#55,#46,.T.);
#66=EDGE_CURVE('',#56,#57,#47,.T.);
#67=EDGE_CURVE('',#57,#56,#48,.T.);
#68=EDGE_CURVE('',#57,#58,#40,.T.);
#69=EDGE_CURVE('',#58,#59,#49,.T.);
#70=EDGE_CURVE('',#59,#58,#50,.T.);
#71=EDGE_CURVE('',#60,#60,#51,.T.);
#72=EDGE_CURVE('',#61,#62,#52,.T.);
#73=EDGE_CURVE('',#62,#61,#53,.T.);
#74=EDGE_CURVE('',#62,#60,#41,.T.);
#75=ORIENTED_EDGE('',*,*,#63,.F.);
#76=ORIENTED_EDGE('',*,*,#64,.T.);
#77=ORIENTED_EDGE('',*,*,#65,.T.);
#78=ORIENTED_EDGE('',*,*,#64,.F.);
#79=ORIENTED_EDGE('',*,*,#66,.F.);
#80=ORIENTED_EDGE('',*,*,#67,.F.);
#81=ORIENTED_EDGE('',*,*,#68,.T.);
#82=ORIENTED_EDGE('',*,*,#69,.T.);
#83=ORIENTED_EDGE('',*,*,#70,.T.);
#84=ORIENTED_EDGE('',*,*,#68,.F.);
#85=ORIENTED_EDGE('',*,*,#66,.T.);
#86=ORIENTED_EDGE('',*,*,#67,.T.);
#87=ORIENTED_EDGE('',*,*,#63,.T.);
#88=ORIENTED_EDGE('',*,*,#70,.F.);
#89=ORIENTED_EDGE('',*,*,#69,.F.);
#90=ORIENTED_EDGE('',*,*,#65,.F.);
#91=ORIENTED_EDGE('',*,*,#71,.F.);
#92=ORIENTED_EDGE('',*,*,#72,.T.);
#93=ORIENTED_EDGE('',*,*,#73,.T.);
#94=ORIENTED_EDGE('',*,*,#72,.F.);
#95=ORIENTED_EDGE('',*,*,#73,.F.);
#96=ORIENTED_EDGE('',*,*,#74,.T.);
#97=ORIENTED_EDGE('',*,*,#71,.T.);
#98=ORIENTED_EDGE('',*,*,#74,.F.);
#99=CYLINDRICAL_SURFACE('',#130,0.9);
#100=CYLINDRICAL_SURFACE('',#133,1.5);
#101=CYLINDRICAL_SURFACE('',#145,0.9);
#102=ADVANCED_FACE('',(#23),#99,.F.);
#103=ADVANCED_FACE('',(#24),#100,.T.);
#104=ADVANCED_FACE('',(#25,#17),#19,.T.);
#105=ADVANCED_FACE('',(#26,#18),#20,.F.);
#106=ADVANCED_FACE('',(#27),#21,.F.);
#107=ADVANCED_FACE('',(#28),#22,.T.);
#108=ADVANCED_FACE('',(#29),#101,.T.);
#109=CLOSED_SHELL('',(#102,#103,#104,#105));
#110=CLOSED_SHELL('',(#106,#107,#108));
#111=DERIVED_UNIT_ELEMENT(#113,1.);
#112=DERIVED_UNIT_ELEMENT(#217,3.);
#113=(
MASS_UNIT()
NAMED_UNIT(*)
SI_UNIT($,.GRAM.)
);
#114=DERIVED_UNIT((#111,#112));
#115=MEASURE_REPRESENTATION_ITEM('density measure',
POSITIVE_RATIO_MEASURE(1.),#114);
#116=PROPERTY_DEFINITION_REPRESENTATION(#121,#118);
#117=PROPERTY_DEFINITION_REPRESENTATION(#122,#119);
#118=REPRESENTATION('material name',(#120),#214);
#119=REPRESENTATION('density',(#115),#214);
#120=DESCRIPTIVE_REPRESENTATION_ITEM('Gen\X\E9rico','Gen\X\E9rico');
#121=PROPERTY_DEFINITION('material property','material name',#224);
#122=PROPERTY_DEFINITION('material property','density of part',#224);
#123=DATE_TIME_ROLE('creation_date');
#124=APPLIED_DATE_AND_TIME_ASSIGNMENT(#125,#123,(#224));
#125=DATE_AND_TIME(#126,#127);
#126=CALENDAR_DATE(2021,19,4);
#127=LOCAL_TIME(0,0,0.,#128);
#128=COORDINATED_UNIVERSAL_TIME_OFFSET(0,0,.BEHIND.);
#129=AXIS2_PLACEMENT_3D('placement',#183,#146,#147);
#130=AXIS2_PLACEMENT_3D('',#184,#148,#149);
#131=AXIS2_PLACEMENT_3D('',#186,#150,#151);
#132=AXIS2_PLACEMENT_3D('',#189,#153,#154);
#133=AXIS2_PLACEMENT_3D('',#190,#155,#156);
#134=AXIS2_PLACEMENT_3D('',#193,#157,#158);
#135=AXIS2_PLACEMENT_3D('',#194,#159,#160);
#136=AXIS2_PLACEMENT_3D('',#198,#162,#163);
#137=AXIS2_PLACEMENT_3D('',#199,#164,#165);
#138=AXIS2_PLACEMENT_3D('',#200,#166,#167);
#139=AXIS2_PLACEMENT_3D('',#201,#168,#169);
#140=AXIS2_PLACEMENT_3D('',#202,#170,#171);
#141=AXIS2_PLACEMENT_3D('',#204,#172,#173);
#142=AXIS2_PLACEMENT_3D('',#205,#174,#175);
#143=AXIS2_PLACEMENT_3D('',#208,#176,#177);
#144=AXIS2_PLACEMENT_3D('',#209,#178,#179);
#145=AXIS2_PLACEMENT_3D('',#210,#180,#181);
#146=DIRECTION('axis',(0.,0.,1.));
#147=DIRECTION('refdir',(1.,0.,0.));
#148=DIRECTION('center_axis',(0.,0.,-1.));
#149=DIRECTION('ref_axis',(1.,0.,0.));
#150=DIRECTION('center_axis',(0.,0.,1.));
#151=DIRECTION('ref_axis',(1.,0.,0.));
#152=DIRECTION('',(0.,0.,1.));
#153=DIRECTION('center_axis',(0.,0.,1.));
#154=DIRECTION('ref_axis',(1.,0.,0.));
#155=DIRECTION('center_axis',(0.,0.,-1.));
#156=DIRECTION('ref_axis',(-1.,0.,0.));
#157=DIRECTION('center_axis',(0.,0.,-1.));
#158=DIRECTION('ref_axis',(-1.,0.,0.));
#159=DIRECTION('center_axis',(0.,0.,-1.));
#160=DIRECTION('ref_axis',(-1.,0.,0.));
#161=DIRECTION('',(0.,0.,1.));
#162=DIRECTION('center_axis',(0.,0.,-1.));
#163=DIRECTION('ref_axis',(-1.,0.,0.));
#164=DIRECTION('center_axis',(0.,0.,-1.));
#165=DIRECTION('ref_axis',(-1.,0.,0.));
#166=DIRECTION('center_axis',(0.,0.,-1.));
#167=DIRECTION('ref_axis',(-1.,0.,0.));
#168=DIRECTION('center_axis',(0.,0.,-1.));
#169=DIRECTION('ref_axis',(-1.,0.,0.));
#170=DIRECTION('center_axis',(0.,0.,1.));
#171=DIRECTION('ref_axis',(1.,0.,0.));
#172=DIRECTION('center_axis',(0.,0.,1.));
#173=DIRECTION('ref_axis',(1.,0.,0.));
#174=DIRECTION('center_axis',(0.,0.,1.));
#175=DIRECTION('ref_axis',(1.,0.,0.));
#176=DIRECTION('center_axis',(0.,0.,1.));
#177=DIRECTION('ref_axis',(1.,0.,0.));
#178=DIRECTION('center_axis',(0.,0.,1.));
#179=DIRECTION('ref_axis',(1.,0.,0.));
#180=DIRECTION('center_axis',(0.,0.,1.));
#181=DIRECTION('ref_axis',(1.,0.,0.));
#182=DIRECTION('',(0.,0.,-1.));
#183=CARTESIAN_POINT('',(0.,0.,0.));
#184=CARTESIAN_POINT('Origin',(0.,0.,0.));
#185=CARTESIAN_POINT('',(-0.9,1.10218211923262E-16,-2.));
#186=CARTESIAN_POINT('Origin',(0.,0.,-2.));
#187=CARTESIAN_POINT('',(-0.9,1.10218211923262E-16,0.));
#188=CARTESIAN_POINT('',(-0.9,1.10218211923262E-16,0.));
#189=CARTESIAN_POINT('Origin',(0.,0.,0.));
#190=CARTESIAN_POINT('Origin',(0.,0.,0.));
#191=CARTESIAN_POINT('',(-1.5,0.,-2.));
#192=CARTESIAN_POINT('',(1.5,-1.83697019872103E-16,-2.));
#193=CARTESIAN_POINT('Origin',(0.,0.,-2.));
#194=CARTESIAN_POINT('Origin',(0.,0.,-2.));
#195=CARTESIAN_POINT('',(1.5,-1.83697019872103E-16,0.));
#196=CARTESIAN_POINT('',(1.5,-1.83697019872103E-16,0.));
#197=CARTESIAN_POINT('',(-1.5,0.,0.));
#198=CARTESIAN_POINT('Origin',(0.,0.,0.));
#199=CARTESIAN_POINT('Origin',(0.,0.,0.));
#200=CARTESIAN_POINT('Origin',(0.,0.,-2.));
#201=CARTESIAN_POINT('Origin',(0.,0.,0.));
#202=CARTESIAN_POINT('Origin',(0.,0.,0.));
#203=CARTESIAN_POINT('',(-0.9,1.10218211923262E-16,0.));
#204=CARTESIAN_POINT('Origin',(0.,0.,0.));
#205=CARTESIAN_POINT('Origin',(0.,0.,8.));
#206=CARTESIAN_POINT('',(0.9,0.,8.));
#207=CARTESIAN_POINT('',(-0.9,-1.10218211923262E-16,8.));
#208=CARTESIAN_POINT('Origin',(0.,0.,8.));
#209=CARTESIAN_POINT('Origin',(0.,0.,8.));
#210=CARTESIAN_POINT('Origin',(0.,0.,0.));
#211=CARTESIAN_POINT('',(-0.9,-1.10218211923262E-16,0.));
#212=UNCERTAINTY_MEASURE_WITH_UNIT(LENGTH_MEASURE(0.01),#216,
'DISTANCE_ACCURACY_VALUE',
'Maximum model space distance between geometric entities at asserted c
onnectivities');
#213=UNCERTAINTY_MEASURE_WITH_UNIT(LENGTH_MEASURE(0.01),#216,
'DISTANCE_ACCURACY_VALUE',
'Maximum model space distance between geometric entities at asserted c
onnectivities');
#214=(
GEOMETRIC_REPRESENTATION_CONTEXT(3)
GLOBAL_UNCERTAINTY_ASSIGNED_CONTEXT((#212))
GLOBAL_UNIT_ASSIGNED_CONTEXT((#216,#218,#219))
REPRESENTATION_CONTEXT('','3D')
);
#215=(
GEOMETRIC_REPRESENTATION_CONTEXT(3)
GLOBAL_UNCERTAINTY_ASSIGNED_CONTEXT((#213))
GLOBAL_UNIT_ASSIGNED_CONTEXT((#216,#218,#219))
REPRESENTATION_CONTEXT('','3D')
);
#216=(
LENGTH_UNIT()
NAMED_UNIT(*)
SI_UNIT(.MILLI.,.METRE.)
);
#217=(
LENGTH_UNIT()
NAMED_UNIT(*)
SI_UNIT(.CENTI.,.METRE.)
);
#218=(
NAMED_UNIT(*)
PLANE_ANGLE_UNIT()
SI_UNIT($,.RADIAN.)
);
#219=(
NAMED_UNIT(*)
SI_UNIT($,.STERADIAN.)
SOLID_ANGLE_UNIT()
);
#220=SHAPE_DEFINITION_REPRESENTATION(#221,#222);
#221=PRODUCT_DEFINITION_SHAPE('',$,#224);
#222=SHAPE_REPRESENTATION('',(#129),#214);
#223=PRODUCT_DEFINITION_CONTEXT('part definition',#228,'design');
#224=PRODUCT_DEFINITION('screw','screw',#225,#223);
#225=PRODUCT_DEFINITION_FORMATION('',$,#230);
#226=PRODUCT_RELATED_PRODUCT_CATEGORY('screw','screw',(#230));
#227=APPLICATION_PROTOCOL_DEFINITION('international standard',
'automotive_design',2009,#228);
#228=APPLICATION_CONTEXT(
'Core Data for Automotive Mechanical Design Process');
#229=PRODUCT_CONTEXT('part definition',#228,'mechanical');
#230=PRODUCT('screw','screw',$,(#229));
#231=PRESENTATION_STYLE_ASSIGNMENT((#232));
#232=SURFACE_STYLE_USAGE(.BOTH.,#235);
#233=SURFACE_STYLE_RENDERING_WITH_PROPERTIES($,#239,(#234));
#234=SURFACE_STYLE_TRANSPARENT(0.);
#235=SURFACE_SIDE_STYLE('',(#236,#233));
#236=SURFACE_STYLE_FILL_AREA(#237);
#237=FILL_AREA_STYLE('',(#238));
#238=FILL_AREA_STYLE_COLOUR('',#239);
#239=COLOUR_RGB('',0.749019607843137,0.749019607843137,0.749019607843137);
ENDSEC;
END-ISO-10303-21;
