  0
SECTION
  2
HEADER
  9
$ACADVER
  1
AC1027
  9
$ACADMAINTVER
 70
   105
  9
$DWGCODEPAGE
  3
ANSI_1252
  9
$LASTSAVEDBY
  1
nlambeth
  9
$REQUIREDVERSIONS
160
                 0
  9
$INSBASE
 10
0.0
 20
0.0
 30
0.0
  9
$EXTMIN
 10
119.8614232209738
 20
54.00206247304544
 30
0.0
  9
$EXTMAX
 10
473.8614232754505
 20
377.2565543071161
 30
0.0
  9
$LIMMIN
 10
0.0
 20
0.0
  9
$LIMMAX
 10
594.0
 20
420.0
  9
$ORTHOMODE
 70
     0
  9
$REGENMODE
 70
     1
  9
$FILLMODE
 70
     1
  9
$QTEXTMODE
 70
     0
  9
$MIRRTEXT
 70
     1
  9
$LTSCALE
 40
10.0
  9
$ATTMODE
 70
     1
  9
$TEXTSIZE
 40
0.2
  9
$TRACEWID
 40
0.05
  9
$TEXTSTYLE
  7
Standard
  9
$CLAYER
  8
Layer_1
  9
$CELTYPE
  6
ByLayer
  9
$CECOLOR
 62
   256
  9
$CELTSCALE
 40
1.0
  9
$DISPSILH
 70
     0
  9
$DIMSCALE
 40
1.0
  9
$DIMASZ
 40
0.18
  9
$DIMEXO
 40
0.0625
  9
$DIMDLI
 40
0.38
  9
$DIMRND
 40
0.0
  9
$DIMDLE
 40
0.0
  9
$DIMEXE
 40
0.18
  9
$DIMTP
 40
0.0
  9
$DIMTM
 40
0.0
  9
$DIMTXT
 40
0.18
  9
$DIMCEN
 40
0.09
  9
$DIMTSZ
 40
0.0
  9
$DIMTOL
 70
     0
  9
$DIMLIM
 70
     0
  9
$DIMTIH
 70
     1
  9
$DIMTOH
 70
     1
  9
$DIMSE1
 70
     0
  9
$DIMSE2
 70
     0
  9
$DIMTAD
 70
     0
  9
$DIMZIN
 70
     0
  9
$DIMBLK
  1

  9
$DIMASO
 70
     1
  9
$DIMSHO
 70
     1
  9
$DIMPOST
  1

  9
$DIMAPOST
  1

  9
$DIMALT
 70
     0
  9
$DIMALTD
 70
     2
  9
$DIMALTF
 40
25.4
  9
$DIMLFAC
 40
1.0
  9
$DIMTOFL
 70
     0
  9
$DIMTVP
 40
0.0
  9
$DIMTIX
 70
     0
  9
$DIMSOXD
 70
     0
  9
$DIMSAH
 70
     0
  9
$DIMBLK1
  1

  9
$DIMBLK2
  1

  9
$DIMSTYLE
  2
Standard
  9
$DIMCLRD
 70
     0
  9
$DIMCLRE
 70
     0
  9
$DIMCLRT
 70
     0
  9
$DIMTFAC
 40
1.0
  9
$DIMGAP
 40
0.09
  9
$DIMJUST
 70
     0
  9
$DIMSD1
 70
     0
  9
$DIMSD2
 70
     0
  9
$DIMTOLJ
 70
     1
  9
$DIMTZIN
 70
     0
  9
$DIMALTZ
 70
     0
  9
$DIMALTTZ
 70
     0
  9
$DIMUPT
 70
     0
  9
$DIMDEC
 70
     4
  9
$DIMTDEC
 70
     4
  9
$DIMALTU
 70
     2
  9
$DIMALTTD
 70
     2
  9
$DIMTXSTY
  7
Standard
  9
$DIMAUNIT
 70
     0
  9
$DIMADEC
 70
     0
  9
$DIMALTRND
 40
0.0
  9
$DIMAZIN
 70
     0
  9
$DIMDSEP
 70
    46
  9
$DIMATFIT
 70
     3
  9
$DIMFRAC
 70
     0
  9
$DIMLDRBLK
  1

  9
$DIMLUNIT
 70
     2
  9
$DIMLWD
 70
    -2
  9
$DIMLWE
 70
    -2
  9
$DIMTMOVE
 70
     0
  9
$DIMFXL
 40
1.0
  9
$DIMFXLON
 70
     0
  9
$DIMJOGANG
 40
0.7853981633974483
  9
$DIMTFILL
 70
     0
  9
$DIMTFILLCLR
 70
     0
  9
$DIMARCSYM
 70
     0
  9
$DIMLTYPE
  6

  9
$DIMLTEX1
  6

  9
$DIMLTEX2
  6

  9
$DIMTXTDIRECTION
 70
     0
  9
$LUNITS
 70
     2
  9
$LUPREC
 70
     4
  9
$SKETCHINC
 40
0.1
  9
$FILLETRAD
 40
0.5
  9
$AUNITS
 70
     0
  9
$AUPREC
 70
     0
  9
$MENU
  1
.
  9
$ELEVATION
 40
0.0
  9
$PELEVATION
 40
0.0
  9
$THICKNESS
 40
0.0
  9
$LIMCHECK
 70
     0
  9
$CHAMFERA
 40
10.0
  9
$CHAMFERB
 40
10.0
  9
$CHAMFERC
 40
0.0
  9
$CHAMFERD
 40
0.0
  9
$SKPOLY
 70
     0
  9
$TDCREATE
 40
2459230.400716505
  9
$TDUCREATE
 40
2459230.400716505
  9
$TDUPDATE
 40
2459230.40071669
  9
$TDUUPDATE
 40
2459230.40071669
  9
$TDINDWG
 40
0.0000000116
  9
$TDUSRTIMER
 40
0.0000000116
  9
$USRTIMER
 70
     1
  9
$ANGBASE
 50
0.0
  9
$ANGDIR
 70
     0
  9
$PDMODE
 70
     0
  9
$PDSIZE
 40
0.0
  9
$PLINEWID
 40
0.0
  9
$SPLFRAME
 70
     0
  9
$SPLINETYPE
 70
     6
  9
$SPLINESEGS
 70
     8
  9
$HANDSEED
  5
7B2
  9
$SURFTAB1
 70
     6
  9
$SURFTAB2
 70
     6
  9
$SURFTYPE
 70
     6
  9
$SURFU
 70
     6
  9
$SURFV
 70
     6
  9
$UCSBASE
  2

  9
$UCSNAME
  2

  9
$UCSORG
 10
0.0
 20
0.0
 30
0.0
  9
$UCSXDIR
 10
1.0
 20
0.0
 30
0.0
  9
$UCSYDIR
 10
0.0
 20
1.0
 30
0.0
  9
$UCSORTHOREF
  2

  9
$UCSORTHOVIEW
 70
     0
  9
$UCSORGTOP
 10
0.0
 20
0.0
 30
0.0
  9
$UCSORGBOTTOM
 10
0.0
 20
0.0
 30
0.0
  9
$UCSORGLEFT
 10
0.0
 20
0.0
 30
0.0
  9
$UCSORGRIGHT
 10
0.0
 20
0.0
 30
0.0
  9
$UCSORGFRONT
 10
0.0
 20
0.0
 30
0.0
  9
$UCSORGBACK
 10
0.0
 20
0.0
 30
0.0
  9
$PUCSBASE
  2

  9
$PUCSNAME
  2

  9
$PUCSORG
 10
0.0
 20
0.0
 30
0.0
  9
$PUCSXDIR
 10
1.0
 20
0.0
 30
0.0
  9
$PUCSYDIR
 10
0.0
 20
1.0
 30
0.0
  9
$PUCSORTHOREF
  2

  9
$PUCSORTHOVIEW
 70
     0
  9
$PUCSORGTOP
 10
0.0
 20
0.0
 30
0.0
  9
$PUCSORGBOTTOM
 10
0.0
 20
0.0
 30
0.0
  9
$PUCSORGLEFT
 10
0.0
 20
0.0
 30
0.0
  9
$PUCSORGRIGHT
 10
0.0
 20
0.0
 30
0.0
  9
$PUCSORGFRONT
 10
0.0
 20
0.0
 30
0.0
  9
$PUCSORGBACK
 10
0.0
 20
0.0
 30
0.0
  9
$USERI1
 70
     0
  9
$USERI2
 70
     0
  9
$USERI3
 70
     0
  9
$USERI4
 70
     0
  9
$USERI5
 70
     0
  9
$USERR1
 40
0.0
  9
$USERR2
 40
0.0
  9
$USERR3
 40
0.0
  9
$USERR4
 40
0.0
  9
$USERR5
 40
0.0
  9
$WORLDVIEW
 70
     1
  9
$SHADEDGE
 70
     3
  9
$SHADEDIF
 70
    70
  9
$TILEMODE
 70
     1
  9
$MAXACTVP
 70
    64
  9
$PINSBASE
 10
0.0
 20
0.0
 30
0.0
  9
$PLIMCHECK
 70
     0
  9
$PEXTMIN
 10
1.000000000000000E+20
 20
1.000000000000000E+20
 30
1.000000000000000E+20
  9
$PEXTMAX
 10
-1.000000000000000E+20
 20
-1.000000000000000E+20
 30
-1.000000000000000E+20
  9
$PLIMMIN
 10
-0.25
 20
-0.25
  9
$PLIMMAX
 10
10.75
 20
8.25
  9
$UNITMODE
 70
     0
  9
$VISRETAIN
 70
     1
  9
$PLINEGEN
 70
     0
  9
$PSLTSCALE
 70
     1
  9
$TREEDEPTH
 70
  3020
  9
$CMLSTYLE
  2
Standard
  9
$CMLJUST
 70
     0
  9
$CMLSCALE
 40
1.0
  9
$PROXYGRAPHICS
 70
     1
  9
$MEASUREMENT
 70
     0
  9
$CELWEIGHT
370
    -1
  9
$ENDCAPS
280
     0
  9
$JOINSTYLE
280
     0
  9
$LWDISPLAY
290
     0
  9
$INSUNITS
 70
     0
  9
$HYPERLINKBASE
  1

  9
$STYLESHEET
  1

  9
$XEDIT
290
     1
  9
$CEPSNTYPE
380
     0
  9
$PSTYLEMODE
290
     1
  9
$FINGERPRINTGUID
  2
{9d3a78c5-1c24-4aeb-af83-19ff8ba3cadc}
  9
$VERSIONGUID
  2
{FAEB1C32-E019-11D5-929B-00C0DF256EC4}
  9
$EXTNAMES
290
     1
  9
$PSVPSCALE
 40
0.0
  9
$OLESTARTUP
290
     0
  9
$SORTENTS
280
   127
  9
$INDEXCTL
280
     0
  9
$HIDETEXT
280
     1
  9
$XCLIPFRAME
280
     2
  9
$HALOGAP
280
     0
  9
$OBSCOLOR
 70
   257
  9
$OBSLTYPE
280
     0
  9
$INTERSECTIONDISPLAY
280
     0
  9
$INTERSECTIONCOLOR
 70
   257
  9
$DIMASSOC
280
     2
  9
$PROJECTNAME
  1

  9
$CAMERADISPLAY
290
     0
  9
$LENSLENGTH
 40
50.0
  9
$CAMERAHEIGHT
 40
0.0
  9
$STEPSPERSEC
 40
2.0
  9
$STEPSIZE
 40
6.0
  9
$3DDWFPREC
 40
2.0
  9
$PSOLWIDTH
 40
0.25
  9
$PSOLHEIGHT
 40
4.0
  9
$LOFTANG1
 40
1.570796326794897
  9
$LOFTANG2
 40
1.570796326794897
  9
$LOFTMAG1
 40
0.0
  9
$LOFTMAG2
 40
0.0
  9
$LOFTPARAM
 70
     7
  9
$LOFTNORMALS
280
     1
  9
$LATITUDE
 40
37.795
  9
$LONGITUDE
 40
-122.394
  9
$NORTHDIRECTION
 40
0.0
  9
$TIMEZONE
 70
 -8000
  9
$LIGHTGLYPHDISPLAY
280
     1
  9
$TILEMODELIGHTSYNCH
280
     1
  9
$CMATERIAL
347
702
  9
$SOLIDHIST
280
     0
  9
$SHOWHIST
280
     1
  9
$DWFFRAME
280
     2
  9
$DGNFRAME
280
     2
  9
$REALWORLDSCALE
290
     1
  9
$INTERFERECOLOR
 62
   256
  9
$CSHADOW
280
     0
  9
$SHADOWPLANELOCATION
 40
0.0
  0
ENDSEC
  0
SECTION
  2
CLASSES
  0
CLASS
  1
ACDBDICTIONARYWDFLT
  2
AcDbDictionaryWithDefault
  3
ObjectDBX Classes
 90
        0
 91
        3
280
     0
281
     0
  0
CLASS
  1
VISUALSTYLE
  2
AcDbVisualStyle
  3
ObjectDBX Classes
 90
     4095
 91
        3
280
     0
281
     0
  0
CLASS
  1
MATERIAL
  2
AcDbMaterial
  3
ObjectDBX Classes
 90
     1153
 91
        3
280
     0
281
     0
  0
CLASS
  1
SCALE
  2
AcDbScale
  3
ObjectDBX Classes
 90
     1153
 91
        3
280
     0
281
     0
  0
CLASS
  1
TABLESTYLE
  2
AcDbTableStyle
  3
ObjectDBX Classes
 90
     4095
 91
        3
280
     0
281
     0
  0
CLASS
  1
MLEADERSTYLE
  2
AcDbMLeaderStyle
  3
ACDB_MLEADERSTYLE_CLASS
 90
     4095
 91
        3
280
     0
281
     0
  0
CLASS
  1
SUN
  2
AcDbSun
  3
SCENEOE
 90
     1153
 91
        3
280
     0
281
     0
  0
CLASS
  1
DICTIONARYVAR
  2
AcDbDictionaryVar
  3
ObjectDBX Classes
 90
        0
 91
        3
280
     0
281
     0
  0
CLASS
  1
CELLSTYLEMAP
  2
AcDbCellStyleMap
  3
ObjectDBX Classes
 90
     1152
 91
        3
280
     0
281
     0
  0
ENDSEC
  0
SECTION
  2
TABLES
  0
TABLE
  2
VPORT
  5
6C7
330
0
100
AcDbSymbolTable
 70
     1
  0
VPORT
  5
6E7
330
6C7
100
AcDbSymbolTableRecord
100
AcDbViewportTableRecord
  2
*Active
 70
     0
 10
0.0
 20
0.0
 11
1.0
 21
1.0
 12
296.8614232482121
 22
215.6293083900808
 13
0.0
 23
0.0
 14
0.5
 24
0.5
 15
0.5
 25
0.5
 16
0.0
 26
0.0
 36
1.0
 17
0.0
 27
0.0
 37
0.0
 40
347.5033413766575
 41
1.74585635359116
 42
50.0
 43
0.0
 44
0.0
 50
0.0
 51
0.0
 71
     0
 72
   100
 73
     1
 74
     3
 75
     0
 76
     0
 77
     0
 78
     0
281
     0
 65
     1
110
0.0
120
0.0
130
0.0
111
1.0
121
0.0
131
0.0
112
0.0
122
1.0
132
0.0
 79
     0
146
0.0
348
6ED
 60
     3
 61
     5
292
     1
282
     1
141
0.0
142
0.0
 63
   250
361
72B
  0
ENDTAB
  0
TABLE
  2
LTYPE
  5
6C4
330
0
100
AcDbSymbolTable
 70
    52
  0
LTYPE
  5
6D2
330
6C4
100
AcDbSymbolTableRecord
100
AcDbLinetypeTableRecord
  2
ByBlock
 70
     0
  3

 72
    65
 73
     0
 40
0.0
  0
LTYPE
  5
6D3
330
6C4
100
AcDbSymbolTableRecord
100
AcDbLinetypeTableRecord
  2
ByLayer
 70
     0
  3

 72
    65
 73
     0
 40
0.0
  0
LTYPE
  5
6D4
330
6C4
100
AcDbSymbolTableRecord
100
AcDbLinetypeTableRecord
  2
Continuous
 70
     0
  3
Solid line
 72
    65
 73
     0
 40
0.0
  0
LTYPE
  5
766
330
6C4
100
AcDbSymbolTableRecord
100
AcDbLinetypeTableRecord
  2
CENTER
 70
     0
  3
____ _ ____ _ ____ _ ____ _ ____ _ ____ _ __
 72
    65
 73
     4
 40
2.0
 49
1.25
 74
     0
 49
-0.25
 74
     0
 49
0.25
 74
     0
 49
-0.25
 74
     0
  0
LTYPE
  5
767
330
6C4
100
AcDbSymbolTableRecord
100
AcDbLinetypeTableRecord
  2
CENTER2
 70
     0
  3
Center (.5x) ___ _ ___ _ ___ _ ___ _ ___ _ ___
 72
    65
 73
     4
 40
28.575
 49
19.05
 74
     0
 49
-3.175
 74
     0
 49
3.175
 74
     0
 49
-3.175
 74
     0
  0
LTYPE
  5
768
330
6C4
100
AcDbSymbolTableRecord
100
AcDbLinetypeTableRecord
  2
CENTERX2
 70
     0
  3
Center (2x) ________  __  ________  __  _____
 72
    65
 73
     4
 40
101.6
 49
63.5
 74
     0
 49
-12.7
 74
     0
 49
12.7
 74
     0
 49
-12.7
 74
     0
  0
LTYPE
  5
769
330
6C4
100
AcDbSymbolTableRecord
100
AcDbLinetypeTableRecord
  2
DASHDOT
 70
     0
  3
__ . __ . __ . __ . __ . __ . __ . __ . __ .
 72
    65
 73
     4
 40
1.0
 49
0.5
 74
     0
 49
-0.25
 74
     0
 49
0.0
 74
     0
 49
-0.25
 74
     0
  0
LTYPE
  5
76A
330
6C4
100
AcDbSymbolTableRecord
100
AcDbLinetypeTableRecord
  2
DASHDOT2
 70
     0
  3
Dash dot (.5x) _._._._._._._._._._._._._._._.
 72
    65
 73
     4
 40
12.7
 49
6.35
 74
     0
 49
-3.175
 74
     0
 49
0.0
 74
     0
 49
-3.175
 74
     0
  0
LTYPE
  5
76B
330
6C4
100
AcDbSymbolTableRecord
100
AcDbLinetypeTableRecord
  2
DASHDOTX2
 70
     0
  3
Dash dot (2x) ____  .  ____  .  ____  .  ___
 72
    65
 73
     4
 40
50.8
 49
25.4
 74
     0
 49
-12.7
 74
     0
 49
0.0
 74
     0
 49
-12.7
 74
     0
  0
LTYPE
  5
76C
330
6C4
100
AcDbSymbolTableRecord
100
AcDbLinetypeTableRecord
  2
ACAD_ISO10W100
 70
     0
  3
ISO dash dot __ . __ . __ . __ . __ . __ . __ . 
 72
    65
 73
     4
 40
18.0
 49
12.0
 74
     0
 49
-3.0
 74
     0
 49
0.0
 74
     0
 49
-3.0
 74
     0
  0
LTYPE
  5
76D
330
6C4
100
AcDbSymbolTableRecord
100
AcDbLinetypeTableRecord
  2
ACAD_ISO11W100
 70
     0
  3
ISO double-dash dot __ __ . __ __ . __ __ . __ _
 72
    65
 73
     6
 40
33.0
 49
12.0
 74
     0
 49
-3.0
 74
     0
 49
12.0
 74
     0
 49
-3.0
 74
     0
 49
0.0
 74
     0
 49
-3.0
 74
     0
  0
LTYPE
  5
76E
330
6C4
100
AcDbSymbolTableRecord
100
AcDbLinetypeTableRecord
  2
ACAD_ISO12W100
 70
     0
  3
ISO dash double-dot __ . . __ . . __ . . __ . . 
 72
    65
 73
     6
 40
21.0
 49
12.0
 74
     0
 49
-3.0
 74
     0
 49
0.0
 74
     0
 49
-3.0
 74
     0
 49
0.0
 74
     0
 49
-3.0
 74
     0
  0
LTYPE
  5
76F
330
6C4
100
AcDbSymbolTableRecord
100
AcDbLinetypeTableRecord
  2
ACAD_ISO13W100
 70
     0
  3
ISO double-dash double-dot __ __ . . __ __ . . _
 72
    65
 73
     8
 40
36.0
 49
12.0
 74
     0
 49
-3.0
 74
     0
 49
12.0
 74
     0
 49
-3.0
 74
     0
 49
0.0
 74
     0
 49
-3.0
 74
     0
 49
0.0
 74
     0
 49
-3.0
 74
     0
  0
LTYPE
  5
770
330
6C4
100
AcDbSymbolTableRecord
100
AcDbLinetypeTableRecord
  2
ACAD_ISO14W100
 70
     0
  3
ISO dash triple-dot __ . . . __ . . . __ . . . _
 72
    65
 73
     8
 40
24.0
 49
12.0
 74
     0
 49
-3.0
 74
     0
 49
0.0
 74
     0
 49
-3.0
 74
     0
 49
0.0
 74
     0
 49
-3.0
 74
     0
 49
0.0
 74
     0
 49
-3.0
 74
     0
  0
LTYPE
  5
771
330
6C4
100
AcDbSymbolTableRecord
100
AcDbLinetypeTableRecord
  2
ACAD_ISO15W100
 70
     0
  3
ISO double-dash triple-dot __ __ . . . __ __ . .
 72
    65
 73
    10
 40
39.0
 49
12.0
 74
     0
 49
-3.0
 74
     0
 49
12.0
 74
     0
 49
-3.0
 74
     0
 49
0.0
 74
     0
 49
-3.0
 74
     0
 49
0.0
 74
     0
 49
-3.0
 74
     0
 49
0.0
 74
     0
 49
-3.0
 74
     0
  0
LTYPE
  5
774
330
6C4
100
AcDbSymbolTableRecord
100
AcDbLinetypeTableRecord
  2
BATTING
 70
     0
  3
Batting SSSSSSSSSSSSSSSSSSSSSSSSSSSSSSSSSSSSSSSSSSSSSSS
 72
    65
 73
     4
 40
10.16254
 49
0.00254
 74
     0
 49
-2.54
 74
     2
 75
     0
340
772
 46
2.54
 50
0.0
 44
-2.54
 45
0.0
  9
BAT
 49
-5.08
 74
     2
 75
     0
340
773
 46
2.54
 50
180.0
 44
2.54
 45
0.0
  9
BAT
 49
-2.54
 74
     0
  0
LTYPE
  5
775
330
6C4
100
AcDbSymbolTableRecord
100
AcDbLinetypeTableRecord
  2
BORDER
 70
     0
  3
__ __ . __ __ . __ __ . __ __ . __ __ . __ _
 72
    65
 73
     6
 40
1.75
 49
0.5
 74
     0
 49
-0.25
 74
     0
 49
0.5
 74
     0
 49
-0.25
 74
     0
 49
0.0
 74
     0
 49
-0.25
 74
     0
  0
LTYPE
  5
776
330
6C4
100
AcDbSymbolTableRecord
100
AcDbLinetypeTableRecord
  2
DOTX2
 70
     0
  3
Dot (2x) .  .  .  .  .  .  .  .  .  .  .  .  .  .
 72
    65
 73
     2
 40
12.7
 49
0.0
 74
     0
 49
-12.7
 74
     0
  0
LTYPE
  5
778
330
6C4
100
AcDbSymbolTableRecord
100
AcDbLinetypeTableRecord
  2
DRAINAGE
 70
     0
  3
Drainage ---->---->---->----
 72
    65
 73
     2
 40
10.16
 49
5.08
 74
     2
 75
     0
340
777
 46
2.54
 50
180.0
 44
0.0
 45
0.0
  9
RIGHT_ARROW
 49
5.08
 74
     0
  0
LTYPE
  5
77A
330
6C4
100
AcDbSymbolTableRecord
100
AcDbLinetypeTableRecord
  2
DRAINAGE2
 70
     0
  3
Drainage reversed----<----<----<----
 72
    65
 73
     2
 40
10.16
 49
5.08
 74
     2
 75
     0
340
779
 46
2.54
 50
0.0
 44
0.0
 45
0.0
  9
RIGHT_ARROW
 49
5.08
 74
     0
  0
LTYPE
  5
77C
330
6C4
100
AcDbSymbolTableRecord
100
AcDbLinetypeTableRecord
  2
FENCELINE1
 70
     0
  3
Fenceline circle ----0-----0----0-----0----0-----0--
 72
    65
 73
     4
 40
36.83
 49
6.35
 74
     0
 49
-2.54
 74
     2
 75
     0
340
77B
 46
2.54
 50
0.0
 44
-2.54
 45
0.0
  9
CIRC1
 49
-2.54
 74
     0
 49
25.4
 74
     0
  0
LTYPE
  5
77E
330
6C4
100
AcDbSymbolTableRecord
100
AcDbLinetypeTableRecord
  2
FENCELINE2
 70
     0
  3
Fenceline square ----[]-----[]----[]-----[]----[]---
 72
    65
 73
     4
 40
36.83
 49
6.35
 74
     0
 49
-2.54
 74
     2
 75
     0
340
77D
 46
2.54
 50
0.0
 44
-2.54
 45
0.0
  9
BOX
 49
-2.54
 74
     0
 49
25.4
 74
     0
  0
LTYPE
  5
780
330
6C4
100
AcDbSymbolTableRecord
100
AcDbLinetypeTableRecord
  2
GAS_LINE
 70
     0
  3
Gas line ----GAS----GAS----GAS----GAS----GAS----GAS--
 72
    65
 73
     3
 40
24.13
 49
12.7
 74
     0
 49
-5.08
 74
     2
 75
     0
340
77F
 46
2.54
 50
0.0
 44
-2.54
 45
-1.27
  9
GAS
 49
-6.35
 74
     0
  0
LTYPE
  5
781
330
6C4
100
AcDbSymbolTableRecord
100
AcDbLinetypeTableRecord
  2
HIDDEN
 70
     0
  3
_ _ _ _ _ _ _ _ _ _ _ _ _ _ _ _ _ _ _ _ _ _ 
 72
    65
 73
     2
 40
0.375
 49
0.25
 74
     0
 49
-0.125
 74
     0
  0
LTYPE
  5
782
330
6C4
100
AcDbSymbolTableRecord
100
AcDbLinetypeTableRecord
  2
HIDDEN2
 70
     0
  3
Hidden (.5x) _ _ _ _ _ _ _ _ _ _ _ _ _ _ _ _ _ 
 72
    65
 73
     2
 40
4.762499999999999
 49
3.175
 74
     0
 49
-1.5875
 74
     0
  0
LTYPE
  5
783
330
6C4
100
AcDbSymbolTableRecord
100
AcDbLinetypeTableRecord
  2
DASHED
 70
     0
  3
__ __ __ __ __ __ __ __ __ __ __ __ __ __ __
 72
    65
 73
     2
 40
0.75
 49
0.5
 74
     0
 49
-0.25
 74
     0
  0
LTYPE
  5
784
330
6C4
100
AcDbSymbolTableRecord
100
AcDbLinetypeTableRecord
  2
DASHED2
 70
     0
  3
Dashed (.5x) _ _ _ _ _ _ _ _ _ _ _ _ _ _ _ _ _ 
 72
    65
 73
     2
 40
9.524999999999999
 49
6.35
 74
     0
 49
-3.175
 74
     0
  0
LTYPE
  5
785
330
6C4
100
AcDbSymbolTableRecord
100
AcDbLinetypeTableRecord
  2
DASHEDX2
 70
     0
  3
Dashed (2x) ____  ____  ____  ____  ____  ___
 72
    65
 73
     2
 40
38.09999999999999
 49
25.4
 74
     0
 49
-12.7
 74
     0
  0
LTYPE
  5
786
330
6C4
100
AcDbSymbolTableRecord
100
AcDbLinetypeTableRecord
  2
DIVIDE
 70
     0
  3
__ . . __ . . __ . . __ . . __ . . __ . . __
 72
    65
 73
     6
 40
1.25
 49
0.5
 74
     0
 49
-0.25
 74
     0
 49
0.0
 74
     0
 49
-0.25
 74
     0
 49
0.0
 74
     0
 49
-0.25
 74
     0
  0
LTYPE
  5
787
330
6C4
100
AcDbSymbolTableRecord
100
AcDbLinetypeTableRecord
  2
DIVIDE2
 70
     0
  3
Divide (.5x) __..__..__..__..__..__..__..__.._
 72
    65
 73
     6
 40
15.875
 49
6.35
 74
     0
 49
-3.175
 74
     0
 49
0.0
 74
     0
 49
-3.175
 74
     0
 49
0.0
 74
     0
 49
-3.175
 74
     0
  0
LTYPE
  5
788
330
6C4
100
AcDbSymbolTableRecord
100
AcDbLinetypeTableRecord
  2
DIVIDEX2
 70
     0
  3
Divide (2x) ________  .  .  ________  .  .  _
 72
    65
 73
     6
 40
63.5
 49
25.4
 74
     0
 49
-12.7
 74
     0
 49
0.0
 74
     0
 49
-12.7
 74
     0
 49
0.0
 74
     0
 49
-12.7
 74
     0
  0
LTYPE
  5
789
330
6C4
100
AcDbSymbolTableRecord
100
AcDbLinetypeTableRecord
  2
DOT
 70
     0
  3
............................................
 72
    65
 73
     2
 40
0.25
 49
0.0
 74
     0
 49
-0.25
 74
     0
  0
LTYPE
  5
78A
330
6C4
100
AcDbSymbolTableRecord
100
AcDbLinetypeTableRecord
  2
DOT2
 70
     0
  3
Dot (.5x) ........................................
 72
    65
 73
     2
 40
3.175
 49
0.0
 74
     0
 49
-3.175
 74
     0
  0
LTYPE
  5
78B
330
6C4
100
AcDbSymbolTableRecord
100
AcDbLinetypeTableRecord
  2
TSLONGDASH
 70
     0
  3
__ __ __ __ __ __ __ __ __ __ __ __ __ __ _ 
 72
    65
 73
     2
 40
1.28
 49
1.0
 74
     0
 49
-0.28
 74
     0
  0
LTYPE
  5
78C
330
6C4
100
AcDbSymbolTableRecord
100
AcDbLinetypeTableRecord
  2
TSDASHDOT
 70
     0
  3
______ . ______ . ______ . ______ . ______ .
 72
    65
 73
     4
 40
1.28
 49
1.0
 74
     0
 49
-0.14
 74
     0
 49
0.0
 74
     0
 49
-0.14
 74
     0
  0
LTYPE
  5
78D
330
6C4
100
AcDbSymbolTableRecord
100
AcDbLinetypeTableRecord
  2
TSCENTER
 70
     0
  3
______ _ ______ _ ______ _ ______ _ ______ _
 72
    65
 73
     4
 40
2.0
 49
1.5
 74
     0
 49
-0.18
 74
     0
 49
0.14
 74
     0
 49
-0.18
 74
     0
  0
LTYPE
  5
78E
330
6C4
100
AcDbSymbolTableRecord
100
AcDbLinetypeTableRecord
  2
TSPHANTOM
 70
     0
  3
_____ _ _ _____ _ _ _____ _ _ _____ _ _ ____
 72
    65
 73
     6
 40
2.5
 49
1.63
 74
     0
 49
-0.19
 74
     0
 49
0.15
 74
     0
 49
-0.19
 74
     0
 49
0.15
 74
     0
 49
-0.19
 74
     0
  0
LTYPE
  5
78F
330
6C4
100
AcDbSymbolTableRecord
100
AcDbLinetypeTableRecord
  2
HIDDENX2
 70
     0
  3
Hidden (2x) ____ ____ ____ ____ ____ ____ ____ 
 72
    65
 73
     2
 40
19.05
 49
12.7
 74
     0
 49
-6.35
 74
     0
  0
LTYPE
  5
791
330
6C4
100
AcDbSymbolTableRecord
100
AcDbLinetypeTableRecord
  2
HOT_WATER_SUPPLY
 70
     0
  3
Hot water supply ---- HW ---- HW ---- HW ----
 72
    65
 73
     3
 40
22.86
 49
12.7
 74
     0
 49
-5.08
 74
     2
 75
     0
340
790
 46
2.54
 50
0.0
 44
-2.54
 45
-1.27
  9
HW
 49
-5.08
 74
     0
  0
LTYPE
  5
792
330
6C4
100
AcDbSymbolTableRecord
100
AcDbLinetypeTableRecord
  2
PHANTOM
 70
     0
  3
_____ _ _ _____ _ _ _____ _ _ _____ _ _ ____
 72
    65
 73
     6
 40
2.5
 49
1.25
 74
     0
 49
-0.25
 74
     0
 49
0.25
 74
     0
 49
-0.25
 74
     0
 49
0.25
 74
     0
 49
-0.25
 74
     0
  0
LTYPE
  5
793
330
6C4
100
AcDbSymbolTableRecord
100
AcDbLinetypeTableRecord
  2
PHANTOM2
 70
     0
  3
Phantom (.5x) ___ _ _ ___ _ _ ___ _ _ ___ _ _
 72
    65
 73
     6
 40
31.75
 49
15.875
 74
     0
 49
-3.175
 74
     0
 49
3.175
 74
     0
 49
-3.175
 74
     0
 49
3.175
 74
     0
 49
-3.175
 74
     0
  0
LTYPE
  5
794
330
6C4
100
AcDbSymbolTableRecord
100
AcDbLinetypeTableRecord
  2
PHANTOMX2
 70
     0
  3
Phantom (2x) ____________    ____    ____   _
 72
    65
 73
     6
 40
127.0
 49
63.5
 74
     0
 49
-12.7
 74
     0
 49
12.7
 74
     0
 49
-12.7
 74
     0
 49
12.7
 74
     0
 49
-12.7
 74
     0
  0
LTYPE
  5
796
330
6C4
100
AcDbSymbolTableRecord
100
AcDbLinetypeTableRecord
  2
TRACKS
 70
     0
  3
Tracks -|-|-|-|-|-|-|-|-|-|-|-|-|-|-|-|-|-|-|-|-|-|-|-|-
 72
    65
 73
     2
 40
7.62
 49
3.81
 74
     2
 75
     0
340
795
 46
6.35
 50
0.0
 44
0.0
 45
0.0
  9
TRACK1
 49
3.81
 74
     0
  0
LTYPE
  5
799
330
6C4
100
AcDbSymbolTableRecord
100
AcDbLinetypeTableRecord
  2
ZIGZAG
 70
     0
  3
Zig zag /\/\/\/\/\/\/\/\/\/\/\/\/\/\/\/\/\/\/\/\/\/\/\/
 72
    65
 73
     4
 40
20.32254
 49
0.00254
 74
     0
 49
-5.08
 74
     2
 75
     0
340
797
 46
5.08
 50
0.0
 44
-5.08
 45
0.0
  9
ZIG
 49
-10.16
 74
     2
 75
     0
340
798
 46
5.08
 50
180.0
 44
5.08
 45
0.0
  9
ZIG
 49
-5.08
 74
     0
  0
LTYPE
  5
79A
330
6C4
100
AcDbSymbolTableRecord
100
AcDbLinetypeTableRecord
  2
ACAD_ISO02W100
 70
     0
  3
ISO dash __ __ __ __ __ __ __ __ __ __ __ __ __
 72
    65
 73
     2
 40
15.0
 49
12.0
 74
     0
 49
-3.0
 74
     0
  0
LTYPE
  5
79B
330
6C4
100
AcDbSymbolTableRecord
100
AcDbLinetypeTableRecord
  2
ACAD_ISO03W100
 70
     0
  3
ISO dash space __    __    __    __    __    __
 72
    65
 73
     2
 40
30.0
 49
12.0
 74
     0
 49
-18.0
 74
     0
  0
LTYPE
  5
79C
330
6C4
100
AcDbSymbolTableRecord
100
AcDbLinetypeTableRecord
  2
ACAD_ISO04W100
 70
     0
  3
ISO long-dash dot ____ . ____ . ____ . ____ . _
 72
    65
 73
     4
 40
30.0
 49
24.0
 74
     0
 49
-3.0
 74
     0
 49
0.0
 74
     0
 49
-3.0
 74
     0
  0
LTYPE
  5
79D
330
6C4
100
AcDbSymbolTableRecord
100
AcDbLinetypeTableRecord
  2
ACAD_ISO05W100
 70
     0
  3
ISO long-dash double-dot ____ .. ____ .. ____ . 
 72
    65
 73
     6
 40
33.0
 49
24.0
 74
     0
 49
-3.0
 74
     0
 49
0.0
 74
     0
 49
-3.0
 74
     0
 49
0.0
 74
     0
 49
-3.0
 74
     0
  0
LTYPE
  5
79E
330
6C4
100
AcDbSymbolTableRecord
100
AcDbLinetypeTableRecord
  2
ACAD_ISO06W100
 70
     0
  3
ISO long-dash triple-dot ____ ... ____ ... ____
 72
    65
 73
     8
 40
36.0
 49
24.0
 74
     0
 49
-3.0
 74
     0
 49
0.0
 74
     0
 49
-3.0
 74
     0
 49
0.0
 74
     0
 49
-3.0
 74
     0
 49
0.0
 74
     0
 49
-3.0
 74
     0
  0
LTYPE
  5
79F
330
6C4
100
AcDbSymbolTableRecord
100
AcDbLinetypeTableRecord
  2
ACAD_ISO07W100
 70
     0
  3
ISO dot . . . . . . . . . . . . . . . . . . . . 
 72
    65
 73
     2
 40
3.0
 49
0.0
 74
     0
 49
-3.0
 74
     0
  0
LTYPE
  5
7A0
330
6C4
100
AcDbSymbolTableRecord
100
AcDbLinetypeTableRecord
  2
ACAD_ISO08W100
 70
     0
  3
ISO long-dash short-dash ____ __ ____ __ ____ _
 72
    65
 73
     4
 40
36.0
 49
24.0
 74
     0
 49
-3.0
 74
     0
 49
6.0
 74
     0
 49
-3.0
 74
     0
  0
LTYPE
  5
7A1
330
6C4
100
AcDbSymbolTableRecord
100
AcDbLinetypeTableRecord
  2
ACAD_ISO09W100
 70
     0
  3
ISO long-dash double-short-dash ____ __ __ ____
 72
    65
 73
     6
 40
45.0
 49
24.0
 74
     0
 49
-3.0
 74
     0
 49
6.0
 74
     0
 49
-3.0
 74
     0
 49
6.0
 74
     0
 49
-3.0
 74
     0
  0
LTYPE
  5
7A2
330
6C4
100
AcDbSymbolTableRecord
100
AcDbLinetypeTableRecord
  2
BORDER2
 70
     0
  3
Border (.5x) __.__.__.__.__.__.__.__.__.__.__.
 72
    65
 73
     6
 40
22.225
 49
6.35
 74
     0
 49
-3.175
 74
     0
 49
6.35
 74
     0
 49
-3.175
 74
     0
 49
0.0
 74
     0
 49
-3.175
 74
     0
  0
LTYPE
  5
7A3
330
6C4
100
AcDbSymbolTableRecord
100
AcDbLinetypeTableRecord
  2
BORDERX2
 70
     0
  3
Border (2x) ____  ____  .  ____  ____  .  ___
 72
    65
 73
     6
 40
88.89999999999999
 49
25.4
 74
     0
 49
-12.7
 74
     0
 49
25.4
 74
     0
 49
-12.7
 74
     0
 49
0.0
 74
     0
 49
-12.7
 74
     0
  0
ENDTAB
  0
TABLE
  2
LAYER
  5
6C2
330
0
100
AcDbSymbolTable
 70
     4
  0
LAYER
  5
6CF
330
6C2
100
AcDbSymbolTableRecord
100
AcDbLayerTableRecord
  2
0
 70
     0
 62
     7
  6
Continuous
370
    -3
390
6CE
347
704
348
0
  0
LAYER
  5
7A4
330
6C2
100
AcDbSymbolTableRecord
100
AcDbLayerTableRecord
  2
Layer_1
 70
     0
 62
     7
  6
Continuous
370
    -3
390
6CE
347
704
348
0
  0
LAYER
  5
7A5
330
6C2
100
AcDbSymbolTableRecord
100
AcDbLayerTableRecord
  2
Layer_2
 70
     0
 62
     7
  6
Continuous
370
    -3
390
6CE
347
704
348
0
  0
LAYER
  5
7A6
330
6C2
100
AcDbSymbolTableRecord
100
AcDbLayerTableRecord
  2
Layer_3
 70
     0
 62
     7
  6
Continuous
370
    -3
390
6CE
347
704
348
0
  0
ENDTAB
  0
TABLE
  2
STYLE
  5
6C3
330
0
100
AcDbSymbolTable
 70
    13
  0
STYLE
  5
6D0
330
6C3
100
AcDbSymbolTableRecord
100
AcDbTextStyleTableRecord
  2
Standard
 70
     0
 40
0.0
 41
1.0
 50
0.0
 71
     0
 42
0.2
  3
txt
  4

  0
STYLE
  5
764
330
6C3
100
AcDbSymbolTableRecord
100
AcDbTextStyleTableRecord
  2
QCADDimTextStyle
 70
     0
 40
0.0
 41
1.0
 50
0.0
 71
     0
 42
0.2
  3

  4

  0
STYLE
  5
772
330
6C3
100
AcDbSymbolTableRecord
100
AcDbTextStyleTableRecord
  2
textstyle0
 70
     0
 40
0.0
 41
1.0
 50
0.0
 71
     0
 42
0.2
  3
ltypeshp.shx
  4

  0
STYLE
  5
773
330
6C3
100
AcDbSymbolTableRecord
100
AcDbTextStyleTableRecord
  2
textstyle1
 70
     0
 40
0.0
 41
1.0
 50
0.0
 71
     0
 42
0.2
  3
ltypeshp.shx
  4

  0
STYLE
  5
777
330
6C3
100
AcDbSymbolTableRecord
100
AcDbTextStyleTableRecord
  2
textstyle2
 70
     0
 40
0.0
 41
1.0
 50
0.0
 71
     0
 42
0.2
  3
qcadshp.shx
  4

  0
STYLE
  5
779
330
6C3
100
AcDbSymbolTableRecord
100
AcDbTextStyleTableRecord
  2
textstyle3
 70
     0
 40
0.0
 41
1.0
 50
0.0
 71
     0
 42
0.2
  3
qcadshp.shx
  4

  0
STYLE
  5
77B
330
6C3
100
AcDbSymbolTableRecord
100
AcDbTextStyleTableRecord
  2
textstyle4
 70
     0
 40
0.0
 41
1.0
 50
0.0
 71
     0
 42
0.2
  3
ltypeshp.shx
  4

  0
STYLE
  5
77D
330
6C3
100
AcDbSymbolTableRecord
100
AcDbTextStyleTableRecord
  2
textstyle5
 70
     0
 40
0.0
 41
1.0
 50
0.0
 71
     0
 42
0.2
  3
ltypeshp.shx
  4

  0
STYLE
  5
77F
330
6C3
100
AcDbSymbolTableRecord
100
AcDbTextStyleTableRecord
  2
textstyle6
 70
     0
 40
0.0
 41
1.0
 50
0.0
 71
     0
 42
0.2
  3
STANDARD
  4

  0
STYLE
  5
790
330
6C3
100
AcDbSymbolTableRecord
100
AcDbTextStyleTableRecord
  2
textstyle7
 70
     0
 40
0.0
 41
1.0
 50
0.0
 71
     0
 42
0.2
  3
STANDARD
  4

  0
STYLE
  5
795
330
6C3
100
AcDbSymbolTableRecord
100
AcDbTextStyleTableRecord
  2
textstyle8
 70
     0
 40
0.0
 41
1.0
 50
0.0
 71
     0
 42
0.2
  3
ltypeshp.shx
  4

  0
STYLE
  5
797
330
6C3
100
AcDbSymbolTableRecord
100
AcDbTextStyleTableRecord
  2
textstyle9
 70
     0
 40
0.0
 41
1.0
 50
0.0
 71
     0
 42
0.2
  3
ltypeshp.shx
  4

  0
STYLE
  5
798
330
6C3
100
AcDbSymbolTableRecord
100
AcDbTextStyleTableRecord
  2
textstyle10
 70
     0
 40
0.0
 41
1.0
 50
0.0
 71
     0
 42
0.2
  3
ltypeshp.shx
  4

  0
ENDTAB
  0
TABLE
  2
VIEW
  5
6C5
330
0
100
AcDbSymbolTable
 70
     0
  0
ENDTAB
  0
TABLE
  2
UCS
  5
6C6
330
0
100
AcDbSymbolTable
 70
     0
  0
ENDTAB
  0
TABLE
  2
APPID
  5
6C8
330
0
100
AcDbSymbolTable
 70
     2
  0
APPID
  5
6D1
330
6C8
100
AcDbSymbolTableRecord
100
AcDbRegAppTableRecord
  2
ACAD
 70
     0
  0
APPID
  5
72C
330
6C8
100
AcDbSymbolTableRecord
100
AcDbRegAppTableRecord
  2
QCAD
 70
     0
  0
ENDTAB
  0
TABLE
  2
DIMSTYLE
  5
6C9
330
0
100
AcDbSymbolTable
 70
     2
100
AcDbDimStyleTable
  0
DIMSTYLE
105
6E5
330
6C9
100
AcDbSymbolTableRecord
100
AcDbDimStyleTableRecord
  2
Standard
 70
     0
178
     0
340
6D0
  0
DIMSTYLE
105
765
330
6C9
100
AcDbSymbolTableRecord
100
AcDbDimStyleTableRecord
  2
QCADDimStyle
 70
     0
 73
     0
 77
     1
178
     0
340
764
  0
ENDTAB
  0
TABLE
  2
BLOCK_RECORD
  5
6C1
330
0
100
AcDbSymbolTable
 70
     0
  0
BLOCK_RECORD
  5
6DD
330
6C1
100
AcDbSymbolTableRecord
100
AcDbBlockTableRecord
  2
*Model_Space
340
6E0
 70
     0
280
     1
281
     0
  0
BLOCK_RECORD
  5
6D9
330
6C1
100
AcDbSymbolTableRecord
100
AcDbBlockTableRecord
  2
*Paper_Space
340
6DC
 70
     0
280
     1
281
     0
  0
ENDTAB
  0
ENDSEC
  0
SECTION
  2
BLOCKS
  0
BLOCK
  5
6DE
330
6DD
100
AcDbEntity
  8
0
100
AcDbBlockBegin
  2
*Model_Space
 70
     0
 10
0.0
 20
0.0
 30
0.0
  3
*Model_Space
  1

  0
ENDBLK
  5
6DF
330
6DD
100
AcDbEntity
  8
0
100
AcDbBlockEnd
  0
BLOCK
  5
6DA
330
6D9
100
AcDbEntity
 67
     1
  8
0
100
AcDbBlockBegin
  2
*Paper_Space
 70
     0
 10
0.0
 20
0.0
 30
0.0
  3
*Paper_Space
  1

  0
ENDBLK
  5
6DB
330
6D9
100
AcDbEntity
 67
     1
  8
0
100
AcDbBlockEnd
  0
ENDSEC
  0
SECTION
  2
ENTITIES
  0
CIRCLE
  5
4F
330
6DD
100
AcDbEntity
  8
Layer_1
  6
Continuous
 62
     1
420
 16711680
100
AcDbCircle
 10
372.611423215491
 20
162.7565542927493
 30
0.0
 40
2.0
  0
LINE
  5
50
330
6DD
100
AcDbEntity
  8
Layer_1
  6
Continuous
 62
     1
420
 16711680
100
AcDbLine
 10
365.7019596857137
 20
206.2565542950675
 30
0.0
 11
343.5208866728947
 21
206.2565542990509
 31
0.0
  0
LINE
  5
51
330
6DD
100
AcDbEntity
  8
Layer_1
  6
Continuous
 62
     1
420
 16711680
100
AcDbLine
 10
340.6471831351764
 20
204.2565542995671
 30
0.0
 11
368.575663222714
 21
204.2565542945515
 31
0.0
  0
LINE
  5
52
330
6DD
100
AcDbEntity
  8
Layer_1
  6
Continuous
 62
     1
420
 16711680
100
AcDbLine
 10
372.3596625275254
 20
200.2565542938719
 30
0.0
 11
336.863183828928
 21
200.2565543002466
 31
0.0
  0
LINE
  5
53
330
6DD
100
AcDbEntity
  8
Layer_1
  6
Continuous
 62
     1
420
 16711680
100
AcDbLine
 10
335.55886429461
 20
198.2565543004808
 30
0.0
 11
373.6639820611249
 21
198.2565542936376
 31
0.0
  0
LINE
  5
54
330
6DD
100
AcDbEntity
  8
Layer_1
  6
Continuous
 62
     1
420
 16711680
100
AcDbLine
 10
375.4680767917635
 20
194.2565542933137
 30
0.0
 11
333.7547695625349
 21
194.2565543008049
 31
0.0
  0
LINE
  5
55
330
6DD
100
AcDbEntity
  8
Layer_1
  6
Continuous
 62
     1
420
 16711680
100
AcDbLine
 10
333.1871378911619
 20
192.2565543009068
 30
0.0
 11
376.0357084624188
 21
192.2565542932118
 31
0.0
  0
LINE
  5
56
330
6DD
100
AcDbEntity
  8
Layer_1
  6
Continuous
 62
     1
420
 16711680
100
AcDbLine
 10
376.5886841519077
 20
188.2565542931125
 30
0.0
 11
332.634162200236
 21
188.2565543010061
 31
0.0
  0
LINE
  5
57
330
6DD
100
AcDbEntity
  8
Layer_1
  6
Continuous
 62
     1
420
 16711680
100
AcDbLine
 10
332.6341621998768
 20
186.2565543010061
 30
0.0
 11
376.5886841515485
 21
186.2565542931125
 31
0.0
  0
LINE
  5
58
330
6DD
100
AcDbEntity
  8
Layer_1
  6
Continuous
 62
     1
420
 16711680
100
AcDbLine
 10
376.0357084606226
 20
182.2565542932118
 30
0.0
 11
333.1871378893657
 21
182.2565543009068
 31
0.0
  0
LINE
  5
59
330
6DD
100
AcDbEntity
  8
Layer_1
  6
Continuous
 62
     1
420
 16711680
100
AcDbLine
 10
375.4680767892492
 20
180.2565542933137
 30
0.0
 11
333.7547695600206
 21
180.2565543008049
 31
0.0
  0
LINE
  5
5A
330
6DD
100
AcDbEntity
  8
Layer_1
  6
Continuous
 62
     1
420
 16711680
100
AcDbLine
 10
335.5588642906591
 20
176.2565543004808
 30
0.0
 11
373.6639820571745
 21
176.2565542936376
 31
0.0
  0
LINE
  5
5B
330
6DD
100
AcDbEntity
  8
Layer_1
  6
Continuous
 62
     1
420
 16711680
100
AcDbLine
 10
372.3596625228561
 20
174.2565542938719
 30
0.0
 11
336.8631838242586
 21
174.2565543002466
 31
0.0
  0
LINE
  5
5C
330
6DD
100
AcDbEntity
  8
Layer_1
  6
Continuous
 62
     1
420
 16711680
100
AcDbLine
 10
340.6471831290705
 20
170.2565542995671
 30
0.0
 11
368.5756632166081
 21
170.2565542945515
 31
0.0
  0
LINE
  5
5D
330
6DD
100
AcDbEntity
  8
Layer_1
  6
Continuous
 62
     1
420
 16711680
100
AcDbLine
 10
365.7019596788896
 20
168.2565542950675
 30
0.0
 11
343.5208866660705
 21
168.2565542990509
 31
0.0
  0
LWPOLYLINE
  5
5E
330
6DD
100
AcDbEntity
  8
Layer_1
  6
Continuous
 62
     1
420
 16711680
100
AcDbPolyline
 90
        7
 70
   128
 43
0.0
 10
340.647183135176
 20
204.2565542995671
 10
339.935199944866
 20
203.6458334658664
 10
339.2498977645167
 20
203.0053173289826
 10
338.592522456501
 20
202.3361703313719
 10
337.9642691128304
 20
201.6396089656857
 10
337.366279882507
 20
200.9168995632165
 10
336.863183828928
 20
200.2565543002466
  0
LWPOLYLINE
  5
5F
330
6DD
100
AcDbEntity
  8
Layer_1
  6
Continuous
 62
     1
420
 16711680
100
AcDbPolyline
 90
       26
 70
   128
 43
0.0
 10
365.7019596857137
 20
206.2565542950675
 10
364.8819459541558
 20
206.7120512545046
 10
364.043260666828
 20
207.1321786028408
 10
363.1874285327889
 20
207.5161725589732
 10
362.3160054336392
 20
207.8633350314099
 10
361.4305755949677
 20
208.1730348873836
 10
360.5327487062681
 20
208.4447091002345
 10
359.6241569945641
 20
208.6778637729793
 10
358.7064522570603
 20
208.8720750362038
 10
357.7813028582167
 20
209.0269898186465
 10
356.8503906967026
 20
209.1423264890738
 10
355.9154081477473
 20
209.2178753682784
 10
354.9780549864433
 20
209.2534991102712
 10
354.0400352975979
 20
209.2491329519723
 10
353.1030543777484
 20
209.2047848309494
 10
352.1688156349765
 20
209.1205353709868
 10
351.2390174921534
 20
208.996537735514
 10
350.31535029925
 20
208.833017349158
 10
349.3994932603222
 20
208.6302714879268
 10
348.4931113807594
 20
208.3886687387696
 10
347.5978524403466
 20
208.108648329494
 10
346.7153439976407
 20
207.7907193302615
 10
345.8471904311104
 20
207.4354597281102
 10
344.994970022415
 20
207.0435153761887
 10
344.1602320871282
 20
206.6155988196111
 10
343.5208866728947
 20
206.2565542990509
  0
LWPOLYLINE
  5
6C
330
6DD
100
AcDbEntity
  8
Layer_1
  6
Continuous
 62
     1
420
 16711680
100
AcDbPolyline
 90
        6
 70
   128
 43
0.0
 10
335.55886429461
 20
198.2565543004808
 10
335.1072745034639
 20
197.4343823838279
 10
334.6911427710305
 20
196.593707428056
 10
334.3112256144818
 20
195.7360577593917
 10
333.9682137137891
 20
194.8629925636685
 10
333.7547695625349
 20
194.2565543008049
  0
LWPOLYLINE
  5
74
330
6DD
100
AcDbEntity
  8
Layer_1
  6
Continuous
 62
     1
420
 16711680
100
AcDbPolyline
 90
        7
 70
   128
 43
0.0
 10
372.3596625275254
 20
200.2565542938719
 10
371.7893652071239
 20
201.0013099359069
 10
371.187838814009
 20
201.7210779529695
 10
370.5561769082495
 20
202.4145498246503
 10
369.8955278355291
 20
203.0804648362799
 10
369.2070926394822
 20
203.7176123708776
 10
368.575663222714
 20
204.2565542945515
  0
LWPOLYLINE
  5
7D
330
6DD
100
AcDbEntity
  8
Layer_1
  6
Continuous
 62
     1
420
 16711680
100
AcDbPolyline
 90
        6
 70
   128
 43
0.0
 10
333.1871378911619
 20
192.2565543009068
 10
332.9934721503521
 20
191.3387342854155
 10
332.8391073085244
 20
190.4134929679163
 10
332.7243239971341
 20
189.4825124141848
 10
332.6493308893956
 20
188.5474851237853
 10
332.634162200236
 20
188.2565543010061
  0
LWPOLYLINE
  5
85
330
6DD
100
AcDbEntity
  8
Layer_1
  6
Continuous
 62
     1
420
 16711680
100
AcDbPolyline
 90
        6
 70
   128
 43
0.0
 10
375.4680767917635
 20
194.2565542933137
 10
375.1507221418088
 20
195.1392694377132
 10
374.7960275555729
 20
196.0076540014262
 10
374.4046378590195
 20
196.8601292828461
 10
373.977264588913
 20
197.695145503047
 10
373.6639820611249
 20
198.2565542936376
  0
LWPOLYLINE
  5
8D
330
6DD
100
AcDbEntity
  8
Layer_1
  6
Continuous
 62
     1
420
 16711680
100
AcDbPolyline
 90
        6
 70
   128
 43
0.0
 10
333.7547695600206
 20
180.2565543008049
 10
334.0721242085596
 20
179.373839160094
 10
334.4268187946395
 20
178.5054545963173
 10
334.8182084910398
 20
177.6529793148271
 10
335.2455817609963
 20
176.8179630945495
 10
335.5588642906591
 20
176.2565543004808
  0
LWPOLYLINE
  5
95
330
6DD
100
AcDbEntity
  8
Layer_1
  6
Continuous
 62
     1
420
 16711680
100
AcDbPolyline
 90
        7
 70
   128
 43
0.0
 10
336.8631838242586
 20
174.2565543002466
 10
337.4334811421917
 20
173.5117986612966
 10
338.0350075351774
 20
172.792030644126
 10
338.6666694408123
 20
172.0985587723318
 10
339.3273185134132
 20
171.4326437605835
 10
340.0157537093456
 20
170.7954962258622
 10
340.6471831290705
 20
170.2565542995671
  0
LWPOLYLINE
  5
9E
330
6DD
100
AcDbEntity
  8
Layer_1
  6
Continuous
 62
     1
420
 16711680
100
AcDbPolyline
 90
       26
 70
   128
 43
0.0
 10
343.5208866660705
 20
168.2565542990509
 10
344.3409003941345
 20
167.8010573414582
 10
345.1795856813868
 20
167.3809299929714
 10
346.0354178153569
 20
166.9969360366854
 10
346.9068409144443
 20
166.6497735640921
 10
347.7922707530602
 20
166.3400737079595
 10
348.690097641711
 20
166.0683994949474
 10
349.5986893533732
 20
165.8352448220394
 10
350.5163940908421
 20
165.6410335586501
 10
351.4415434896579
 20
165.4861187760413
 10
352.3724556511513
 20
165.3707821054468
 10
353.307438200093
 20
165.2952332260742
 10
354.2447913613905
 20
165.2596094839131
 10
355.1828110502368
 20
165.2639756420435
 10
356.1197919700942
 20
165.3083237628982
 10
357.0540307128812
 20
165.392573222693
 10
357.9838288557265
 20
165.5165708579989
 10
358.9074960486593
 20
165.680091244189
 10
359.8233530876236
 20
165.8828371052557
 10
360.7297349672297
 20
166.1244398542502
 10
361.6249939076929
 20
166.404460263365
 10
362.5075023504558
 20
166.722389262439
 10
363.3756559170499
 20
167.0776488644344
 10
364.2278763258157
 20
167.4695932162029
 10
365.0626142611793
 20
167.8975097726306
 10
365.7019596788896
 20
168.2565542950675
  0
LWPOLYLINE
  5
BA
330
6DD
100
AcDbEntity
  8
Layer_1
  6
Continuous
 62
     1
420
 16711680
100
AcDbPolyline
 90
        7
 70
   128
 43
0.0
 10
368.5756632166081
 20
170.2565542945515
 10
369.2876464039747
 20
170.8672751256165
 10
369.9729485844391
 20
171.5077912623773
 10
370.6303238925749
 20
172.1769382598699
 10
371.2585772363706
 20
172.8734996254433
 10
371.8565664668238
 20
173.5962090278051
 10
372.3596625228561
 20
174.2565542938719
  0
LWPOLYLINE
  5
C3
330
6DD
100
AcDbEntity
  8
Layer_1
  6
Continuous
 62
     1
420
 16711680
100
AcDbPolyline
 90
        6
 70
   128
 43
0.0
 10
373.6639820571745
 20
176.2565542936376
 10
374.1155718464927
 20
177.0787262067879
 10
374.5317035790772
 20
177.919401162485
 10
374.9116207357799
 20
178.7770508310811
 10
375.2546326366294
 20
179.6501160267428
 10
375.4680767892492
 20
180.2565542933137
  0
LWPOLYLINE
  5
CB
330
6DD
100
AcDbEntity
  8
Layer_1
  6
Continuous
 62
     1
420
 16711680
100
AcDbPolyline
 90
        6
 70
   128
 43
0.0
 10
376.0357084606226
 20
182.2565542932118
 10
376.2293742006993
 20
183.1743743048209
 10
376.3837390426931
 20
184.0996156222923
 10
376.4985223542506
 20
185.0305961760033
 10
376.573515462157
 20
185.9656234663893
 10
376.5886841515485
 20
186.2565542931125
  0
LWPOLYLINE
  5
D3
330
6DD
100
AcDbEntity
  8
Layer_1
  6
Continuous
 62
     1
420
 16711680
100
AcDbPolyline
 90
        6
 70
   128
 43
0.0
 10
332.6341621998768
 20
186.2565543010061
 10
332.6967672872185
 20
185.3206159506707
 10
332.7992126758069
 20
184.3881970843038
 10
332.9413121222858
 20
183.4609928202333
 10
333.1228072933848
 20
182.5406887928229
 10
333.1871378893657
 20
182.2565543009068
  0
LWPOLYLINE
  5
DB
330
6DD
100
AcDbEntity
  8
Layer_1
  6
Continuous
 62
     1
420
 16711680
100
AcDbPolyline
 90
        6
 70
   128
 43
0.0
 10
376.5886841519077
 20
188.2565542931125
 10
376.5260790642183
 20
189.1924926473835
 10
376.4236336754624
 20
190.124911513732
 10
376.281534228817
 20
191.052115777777
 10
376.1000390575528
 20
191.9724198051548
 10
376.0357084624188
 20
192.2565542932118
  0
CIRCLE
  5
E3
330
6DD
100
AcDbEntity
  8
Layer_1
  6
Continuous
 62
     1
420
 16711680
100
AcDbCircle
 10
134.8614232713203
 20
354.2565543044223
 30
0.0
 40
1.5
  0
CIRCLE
  5
E4
330
6DD
100
AcDbEntity
  8
Layer_1
  6
Continuous
 62
     1
420
 16711680
100
AcDbCircle
 10
134.861423237558
 20
166.2565543044223
 30
0.0
 40
1.5
  0
CIRCLE
  5
E5
330
6DD
100
AcDbEntity
  8
Layer_1
  6
Continuous
 62
     1
420
 16711680
100
AcDbCircle
 10
458.861423237558
 20
166.2565542462364
 30
0.0
 40
1.5
  0
CIRCLE
  5
E6
330
6DD
100
AcDbEntity
  8
Layer_1
  6
Continuous
 62
     1
420
 16711680
100
AcDbCircle
 10
458.8614232697037
 20
345.2565542462363
 30
0.0
 40
1.5
  0
LINE
  5
E7
330
6DD
100
AcDbEntity
  8
Layer_1
  6
Continuous
 62
     1
420
 16711680
100
AcDbLine
 10
325.3614232581203
 20
280.756554272007
 30
0.0
 11
259.3614232581203
 21
280.7565542838596
 31
0.0
  0
LWPOLYLINE
  5
E8
330
6DD
100
AcDbEntity
  8
Layer_1
  6
Continuous
 62
     1
420
 16711680
100
AcDbPolyline
 90
       13
 70
   128
 43
0.0
 10
259.3614232581203
 20
280.7565542838596
 10
259.0794640420492
 20
280.7365792838722
 10
258.8031369615813
 20
280.6770532845097
 10
258.5379616498797
 20
280.5791653176091
 10
258.2892349837955
 20
280.4448706953094
 10
258.0619252784837
 20
280.2768519526909
 10
257.860573045308
 20
280.0784652641376
 10
257.6892002951261
 20
279.8536734037532
 10
257.5512301986228
 20
279.6069665889489
 10
257.4494187084757
 20
279.3432727883505
 10
257.3857995092007
 20
279.0678592856249
 10
257.3616433943031
 20
278.786227465489
 10
257.3614232577611
 20
278.7565542842189
  0
LWPOLYLINE
  5
F7
330
6DD
100
AcDbEntity
  8
Layer_1
  6
Continuous
 62
     1
420
 16711680
100
AcDbPolyline
 90
       13
 70
   128
 43
0.0
 10
257.3614232577611
 20
278.7565542842189
 10
257.3813982577358
 20
278.4745950682366
 10
257.440924257086
 20
278.1982679877661
 10
257.5388122239746
 20
277.93309267606
 10
257.6731068462632
 20
277.6843660099698
 10
257.8411255888714
 20
277.4570563046505
 10
258.0395122774157
 20
277.2557040714659
 10
258.2643041377924
 20
277.0843313212739
 10
258.5110109525905
 20
276.9463612247594
 10
258.7747047531843
 20
276.8445497346006
 10
259.0501182559071
 20
276.7809305353132
 10
259.3317500760419
 20
276.756774420403
 10
259.3614232574023
 20
276.7565542838596
  0
LINE
  5
106
330
6DD
100
AcDbEntity
  8
Layer_1
  6
Continuous
 62
     1
420
 16711680
100
AcDbLine
 10
259.3614232574023
 20
276.7565542838596
 30
0.0
 11
325.3614232574023
 21
276.756554272007
 31
0.0
  0
LWPOLYLINE
  5
107
330
6DD
100
AcDbEntity
  8
Layer_1
  6
Continuous
 62
     1
420
 16711680
100
AcDbPolyline
 90
       13
 70
   128
 43
0.0
 10
327.3614232577611
 20
278.7565542716478
 10
327.3414482577611
 20
279.0385134878077
 10
327.2819222583861
 20
279.3148405682729
 10
327.1840342914736
 20
279.5800158799702
 10
327.0497396691627
 20
279.8287425460484
 10
326.8817209265341
 20
280.0560522513526
 10
326.6833342379717
 20
280.2574044845194
 10
326.4585423775796
 20
280.4287772346912
 10
326.2118355627692
 20
280.5667473311835
 10
325.9481417621662
 20
280.6685588213186
 10
325.6727282594377
 20
280.7321780205813
 10
325.3910964393007
 20
280.7563341354663
 10
325.3614232581203
 20
280.756554272007
  0
LWPOLYLINE
  5
116
330
6DD
100
AcDbEntity
  8
Layer_1
  6
Continuous
 62
     1
420
 16711680
100
AcDbPolyline
 90
       13
 70
   128
 43
0.0
 10
327.3614232577611
 20
278.7565542716478
 10
327.3414482577611
 20
278.4745950562062
 10
327.2819222583861
 20
278.198267975741
 10
327.1840342914736
 20
277.9330926640437
 10
327.0497396691627
 20
277.6843659979655
 10
326.8817209265341
 20
277.4570562926613
 10
326.6833342379717
 20
277.2557040594945
 10
326.4585423775796
 20
277.0843313093227
 10
326.2118355627692
 20
276.9463612128304
 10
325.9481417621662
 20
276.8445497226953
 10
325.6727282594377
 20
276.7809305234326
 10
325.3910964393007
 20
276.7567744085476
 10
325.3614232574023
 20
276.756554272007
  0
LINE
  5
125
330
6DD
100
AcDbEntity
  8
Layer_1
  6
Continuous
 62
     1
420
 16711680
100
AcDbLine
 10
325.3614232584796
 20
282.756554272007
 30
0.0
 11
259.3614232584796
 21
282.7565542838596
 31
0.0
  0
LWPOLYLINE
  5
126
330
6DD
100
AcDbEntity
  8
Layer_1
  6
Continuous
 62
     1
420
 16711680
100
AcDbPolyline
 90
       13
 70
   128
 43
0.0
 10
259.3614232584796
 20
282.7565542838596
 10
259.0794640427713
 20
282.7765292838976
 10
258.8031369623142
 20
282.8360552833098
 10
258.5379616506301
 20
282.933943250258
 10
258.28923498457
 20
283.0682378726024
 10
258.0619252792885
 20
283.2362566152617
 10
257.8605730461484
 20
283.4346433038511
 10
257.6892002960068
 20
283.6594351642663
 10
257.5512301995478
 20
283.9061419790953
 10
257.4494187094481
 20
284.1698357797121
 10
257.3857995102225
 20
284.4452492824491
 10
257.3616433953756
 20
284.7268811025893
 10
257.3614232588388
 20
284.7565542842189
  0
LWPOLYLINE
  5
135
330
6DD
100
AcDbEntity
  8
Layer_1
  6
Continuous
 62
     1
420
 16711680
100
AcDbPolyline
 90
       13
 70
   128
 43
0.0
 10
257.3614232588388
 20
284.7565542842189
 10
257.3813982588642
 20
285.0385134998382
 10
257.440924258264
 20
285.314840580298
 10
257.5388122252003
 20
285.5800158919865
 10
257.6731068475335
 20
285.8287425580526
 10
257.8411255901825
 20
286.0560522633418
 10
258.039512278763
 20
286.2574044964907
 10
258.2643041391705
 20
286.4287772466424
 10
258.5110109539933
 20
286.5667473431125
 10
258.7747047546055
 20
286.668558833224
 10
259.0501182573396
 20
286.7321780324619
 10
259.3317500774788
 20
286.7563341473216
 10
259.3614232591981
 20
286.7565542838596
  0
LINE
  5
144
330
6DD
100
AcDbEntity
  8
Layer_1
  6
Continuous
 62
     1
420
 16711680
100
AcDbLine
 10
259.3614232591981
 20
286.7565542838596
 30
0.0
 11
325.3614232591981
 21
286.756554272007
 31
0.0
  0
LWPOLYLINE
  5
145
330
6DD
100
AcDbEntity
  8
Layer_1
  6
Continuous
 62
     1
420
 16711680
100
AcDbPolyline
 90
       13
 70
   128
 43
0.0
 10
325.3614232591981
 20
286.756554272007
 10
325.6433824747285
 20
286.7365792719943
 10
325.919709555191
 20
286.6770532726069
 10
326.1848848668839
 20
286.5791653056825
 10
326.433611532956
 20
286.4448706833604
 10
326.6609212382527
 20
286.2768519407216
 10
326.8622734714106
 20
286.0784652521502
 10
327.0336462215724
 20
285.8536733917504
 10
327.1716163180536
 20
285.6069665769338
 10
327.2734278081769
 20
285.3432727763262
 10
327.3370470074272
 20
285.0678592735949
 10
327.3612031222995
 20
284.7862274534568
 10
327.3614232588388
 20
284.7565542716478
  0
LWPOLYLINE
  5
154
330
6DD
100
AcDbEntity
  8
Layer_1
  6
Continuous
 62
     1
420
 16711680
100
AcDbPolyline
 90
       13
 70
   128
 43
0.0
 10
327.3614232588388
 20
284.7565542716478
 10
327.3414482588389
 20
284.4745950562062
 10
327.2819222594638
 20
284.198267975741
 10
327.1840342925514
 20
283.9330926640437
 10
327.0497396702405
 20
283.6843659979655
 10
326.8817209276118
 20
283.4570562926613
 10
326.6833342390495
 20
283.2557040594945
 10
326.4585423786574
 20
283.0843313093227
 10
326.2118355638469
 20
282.9463612128304
 10
325.9481417632439
 20
282.8445497226953
 10
325.6727282605154
 20
282.7809305234326
 10
325.3910964403785
 20
282.7567744085476
 10
325.3614232584796
 20
282.756554272007
  0
LINE
  5
163
330
6DD
100
AcDbEntity
  8
Layer_1
  6
Continuous
 62
     1
420
 16711680
100
AcDbLine
 10
325.3614232559655
 20
268.756554272007
 30
0.0
 11
259.3614232559655
 21
268.7565542838596
 31
0.0
  0
LWPOLYLINE
  5
164
330
6DD
100
AcDbEntity
  8
Layer_1
  6
Continuous
 62
     1
420
 16711680
100
AcDbPolyline
 90
       13
 70
   128
 43
0.0
 10
259.3614232559655
 20
268.7565542838596
 10
259.0794640398944
 20
268.7365792838722
 10
258.8031369594265
 20
268.6770532845097
 10
258.5379616477249
 20
268.5791653176091
 10
258.2892349816407
 20
268.4448706953094
 10
258.0619252763289
 20
268.2768519526909
 10
257.8605730431532
 20
268.0784652641376
 10
257.6892002929712
 20
267.8536734037532
 10
257.5512301964679
 20
267.6069665889489
 10
257.4494187063209
 20
267.3432727883505
 10
257.3857995070459
 20
267.0678592856249
 10
257.3616433921483
 20
266.786227465489
 10
257.3614232556063
 20
266.7565542842189
  0
LWPOLYLINE
  5
173
330
6DD
100
AcDbEntity
  8
Layer_1
  6
Continuous
 62
     1
420
 16711680
100
AcDbPolyline
 90
       13
 70
   128
 43
0.0
 10
257.3614232556063
 20
266.7565542842189
 10
257.381398255581
 20
266.4745950682366
 10
257.4409242549311
 20
266.1982679877661
 10
257.5388122218198
 20
265.93309267606
 10
257.6731068441084
 20
265.6843660099698
 10
257.8411255867166
 20
265.4570563046505
 10
258.0395122752609
 20
265.2557040714659
 10
258.2643041356376
 20
265.0843313212739
 10
258.5110109504357
 20
264.9463612247594
 10
258.7747047510295
 20
264.8445497346006
 10
259.0501182537523
 20
264.7809305353132
 10
259.3317500738871
 20
264.756774420403
 10
259.361423255247
 20
264.7565542838596
  0
LINE
  5
182
330
6DD
100
AcDbEntity
  8
Layer_1
  6
Continuous
 62
     1
420
 16711680
100
AcDbLine
 10
259.361423255247
 20
264.7565542838596
 30
0.0
 11
325.361423255247
 21
264.756554272007
 31
0.0
  0
LWPOLYLINE
  5
183
330
6DD
100
AcDbEntity
  8
Layer_1
  6
Continuous
 62
     1
420
 16711680
100
AcDbPolyline
 90
       13
 70
   128
 43
0.0
 10
327.3614232556063
 20
266.7565542716478
 10
327.3414482556063
 20
267.0385134878077
 10
327.2819222562313
 20
267.3148405682729
 10
327.1840342893188
 20
267.5800158799702
 10
327.0497396670079
 20
267.8287425460484
 10
326.8817209243792
 20
268.0560522513526
 10
326.6833342358169
 20
268.2574044845194
 10
326.4585423754248
 20
268.4287772346912
 10
326.2118355606144
 20
268.5667473311835
 10
325.9481417600114
 20
268.6685588213186
 10
325.6727282572829
 20
268.7321780205813
 10
325.3910964371459
 20
268.7563341354663
 10
325.3614232559655
 20
268.756554272007
  0
LWPOLYLINE
  5
192
330
6DD
100
AcDbEntity
  8
Layer_1
  6
Continuous
 62
     1
420
 16711680
100
AcDbPolyline
 90
       13
 70
   128
 43
0.0
 10
327.3614232556063
 20
266.7565542716478
 10
327.3414482556063
 20
266.4745950562062
 10
327.2819222562313
 20
266.198267975741
 10
327.1840342893188
 20
265.9330926640437
 10
327.0497396670079
 20
265.6843659979655
 10
326.8817209243792
 20
265.4570562926613
 10
326.6833342358169
 20
265.2557040594945
 10
326.4585423754248
 20
265.0843313093227
 10
326.2118355606144
 20
264.9463612128304
 10
325.9481417600114
 20
264.8445497226953
 10
325.6727282572829
 20
264.7809305234326
 10
325.3910964371459
 20
264.7567744085476
 10
325.361423255247
 20
264.756554272007
  0
LINE
  5
1A1
330
6DD
100
AcDbEntity
  8
Layer_1
  6
Continuous
 62
     1
420
 16711680
100
AcDbLine
 10
325.3614232563245
 20
270.756554272007
 30
0.0
 11
259.3614232563245
 21
270.7565542838596
 31
0.0
  0
LWPOLYLINE
  5
1A2
330
6DD
100
AcDbEntity
  8
Layer_1
  6
Continuous
 62
     1
420
 16711680
100
AcDbPolyline
 90
       13
 70
   128
 43
0.0
 10
259.3614232563245
 20
270.7565542838596
 10
259.0794640406163
 20
270.7765292838976
 10
258.8031369601592
 20
270.8360552833098
 10
258.5379616484751
 20
270.933943250258
 10
258.289234982415
 20
271.0682378726024
 10
258.0619252771334
 20
271.2362566152617
 10
257.8605730439933
 20
271.4346433038511
 10
257.6892002938517
 20
271.6594351642663
 10
257.5512301973927
 20
271.9061419790953
 10
257.449418707293
 20
272.1698357797121
 10
257.3857995080675
 20
272.4452492824491
 10
257.3616433932205
 20
272.7268811025893
 10
257.3614232566838
 20
272.7565542842189
  0
LWPOLYLINE
  5
1B1
330
6DD
100
AcDbEntity
  8
Layer_1
  6
Continuous
 62
     1
420
 16711680
100
AcDbPolyline
 90
       13
 70
   128
 43
0.0
 10
257.3614232566838
 20
272.7565542842189
 10
257.3813982567091
 20
273.0385134998382
 10
257.4409242561089
 20
273.314840580298
 10
257.5388122230452
 20
273.5800158919865
 10
257.6731068453784
 20
273.8287425580526
 10
257.8411255880275
 20
274.0560522633418
 10
258.0395122766079
 20
274.2574044964907
 10
258.2643041370154
 20
274.4287772466424
 10
258.5110109518383
 20
274.5667473431125
 10
258.7747047524504
 20
274.668558833224
 10
259.0501182551846
 20
274.7321780324619
 10
259.3317500753237
 20
274.7563341473216
 10
259.361423257043
 20
274.7565542838596
  0
LINE
  5
1C0
330
6DD
100
AcDbEntity
  8
Layer_1
  6
Continuous
 62
     1
420
 16711680
100
AcDbLine
 10
259.361423257043
 20
274.7565542838596
 30
0.0
 11
325.361423257043
 21
274.756554272007
 31
0.0
  0
LWPOLYLINE
  5
1C1
330
6DD
100
AcDbEntity
  8
Layer_1
  6
Continuous
 62
     1
420
 16711680
100
AcDbPolyline
 90
       13
 70
   128
 43
0.0
 10
325.361423257043
 20
274.756554272007
 10
325.6433824725735
 20
274.7365792719943
 10
325.919709553036
 20
274.6770532726069
 10
326.1848848647289
 20
274.5791653056825
 10
326.433611530801
 20
274.4448706833604
 10
326.6609212360977
 20
274.2768519407216
 10
326.8622734692556
 20
274.0784652521502
 10
327.0336462194173
 20
273.8536733917504
 10
327.1716163158985
 20
273.6069665769338
 10
327.2734278060219
 20
273.3432727763262
 10
327.3370470052722
 20
273.0678592735949
 10
327.3612031201444
 20
272.7862274534568
 10
327.3614232566838
 20
272.7565542716478
  0
LWPOLYLINE
  5
1D0
330
6DD
100
AcDbEntity
  8
Layer_1
  6
Continuous
 62
     1
420
 16711680
100
AcDbPolyline
 90
       13
 70
   128
 43
0.0
 10
327.3614232566838
 20
272.7565542716478
 10
327.3414482566838
 20
272.4745950562062
 10
327.2819222573088
 20
272.198267975741
 10
327.1840342903963
 20
271.9330926640437
 10
327.0497396680854
 20
271.6843659979655
 10
326.8817209254568
 20
271.4570562926613
 10
326.6833342368944
 20
271.2557040594945
 10
326.4585423765024
 20
271.0843313093227
 10
326.2118355616919
 20
270.9463612128304
 10
325.9481417610889
 20
270.8445497226953
 10
325.6727282583604
 20
270.7809305234326
 10
325.3910964382234
 20
270.7567744085476
 10
325.3614232563245
 20
270.756554272007
  0
LINE
  5
1DF
330
6DD
100
AcDbEntity
  8
Layer_1
  6
Continuous
 62
     1
420
 16711680
100
AcDbLine
 10
325.3614232538102
 20
256.756554272007
 30
0.0
 11
259.3614232538102
 21
256.7565542838596
 31
0.0
  0
LWPOLYLINE
  5
1E0
330
6DD
100
AcDbEntity
  8
Layer_1
  6
Continuous
 62
     1
420
 16711680
100
AcDbPolyline
 90
       13
 70
   128
 43
0.0
 10
259.3614232538102
 20
256.7565542838596
 10
259.0794640377396
 20
256.7365792838722
 10
258.8031369572717
 20
256.6770532845097
 10
258.5379616455701
 20
256.5791653176091
 10
258.2892349794859
 20
256.4448706953094
 10
258.0619252741741
 20
256.2768519526909
 10
257.8605730409984
 20
256.0784652641376
 10
257.6892002908164
 20
255.8536734037532
 10
257.5512301943131
 20
255.6069665889489
 10
257.4494187041661
 20
255.3432727883505
 10
257.3857995048911
 20
255.0678592856249
 10
257.3616433899935
 20
254.786227465489
 10
257.3614232534514
 20
254.7565542842188
  0
LWPOLYLINE
  5
1EF
330
6DD
100
AcDbEntity
  8
Layer_1
  6
Continuous
 62
     1
420
 16711680
100
AcDbPolyline
 90
       13
 70
   128
 43
0.0
 10
257.3614232534514
 20
254.7565542842188
 10
257.3813982534261
 20
254.4745950682366
 10
257.4409242527763
 20
254.1982679877661
 10
257.538812219665
 20
253.93309267606
 10
257.6731068419535
 20
253.6843660099698
 10
257.8411255845618
 20
253.4570563046505
 10
258.0395122731061
 20
253.2557040714659
 10
258.2643041334828
 20
253.0843313212738
 10
258.5110109482808
 20
252.9463612247594
 10
258.7747047488747
 20
252.8445497346006
 10
259.0501182515974
 20
252.7809305353132
 10
259.3317500717322
 20
252.756774420403
 10
259.3614232530922
 20
252.7565542838596
  0
LINE
  5
1FE
330
6DD
100
AcDbEntity
  8
Layer_1
  6
Continuous
 62
     1
420
 16711680
100
AcDbLine
 10
259.3614232530922
 20
252.7565542838596
 30
0.0
 11
325.3614232530922
 21
252.756554272007
 31
0.0
  0
LWPOLYLINE
  5
1FF
330
6DD
100
AcDbEntity
  8
Layer_1
  6
Continuous
 62
     1
420
 16711680
100
AcDbPolyline
 90
       13
 70
   128
 43
0.0
 10
327.3614232534514
 20
254.7565542716478
 10
327.3414482534515
 20
255.0385134878077
 10
327.2819222540764
 20
255.3148405682729
 10
327.184034287164
 20
255.5800158799702
 10
327.0497396648531
 20
255.8287425460484
 10
326.8817209222244
 20
256.0560522513526
 10
326.6833342336621
 20
256.2574044845194
 10
326.45854237327
 20
256.4287772346912
 10
326.2118355584595
 20
256.5667473311835
 10
325.9481417578565
 20
256.6685588213186
 10
325.672728255128
 20
256.7321780205813
 10
325.3910964349911
 20
256.7563341354663
 10
325.3614232538102
 20
256.756554272007
  0
LWPOLYLINE
  5
20E
330
6DD
100
AcDbEntity
  8
Layer_1
  6
Continuous
 62
     1
420
 16711680
100
AcDbPolyline
 90
       13
 70
   128
 43
0.0
 10
327.3614232534514
 20
254.7565542716478
 10
327.3414482534515
 20
254.4745950562062
 10
327.2819222540764
 20
254.198267975741
 10
327.184034287164
 20
253.9330926640437
 10
327.0497396648531
 20
253.6843659979655
 10
326.8817209222244
 20
253.4570562926613
 10
326.6833342336621
 20
253.2557040594945
 10
326.45854237327
 20
253.0843313093227
 10
326.2118355584595
 20
252.9463612128304
 10
325.9481417578565
 20
252.8445497226952
 10
325.672728255128
 20
252.7809305234326
 10
325.3910964349911
 20
252.7567744085476
 10
325.3614232530922
 20
252.756554272007
  0
LINE
  5
21D
330
6DD
100
AcDbEntity
  8
Layer_1
  6
Continuous
 62
     1
420
 16711680
100
AcDbLine
 10
325.3614232541695
 20
258.756554272007
 30
0.0
 11
259.3614232541695
 21
258.7565542838596
 31
0.0
  0
LWPOLYLINE
  5
21E
330
6DD
100
AcDbEntity
  8
Layer_1
  6
Continuous
 62
     1
420
 16711680
100
AcDbPolyline
 90
       13
 70
   128
 43
0.0
 10
259.3614232541695
 20
258.7565542838596
 10
259.0794640384613
 20
258.7765292838976
 10
258.8031369580041
 20
258.8360552833098
 10
258.53796164632
 20
258.933943250258
 10
258.2892349802599
 20
259.0682378726024
 10
258.0619252749784
 20
259.2362566152617
 10
257.8605730418383
 20
259.4346433038511
 10
257.6892002916967
 20
259.6594351642663
 10
257.5512301952377
 20
259.9061419790953
 10
257.449418705138
 20
260.1698357797121
 10
257.3857995059124
 20
260.4452492824491
 10
257.3616433910655
 20
260.7268811025893
 10
257.3614232545287
 20
260.7565542842189
  0
LWPOLYLINE
  5
22D
330
6DD
100
AcDbEntity
  8
Layer_1
  6
Continuous
 62
     1
420
 16711680
100
AcDbPolyline
 90
       13
 70
   128
 43
0.0
 10
257.3614232545287
 20
260.7565542842189
 10
257.3813982545541
 20
261.0385134998382
 10
257.4409242539539
 20
261.314840580298
 10
257.5388122208902
 20
261.5800158919865
 10
257.6731068432234
 20
261.8287425580526
 10
257.8411255858724
 20
262.0560522633418
 10
258.0395122744529
 20
262.2574044964907
 10
258.2643041348604
 20
262.4287772466424
 10
258.5110109496832
 20
262.5667473431125
 10
258.7747047502954
 20
262.668558833224
 10
259.0501182530296
 20
262.7321780324619
 10
259.3317500731687
 20
262.7563341473216
 10
259.361423254888
 20
262.7565542838596
  0
LINE
  5
23C
330
6DD
100
AcDbEntity
  8
Layer_1
  6
Continuous
 62
     1
420
 16711680
100
AcDbLine
 10
259.361423254888
 20
262.7565542838596
 30
0.0
 11
325.361423254888
 21
262.756554272007
 31
0.0
  0
LWPOLYLINE
  5
23D
330
6DD
100
AcDbEntity
  8
Layer_1
  6
Continuous
 62
     1
420
 16711680
100
AcDbPolyline
 90
       13
 70
   128
 43
0.0
 10
325.361423254888
 20
262.756554272007
 10
325.6433824704184
 20
262.7365792719943
 10
325.919709550881
 20
262.6770532726069
 10
326.1848848625738
 20
262.5791653056825
 10
326.4336115286459
 20
262.4448706833604
 10
326.6609212339426
 20
262.2768519407216
 10
326.8622734671005
 20
262.0784652521502
 10
327.0336462172623
 20
261.8536733917504
 10
327.1716163137435
 20
261.6069665769338
 10
327.2734278038668
 20
261.3432727763262
 10
327.3370470031171
 20
261.0678592735949
 10
327.3612031179894
 20
260.7862274534568
 10
327.3614232545287
 20
260.7565542716478
  0
LWPOLYLINE
  5
24C
330
6DD
100
AcDbEntity
  8
Layer_1
  6
Continuous
 62
     1
420
 16711680
100
AcDbPolyline
 90
       13
 70
   128
 43
0.0
 10
327.3614232545287
 20
260.7565542716478
 10
327.3414482545288
 20
260.4745950562062
 10
327.2819222551537
 20
260.198267975741
 10
327.1840342882413
 20
259.9330926640437
 10
327.0497396659304
 20
259.6843659979655
 10
326.8817209233017
 20
259.4570562926613
 10
326.6833342347394
 20
259.2557040594945
 10
326.4585423743473
 20
259.0843313093227
 10
326.2118355595368
 20
258.9463612128304
 10
325.9481417589338
 20
258.8445497226953
 10
325.6727282562053
 20
258.7809305234326
 10
325.3910964360684
 20
258.7567744085476
 10
325.3614232541695
 20
258.756554272007
  0
LINE
  5
25B
330
6DD
100
AcDbEntity
  8
Layer_1
  6
Continuous
 62
     1
420
 16711680
100
AcDbLine
 10
325.3614232516554
 20
244.756554272007
 30
0.0
 11
259.3614232516554
 21
244.7565542838596
 31
0.0
  0
LWPOLYLINE
  5
25C
330
6DD
100
AcDbEntity
  8
Layer_1
  6
Continuous
 62
     1
420
 16711680
100
AcDbPolyline
 90
       13
 70
   128
 43
0.0
 10
259.3614232516554
 20
244.7565542838596
 10
259.0794640355843
 20
244.7365792838723
 10
258.8031369551164
 20
244.6770532845097
 10
258.5379616434148
 20
244.5791653176091
 10
258.2892349773306
 20
244.4448706953094
 10
258.0619252720188
 20
244.2768519526909
 10
257.8605730388431
 20
244.0784652641376
 10
257.6892002886611
 20
243.8536734037532
 10
257.5512301921578
 20
243.6069665889489
 10
257.4494187020108
 20
243.3432727883505
 10
257.3857995027358
 20
243.0678592856249
 10
257.3616433878382
 20
242.786227465489
 10
257.3614232512962
 20
242.7565542842188
  0
LWPOLYLINE
  5
26B
330
6DD
100
AcDbEntity
  8
Layer_1
  6
Continuous
 62
     1
420
 16711680
100
AcDbPolyline
 90
       13
 70
   128
 43
0.0
 10
257.3614232512962
 20
242.7565542842188
 10
257.3813982512709
 20
242.4745950682366
 10
257.440924250621
 20
242.1982679877661
 10
257.5388122175097
 20
241.93309267606
 10
257.6731068397983
 20
241.6843660099698
 10
257.8411255824065
 20
241.4570563046505
 10
258.0395122709508
 20
241.2557040714659
 10
258.2643041313275
 20
241.0843313212738
 10
258.5110109461256
 20
240.9463612247594
 10
258.7747047467194
 20
240.8445497346006
 10
259.0501182494422
 20
240.7809305353132
 10
259.331750069577
 20
240.756774420403
 10
259.3614232509369
 20
240.7565542838596
  0
LINE
  5
27A
330
6DD
100
AcDbEntity
  8
Layer_1
  6
Continuous
 62
     1
420
 16711680
100
AcDbLine
 10
259.3614232509369
 20
240.7565542838596
 30
0.0
 11
325.3614232509369
 21
240.756554272007
 31
0.0
  0
LWPOLYLINE
  5
27B
330
6DD
100
AcDbEntity
  8
Layer_1
  6
Continuous
 62
     1
420
 16711680
100
AcDbPolyline
 90
       13
 70
   128
 43
0.0
 10
327.3614232512962
 20
242.7565542716478
 10
327.3414482512962
 20
243.0385134878077
 10
327.2819222519212
 20
243.3148405682729
 10
327.1840342850087
 20
243.5800158799702
 10
327.0497396626978
 20
243.8287425460484
 10
326.8817209200691
 20
244.0560522513526
 10
326.6833342315068
 20
244.2574044845194
 10
326.4585423711147
 20
244.4287772346912
 10
326.2118355563043
 20
244.5667473311835
 10
325.9481417557013
 20
244.6685588213187
 10
325.6727282529728
 20
244.7321780205813
 10
325.3910964328358
 20
244.7563341354663
 10
325.3614232516554
 20
244.756554272007
  0
LWPOLYLINE
  5
28A
330
6DD
100
AcDbEntity
  8
Layer_1
  6
Continuous
 62
     1
420
 16711680
100
AcDbPolyline
 90
       13
 70
   128
 43
0.0
 10
327.3614232512962
 20
242.7565542716478
 10
327.3414482512962
 20
242.4745950562062
 10
327.2819222519212
 20
242.198267975741
 10
327.1840342850087
 20
241.9330926640437
 10
327.0497396626978
 20
241.6843659979655
 10
326.8817209200691
 20
241.4570562926613
 10
326.6833342315068
 20
241.2557040594945
 10
326.4585423711147
 20
241.0843313093227
 10
326.2118355563043
 20
240.9463612128304
 10
325.9481417557013
 20
240.8445497226952
 10
325.6727282529728
 20
240.7809305234326
 10
325.3910964328358
 20
240.7567744085476
 10
325.3614232509369
 20
240.756554272007
  0
LINE
  5
299
330
6DD
100
AcDbEntity
  8
Layer_1
  6
Continuous
 62
     1
420
 16711680
100
AcDbLine
 10
325.3614232520144
 20
246.756554272007
 30
0.0
 11
259.3614232520144
 21
246.7565542838596
 31
0.0
  0
LWPOLYLINE
  5
29A
330
6DD
100
AcDbEntity
  8
Layer_1
  6
Continuous
 62
     1
420
 16711680
100
AcDbPolyline
 90
       13
 70
   128
 43
0.0
 10
259.3614232520144
 20
246.7565542838596
 10
259.0794640363062
 20
246.7765292838976
 10
258.8031369558491
 20
246.8360552833098
 10
258.537961644165
 20
246.933943250258
 10
258.2892349781049
 20
247.0682378726024
 10
258.0619252728233
 20
247.2362566152616
 10
257.8605730396832
 20
247.4346433038511
 10
257.6892002895416
 20
247.6594351642663
 10
257.5512301930826
 20
247.9061419790953
 10
257.4494187029829
 20
248.169835779712
 10
257.3857995037574
 20
248.4452492824491
 10
257.3616433889104
 20
248.7268811025893
 10
257.3614232523737
 20
248.7565542842188
  0
LWPOLYLINE
  5
2A9
330
6DD
100
AcDbEntity
  8
Layer_1
  6
Continuous
 62
     1
420
 16711680
100
AcDbPolyline
 90
       13
 70
   128
 43
0.0
 10
257.3614232523737
 20
248.7565542842188
 10
257.381398252399
 20
249.0385134998382
 10
257.4409242517988
 20
249.314840580298
 10
257.5388122187351
 20
249.5800158919865
 10
257.6731068410683
 20
249.8287425580526
 10
257.8411255837174
 20
250.0560522633417
 10
258.0395122722978
 20
250.2574044964907
 10
258.2643041327053
 20
250.4287772466424
 10
258.5110109475282
 20
250.5667473431125
 10
258.7747047481403
 20
250.668558833224
 10
259.0501182508745
 20
250.7321780324619
 10
259.3317500710136
 20
250.7563341473216
 10
259.3614232527329
 20
250.7565542838596
  0
LINE
  5
2B8
330
6DD
100
AcDbEntity
  8
Layer_1
  6
Continuous
 62
     1
420
 16711680
100
AcDbLine
 10
259.3614232527329
 20
250.7565542838596
 30
0.0
 11
325.3614232527329
 21
250.756554272007
 31
0.0
  0
LWPOLYLINE
  5
2B9
330
6DD
100
AcDbEntity
  8
Layer_1
  6
Continuous
 62
     1
420
 16711680
100
AcDbPolyline
 90
       13
 70
   128
 43
0.0
 10
325.3614232527329
 20
250.756554272007
 10
325.6433824682634
 20
250.7365792719943
 10
325.9197095487259
 20
250.6770532726069
 10
326.1848848604188
 20
250.5791653056825
 10
326.4336115264909
 20
250.4448706833604
 10
326.6609212317876
 20
250.2768519407216
 10
326.8622734649455
 20
250.0784652521502
 10
327.0336462151072
 20
249.8536733917504
 10
327.1716163115884
 20
249.6069665769338
 10
327.2734278017118
 20
249.3432727763262
 10
327.3370470009621
 20
249.0678592735948
 10
327.3612031158343
 20
248.7862274534568
 10
327.3614232523737
 20
248.7565542716478
  0
LWPOLYLINE
  5
2C8
330
6DD
100
AcDbEntity
  8
Layer_1
  6
Continuous
 62
     1
420
 16711680
100
AcDbPolyline
 90
       13
 70
   128
 43
0.0
 10
327.3614232523737
 20
248.7565542716478
 10
327.3414482523737
 20
248.4745950562062
 10
327.2819222529987
 20
248.198267975741
 10
327.1840342860862
 20
247.9330926640437
 10
327.0497396637753
 20
247.6843659979655
 10
326.8817209211467
 20
247.4570562926613
 10
326.6833342325843
 20
247.2557040594945
 10
326.4585423721923
 20
247.0843313093227
 10
326.2118355573818
 20
246.9463612128304
 10
325.9481417567788
 20
246.8445497226952
 10
325.6727282540503
 20
246.7809305234326
 10
325.3910964339133
 20
246.7567744085476
 10
325.3614232520144
 20
246.756554272007
  0
LINE
  5
2D7
330
6DD
100
AcDbEntity
  8
Layer_1
  6
Continuous
 62
     1
420
 16711680
100
AcDbLine
 10
325.3614232505779
 20
238.756554272007
 30
0.0
 11
259.3614232505779
 21
238.7565542838596
 31
0.0
  0
LWPOLYLINE
  5
2D8
330
6DD
100
AcDbEntity
  8
Layer_1
  6
Continuous
 62
     1
420
 16711680
100
AcDbPolyline
 90
       13
 70
   128
 43
0.0
 10
259.3614232505779
 20
238.7565542838596
 10
259.0794640345068
 20
238.7365792838723
 10
258.8031369540389
 20
238.6770532845097
 10
258.5379616423373
 20
238.5791653176091
 10
258.2892349762531
 20
238.4448706953094
 10
258.0619252709413
 20
238.2768519526909
 10
257.8605730377656
 20
238.0784652641376
 10
257.6892002875836
 20
237.8536734037532
 10
257.5512301910803
 20
237.6069665889489
 10
257.4494187009333
 20
237.3432727883505
 10
257.3857995016583
 20
237.0678592856249
 10
257.3616433867607
 20
236.786227465489
 10
257.3614232502186
 20
236.7565542842188
  0
LWPOLYLINE
  5
2E7
330
6DD
100
AcDbEntity
  8
Layer_1
  6
Continuous
 62
     1
420
 16711680
100
AcDbPolyline
 90
       13
 70
   128
 43
0.0
 10
257.3614232502186
 20
236.7565542842188
 10
257.3813982501933
 20
236.4745950682366
 10
257.4409242495435
 20
236.1982679877661
 10
257.5388122164322
 20
235.93309267606
 10
257.6731068387207
 20
235.6843660099698
 10
257.841125581329
 20
235.4570563046505
 10
258.0395122698733
 20
235.2557040714659
 10
258.26430413025
 20
235.0843313212738
 10
258.511010945048
 20
234.9463612247594
 10
258.7747047456419
 20
234.8445497346006
 10
259.0501182483646
 20
234.7809305353132
 10
259.3317500684994
 20
234.756774420403
 10
259.3614232498594
 20
234.7565542838596
  0
LINE
  5
2F6
330
6DD
100
AcDbEntity
  8
Layer_1
  6
Continuous
 62
     1
420
 16711680
100
AcDbLine
 10
259.3614232498594
 20
234.7565542838596
 30
0.0
 11
325.3614232498594
 21
234.756554272007
 31
0.0
  0
LWPOLYLINE
  5
2F7
330
6DD
100
AcDbEntity
  8
Layer_1
  6
Continuous
 62
     1
420
 16711680
100
AcDbPolyline
 90
       13
 70
   128
 43
0.0
 10
327.3614232502186
 20
236.7565542716478
 10
327.3414482502187
 20
237.0385134878077
 10
327.2819222508436
 20
237.3148405682729
 10
327.1840342839312
 20
237.5800158799702
 10
327.0497396616203
 20
237.8287425460484
 10
326.8817209189916
 20
238.0560522513526
 10
326.6833342304293
 20
238.2574044845194
 10
326.4585423700372
 20
238.4287772346912
 10
326.2118355552267
 20
238.5667473311835
 10
325.9481417546237
 20
238.6685588213187
 10
325.6727282518953
 20
238.7321780205813
 10
325.3910964317583
 20
238.7563341354663
 10
325.3614232505779
 20
238.756554272007
  0
LWPOLYLINE
  5
306
330
6DD
100
AcDbEntity
  8
Layer_1
  6
Continuous
 62
     1
420
 16711680
100
AcDbPolyline
 90
       13
 70
   128
 43
0.0
 10
327.3614232502186
 20
236.7565542716478
 10
327.3414482502187
 20
236.4745950562062
 10
327.2819222508436
 20
236.198267975741
 10
327.1840342839312
 20
235.9330926640437
 10
327.0497396616203
 20
235.6843659979655
 10
326.8817209189916
 20
235.4570562926613
 10
326.6833342304293
 20
235.2557040594945
 10
326.4585423700372
 20
235.0843313093227
 10
326.2118355552267
 20
234.9463612128304
 10
325.9481417546237
 20
234.8445497226952
 10
325.6727282518953
 20
234.7809305234326
 10
325.3910964317583
 20
234.7567744085476
 10
325.3614232498594
 20
234.756554272007
  0
LINE
  5
315
330
6DD
100
AcDbEntity
  8
Layer_1
  6
Continuous
 62
     1
420
 16711680
100
AcDbLine
 10
325.3614232484229
 20
226.756554272007
 30
0.0
 11
259.3614232484229
 21
226.7565542838596
 31
0.0
  0
LWPOLYLINE
  5
316
330
6DD
100
AcDbEntity
  8
Layer_1
  6
Continuous
 62
     1
420
 16711680
100
AcDbPolyline
 90
       13
 70
   128
 43
0.0
 10
259.3614232484229
 20
226.7565542838596
 10
259.0794640323517
 20
226.7365792838723
 10
258.8031369518839
 20
226.6770532845097
 10
258.5379616401822
 20
226.5791653176091
 10
258.289234974098
 20
226.4448706953094
 10
258.0619252687862
 20
226.2768519526909
 10
257.8605730356105
 20
226.0784652641376
 10
257.6892002854286
 20
225.8536734037532
 10
257.5512301889253
 20
225.6069665889489
 10
257.4494186987782
 20
225.3432727883505
 10
257.3857994995032
 20
225.0678592856249
 10
257.3616433846057
 20
224.786227465489
 10
257.3614232480636
 20
224.7565542842188
  0
LWPOLYLINE
  5
325
330
6DD
100
AcDbEntity
  8
Layer_1
  6
Continuous
 62
     1
420
 16711680
100
AcDbPolyline
 90
       13
 70
   128
 43
0.0
 10
257.3614232480636
 20
224.7565542842188
 10
257.3813982480383
 20
224.4745950682366
 10
257.4409242473885
 20
224.1982679877661
 10
257.5388122142771
 20
223.93309267606
 10
257.6731068365657
 20
223.6843660099698
 10
257.8411255791739
 20
223.4570563046505
 10
258.0395122677182
 20
223.2557040714659
 10
258.2643041280949
 20
223.0843313212738
 10
258.511010942893
 20
222.9463612247594
 10
258.7747047434868
 20
222.8445497346006
 10
259.0501182462096
 20
222.7809305353132
 10
259.3317500663444
 20
222.756774420403
 10
259.3614232477046
 20
222.7565542838596
  0
LINE
  5
334
330
6DD
100
AcDbEntity
  8
Layer_1
  6
Continuous
 62
     1
420
 16711680
100
AcDbLine
 10
259.3614232477046
 20
222.7565542838596
 30
0.0
 11
325.3614232477046
 21
222.756554272007
 31
0.0
  0
LWPOLYLINE
  5
335
330
6DD
100
AcDbEntity
  8
Layer_1
  6
Continuous
 62
     1
420
 16711680
100
AcDbPolyline
 90
       13
 70
   128
 43
0.0
 10
327.3614232480636
 20
224.7565542716478
 10
327.3414482480636
 20
225.0385134878077
 10
327.2819222486886
 20
225.3148405682729
 10
327.1840342817761
 20
225.5800158799702
 10
327.0497396594652
 20
225.8287425460484
 10
326.8817209168366
 20
226.0560522513526
 10
326.6833342282742
 20
226.2574044845194
 10
326.4585423678822
 20
226.4287772346912
 10
326.2118355530717
 20
226.5667473311835
 10
325.9481417524687
 20
226.6685588213187
 10
325.6727282497402
 20
226.7321780205813
 10
325.3910964296032
 20
226.7563341354663
 10
325.3614232484229
 20
226.756554272007
  0
LWPOLYLINE
  5
344
330
6DD
100
AcDbEntity
  8
Layer_1
  6
Continuous
 62
     1
420
 16711680
100
AcDbPolyline
 90
       13
 70
   128
 43
0.0
 10
327.3614232480636
 20
224.7565542716478
 10
327.3414482480636
 20
224.4745950562062
 10
327.2819222486886
 20
224.198267975741
 10
327.1840342817761
 20
223.9330926640437
 10
327.0497396594652
 20
223.6843659979655
 10
326.8817209168366
 20
223.4570562926613
 10
326.6833342282742
 20
223.2557040594945
 10
326.4585423678822
 20
223.0843313093227
 10
326.2118355530717
 20
222.9463612128304
 10
325.9481417524687
 20
222.8445497226952
 10
325.6727282497402
 20
222.7809305234326
 10
325.3910964296032
 20
222.7567744085476
 10
325.3614232477046
 20
222.756554272007
  0
LINE
  5
353
330
6DD
100
AcDbEntity
  8
Layer_1
  6
Continuous
 62
     1
420
 16711680
100
AcDbLine
 10
325.3614232487821
 20
228.756554272007
 30
0.0
 11
259.3614232487821
 21
228.7565542838596
 31
0.0
  0
LWPOLYLINE
  5
354
330
6DD
100
AcDbEntity
  8
Layer_1
  6
Continuous
 62
     1
420
 16711680
100
AcDbPolyline
 90
       13
 70
   128
 43
0.0
 10
259.3614232487821
 20
228.7565542838596
 10
259.0794640330739
 20
228.7765292838976
 10
258.8031369526167
 20
228.8360552833098
 10
258.5379616409326
 20
228.933943250258
 10
258.2892349748726
 20
229.0682378726024
 10
258.061925269591
 20
229.2362566152616
 10
257.8605730364509
 20
229.4346433038511
 10
257.6892002863093
 20
229.6594351642663
 10
257.5512301898503
 20
229.9061419790953
 10
257.4494186997506
 20
230.169835779712
 10
257.385799500525
 20
230.4452492824491
 10
257.3616433856781
 20
230.7268811025893
 10
257.3614232491414
 20
230.7565542842188
  0
LWPOLYLINE
  5
363
330
6DD
100
AcDbEntity
  8
Layer_1
  6
Continuous
 62
     1
420
 16711680
100
AcDbPolyline
 90
       13
 70
   128
 43
0.0
 10
257.3614232491414
 20
230.7565542842188
 10
257.3813982491667
 20
231.0385134998382
 10
257.4409242485665
 20
231.314840580298
 10
257.5388122155028
 20
231.5800158919865
 10
257.673106837836
 20
231.8287425580526
 10
257.841125580485
 20
232.0560522633417
 10
258.0395122690655
 20
232.2574044964907
 10
258.264304129473
 20
232.4287772466424
 10
258.5110109442958
 20
232.5667473431125
 10
258.774704744908
 20
232.668558833224
 10
259.0501182476422
 20
232.7321780324619
 10
259.3317500677813
 20
232.7563341473216
 10
259.3614232495001
 20
232.7565542838596
  0
LINE
  5
372
330
6DD
100
AcDbEntity
  8
Layer_1
  6
Continuous
 62
     1
420
 16711680
100
AcDbLine
 10
259.3614232495001
 20
232.7565542838596
 30
0.0
 11
325.3614232495001
 21
232.756554272007
 31
0.0
  0
LWPOLYLINE
  5
373
330
6DD
100
AcDbEntity
  8
Layer_1
  6
Continuous
 62
     1
420
 16711680
100
AcDbPolyline
 90
       13
 70
   128
 43
0.0
 10
325.3614232495001
 20
232.756554272007
 10
325.643382465031
 20
232.7365792719943
 10
325.9197095454936
 20
232.6770532726069
 10
326.1848848571864
 20
232.5791653056825
 10
326.4336115232585
 20
232.4448706833604
 10
326.6609212285553
 20
232.2768519407216
 10
326.8622734617131
 20
232.0784652521502
 10
327.0336462118749
 20
231.8536733917504
 10
327.1716163083561
 20
231.6069665769338
 10
327.2734277984794
 20
231.3432727763262
 10
327.3370469977297
 20
231.0678592735948
 10
327.361203112602
 20
230.7862274534568
 10
327.3614232491414
 20
230.7565542716478
  0
LWPOLYLINE
  5
382
330
6DD
100
AcDbEntity
  8
Layer_1
  6
Continuous
 62
     1
420
 16711680
100
AcDbPolyline
 90
       13
 70
   128
 43
0.0
 10
327.3614232491414
 20
230.7565542716478
 10
327.3414482491414
 20
230.4745950562062
 10
327.2819222497664
 20
230.198267975741
 10
327.1840342828539
 20
229.9330926640437
 10
327.049739660543
 20
229.6843659979655
 10
326.8817209179143
 20
229.4570562926613
 10
326.683334229352
 20
229.2557040594945
 10
326.4585423689599
 20
229.0843313093227
 10
326.2118355541494
 20
228.9463612128304
 10
325.9481417535465
 20
228.8445497226952
 10
325.672728250818
 20
228.7809305234326
 10
325.391096430681
 20
228.7567744085476
 10
325.3614232487821
 20
228.756554272007
  0
LINE
  5
391
330
6DD
100
AcDbEntity
  8
Layer_1
  6
Continuous
 62
     1
420
 16711680
100
AcDbLine
 10
399.3614232581203
 20
280.7565542587175
 30
0.0
 11
333.3614232581203
 21
280.7565542705702
 31
0.0
  0
LWPOLYLINE
  5
392
330
6DD
100
AcDbEntity
  8
Layer_1
  6
Continuous
 62
     1
420
 16711680
100
AcDbPolyline
 90
       13
 70
   128
 43
0.0
 10
333.3614232581203
 20
280.7565542705702
 10
333.0794640420492
 20
280.7365792705828
 10
332.8031369615813
 20
280.6770532712202
 10
332.5379616498797
 20
280.5791653043196
 10
332.2892349837955
 20
280.4448706820199
 10
332.0619252784837
 20
280.2768519394015
 10
331.860573045308
 20
280.0784652508482
 10
331.6892002951261
 20
279.8536733904638
 10
331.5512301986228
 20
279.6069665756595
 10
331.4494187084757
 20
279.3432727750611
 10
331.3857995092007
 20
279.0678592723355
 10
331.3616433943031
 20
278.7862274521996
 10
331.3614232577611
 20
278.7565542709293
  0
LWPOLYLINE
  5
3A1
330
6DD
100
AcDbEntity
  8
Layer_1
  6
Continuous
 62
     1
420
 16711680
100
AcDbPolyline
 90
       13
 70
   128
 43
0.0
 10
331.3614232577611
 20
278.7565542709293
 10
331.3813982577358
 20
278.4745950549472
 10
331.440924257086
 20
278.1982679744767
 10
331.5388122239746
 20
277.9330926627706
 10
331.6731068462632
 20
277.6843659966804
 10
331.8411255888714
 20
277.457056291361
 10
332.0395122774157
 20
277.2557040581764
 10
332.2643041377924
 20
277.0843313079844
 10
332.5110109525905
 20
276.94636121147
 10
332.7747047531843
 20
276.8445497213112
 10
333.0501182559071
 20
276.7809305220238
 10
333.3317500760419
 20
276.7567744071135
 10
333.3614232574023
 20
276.7565542705702
  0
LINE
  5
3B0
330
6DD
100
AcDbEntity
  8
Layer_1
  6
Continuous
 62
     1
420
 16711680
100
AcDbLine
 10
333.3614232574023
 20
276.7565542705702
 30
0.0
 11
399.3614232574023
 21
276.7565542587175
 31
0.0
  0
LWPOLYLINE
  5
3B1
330
6DD
100
AcDbEntity
  8
Layer_1
  6
Continuous
 62
     1
420
 16711680
100
AcDbPolyline
 90
       13
 70
   128
 43
0.0
 10
401.3614232577611
 20
278.7565542583583
 10
401.3414482577611
 20
279.0385134745183
 10
401.2819222583861
 20
279.3148405549835
 10
401.1840342914736
 20
279.5800158666808
 10
401.0497396691627
 20
279.828742532759
 10
400.8817209265341
 20
280.0560522380632
 10
400.6833342379717
 20
280.25740447123
 10
400.4585423775796
 20
280.4287772214018
 10
400.2118355627692
 20
280.5667473178941
 10
399.9481417621662
 20
280.6685588080292
 10
399.6727282594377
 20
280.7321780072919
 10
399.3910964393007
 20
280.7563341221768
 10
399.3614232581203
 20
280.7565542587175
  0
LWPOLYLINE
  5
3C0
330
6DD
100
AcDbEntity
  8
Layer_1
  6
Continuous
 62
     1
420
 16711680
100
AcDbPolyline
 90
       13
 70
   128
 43
0.0
 10
401.3614232577611
 20
278.7565542583583
 10
401.3414482577611
 20
278.4745950429167
 10
401.2819222583861
 20
278.1982679624516
 10
401.1840342914736
 20
277.9330926507543
 10
401.0497396691627
 20
277.6843659846761
 10
400.8817209265341
 20
277.4570562793719
 10
400.6833342379717
 20
277.2557040462051
 10
400.4585423775796
 20
277.0843312960333
 10
400.2118355627692
 20
276.946361199541
 10
399.9481417621662
 20
276.8445497094058
 10
399.6727282594377
 20
276.7809305101432
 10
399.3910964393007
 20
276.7567743952582
 10
399.3614232574023
 20
276.7565542587175
  0
LINE
  5
3CF
330
6DD
100
AcDbEntity
  8
Layer_1
  6
Continuous
 62
     1
420
 16711680
100
AcDbLine
 10
399.3614232584796
 20
282.7565542587175
 30
0.0
 11
333.3614232584796
 21
282.7565542705702
 31
0.0
  0
LWPOLYLINE
  5
3D0
330
6DD
100
AcDbEntity
  8
Layer_1
  6
Continuous
 62
     1
420
 16711680
100
AcDbPolyline
 90
       13
 70
   128
 43
0.0
 10
333.3614232584796
 20
282.7565542705702
 10
333.0794640427713
 20
282.7765292706081
 10
332.8031369623142
 20
282.8360552700204
 10
332.5379616506301
 20
282.9339432369686
 10
332.28923498457
 20
283.0682378593129
 10
332.0619252792885
 20
283.2362566019722
 10
331.8605730461484
 20
283.4346432905617
 10
331.6892002960068
 20
283.6594351509769
 10
331.5512301995478
 20
283.9061419658059
 10
331.4494187094481
 20
284.1698357664226
 10
331.3857995102225
 20
284.4452492691597
 10
331.3616433953756
 20
284.7268810892999
 10
331.3614232588388
 20
284.7565542709293
  0
LWPOLYLINE
  5
3DF
330
6DD
100
AcDbEntity
  8
Layer_1
  6
Continuous
 62
     1
420
 16711680
100
AcDbPolyline
 90
       13
 70
   128
 43
0.0
 10
331.3614232588388
 20
284.7565542709293
 10
331.3813982588642
 20
285.0385134865488
 10
331.440924258264
 20
285.3148405670086
 10
331.5388122252003
 20
285.5800158786971
 10
331.6731068475335
 20
285.8287425447632
 10
331.8411255901825
 20
286.0560522500523
 10
332.039512278763
 20
286.2574044832013
 10
332.2643041391705
 20
286.428777233353
 10
332.5110109539933
 20
286.566747329823
 10
332.7747047546055
 20
286.6685588199346
 10
333.0501182573396
 20
286.7321780191725
 10
333.3317500774788
 20
286.7563341340322
 10
333.3614232591981
 20
286.7565542705702
  0
LINE
  5
3EE
330
6DD
100
AcDbEntity
  8
Layer_1
  6
Continuous
 62
     1
420
 16711680
100
AcDbLine
 10
333.3614232591981
 20
286.7565542705702
 30
0.0
 11
399.3614232591981
 21
286.7565542587175
 31
0.0
  0
LWPOLYLINE
  5
3EF
330
6DD
100
AcDbEntity
  8
Layer_1
  6
Continuous
 62
     1
420
 16711680
100
AcDbPolyline
 90
       13
 70
   128
 43
0.0
 10
399.3614232591981
 20
286.7565542587175
 10
399.6433824747285
 20
286.7365792587049
 10
399.919709555191
 20
286.6770532593175
 10
400.1848848668839
 20
286.5791652923931
 10
400.433611532956
 20
286.444870670071
 10
400.6609212382527
 20
286.2768519274322
 10
400.8622734714106
 20
286.0784652388608
 10
401.0336462215724
 20
285.853673378461
 10
401.1716163180536
 20
285.6069665636443
 10
401.2734278081769
 20
285.3432727630368
 10
401.3370470074272
 20
285.0678592603055
 10
401.3612031222995
 20
284.7862274401674
 10
401.3614232588388
 20
284.7565542583583
  0
LWPOLYLINE
  5
3FE
330
6DD
100
AcDbEntity
  8
Layer_1
  6
Continuous
 62
     1
420
 16711680
100
AcDbPolyline
 90
       13
 70
   128
 43
0.0
 10
401.3614232588388
 20
284.7565542583583
 10
401.3414482588389
 20
284.4745950429167
 10
401.2819222594638
 20
284.1982679624516
 10
401.1840342925514
 20
283.9330926507543
 10
401.0497396702405
 20
283.6843659846761
 10
400.8817209276118
 20
283.4570562793719
 10
400.6833342390495
 20
283.2557040462051
 10
400.4585423786574
 20
283.0843312960333
 10
400.2118355638469
 20
282.946361199541
 10
399.9481417632439
 20
282.8445497094058
 10
399.6727282605154
 20
282.7809305101432
 10
399.3910964403785
 20
282.7567743952582
 10
399.3614232584796
 20
282.7565542587175
  0
LINE
  5
40D
330
6DD
100
AcDbEntity
  8
Layer_1
  6
Continuous
 62
     1
420
 16711680
100
AcDbLine
 10
399.3614232559655
 20
268.7565542587175
 30
0.0
 11
333.3614232559655
 21
268.7565542705702
 31
0.0
  0
LWPOLYLINE
  5
40E
330
6DD
100
AcDbEntity
  8
Layer_1
  6
Continuous
 62
     1
420
 16711680
100
AcDbPolyline
 90
       13
 70
   128
 43
0.0
 10
333.3614232559655
 20
268.7565542705702
 10
333.0794640398944
 20
268.7365792705828
 10
332.8031369594265
 20
268.6770532712202
 10
332.5379616477249
 20
268.5791653043196
 10
332.2892349816407
 20
268.4448706820199
 10
332.0619252763289
 20
268.2768519394015
 10
331.8605730431532
 20
268.0784652508482
 10
331.6892002929712
 20
267.8536733904638
 10
331.5512301964679
 20
267.6069665756595
 10
331.4494187063209
 20
267.3432727750611
 10
331.3857995070459
 20
267.0678592723355
 10
331.3616433921483
 20
266.7862274521996
 10
331.3614232556063
 20
266.7565542709294
  0
LWPOLYLINE
  5
41D
330
6DD
100
AcDbEntity
  8
Layer_1
  6
Continuous
 62
     1
420
 16711680
100
AcDbPolyline
 90
       13
 70
   128
 43
0.0
 10
331.3614232556063
 20
266.7565542709294
 10
331.381398255581
 20
266.4745950549472
 10
331.4409242549311
 20
266.1982679744767
 10
331.5388122218198
 20
265.9330926627706
 10
331.6731068441084
 20
265.6843659966804
 10
331.8411255867166
 20
265.457056291361
 10
332.0395122752609
 20
265.2557040581764
 10
332.2643041356376
 20
265.0843313079844
 10
332.5110109504357
 20
264.94636121147
 10
332.7747047510295
 20
264.8445497213112
 10
333.0501182537523
 20
264.7809305220238
 10
333.3317500738871
 20
264.7567744071135
 10
333.361423255247
 20
264.7565542705702
  0
LINE
  5
42C
330
6DD
100
AcDbEntity
  8
Layer_1
  6
Continuous
 62
     1
420
 16711680
100
AcDbLine
 10
333.361423255247
 20
264.7565542705702
 30
0.0
 11
399.361423255247
 21
264.7565542587175
 31
0.0
  0
LWPOLYLINE
  5
42D
330
6DD
100
AcDbEntity
  8
Layer_1
  6
Continuous
 62
     1
420
 16711680
100
AcDbPolyline
 90
       13
 70
   128
 43
0.0
 10
401.3614232556063
 20
266.7565542583583
 10
401.3414482556063
 20
267.0385134745183
 10
401.2819222562313
 20
267.3148405549835
 10
401.1840342893188
 20
267.5800158666808
 10
401.0497396670079
 20
267.828742532759
 10
400.8817209243792
 20
268.0560522380632
 10
400.6833342358169
 20
268.25740447123
 10
400.4585423754248
 20
268.4287772214018
 10
400.2118355606144
 20
268.5667473178941
 10
399.9481417600114
 20
268.6685588080292
 10
399.6727282572829
 20
268.7321780072919
 10
399.3910964371459
 20
268.7563341221768
 10
399.3614232559655
 20
268.7565542587175
  0
LWPOLYLINE
  5
43C
330
6DD
100
AcDbEntity
  8
Layer_1
  6
Continuous
 62
     1
420
 16711680
100
AcDbPolyline
 90
       13
 70
   128
 43
0.0
 10
401.3614232556063
 20
266.7565542583583
 10
401.3414482556063
 20
266.4745950429167
 10
401.2819222562313
 20
266.1982679624516
 10
401.1840342893188
 20
265.9330926507543
 10
401.0497396670079
 20
265.6843659846761
 10
400.8817209243792
 20
265.4570562793719
 10
400.6833342358169
 20
265.2557040462051
 10
400.4585423754248
 20
265.0843312960333
 10
400.2118355606144
 20
264.946361199541
 10
399.9481417600114
 20
264.8445497094058
 10
399.6727282572829
 20
264.7809305101432
 10
399.3910964371459
 20
264.7567743952582
 10
399.361423255247
 20
264.7565542587175
  0
LINE
  5
44B
330
6DD
100
AcDbEntity
  8
Layer_1
  6
Continuous
 62
     1
420
 16711680
100
AcDbLine
 10
399.3614232563245
 20
270.7565542587175
 30
0.0
 11
333.3614232563245
 21
270.7565542705702
 31
0.0
  0
LWPOLYLINE
  5
44C
330
6DD
100
AcDbEntity
  8
Layer_1
  6
Continuous
 62
     1
420
 16711680
100
AcDbPolyline
 90
       13
 70
   128
 43
0.0
 10
333.3614232563245
 20
270.7565542705702
 10
333.0794640406163
 20
270.7765292706081
 10
332.8031369601592
 20
270.8360552700204
 10
332.5379616484751
 20
270.9339432369686
 10
332.289234982415
 20
271.0682378593129
 10
332.0619252771334
 20
271.2362566019722
 10
331.8605730439933
 20
271.4346432905617
 10
331.6892002938517
 20
271.6594351509769
 10
331.5512301973927
 20
271.9061419658059
 10
331.449418707293
 20
272.1698357664226
 10
331.3857995080675
 20
272.4452492691597
 10
331.3616433932205
 20
272.7268810892999
 10
331.3614232566838
 20
272.7565542709293
  0
LWPOLYLINE
  5
45B
330
6DD
100
AcDbEntity
  8
Layer_1
  6
Continuous
 62
     1
420
 16711680
100
AcDbPolyline
 90
       13
 70
   128
 43
0.0
 10
331.3614232566838
 20
272.7565542709293
 10
331.3813982567091
 20
273.0385134865488
 10
331.4409242561089
 20
273.3148405670086
 10
331.5388122230452
 20
273.5800158786971
 10
331.6731068453784
 20
273.8287425447632
 10
331.8411255880275
 20
274.0560522500523
 10
332.0395122766079
 20
274.2574044832013
 10
332.2643041370154
 20
274.428777233353
 10
332.5110109518383
 20
274.566747329823
 10
332.7747047524504
 20
274.6685588199346
 10
333.0501182551846
 20
274.7321780191725
 10
333.3317500753237
 20
274.7563341340322
 10
333.361423257043
 20
274.7565542705702
  0
LINE
  5
46A
330
6DD
100
AcDbEntity
  8
Layer_1
  6
Continuous
 62
     1
420
 16711680
100
AcDbLine
 10
333.361423257043
 20
274.7565542705702
 30
0.0
 11
399.361423257043
 21
274.7565542587175
 31
0.0
  0
LWPOLYLINE
  5
46B
330
6DD
100
AcDbEntity
  8
Layer_1
  6
Continuous
 62
     1
420
 16711680
100
AcDbPolyline
 90
       13
 70
   128
 43
0.0
 10
399.361423257043
 20
274.7565542587175
 10
399.6433824725735
 20
274.7365792587049
 10
399.919709553036
 20
274.6770532593175
 10
400.1848848647289
 20
274.5791652923931
 10
400.433611530801
 20
274.444870670071
 10
400.6609212360977
 20
274.2768519274322
 10
400.8622734692556
 20
274.0784652388608
 10
401.0336462194173
 20
273.853673378461
 10
401.1716163158985
 20
273.6069665636443
 10
401.2734278060219
 20
273.3432727630368
 10
401.3370470052722
 20
273.0678592603055
 10
401.3612031201444
 20
272.7862274401674
 10
401.3614232566838
 20
272.7565542583583
  0
LWPOLYLINE
  5
47A
330
6DD
100
AcDbEntity
  8
Layer_1
  6
Continuous
 62
     1
420
 16711680
100
AcDbPolyline
 90
       13
 70
   128
 43
0.0
 10
401.3614232566838
 20
272.7565542583583
 10
401.3414482566838
 20
272.4745950429167
 10
401.2819222573088
 20
272.1982679624516
 10
401.1840342903963
 20
271.9330926507543
 10
401.0497396680854
 20
271.6843659846761
 10
400.8817209254568
 20
271.4570562793719
 10
400.6833342368944
 20
271.2557040462051
 10
400.4585423765024
 20
271.0843312960333
 10
400.2118355616919
 20
270.946361199541
 10
399.9481417610889
 20
270.8445497094058
 10
399.6727282583604
 20
270.7809305101432
 10
399.3910964382234
 20
270.7567743952582
 10
399.3614232563245
 20
270.7565542587175
  0
LINE
  5
489
330
6DD
100
AcDbEntity
  8
Layer_1
  6
Continuous
 62
     1
420
 16711680
100
AcDbLine
 10
399.3614232538102
 20
256.7565542587175
 30
0.0
 11
333.3614232538102
 21
256.7565542705702
 31
0.0
  0
LWPOLYLINE
  5
48A
330
6DD
100
AcDbEntity
  8
Layer_1
  6
Continuous
 62
     1
420
 16711680
100
AcDbPolyline
 90
       13
 70
   128
 43
0.0
 10
333.3614232538102
 20
256.7565542705702
 10
333.0794640377396
 20
256.7365792705828
 10
332.8031369572717
 20
256.6770532712202
 10
332.53796164557
 20
256.5791653043196
 10
332.2892349794858
 20
256.4448706820199
 10
332.0619252741741
 20
256.2768519394015
 10
331.8605730409984
 20
256.0784652508482
 10
331.6892002908164
 20
255.8536733904638
 10
331.5512301943131
 20
255.6069665756595
 10
331.4494187041661
 20
255.3432727750611
 10
331.3857995048911
 20
255.0678592723354
 10
331.3616433899935
 20
254.7862274521995
 10
331.3614232534514
 20
254.7565542709294
  0
LWPOLYLINE
  5
499
330
6DD
100
AcDbEntity
  8
Layer_1
  6
Continuous
 62
     1
420
 16711680
100
AcDbPolyline
 90
       13
 70
   128
 43
0.0
 10
331.3614232534514
 20
254.7565542709294
 10
331.3813982534261
 20
254.4745950549472
 10
331.4409242527763
 20
254.1982679744767
 10
331.538812219665
 20
253.9330926627706
 10
331.6731068419535
 20
253.6843659966804
 10
331.8411255845618
 20
253.4570562913611
 10
332.0395122731061
 20
253.2557040581765
 10
332.2643041334828
 20
253.0843313079844
 10
332.5110109482808
 20
252.94636121147
 10
332.7747047488747
 20
252.8445497213112
 10
333.0501182515974
 20
252.7809305220238
 10
333.3317500717322
 20
252.7567744071136
 10
333.3614232530922
 20
252.7565542705702
  0
LINE
  5
4A8
330
6DD
100
AcDbEntity
  8
Layer_1
  6
Continuous
 62
     1
420
 16711680
100
AcDbLine
 10
333.3614232530922
 20
252.7565542705702
 30
0.0
 11
399.3614232530922
 21
252.7565542587175
 31
0.0
  0
LWPOLYLINE
  5
4A9
330
6DD
100
AcDbEntity
  8
Layer_1
  6
Continuous
 62
     1
420
 16711680
100
AcDbPolyline
 90
       13
 70
   128
 43
0.0
 10
401.3614232534514
 20
254.7565542583583
 10
401.3414482534515
 20
255.0385134745183
 10
401.2819222540764
 20
255.3148405549835
 10
401.184034287164
 20
255.5800158666808
 10
401.0497396648531
 20
255.828742532759
 10
400.8817209222244
 20
256.0560522380632
 10
400.6833342336621
 20
256.25740447123
 10
400.45854237327
 20
256.4287772214018
 10
400.2118355584595
 20
256.5667473178941
 10
399.9481417578565
 20
256.6685588080292
 10
399.672728255128
 20
256.7321780072919
 10
399.3910964349911
 20
256.7563341221768
 10
399.3614232538102
 20
256.7565542587175
  0
LWPOLYLINE
  5
4B8
330
6DD
100
AcDbEntity
  8
Layer_1
  6
Continuous
 62
     1
420
 16711680
100
AcDbPolyline
 90
       13
 70
   128
 43
0.0
 10
401.3614232534514
 20
254.7565542583583
 10
401.3414482534515
 20
254.4745950429167
 10
401.2819222540764
 20
254.1982679624516
 10
401.184034287164
 20
253.9330926507543
 10
401.0497396648531
 20
253.6843659846761
 10
400.8817209222244
 20
253.4570562793719
 10
400.6833342336621
 20
253.2557040462051
 10
400.45854237327
 20
253.0843312960332
 10
400.2118355584595
 20
252.946361199541
 10
399.9481417578565
 20
252.8445497094058
 10
399.672728255128
 20
252.7809305101432
 10
399.3910964349911
 20
252.7567743952582
 10
399.3614232530922
 20
252.7565542587175
  0
LINE
  5
4C7
330
6DD
100
AcDbEntity
  8
Layer_1
  6
Continuous
 62
     1
420
 16711680
100
AcDbLine
 10
399.3614232541695
 20
258.7565542587175
 30
0.0
 11
333.3614232541695
 21
258.7565542705702
 31
0.0
  0
LWPOLYLINE
  5
4C8
330
6DD
100
AcDbEntity
  8
Layer_1
  6
Continuous
 62
     1
420
 16711680
100
AcDbPolyline
 90
       13
 70
   128
 43
0.0
 10
333.3614232541695
 20
258.7565542705702
 10
333.0794640384613
 20
258.7765292706081
 10
332.8031369580041
 20
258.8360552700204
 10
332.53796164632
 20
258.9339432369686
 10
332.2892349802599
 20
259.0682378593129
 10
332.0619252749784
 20
259.2362566019722
 10
331.8605730418383
 20
259.4346432905617
 10
331.6892002916967
 20
259.6594351509769
 10
331.5512301952377
 20
259.9061419658059
 10
331.449418705138
 20
260.1698357664226
 10
331.3857995059124
 20
260.4452492691597
 10
331.3616433910655
 20
260.7268810892999
 10
331.3614232545287
 20
260.7565542709294
  0
LWPOLYLINE
  5
4D7
330
6DD
100
AcDbEntity
  8
Layer_1
  6
Continuous
 62
     1
420
 16711680
100
AcDbPolyline
 90
       13
 70
   128
 43
0.0
 10
331.3614232545287
 20
260.7565542709294
 10
331.3813982545541
 20
261.0385134865488
 10
331.4409242539539
 20
261.3148405670086
 10
331.5388122208902
 20
261.5800158786971
 10
331.6731068432234
 20
261.8287425447632
 10
331.8411255858724
 20
262.0560522500523
 10
332.0395122744529
 20
262.2574044832013
 10
332.2643041348604
 20
262.428777233353
 10
332.5110109496832
 20
262.566747329823
 10
332.7747047502954
 20
262.6685588199346
 10
333.0501182530296
 20
262.7321780191725
 10
333.3317500731687
 20
262.7563341340322
 10
333.361423254888
 20
262.7565542705702
  0
LINE
  5
4E6
330
6DD
100
AcDbEntity
  8
Layer_1
  6
Continuous
 62
     1
420
 16711680
100
AcDbLine
 10
333.361423254888
 20
262.7565542705702
 30
0.0
 11
399.361423254888
 21
262.7565542587175
 31
0.0
  0
LWPOLYLINE
  5
4E7
330
6DD
100
AcDbEntity
  8
Layer_1
  6
Continuous
 62
     1
420
 16711680
100
AcDbPolyline
 90
       13
 70
   128
 43
0.0
 10
399.361423254888
 20
262.7565542587175
 10
399.6433824704184
 20
262.7365792587049
 10
399.919709550881
 20
262.6770532593175
 10
400.1848848625738
 20
262.5791652923931
 10
400.4336115286459
 20
262.444870670071
 10
400.6609212339426
 20
262.2768519274322
 10
400.8622734671005
 20
262.0784652388608
 10
401.0336462172623
 20
261.853673378461
 10
401.1716163137435
 20
261.6069665636443
 10
401.2734278038668
 20
261.3432727630368
 10
401.3370470031171
 20
261.0678592603055
 10
401.3612031179894
 20
260.7862274401674
 10
401.3614232545287
 20
260.7565542583583
  0
LWPOLYLINE
  5
4F6
330
6DD
100
AcDbEntity
  8
Layer_1
  6
Continuous
 62
     1
420
 16711680
100
AcDbPolyline
 90
       13
 70
   128
 43
0.0
 10
401.3614232545287
 20
260.7565542583583
 10
401.3414482545288
 20
260.4745950429167
 10
401.2819222551537
 20
260.1982679624516
 10
401.1840342882413
 20
259.9330926507543
 10
401.0497396659304
 20
259.6843659846761
 10
400.8817209233017
 20
259.4570562793719
 10
400.6833342347394
 20
259.2557040462051
 10
400.4585423743473
 20
259.0843312960333
 10
400.2118355595368
 20
258.946361199541
 10
399.9481417589338
 20
258.8445497094058
 10
399.6727282562053
 20
258.7809305101432
 10
399.3910964360684
 20
258.7567743952582
 10
399.3614232541695
 20
258.7565542587175
  0
LINE
  5
505
330
6DD
100
AcDbEntity
  8
Layer_1
  6
Continuous
 62
     1
420
 16711680
100
AcDbLine
 10
399.3614232516554
 20
244.7565542587175
 30
0.0
 11
333.3614232516554
 21
244.7565542705702
 31
0.0
  0
LWPOLYLINE
  5
506
330
6DD
100
AcDbEntity
  8
Layer_1
  6
Continuous
 62
     1
420
 16711680
100
AcDbPolyline
 90
       13
 70
   128
 43
0.0
 10
333.3614232516554
 20
244.7565542705702
 10
333.0794640355843
 20
244.7365792705829
 10
332.8031369551164
 20
244.6770532712203
 10
332.5379616434148
 20
244.5791653043197
 10
332.2892349773306
 20
244.44487068202
 10
332.0619252720188
 20
244.2768519394016
 10
331.8605730388431
 20
244.0784652508482
 10
331.6892002886611
 20
243.8536733904638
 10
331.5512301921578
 20
243.6069665756596
 10
331.4494187020108
 20
243.3432727750611
 10
331.3857995027358
 20
243.0678592723355
 10
331.3616433878382
 20
242.7862274521996
 10
331.3614232512962
 20
242.7565542709294
  0
LWPOLYLINE
  5
515
330
6DD
100
AcDbEntity
  8
Layer_1
  6
Continuous
 62
     1
420
 16711680
100
AcDbPolyline
 90
       13
 70
   128
 43
0.0
 10
331.3614232512962
 20
242.7565542709294
 10
331.3813982512709
 20
242.4745950549472
 10
331.440924250621
 20
242.1982679744767
 10
331.5388122175097
 20
241.9330926627706
 10
331.6731068397983
 20
241.6843659966804
 10
331.8411255824065
 20
241.4570562913611
 10
332.0395122709508
 20
241.2557040581765
 10
332.2643041313275
 20
241.0843313079844
 10
332.5110109461256
 20
240.94636121147
 10
332.7747047467194
 20
240.8445497213112
 10
333.0501182494422
 20
240.7809305220238
 10
333.331750069577
 20
240.7567744071136
 10
333.3614232509369
 20
240.7565542705702
  0
LINE
  5
524
330
6DD
100
AcDbEntity
  8
Layer_1
  6
Continuous
 62
     1
420
 16711680
100
AcDbLine
 10
333.3614232509369
 20
240.7565542705702
 30
0.0
 11
399.3614232509369
 21
240.7565542587175
 31
0.0
  0
LWPOLYLINE
  5
525
330
6DD
100
AcDbEntity
  8
Layer_1
  6
Continuous
 62
     1
420
 16711680
100
AcDbPolyline
 90
       13
 70
   128
 43
0.0
 10
401.3614232512962
 20
242.7565542583583
 10
401.3414482512962
 20
243.0385134745183
 10
401.2819222519212
 20
243.3148405549835
 10
401.1840342850087
 20
243.5800158666808
 10
401.0497396626978
 20
243.828742532759
 10
400.8817209200691
 20
244.0560522380632
 10
400.6833342315068
 20
244.25740447123
 10
400.4585423711147
 20
244.4287772214018
 10
400.2118355563043
 20
244.5667473178941
 10
399.9481417557013
 20
244.6685588080292
 10
399.6727282529728
 20
244.7321780072919
 10
399.3910964328358
 20
244.7563341221768
 10
399.3614232516554
 20
244.7565542587175
  0
LWPOLYLINE
  5
534
330
6DD
100
AcDbEntity
  8
Layer_1
  6
Continuous
 62
     1
420
 16711680
100
AcDbPolyline
 90
       13
 70
   128
 43
0.0
 10
401.3614232512962
 20
242.7565542583583
 10
401.3414482512962
 20
242.4745950429167
 10
401.2819222519212
 20
242.1982679624516
 10
401.1840342850087
 20
241.9330926507543
 10
401.0497396626978
 20
241.6843659846761
 10
400.8817209200691
 20
241.4570562793719
 10
400.6833342315068
 20
241.2557040462051
 10
400.4585423711147
 20
241.0843312960332
 10
400.2118355563043
 20
240.946361199541
 10
399.9481417557013
 20
240.8445497094058
 10
399.6727282529728
 20
240.7809305101432
 10
399.3910964328358
 20
240.7567743952582
 10
399.3614232509369
 20
240.7565542587175
  0
LINE
  5
543
330
6DD
100
AcDbEntity
  8
Layer_1
  6
Continuous
 62
     1
420
 16711680
100
AcDbLine
 10
399.3614232520144
 20
246.7565542587175
 30
0.0
 11
333.3614232520144
 21
246.7565542705702
 31
0.0
  0
LWPOLYLINE
  5
544
330
6DD
100
AcDbEntity
  8
Layer_1
  6
Continuous
 62
     1
420
 16711680
100
AcDbPolyline
 90
       13
 70
   128
 43
0.0
 10
333.3614232520144
 20
246.7565542705702
 10
333.0794640363062
 20
246.7765292706082
 10
332.8031369558491
 20
246.8360552700204
 10
332.537961644165
 20
246.9339432369686
 10
332.2892349781049
 20
247.068237859313
 10
332.0619252728233
 20
247.2362566019722
 10
331.8605730396832
 20
247.4346432905617
 10
331.6892002895416
 20
247.6594351509769
 10
331.5512301930826
 20
247.9061419658059
 10
331.4494187029829
 20
248.1698357664226
 10
331.3857995037574
 20
248.4452492691597
 10
331.3616433889104
 20
248.7268810892999
 10
331.3614232523737
 20
248.7565542709294
  0
LWPOLYLINE
  5
553
330
6DD
100
AcDbEntity
  8
Layer_1
  6
Continuous
 62
     1
420
 16711680
100
AcDbPolyline
 90
       13
 70
   128
 43
0.0
 10
331.3614232523737
 20
248.7565542709294
 10
331.381398252399
 20
249.0385134865488
 10
331.4409242517988
 20
249.3148405670086
 10
331.5388122187351
 20
249.5800158786971
 10
331.6731068410683
 20
249.8287425447632
 10
331.8411255837174
 20
250.0560522500523
 10
332.0395122722978
 20
250.2574044832013
 10
332.2643041327053
 20
250.428777233353
 10
332.5110109475282
 20
250.5667473298231
 10
332.7747047481403
 20
250.6685588199346
 10
333.0501182508745
 20
250.7321780191726
 10
333.3317500710136
 20
250.7563341340322
 10
333.3614232527329
 20
250.7565542705702
  0
LINE
  5
562
330
6DD
100
AcDbEntity
  8
Layer_1
  6
Continuous
 62
     1
420
 16711680
100
AcDbLine
 10
333.3614232527329
 20
250.7565542705702
 30
0.0
 11
399.3614232527329
 21
250.7565542587175
 31
0.0
  0
LWPOLYLINE
  5
563
330
6DD
100
AcDbEntity
  8
Layer_1
  6
Continuous
 62
     1
420
 16711680
100
AcDbPolyline
 90
       13
 70
   128
 43
0.0
 10
399.3614232527329
 20
250.7565542587175
 10
399.6433824682634
 20
250.7365792587049
 10
399.9197095487259
 20
250.6770532593175
 10
400.1848848604188
 20
250.5791652923931
 10
400.4336115264909
 20
250.444870670071
 10
400.6609212317876
 20
250.2768519274322
 10
400.8622734649455
 20
250.0784652388608
 10
401.0336462151072
 20
249.853673378461
 10
401.1716163115884
 20
249.6069665636443
 10
401.2734278017118
 20
249.3432727630368
 10
401.3370470009621
 20
249.0678592603054
 10
401.3612031158343
 20
248.7862274401674
 10
401.3614232523737
 20
248.7565542583583
  0
LWPOLYLINE
  5
572
330
6DD
100
AcDbEntity
  8
Layer_1
  6
Continuous
 62
     1
420
 16711680
100
AcDbPolyline
 90
       13
 70
   128
 43
0.0
 10
401.3614232523737
 20
248.7565542583583
 10
401.3414482523737
 20
248.4745950429167
 10
401.2819222529987
 20
248.1982679624516
 10
401.1840342860862
 20
247.9330926507543
 10
401.0497396637753
 20
247.6843659846761
 10
400.8817209211467
 20
247.4570562793719
 10
400.6833342325843
 20
247.2557040462051
 10
400.4585423721923
 20
247.0843312960332
 10
400.2118355573818
 20
246.946361199541
 10
399.9481417567788
 20
246.8445497094058
 10
399.6727282540503
 20
246.7809305101432
 10
399.3910964339133
 20
246.7567743952582
 10
399.3614232520144
 20
246.7565542587175
  0
LINE
  5
581
330
6DD
100
AcDbEntity
  8
Layer_1
  6
Continuous
 62
     1
420
 16711680
100
AcDbLine
 10
399.3614232505779
 20
238.7565542587175
 30
0.0
 11
333.3614232505779
 21
238.7565542705702
 31
0.0
  0
LWPOLYLINE
  5
582
330
6DD
100
AcDbEntity
  8
Layer_1
  6
Continuous
 62
     1
420
 16711680
100
AcDbPolyline
 90
       13
 70
   128
 43
0.0
 10
333.3614232505779
 20
238.7565542705702
 10
333.0794640345068
 20
238.7365792705829
 10
332.8031369540389
 20
238.6770532712203
 10
332.5379616423373
 20
238.5791653043197
 10
332.2892349762531
 20
238.44487068202
 10
332.0619252709413
 20
238.2768519394016
 10
331.8605730377656
 20
238.0784652508482
 10
331.6892002875836
 20
237.8536733904638
 10
331.5512301910803
 20
237.6069665756596
 10
331.4494187009333
 20
237.3432727750611
 10
331.3857995016583
 20
237.0678592723355
 10
331.3616433867607
 20
236.7862274521996
 10
331.3614232502186
 20
236.7565542709294
  0
LWPOLYLINE
  5
591
330
6DD
100
AcDbEntity
  8
Layer_1
  6
Continuous
 62
     1
420
 16711680
100
AcDbPolyline
 90
       13
 70
   128
 43
0.0
 10
331.3614232502186
 20
236.7565542709294
 10
331.3813982501933
 20
236.4745950549472
 10
331.4409242495435
 20
236.1982679744767
 10
331.5388122164322
 20
235.9330926627706
 10
331.6731068387207
 20
235.6843659966804
 10
331.841125581329
 20
235.4570562913611
 10
332.0395122698733
 20
235.2557040581765
 10
332.26430413025
 20
235.0843313079844
 10
332.511010945048
 20
234.94636121147
 10
332.7747047456419
 20
234.8445497213112
 10
333.0501182483646
 20
234.7809305220238
 10
333.3317500684994
 20
234.7567744071136
 10
333.3614232498594
 20
234.7565542705702
  0
LINE
  5
5A0
330
6DD
100
AcDbEntity
  8
Layer_1
  6
Continuous
 62
     1
420
 16711680
100
AcDbLine
 10
333.3614232498594
 20
234.7565542705702
 30
0.0
 11
399.3614232498594
 21
234.7565542587175
 31
0.0
  0
LWPOLYLINE
  5
5A1
330
6DD
100
AcDbEntity
  8
Layer_1
  6
Continuous
 62
     1
420
 16711680
100
AcDbPolyline
 90
       13
 70
   128
 43
0.0
 10
401.3614232502186
 20
236.7565542583583
 10
401.3414482502187
 20
237.0385134745183
 10
401.2819222508436
 20
237.3148405549835
 10
401.1840342839312
 20
237.5800158666808
 10
401.0497396616203
 20
237.828742532759
 10
400.8817209189916
 20
238.0560522380632
 10
400.6833342304293
 20
238.25740447123
 10
400.4585423700372
 20
238.4287772214018
 10
400.2118355552267
 20
238.5667473178941
 10
399.9481417546237
 20
238.6685588080292
 10
399.6727282518953
 20
238.7321780072919
 10
399.3910964317583
 20
238.7563341221768
 10
399.3614232505779
 20
238.7565542587175
  0
LWPOLYLINE
  5
5B0
330
6DD
100
AcDbEntity
  8
Layer_1
  6
Continuous
 62
     1
420
 16711680
100
AcDbPolyline
 90
       13
 70
   128
 43
0.0
 10
401.3614232502186
 20
236.7565542583583
 10
401.3414482502187
 20
236.4745950429167
 10
401.2819222508436
 20
236.1982679624516
 10
401.1840342839312
 20
235.9330926507543
 10
401.0497396616203
 20
235.6843659846761
 10
400.8817209189916
 20
235.4570562793719
 10
400.6833342304293
 20
235.2557040462051
 10
400.4585423700372
 20
235.0843312960332
 10
400.2118355552267
 20
234.946361199541
 10
399.9481417546237
 20
234.8445497094058
 10
399.6727282518953
 20
234.7809305101432
 10
399.3910964317583
 20
234.7567743952582
 10
399.3614232498594
 20
234.7565542587175
  0
LINE
  5
5BF
330
6DD
100
AcDbEntity
  8
Layer_1
  6
Continuous
 62
     1
420
 16711680
100
AcDbLine
 10
399.3614232484229
 20
226.7565542587175
 30
0.0
 11
333.3614232484229
 21
226.7565542705702
 31
0.0
  0
LWPOLYLINE
  5
5C0
330
6DD
100
AcDbEntity
  8
Layer_1
  6
Continuous
 62
     1
420
 16711680
100
AcDbPolyline
 90
       13
 70
   128
 43
0.0
 10
333.3614232484229
 20
226.7565542705702
 10
333.0794640323517
 20
226.7365792705829
 10
332.8031369518839
 20
226.6770532712203
 10
332.5379616401822
 20
226.5791653043197
 10
332.289234974098
 20
226.44487068202
 10
332.0619252687862
 20
226.2768519394016
 10
331.8605730356105
 20
226.0784652508482
 10
331.6892002854286
 20
225.8536733904638
 10
331.5512301889253
 20
225.6069665756596
 10
331.4494186987782
 20
225.3432727750611
 10
331.3857994995032
 20
225.0678592723355
 10
331.3616433846057
 20
224.7862274521996
 10
331.3614232480636
 20
224.7565542709294
  0
LWPOLYLINE
  5
5CF
330
6DD
100
AcDbEntity
  8
Layer_1
  6
Continuous
 62
     1
420
 16711680
100
AcDbPolyline
 90
       13
 70
   128
 43
0.0
 10
331.3614232480636
 20
224.7565542709294
 10
331.3813982480383
 20
224.4745950549472
 10
331.4409242473885
 20
224.1982679744767
 10
331.5388122142771
 20
223.9330926627706
 10
331.6731068365657
 20
223.6843659966804
 10
331.8411255791739
 20
223.4570562913611
 10
332.0395122677182
 20
223.2557040581765
 10
332.2643041280949
 20
223.0843313079844
 10
332.511010942893
 20
222.94636121147
 10
332.7747047434868
 20
222.8445497213112
 10
333.0501182462096
 20
222.7809305220238
 10
333.3317500663444
 20
222.7567744071136
 10
333.3614232477046
 20
222.7565542705702
  0
LINE
  5
5DE
330
6DD
100
AcDbEntity
  8
Layer_1
  6
Continuous
 62
     1
420
 16711680
100
AcDbLine
 10
333.3614232477046
 20
222.7565542705702
 30
0.0
 11
399.3614232477046
 21
222.7565542587175
 31
0.0
  0
LWPOLYLINE
  5
5DF
330
6DD
100
AcDbEntity
  8
Layer_1
  6
Continuous
 62
     1
420
 16711680
100
AcDbPolyline
 90
       13
 70
   128
 43
0.0
 10
401.3614232480636
 20
224.7565542583583
 10
401.3414482480636
 20
225.0385134745183
 10
401.2819222486886
 20
225.3148405549835
 10
401.1840342817761
 20
225.5800158666808
 10
401.0497396594652
 20
225.828742532759
 10
400.8817209168366
 20
226.0560522380632
 10
400.6833342282742
 20
226.25740447123
 10
400.4585423678822
 20
226.4287772214018
 10
400.2118355530717
 20
226.5667473178941
 10
399.9481417524687
 20
226.6685588080292
 10
399.6727282497402
 20
226.7321780072919
 10
399.3910964296032
 20
226.7563341221768
 10
399.3614232484229
 20
226.7565542587175
  0
LWPOLYLINE
  5
5EE
330
6DD
100
AcDbEntity
  8
Layer_1
  6
Continuous
 62
     1
420
 16711680
100
AcDbPolyline
 90
       13
 70
   128
 43
0.0
 10
401.3614232480636
 20
224.7565542583583
 10
401.3414482480636
 20
224.4745950429167
 10
401.2819222486886
 20
224.1982679624516
 10
401.1840342817761
 20
223.9330926507543
 10
401.0497396594652
 20
223.6843659846761
 10
400.8817209168366
 20
223.4570562793719
 10
400.6833342282742
 20
223.2557040462051
 10
400.4585423678822
 20
223.0843312960332
 10
400.2118355530717
 20
222.946361199541
 10
399.9481417524687
 20
222.8445497094058
 10
399.6727282497402
 20
222.7809305101432
 10
399.3910964296032
 20
222.7567743952582
 10
399.3614232477046
 20
222.7565542587175
  0
LINE
  5
5FD
330
6DD
100
AcDbEntity
  8
Layer_1
  6
Continuous
 62
     1
420
 16711680
100
AcDbLine
 10
399.3614232487821
 20
228.7565542587175
 30
0.0
 11
333.3614232487821
 21
228.7565542705702
 31
0.0
  0
LWPOLYLINE
  5
5FE
330
6DD
100
AcDbEntity
  8
Layer_1
  6
Continuous
 62
     1
420
 16711680
100
AcDbPolyline
 90
       13
 70
   128
 43
0.0
 10
333.3614232487821
 20
228.7565542705702
 10
333.0794640330739
 20
228.7765292706082
 10
332.8031369526167
 20
228.8360552700204
 10
332.5379616409326
 20
228.9339432369686
 10
332.2892349748726
 20
229.068237859313
 10
332.061925269591
 20
229.2362566019722
 10
331.8605730364509
 20
229.4346432905617
 10
331.6892002863093
 20
229.6594351509769
 10
331.5512301898503
 20
229.9061419658059
 10
331.4494186997506
 20
230.1698357664226
 10
331.385799500525
 20
230.4452492691597
 10
331.3616433856781
 20
230.7268810892999
 10
331.3614232491414
 20
230.7565542709294
  0
LWPOLYLINE
  5
60D
330
6DD
100
AcDbEntity
  8
Layer_1
  6
Continuous
 62
     1
420
 16711680
100
AcDbPolyline
 90
       13
 70
   128
 43
0.0
 10
331.3614232491414
 20
230.7565542709294
 10
331.3813982491667
 20
231.0385134865488
 10
331.4409242485665
 20
231.3148405670086
 10
331.5388122155028
 20
231.5800158786971
 10
331.673106837836
 20
231.8287425447632
 10
331.841125580485
 20
232.0560522500523
 10
332.0395122690655
 20
232.2574044832013
 10
332.264304129473
 20
232.428777233353
 10
332.5110109442958
 20
232.5667473298231
 10
332.774704744908
 20
232.6685588199346
 10
333.0501182476422
 20
232.7321780191726
 10
333.3317500677813
 20
232.7563341340322
 10
333.3614232495001
 20
232.7565542705702
  0
LINE
  5
61C
330
6DD
100
AcDbEntity
  8
Layer_1
  6
Continuous
 62
     1
420
 16711680
100
AcDbLine
 10
333.3614232495001
 20
232.7565542705702
 30
0.0
 11
399.3614232495001
 21
232.7565542587175
 31
0.0
  0
LWPOLYLINE
  5
61D
330
6DD
100
AcDbEntity
  8
Layer_1
  6
Continuous
 62
     1
420
 16711680
100
AcDbPolyline
 90
       13
 70
   128
 43
0.0
 10
399.3614232495001
 20
232.7565542587175
 10
399.643382465031
 20
232.7365792587049
 10
399.9197095454936
 20
232.6770532593175
 10
400.1848848571864
 20
232.5791652923931
 10
400.4336115232585
 20
232.444870670071
 10
400.6609212285553
 20
232.2768519274322
 10
400.8622734617131
 20
232.0784652388608
 10
401.0336462118749
 20
231.853673378461
 10
401.1716163083561
 20
231.6069665636443
 10
401.2734277984794
 20
231.3432727630368
 10
401.3370469977297
 20
231.0678592603054
 10
401.361203112602
 20
230.7862274401674
 10
401.3614232491414
 20
230.7565542583583
  0
LWPOLYLINE
  5
62C
330
6DD
100
AcDbEntity
  8
Layer_1
  6
Continuous
 62
     1
420
 16711680
100
AcDbPolyline
 90
       13
 70
   128
 43
0.0
 10
401.3614232491414
 20
230.7565542583583
 10
401.3414482491414
 20
230.4745950429167
 10
401.2819222497664
 20
230.1982679624516
 10
401.1840342828539
 20
229.9330926507543
 10
401.049739660543
 20
229.6843659846761
 10
400.8817209179143
 20
229.4570562793719
 10
400.683334229352
 20
229.2557040462051
 10
400.4585423689599
 20
229.0843312960332
 10
400.2118355541494
 20
228.946361199541
 10
399.9481417535465
 20
228.8445497094058
 10
399.672728250818
 20
228.7809305101432
 10
399.391096430681
 20
228.7567743952582
 10
399.3614232487821
 20
228.7565542587175
  0
LWPOLYLINE
  5
63B
330
6DD
100
AcDbEntity
  8
Layer_1
  6
Continuous
 62
     1
420
 16711680
100
AcDbPolyline
 90
        2
 70
   128
 43
0.0
 10
473.8614232754505
 20
377.2565542435425
 10
473.8614232560776
 20
155.2565542753293
  0
LWPOLYLINE
  5
63F
330
6DD
100
AcDbEntity
  8
Layer_1
  6
Continuous
 62
     1
420
 16711680
100
AcDbPolyline
 90
        2
 70
   128
 43
0.0
 10
119.861423239611
 20
155.2565542753293
 10
119.8614232754505
 20
377.2565543071161
  0
CIRCLE
  5
643
330
6DD
100
AcDbEntity
  8
Layer_1
  6
Continuous
 62
     1
420
 16711680
100
AcDbCircle
 10
134.8614232602758
 20
272.2565543044223
 30
0.0
 40
1.5
  0
LINE
  5
644
330
6DD
100
AcDbEntity
  8
Layer_1
  6
Continuous
 62
     1
420
 16711680
100
AcDbLine
 10
119.8614232754505
 20
377.2565543071161
 30
0.0
 11
473.8614232754505
 21
377.2565542435425
 31
0.0
  0
CIRCLE
  5
645
330
6DD
100
AcDbEntity
  8
Layer_1
  6
Continuous
 62
     1
420
 16711680
100
AcDbCircle
 10
358.3614232727743
 20
97.00206252229711
 30
0.0
 40
1.5
  0
CIRCLE
  5
646
330
6DD
100
AcDbEntity
  8
Layer_1
  6
Continuous
 62
     1
420
 16711680
100
AcDbCircle
 10
383.8614232750192
 20
102.0020625108485
 30
0.0
 40
13.0
  0
LWPOLYLINE
  5
647
330
6DD
100
AcDbEntity
  8
Layer_1
  6
Continuous
 62
     1
420
 16711680
100
AcDbPolyline
 90
        5
 70
   129
 43
0.0
 10
371.8614232833247
 20
120.5020625162362
 10
395.3614232833247
 20
120.5020625056855
 10
395.3614232846717
 20
123.5020625056855
 10
371.8614232846717
 20
123.5020625162362
 10
371.8614232833247
 20
120.5020625162362
  0
LWPOLYLINE
  5
64E
330
6DD
100
AcDbEntity
  8
Layer_1
  6
Continuous
 62
     1
420
 16711680
100
AcDbPolyline
 90
        5
 70
   129
 43
0.0
 10
371.8614232619991
 20
73.00206251623624
 10
395.3614232619991
 20
73.00206250568547
 10
395.3614232606519
 20
70.0020625056855
 10
371.8614232606519
 20
70.00206251623626
 10
371.8614232619991
 20
73.00206251623624
  0
LWPOLYLINE
  5
655
330
6DD
100
AcDbEntity
  8
Layer_1
  6
Continuous
 62
     1
420
 16711680
100
AcDbPolyline
 90
        5
 70
   129
 43
0.0
 10
427.8614232833247
 20
120.502062491094
 10
451.3614232833247
 20
120.5020624805432
 10
451.3614232846717
 20
123.5020624805432
 10
427.8614232846717
 20
123.502062491094
 10
427.8614232833247
 20
120.502062491094
  0
LWPOLYLINE
  5
65C
330
6DD
100
AcDbEntity
  8
Layer_1
  6
Continuous
 62
     1
420
 16711680
100
AcDbPolyline
 90
        5
 70
   129
 43
0.0
 10
427.8614232619991
 20
73.00206249109397
 10
451.3614232619991
 20
73.0020624805432
 10
451.3614232606519
 20
70.00206248054323
 10
427.8614232606519
 20
70.002062491094
 10
427.8614232619991
 20
73.00206249109397
  0
LWPOLYLINE
  5
663
330
6DD
100
AcDbEntity
  8
Layer_1
  6
Continuous
 62
     1
420
 16711680
100
AcDbPolyline
 90
        7
 70
   129
 43
0.0
 10
450.8014668658502
 20
141.0020624807946
 10
452.3314450802995
 20
143.6520624800393
 10
455.391401506899
 20
143.6520624788027
 10
456.9213797192074
 20
141.0020624783219
 10
455.3914015049959
 20
138.3520624789403
 10
452.3314450783964
 20
138.3520624799018
 10
450.8014668658502
 20
141.0020624807946
  0
LWPOLYLINE
  5
66C
330
6DD
100
AcDbEntity
  8
Layer_1
  6
Continuous
 62
     1
420
 16711680
100
AcDbPolyline
 90
        7
 70
   129
 43
0.0
 10
450.8014668319531
 20
65.50206248079462
 10
452.3314450464027
 20
68.1520624800393
 10
455.3914014730021
 20
68.15206247880272
 10
456.9213796853103
 20
65.50206247832189
 10
455.391401471099
 20
62.85206247894033
 10
452.3314450444996
 20
62.85206247990179
 10
450.8014668319531
 20
65.50206248079462
  0
LWPOLYLINE
  5
675
330
6DD
100
AcDbEntity
  8
Layer_1
  6
Continuous
 62
     1
420
 16711680
100
AcDbPolyline
 90
        2
 70
   128
 43
0.0
 10
468.8614232545913
 20
56.50206247268645
 10
468.861423264244
 20
78.00206247268642
  0
LINE
  5
679
330
6DD
100
AcDbEntity
  8
Layer_1
  6
Continuous
 62
     1
420
 16711680
100
AcDbLine
 10
468.8614232545913
 20
56.50206247268645
 30
0.0
 11
418.8614232545913
 21
56.50206249513474
 31
0.0
  0
LWPOLYLINE
  5
67A
330
6DD
100
AcDbEntity
  8
Layer_1
  6
Continuous
 62
     1
420
 16711680
100
AcDbPolyline
 90
        4
 70
   128
 43
0.0
 10
468.8614232911814
 20
138.0020624726864
 10
471.8614232911814
 20
138.0020624713397
 10
471.861423264244
 20
78.00206247133966
 10
468.861423264244
 20
78.00206247268642
  0
LWPOLYLINE
  5
680
330
6DD
100
AcDbEntity
  8
Layer_1
  6
Continuous
 62
     1
420
 16711680
100
AcDbPolyline
 90
        2
 70
   128
 43
0.0
 10
468.8614232911814
 20
138.0020624726864
 10
468.8614232967384
 20
150.3793083032062
  0
LWPOLYLINE
  5
684
330
6DD
100
AcDbEntity
  8
Layer_1
  6
Continuous
 62
     1
420
 16711680
100
AcDbPolyline
 90
        4
 70
   128
 43
0.0
 10
372.8614232545913
 20
56.5020625157871
 10
372.8614232534687
 20
54.0020625157871
 10
418.8614232534687
 20
54.00206249513474
 10
418.8614232545913
 20
56.50206249513474
  0
LINE
  5
68A
330
6DD
100
AcDbEntity
  8
Layer_1
  6
Continuous
 62
     1
420
 16711680
100
AcDbLine
 10
372.8614232545913
 20
56.5020625157871
 30
0.0
 11
318.8614232545913
 21
56.50206254003128
 31
0.0
  0
LINE
  5
68B
330
6DD
100
AcDbEntity
  8
Layer_1
  6
Continuous
 62
     1
420
 16711680
100
AcDbLine
 10
295.8614232967384
 20
150.3793083812364
 30
0.0
 11
295.8614232534687
 21
54.00206255035738
 31
0.0
  0
LWPOLYLINE
  5
68C
330
6DD
100
AcDbEntity
  8
Layer_1
  6
Continuous
 62
     1
420
 16711680
100
AcDbPolyline
 90
        3
 70
   128
 43
0.0
 10
295.8614232534687
 20
54.00206255035738
 10
318.8614232534687
 20
54.00206254003128
 10
318.8614232545913
 20
56.50206254003128
  0
CIRCLE
  5
691
330
6DD
100
AcDbEntity
  8
Layer_1
  6
Continuous
 62
     1
420
 16711680
100
AcDbCircle
 10
207.8614232317486
 20
102.0020625125545
 30
0.0
 40
13.0
  0
LWPOLYLINE
  5
692
330
6DD
100
AcDbEntity
  8
Layer_1
  6
Continuous
 62
     1
420
 16711680
100
AcDbPolyline
 90
        7
 70
   129
 43
0.0
 10
134.8014667886828
 20
65.50206254535605
 10
136.3314450031332
 20
68.15206254460028
 10
139.3914014297322
 20
68.15206254336412
 10
140.9213796420399
 20
65.50206254288307
 10
139.3914014278284
 20
62.8520625435015
 10
136.331445001229
 20
62.852062544463
 10
134.8014667886828
 20
65.50206254535605
  0
LWPOLYLINE
  5
69B
330
6DD
100
AcDbEntity
  8
Layer_1
  6
Continuous
 62
     1
420
 16711680
100
AcDbPolyline
 90
        7
 70
   129
 43
0.0
 10
134.8014668225796
 20
141.0020625453561
 10
136.3314450370301
 20
143.6520625446003
 10
139.3914014636291
 20
143.6520625433641
 10
140.9213796759368
 20
141.0020625428831
 10
139.3914014617255
 20
138.3520625435015
 10
136.3314450351261
 20
138.352062544463
 10
134.8014668225796
 20
141.0020625453561
  0
LWPOLYLINE
  5
6A4
330
6DD
100
AcDbEntity
  8
Layer_1
  6
Continuous
 62
     1
420
 16711680
100
AcDbPolyline
 90
        2
 70
   128
 43
0.0
 10
122.8614232534683
 20
150.3793083812364
 10
122.8614232479117
 20
138.0020625507168
  0
LINE
  5
6A8
330
6DD
100
AcDbEntity
  8
Layer_1
  6
Continuous
 62
     1
420
 16711680
100
AcDbLine
 10
122.8614232479117
 20
138.0020625507168
 30
0.0
 11
119.8614232479117
 21
138.0020625520636
 31
0.0
  0
LINE
  5
6A9
330
6DD
100
AcDbEntity
  8
Layer_1
  6
Continuous
 62
     1
420
 16711680
100
AcDbLine
 10
122.8614232209738
 20
78.00206255071683
 30
0.0
 11
119.8614232209738
 21
78.00206255206359
 31
0.0
  0
LWPOLYLINE
  5
6AA
330
6DD
100
AcDbEntity
  8
Layer_1
  6
Continuous
 62
     1
420
 16711680
100
AcDbPolyline
 90
        2
 70
   128
 43
0.0
 10
122.8614232209738
 20
78.00206255071683
 10
122.8614232113209
 20
56.50206255071683
  0
LINE
  5
6AE
330
6DD
100
AcDbEntity
  8
Layer_1
  6
Continuous
 62
     1
420
 16711680
100
AcDbLine
 10
119.8614232479117
 20
138.0020625520636
 30
0.0
 11
119.8614232209738
 21
78.00206255206359
 31
0.0
  0
LWPOLYLINE
  5
6AF
330
6DD
100
AcDbEntity
  8
Layer_1
  6
Continuous
 62
     1
420
 16711680
100
AcDbPolyline
 90
        4
 70
   128
 43
0.0
 10
218.8614232113209
 20
56.50206250761595
 10
218.8614232101986
 20
54.00206250761595
 10
172.8614232101986
 20
54.00206252826831
 10
172.8614232113209
 20
56.50206252826831
  0
LINE
  5
6B5
330
6DD
100
AcDbEntity
  8
Layer_1
  6
Continuous
 62
     1
420
 16711680
100
AcDbLine
 10
272.8614232113209
 20
56.50206248337174
 30
0.0
 11
218.8614232113209
 21
56.50206250761595
 31
0.0
  0
LINE
  5
6B6
330
6DD
100
AcDbEntity
  8
Layer_1
  6
Continuous
 62
     1
420
 16711680
100
AcDbLine
 10
172.8614232113209
 20
56.50206252826831
 30
0.0
 11
122.8614232113209
 21
56.50206255071683
 31
0.0
  0
LWPOLYLINE
  5
6B7
330
6DD
100
AcDbEntity
  8
Layer_1
  6
Continuous
 62
     1
420
 16711680
100
AcDbPolyline
 90
        3
 70
   128
 43
0.0
 10
272.8614232113209
 20
56.50206248337174
 10
272.8614232101986
 20
54.00206248337174
 10
295.8614232101986
 20
54.00206247304544
  0
LINE
  5
6BC
330
6DD
100
AcDbEntity
  8
Layer_1
  6
Continuous
 62
     1
420
 16711680
100
AcDbLine
 10
122.8614232534683
 20
150.3793083812364
 30
0.0
 11
468.8614232967384
 21
150.3793083032062
 31
0.0
  0
LINE
  5
6BD
330
6DD
100
AcDbEntity
  8
Layer_1
  6
Continuous
 62
     1
420
 16711680
100
AcDbLine
 10
119.861423239611
 20
155.2565542753293
 30
0.0
 11
473.8614232560776
 21
155.2565542753293
 31
0.0
  0
CIRCLE
  5
6BE
330
6DD
100
AcDbEntity
  8
Layer_1
  6
Continuous
 62
     1
420
 16711680
100
AcDbCircle
 10
279.8614232791497
 20
120.5020625252156
 30
0.0
 40
1.499999999999773
  0
CIRCLE
  5
6BF
330
6DD
100
AcDbEntity
  8
Layer_1
  6
Continuous
 62
     1
420
 16711680
100
AcDbCircle
 10
311.8614232791497
 20
120.5020625216239
 30
0.0
 40
1.499999999999773
  0
VIEWPORT
  5
7A7
330
6D9
100
AcDbEntity
 67
     1
  8
0
100
AcDbViewport
 10
5.25
 20
4.0
 30
0.0
 40
11.638
 41
8.993
 68
     1
 69
     1
 12
5.25
 22
4.0
 13
0.0
 23
0.0
 14
0.5
 24
0.5
 15
0.5
 25
0.5
 16
0.0
 26
0.0
 36
1.0
 17
0.0
 27
0.0
 37
0.0
 42
50.0
 43
0.0
 44
0.0
 45
8.993
 50
0.0
 51
0.0
 72
   100
 90
   557152
  1

281
     0
 71
     1
 74
     0
110
0.0
120
0.0
130
0.0
111
1.0
121
0.0
131
0.0
112
0.0
122
1.0
132
0.0
 79
     0
146
0.0
170
     0
 61
     5
348
6ED
292
     1
282
     1
141
0.0
142
0.0
 63
   256
361
7A8
  0
ENDSEC
  0
SECTION
  2
OBJECTS
  0
DICTIONARY
  5
6CB
330
0
100
AcDbDictionary
281
     1
  3
ACAD_DETAILVIEWSTYLE
350
7B0
  3
ACAD_GROUP
350
6CC
  3
ACAD_LAYOUT
350
6D8
  3
ACAD_MATERIAL
350
701
  3
ACAD_MLEADERSTYLE
350
729
  3
ACAD_MLINESTYLE
350
6D5
  3
ACAD_PLOTSETTINGS
350
6D7
  3
ACAD_PLOTSTYLENAME
350
6CD
  3
ACAD_SCALELIST
350
705
  3
ACAD_SECTIONVIEWSTYLE
350
7B1
  3
ACAD_TABLESTYLE
350
727
  3
ACAD_VISUALSTYLE
350
6E8
  3
ACDB_RECOMPOSE_DATA
350
7AD
  3
AcDbVariableDictionary
350
7A9
  3
QCAD_OBJECTS
350
72D
  0
SUN
  5
72B
330
6E7
100
AcDbSun
 90
        1
290
     0
 63
     7
421
 16777215
 40
1.0
291
     1
 91
  2455826
 92
 54000000
292
     0
 70
     2
 71
   256
280
     1
  0
SUN
  5
7A8
330
7A7
100
AcDbSun
 90
        1
290
     0
 63
     7
421
 16777215
 40
1.0
291
     1
 91
  2455826
 92
 54000000
292
     0
 70
     2
 71
   256
280
     1
  0
DICTIONARY
  5
7B0
102
{ACAD_REACTORS
330
6CB
102
}
330
6CB
100
AcDbDictionary
281
     1
  0
DICTIONARY
  5
6CC
102
{ACAD_REACTORS
330
6CB
102
}
330
6CB
100
AcDbDictionary
281
     1
  0
DICTIONARY
  5
6D8
102
{ACAD_REACTORS
330
6CB
102
}
330
6CB
100
AcDbDictionary
281
     1
  3
Layout1
350
6DC
  3
Model
350
6E0
  0
DICTIONARY
  5
701
102
{ACAD_REACTORS
330
6CB
102
}
330
6CB
100
AcDbDictionary
281
     1
  3
ByBlock
350
703
  3
ByLayer
350
702
  3
Global
350
704
  0
DICTIONARY
  5
729
102
{ACAD_REACTORS
330
6CB
102
}
330
6CB
100
AcDbDictionary
281
     1
  3
Standard
350
72A
  0
DICTIONARY
  5
6D5
102
{ACAD_REACTORS
330
6CB
102
}
330
6CB
100
AcDbDictionary
281
     1
  3
Standard
350
6D6
  0
DICTIONARY
  5
6D7
102
{ACAD_REACTORS
330
6CB
102
}
330
6CB
100
AcDbDictionary
281
     1
  0
ACDBDICTIONARYWDFLT
  5
6CD
102
{ACAD_REACTORS
330
6CB
102
}
330
6CB
100
AcDbDictionary
281
     1
  3
Normal
350
6CE
100
AcDbDictionaryWithDefault
340
6CE
  0
DICTIONARY
  5
705
102
{ACAD_REACTORS
330
6CB
102
}
330
6CB
100
AcDbDictionary
281
     1
  3
A0
350
706
  3
A1
350
707
  3
A2
350
708
  3
A3
350
709
  3
A4
350
70A
  3
A5
350
70B
  3
A6
350
70C
  3
A7
350
70D
  3
A8
350
70E
  3
A9
350
70F
  3
B0
350
710
  3
B1
350
711
  3
B2
350
712
  3
B3
350
713
  3
B4
350
714
  3
B5
350
715
  3
B6
350
716
  3
B7
350
717
  3
B8
350
718
  3
B9
350
719
  3
C0
350
71A
  3
C1
350
71B
  3
C2
350
71C
  3
C3
350
71D
  3
C4
350
71E
  3
C5
350
71F
  3
C6
350
720
  3
C7
350
721
  3
C8
350
722
  3
C9
350
723
  3
D0
350
724
  3
D1
350
725
  3
D2
350
726
  0
DICTIONARY
  5
7B1
102
{ACAD_REACTORS
330
6CB
102
}
330
6CB
100
AcDbDictionary
281
     1
  0
DICTIONARY
  5
727
102
{ACAD_REACTORS
330
6CB
102
}
330
6CB
100
AcDbDictionary
281
     1
  3
Standard
350
728
  0
DICTIONARY
  5
6E8
102
{ACAD_REACTORS
330
6CB
102
}
330
6CB
100
AcDbDictionary
281
     1
  3
2dWireframe
350
6ED
  3
Basic
350
6F0
  3
Brighten
350
6F4
  3
ColorChange
350
6F8
  3
Conceptual
350
6F2
  3
Dim
350
6F3
  3
EdgeColorOff
350
6FB
  3
Facepattern
350
6F7
  3
Flat
350
6E9
  3
FlatWithEdges
350
6EA
  3
Gouraud
350
6EB
  3
GouraudWithEdges
350
6EC
  3
Hidden
350
6EF
  3
JitterOff
350
6F9
  3
Linepattern
350
6F6
  3
OverhangOff
350
6FA
  3
Realistic
350
6F1
  3
Shaded
350
700
  3
Shaded with edges
350
6FF
  3
Shades of Gray
350
6FC
  3
Sketchy
350
6FD
  3
Thicken
350
6F5
  3
Wireframe
350
6EE
  3
X-Ray
350
6FE
  0
XRECORD
  5
7AD
102
{ACAD_REACTORS
330
6CB
102
}
330
6CB
100
AcDbXrecord
280
     1
 90
        1
330
728
  0
DICTIONARY
  5
7A9
102
{ACAD_REACTORS
330
6CB
102
}
330
6CB
100
AcDbDictionary
281
     1
  3
CANNOSCALE
350
7AA
  3
CMLEADERSTYLE
350
7AF
  3
CTABLESTYLE
350
7AE
  0
DICTIONARY
  5
72D
102
{ACAD_REACTORS
330
6CB
102
}
330
6CB
100
AcDbDictionary
281
     1
  3
ColorSettings/BackgroundColor
350
72F
  3
ColorSettings/ColorMode
350
730
  3
Grid/DisplayGrid00
350
731
  3
Grid/DisplayGrid01
350
732
  3
Grid/DisplayGrid02
350
733
  3
Grid/DisplayGrid03
350
734
  3
Grid/GridSpacingX00
350
735
  3
Grid/GridSpacingX01
350
736
  3
Grid/GridSpacingX02
350
737
  3
Grid/GridSpacingX03
350
738
  3
Grid/GridSpacingY00
350
739
  3
Grid/GridSpacingY01
350
73A
  3
Grid/GridSpacingY02
350
73B
  3
Grid/GridSpacingY03
350
73C
  3
Grid/IsometricGrid00
350
73D
  3
Grid/IsometricGrid01
350
73E
  3
Grid/IsometricGrid02
350
73F
  3
Grid/IsometricGrid03
350
740
  3
Grid/IsometricProjection00
350
741
  3
Grid/IsometricProjection01
350
742
  3
Grid/IsometricProjection02
350
743
  3
Grid/IsometricProjection03
350
744
  3
Grid/MetaGridSpacingX00
350
745
  3
Grid/MetaGridSpacingX01
350
746
  3
Grid/MetaGridSpacingX02
350
747
  3
Grid/MetaGridSpacingX03
350
748
  3
Grid/MetaGridSpacingY00
350
749
  3
Grid/MetaGridSpacingY01
350
74A
  3
Grid/MetaGridSpacingY02
350
74B
  3
Grid/MetaGridSpacingY03
350
74C
  3
MultiPageSettings/Columns
350
74D
  3
MultiPageSettings/GlueMarginsBottom
350
74E
  3
MultiPageSettings/GlueMarginsLeft
350
74F
  3
MultiPageSettings/GlueMarginsRight
350
750
  3
MultiPageSettings/GlueMarginsTop
350
751
  3
MultiPageSettings/PrintCropMarks
350
752
  3
MultiPageSettings/Rows
350
753
  3
PageSettings/OffsetX
350
754
  3
PageSettings/OffsetY
350
755
  3
PageSettings/PageOrientation
350
756
  3
PageSettings/PaperHeight
350
757
  3
PageSettings/PaperWidth
350
758
  3
PageSettings/Scale
350
759
  3
PageSettings/ShowPaperBorders
350
75A
  3
PageTagSettings/EnablePageTags
350
75B
  3
PageTagSettings/TagAlignment
350
75C
  3
PageTagSettings/TagFont
350
75D
  3
PageTagSettings/TagPosition
350
75E
  3
QCADVersion
350
75F
  3
UnitSettings/PaperUnit
350
760
  3
ViewportCenter
350
761
  3
ViewportHeight
350
762
  3
ViewportWidth
350
763
  0
LAYOUT
  5
6DC
102
{ACAD_REACTORS
330
6D8
102
}
330
6D8
100
AcDbPlotSettings
  1

  2
none_device
  4
Letter_(8.50_x_11.00_Inches)
  6

 40
6.35
 41
6.35
 42
6.35001
 43
6.35001
 44
215.9
 45
279.4
 46
0.0
 47
0.0
 48
0.0
 49
0.0
140
0.0
141
0.0
142
1.0
143
1.0
 70
   688
 72
     0
 73
     1
 74
     5
  7

 75
    16
 76
     0
 77
     2
 78
   300
147
1.0
148
0.0
149
0.0
100
AcDbLayout
  1
Layout1
 70
     1
 71
     1
 10
-0.25
 20
-0.25
 11
10.75
 21
8.25
 12
0.0
 22
0.0
 32
0.0
 14
1.000000000000000E+20
 24
1.000000000000000E+20
 34
1.000000000000000E+20
 15
-1.000000000000000E+20
 25
-1.000000000000000E+20
 35
-1.000000000000000E+20
146
0.0
 13
0.0
 23
0.0
 33
0.0
 16
1.0
 26
0.0
 36
0.0
 17
0.0
 27
1.0
 37
0.0
 76
     0
330
6D9
331
7A7
  0
LAYOUT
  5
6E0
102
{ACAD_REACTORS
330
6D8
102
}
330
6D8
100
AcDbPlotSettings
  1

  2
none_device
  4
Letter_(8.50_x_11.00_Inches)
  6

 40
6.35
 41
6.35
 42
6.35000508
 43
6.35000508
 44
215.9
 45
279.4
 46
0.0
 47
0.0
 48
0.0
 49
0.0
140
0.0
141
0.0
142
1.0
143
1.0
 70
  1712
 72
     0
 73
     0
 74
     0
  7

 75
     0
 76
     0
 77
     2
 78
   300
147
1.0
148
0.0
149
0.0
100
AcDbLayout
  1
Model
 70
     1
 71
     0
 10
0.0
 20
0.0
 11
594.0
 21
420.0
 12
0.0
 22
0.0
 32
0.0
 14
119.8614232209738
 24
54.00206247304544
 34
0.0
 15
473.8614232754505
 25
377.2565543071161
 35
0.0
146
0.0
 13
0.0
 23
0.0
 33
0.0
 16
1.0
 26
0.0
 36
0.0
 17
0.0
 27
1.0
 37
0.0
 76
     0
330
6DD
331
6E7
  0
MATERIAL
  5
703
102
{ACAD_REACTORS
330
701
102
}
330
701
100
AcDbMaterial
  1
ByBlock
 72
     1
 94
      127
  0
MATERIAL
  5
702
102
{ACAD_REACTORS
330
701
102
}
330
701
100
AcDbMaterial
  1
ByLayer
 72
     1
 94
      127
  0
MATERIAL
  5
704
102
{ACAD_REACTORS
330
701
102
}
330
701
100
AcDbMaterial
  1
Global
 72
     1
 94
      127
  0
MLEADERSTYLE
  5
72A
102
{ACAD_REACTORS
330
729
102
}
330
729
100
AcDbMLeaderStyle
179
     2
170
     2
171
     1
172
     0
 90
        2
 40
0.0
 41
0.0
173
     1
 91
-1056964608
340
6D2
 92
       -2
290
     1
 42
0.09
291
     1
 43
0.36
  3
Standard
341
0
 44
0.18
300

342
6D0
174
     1
178
     6
175
     1
176
     0
 93
-1056964608
 45
0.18
292
     0
297
     0
 46
0.18
343
0
 94
-1056964608
 47
1.0
 49
1.0
140
1.0
293
     1
141
0.0
294
     1
177
     0
142
1.0
295
     0
296
     0
143
0.125
271
     0
272
     9
273
     9
298
     0
  0
MLINESTYLE
  5
6D6
102
{ACAD_REACTORS
330
6D5
102
}
330
6D5
100
AcDbMlineStyle
  2
Standard
 70
     0
  3

 62
   256
 51
90.0
 52
90.0
 71
     2
 49
0.5
 62
   256
  6
BYLAYER
 49
-0.5
 62
   256
  6
BYLAYER
  0
ACDBPLACEHOLDER
  5
6CE
102
{ACAD_REACTORS
330
6CD
102
}
330
6CD
  0
SCALE
  5
706
102
{ACAD_REACTORS
330
705
102
}
330
705
100
AcDbScale
 70
     0
300
1:1
140
1.0
141
1.0
290
     1
  0
SCALE
  5
707
102
{ACAD_REACTORS
330
705
102
}
330
705
100
AcDbScale
 70
     0
300
1:2
140
1.0
141
2.0
290
     0
  0
SCALE
  5
708
102
{ACAD_REACTORS
330
705
102
}
330
705
100
AcDbScale
 70
     0
300
1:4
140
1.0
141
4.0
290
     0
  0
SCALE
  5
709
102
{ACAD_REACTORS
330
705
102
}
330
705
100
AcDbScale
 70
     0
300
1:5
140
1.0
141
5.0
290
     0
  0
SCALE
  5
70A
102
{ACAD_REACTORS
330
705
102
}
330
705
100
AcDbScale
 70
     0
300
1:8
140
1.0
141
8.0
290
     0
  0
SCALE
  5
70B
102
{ACAD_REACTORS
330
705
102
}
330
705
100
AcDbScale
 70
     0
300
1:10
140
1.0
141
10.0
290
     0
  0
SCALE
  5
70C
102
{ACAD_REACTORS
330
705
102
}
330
705
100
AcDbScale
 70
     0
300
1:16
140
1.0
141
16.0
290
     0
  0
SCALE
  5
70D
102
{ACAD_REACTORS
330
705
102
}
330
705
100
AcDbScale
 70
     0
300
1:20
140
1.0
141
20.0
290
     0
  0
SCALE
  5
70E
102
{ACAD_REACTORS
330
705
102
}
330
705
100
AcDbScale
 70
     0
300
1:30
140
1.0
141
30.0
290
     0
  0
SCALE
  5
70F
102
{ACAD_REACTORS
330
705
102
}
330
705
100
AcDbScale
 70
     0
300
1:40
140
1.0
141
40.0
290
     0
  0
SCALE
  5
710
102
{ACAD_REACTORS
330
705
102
}
330
705
100
AcDbScale
 70
     0
300
1:50
140
1.0
141
50.0
290
     0
  0
SCALE
  5
711
102
{ACAD_REACTORS
330
705
102
}
330
705
100
AcDbScale
 70
     0
300
1:100
140
1.0
141
100.0
290
     0
  0
SCALE
  5
712
102
{ACAD_REACTORS
330
705
102
}
330
705
100
AcDbScale
 70
     0
300
2:1
140
2.0
141
1.0
290
     0
  0
SCALE
  5
713
102
{ACAD_REACTORS
330
705
102
}
330
705
100
AcDbScale
 70
     0
300
4:1
140
4.0
141
1.0
290
     0
  0
SCALE
  5
714
102
{ACAD_REACTORS
330
705
102
}
330
705
100
AcDbScale
 70
     0
300
8:1
140
8.0
141
1.0
290
     0
  0
SCALE
  5
715
102
{ACAD_REACTORS
330
705
102
}
330
705
100
AcDbScale
 70
     0
300
10:1
140
10.0
141
1.0
290
     0
  0
SCALE
  5
716
102
{ACAD_REACTORS
330
705
102
}
330
705
100
AcDbScale
 70
     0
300
100:1
140
100.0
141
1.0
290
     0
  0
SCALE
  5
717
102
{ACAD_REACTORS
330
705
102
}
330
705
100
AcDbScale
 70
     0
300
1/128" = 1'-0"
140
0.0078125
141
12.0
290
     0
  0
SCALE
  5
718
102
{ACAD_REACTORS
330
705
102
}
330
705
100
AcDbScale
 70
     0
300
1/64" = 1'-0"
140
0.015625
141
12.0
290
     0
  0
SCALE
  5
719
102
{ACAD_REACTORS
330
705
102
}
330
705
100
AcDbScale
 70
     0
300
1/32" = 1'-0"
140
0.03125
141
12.0
290
     0
  0
SCALE
  5
71A
102
{ACAD_REACTORS
330
705
102
}
330
705
100
AcDbScale
 70
     0
300
1/16" = 1'-0"
140
0.0625
141
12.0
290
     0
  0
SCALE
  5
71B
102
{ACAD_REACTORS
330
705
102
}
330
705
100
AcDbScale
 70
     0
300
3/32" = 1'-0"
140
0.09375
141
12.0
290
     0
  0
SCALE
  5
71C
102
{ACAD_REACTORS
330
705
102
}
330
705
100
AcDbScale
 70
     0
300
1/8" = 1'-0"
140
0.125
141
12.0
290
     0
  0
SCALE
  5
71D
102
{ACAD_REACTORS
330
705
102
}
330
705
100
AcDbScale
 70
     0
300
3/16" = 1'-0"
140
0.1875
141
12.0
290
     0
  0
SCALE
  5
71E
102
{ACAD_REACTORS
330
705
102
}
330
705
100
AcDbScale
 70
     0
300
1/4" = 1'-0"
140
0.25
141
12.0
290
     0
  0
SCALE
  5
71F
102
{ACAD_REACTORS
330
705
102
}
330
705
100
AcDbScale
 70
     0
300
3/8" = 1'-0"
140
0.375
141
12.0
290
     0
  0
SCALE
  5
720
102
{ACAD_REACTORS
330
705
102
}
330
705
100
AcDbScale
 70
     0
300
1/2" = 1'-0"
140
0.5
141
12.0
290
     0
  0
SCALE
  5
721
102
{ACAD_REACTORS
330
705
102
}
330
705
100
AcDbScale
 70
     0
300
3/4" = 1'-0"
140
0.75
141
12.0
290
     0
  0
SCALE
  5
722
102
{ACAD_REACTORS
330
705
102
}
330
705
100
AcDbScale
 70
     0
300
1" = 1'-0"
140
1.0
141
12.0
290
     0
  0
SCALE
  5
723
102
{ACAD_REACTORS
330
705
102
}
330
705
100
AcDbScale
 70
     0
300
1-1/2" = 1'-0"
140
1.5
141
12.0
290
     0
  0
SCALE
  5
724
102
{ACAD_REACTORS
330
705
102
}
330
705
100
AcDbScale
 70
     0
300
3" = 1'-0"
140
3.0
141
12.0
290
     0
  0
SCALE
  5
725
102
{ACAD_REACTORS
330
705
102
}
330
705
100
AcDbScale
 70
     0
300
6" = 1'-0"
140
6.0
141
12.0
290
     0
  0
SCALE
  5
726
102
{ACAD_REACTORS
330
705
102
}
330
705
100
AcDbScale
 70
     0
300
1'-0" = 1'-0"
140
12.0
141
12.0
290
     0
  0
TABLESTYLE
  5
728
102
{ACAD_REACTORS
330
727
102
}
102
{ACAD_XDICTIONARY
360
7AB
102
}
330
727
100
AcDbTableStyle
  3
Standard
 70
     0
 71
     0
 40
0.06
 41
0.06
280
     0
281
     0
  7
Standard
140
0.18
170
     2
 62
     0
 63
   257
283
     0
 90
        4
 91
        0
  1

274
    -2
284
     1
 64
     0
275
    -2
285
     1
 65
     0
276
    -2
286
     1
 66
     0
277
    -2
287
     1
 67
     0
278
    -2
288
     1
 68
     0
279
    -2
289
     1
 69
     0
  7
Standard
140
0.25
170
     5
 62
     0
 63
   257
283
     0
 90
        4
 91
        0
  1

274
    -2
284
     1
 64
     0
275
    -2
285
     1
 65
     0
276
    -2
286
     1
 66
     0
277
    -2
287
     1
 67
     0
278
    -2
288
     1
 68
     0
279
    -2
289
     1
 69
     0
  7
Standard
140
0.18
170
     5
 62
     0
 63
   257
283
     0
 90
        4
 91
        0
  1

274
    -2
284
     1
 64
     0
275
    -2
285
     1
 65
     0
276
    -2
286
     1
 66
     0
277
    -2
287
     1
 67
     0
278
    -2
288
     1
 68
     0
279
    -2
289
     1
 69
     0
  0
VISUALSTYLE
  5
6ED
102
{ACAD_REACTORS
330
6E8
102
}
330
6E8
100
AcDbVisualStyle
  2
2dWireframe
 70
     4
177
     3
291
     0
 70
    58
 90
        0
176
     1
 90
        2
176
     1
 90
        0
176
     1
 90
        0
176
     1
 40
0.6
176
     1
 40
30.0
176
     1
 62
     7
420
 16777215
176
     1
 90
        1
176
     1
 90
        4
176
     1
 62
     7
176
     1
 62
   257
176
     1
 90
        1
176
     1
 90
        1
176
     1
 40
1.0
176
     1
 90
        0
176
     1
 62
   257
176
     1
 40
1.0
176
     1
 90
        1
176
     1
 90
        6
176
     1
 90
        2
176
     1
 62
     7
176
     1
 90
        5
176
     1
 90
        0
176
     1
 90
        0
176
     1
290
     0
176
     1
 90
        1
176
     1
 40
0.0
176
     1
 90
        0
176
     1
290
     1
176
     1
290
     1
176
     1
290
     0
176
     1
290
     0
176
     1
290
     0
176
     1
290
     0
176
     1
290
     0
176
     1
290
     0
176
     1
290
     0
176
     1
 90
       50
176
     1
 40
0.0
176
     1
 40
1.0
176
     1
 90
        0
176
     1
 62
    18
420
        0
176
     1
 90
       50
176
     1
 90
        3
176
     1
 62
     5
420
      255
176
     1
290
     0
176
     1
 90
       50
176
     1
 90
       50
176
     1
 90
       50
176
     1
290
     0
176
     1
 90
       50
176
     1
 62
   256
176
     0
 40
1.0
176
     0
 90
        2
176
     1
  1
strokes_ogs.tif
176
     1
290
     0
176
     1
 40
1.0
176
     1
 40
1.0
176
     1
  0
VISUALSTYLE
  5
6F0
102
{ACAD_REACTORS
330
6E8
102
}
330
6E8
100
AcDbVisualStyle
  2
Basic
 70
     7
177
     3
291
     1
 70
    58
 90
        1
176
     1
 90
        0
176
     1
 90
        1
176
     1
 90
        0
176
     1
 40
0.6
176
     1
 40
30.0
176
     1
 62
     7
420
 16777215
176
     1
 90
        0
176
     1
 90
        4
176
     1
 62
     7
176
     1
 62
   257
176
     1
 90
        1
176
     1
 90
        1
176
     1
 40
1.0
176
     1
 90
        8
176
     1
 62
     7
176
     1
 40
1.0
176
     1
 90
        1
176
     1
 90
        6
176
     1
 90
        2
176
     1
 62
     7
176
     1
 90
        5
176
     1
 90
        0
176
     1
 90
        0
176
     1
290
     0
176
     1
 90
        1
176
     1
 40
0.0
176
     1
 90
        0
176
     1
290
     0
176
     1
290
     1
176
     1
290
     1
176
     1
290
     0
176
     1
290
     0
176
     1
290
     0
176
     1
290
     0
176
     1
290
     0
176
     1
290
     0
176
     1
 90
       50
176
     1
 40
0.0
176
     1
 40
1.0
176
     1
 90
        0
176
     1
 62
    18
420
        0
176
     1
 90
       50
176
     1
 90
        3
176
     1
 62
     5
420
      255
176
     1
290
     0
176
     1
 90
       50
176
     1
 90
       50
176
     1
 90
       50
176
     1
290
     0
176
     1
 90
       50
176
     1
 62
   256
176
     0
 40
1.0
176
     0
 90
        2
176
     1
  1
strokes_ogs.tif
176
     1
290
     0
176
     1
 40
1.0
176
     1
 40
1.0
176
     1
  0
VISUALSTYLE
  5
6F4
102
{ACAD_REACTORS
330
6E8
102
}
330
6E8
100
AcDbVisualStyle
  2
Brighten
 70
    12
177
     3
291
     1
 70
    58
 90
        2
176
     1
 90
        2
176
     1
 90
        0
176
     1
 90
        0
176
     1
 40
0.6
176
     1
 40
30.0
176
     1
 62
     7
420
 16777215
176
     1
 90
        1
176
     1
 90
        4
176
     1
 62
     7
176
     1
 62
   257
176
     1
 90
        1
176
     1
 90
        1
176
     1
 40
1.0
176
     1
 90
        8
176
     1
 62
     7
176
     1
 40
1.0
176
     1
 90
        1
176
     1
 90
        6
176
     1
 90
        2
176
     1
 62
     7
176
     1
 90
        5
176
     1
 90
        0
176
     1
 90
        0
176
     1
290
     0
176
     1
 90
        1
176
     1
 40
50.0
176
     1
 90
        0
176
     1
290
     0
176
     1
290
     1
176
     1
290
     1
176
     1
290
     0
176
     1
290
     0
176
     1
290
     0
176
     1
290
     0
176
     1
290
     0
176
     1
290
     0
176
     1
 90
       50
176
     1
 40
0.0
176
     1
 40
1.0
176
     1
 90
        0
176
     1
 62
    18
420
        0
176
     1
 90
       50
176
     1
 90
        3
176
     1
 62
     5
420
      255
176
     1
290
     0
176
     1
 90
       50
176
     1
 90
       50
176
     1
 90
       50
176
     1
290
     0
176
     1
 90
       50
176
     1
 62
   256
176
     0
 40
1.0
176
     0
 90
        2
176
     1
  1
strokes_ogs.tif
176
     1
290
     0
176
     1
 40
1.0
176
     1
 40
1.0
176
     1
  0
VISUALSTYLE
  5
6F8
102
{ACAD_REACTORS
330
6E8
102
}
330
6E8
100
AcDbVisualStyle
  2
ColorChange
 70
    16
177
     3
291
     1
 70
    58
 90
        2
176
     1
 90
        2
176
     1
 90
        3
176
     1
 90
        0
176
     1
 40
0.6
176
     1
 40
30.0
176
     1
 62
     8
420
  8421504
176
     1
 90
        1
176
     1
 90
        4
176
     1
 62
     7
176
     1
 62
   257
176
     1
 90
        1
176
     1
 90
        1
176
     1
 40
1.0
176
     1
 90
        8
176
     1
 62
     8
420
  8421504
176
     1
 40
1.0
176
     1
 90
        1
176
     1
 90
        6
176
     1
 90
        2
176
     1
 62
     7
176
     1
 90
        5
176
     1
 90
        0
176
     1
 90
        0
176
     1
290
     0
176
     1
 90
        1
176
     1
 40
0.0
176
     1
 90
        0
176
     1
290
     0
176
     1
290
     1
176
     1
290
     1
176
     1
290
     0
176
     1
290
     0
176
     1
290
     0
176
     1
290
     0
176
     1
290
     0
176
     1
290
     0
176
     1
 90
       50
176
     1
 40
0.0
176
     1
 40
1.0
176
     1
 90
        0
176
     1
 62
    18
420
        0
176
     1
 90
       50
176
     1
 90
        3
176
     1
 62
     5
420
      255
176
     1
290
     0
176
     1
 90
       50
176
     1
 90
       50
176
     1
 90
       50
176
     1
290
     0
176
     1
 90
       50
176
     1
 62
   256
176
     0
 40
1.0
176
     0
 90
        2
176
     1
  1
strokes_ogs.tif
176
     1
290
     0
176
     1
 40
1.0
176
     1
 40
1.0
176
     1
  0
VISUALSTYLE
  5
6F2
102
{ACAD_REACTORS
330
6E8
102
}
330
6E8
100
AcDbVisualStyle
  2
Conceptual
 70
     9
177
     3
291
     0
 70
    58
 90
        3
176
     1
 90
        2
176
     1
 90
        0
176
     1
 90
        0
176
     1
 40
0.6
176
     1
 40
30.0
176
     1
 62
     7
420
 16777215
176
     1
 90
        2
176
     1
 90
        2
176
     1
 62
     7
176
     1
 62
   257
176
     1
 90
        1
176
     1
 90
        1
176
     1
 40
179.0
176
     1
 90
        8
176
     1
 62
     7
176
     1
 40
1.0
176
     1
 90
        1
176
     1
 90
        6
176
     1
 90
        2
176
     1
 62
     7
176
     1
 90
        3
176
     1
 90
        0
176
     1
 90
        0
176
     1
290
     0
176
     1
 90
        1
176
     1
 40
0.0
176
     1
 90
        0
176
     1
290
     0
176
     1
290
     1
176
     1
290
     1
176
     1
290
     0
176
     1
290
     0
176
     1
290
     0
176
     1
290
     0
176
     1
290
     0
176
     1
290
     0
176
     1
 90
       50
176
     1
 40
0.0
176
     1
 40
1.0
176
     1
 90
        0
176
     1
 62
    18
420
        0
176
     1
 90
       50
176
     1
 90
        3
176
     1
 62
     5
420
      255
176
     1
290
     0
176
     1
 90
       50
176
     1
 90
       50
176
     1
 90
       50
176
     1
290
     0
176
     1
 90
       50
176
     1
 62
   256
176
     0
 40
1.0
176
     0
 90
        2
176
     1
  1
strokes_ogs.tif
176
     1
290
     0
176
     1
 40
1.0
176
     1
 40
1.0
176
     1
  0
VISUALSTYLE
  5
6F3
102
{ACAD_REACTORS
330
6E8
102
}
330
6E8
100
AcDbVisualStyle
  2
Dim
 70
    11
177
     3
291
     1
 70
    58
 90
        2
176
     1
 90
        2
176
     1
 90
        0
176
     1
 90
        0
176
     1
 40
0.6
176
     1
 40
30.0
176
     1
 62
     7
420
 16777215
176
     1
 90
        1
176
     1
 90
        4
176
     1
 62
     7
176
     1
 62
   257
176
     1
 90
        1
176
     1
 90
        1
176
     1
 40
1.0
176
     1
 90
        8
176
     1
 62
     7
176
     1
 40
1.0
176
     1
 90
        1
176
     1
 90
        6
176
     1
 90
        2
176
     1
 62
     7
176
     1
 90
        5
176
     1
 90
        0
176
     1
 90
        0
176
     1
290
     0
176
     1
 90
        1
176
     1
 40
-50.0
176
     1
 90
        0
176
     1
290
     0
176
     1
290
     1
176
     1
290
     1
176
     1
290
     0
176
     1
290
     0
176
     1
290
     0
176
     1
290
     0
176
     1
290
     0
176
     1
290
     0
176
     1
 90
       50
176
     1
 40
0.0
176
     1
 40
1.0
176
     1
 90
        0
176
     1
 62
    18
420
        0
176
     1
 90
       50
176
     1
 90
        3
176
     1
 62
     5
420
      255
176
     1
290
     0
176
     1
 90
       50
176
     1
 90
       50
176
     1
 90
       50
176
     1
290
     0
176
     1
 90
       50
176
     1
 62
   256
176
     0
 40
1.0
176
     0
 90
        2
176
     1
  1
strokes_ogs.tif
176
     1
290
     0
176
     1
 40
1.0
176
     1
 40
1.0
176
     1
  0
VISUALSTYLE
  5
6FB
102
{ACAD_REACTORS
330
6E8
102
}
330
6E8
100
AcDbVisualStyle
  2
EdgeColorOff
 70
    22
177
     3
291
     1
 70
    58
 90
        2
176
     0
 90
        2
176
     0
 90
        0
176
     0
 90
        0
176
     0
 40
0.6
176
     0
 40
30.0
176
     0
 62
     7
420
 16777215
176
     0
 90
        1
176
     0
 90
        4
176
     0
 62
     7
176
     0
 62
   257
176
     0
 90
        1
176
     0
 90
        1
176
     0
 40
1.0
176
     0
 90
        8
176
     2
 62
     7
176
     0
 40
1.0
176
     0
 90
        1
176
     0
 90
        6
176
     0
 90
        2
176
     0
 62
     7
176
     0
 90
        5
176
     0
 90
        0
176
     0
 90
        0
176
     0
290
     0
176
     0
 90
        1
176
     0
 40
0.0
176
     0
 90
        0
176
     0
290
     0
176
     0
290
     1
176
     0
290
     1
176
     0
290
     0
176
     0
290
     0
176
     0
290
     0
176
     0
290
     0
176
     0
290
     0
176
     0
290
     0
176
     0
 90
       50
176
     0
 40
0.0
176
     0
 40
1.0
176
     0
 90
        0
176
     0
 62
    18
420
        0
176
     0
 90
       50
176
     0
 90
        3
176
     0
 62
     5
420
      255
176
     0
290
     0
176
     0
 90
       50
176
     0
 90
       50
176
     0
 90
       50
176
     0
290
     0
176
     0
 90
       50
176
     0
 62
   256
176
     0
 40
1.0
176
     0
 90
        2
176
     0
  1
strokes_ogs.tif
176
     0
290
     0
176
     0
 40
1.0
176
     0
 40
1.0
176
     0
  0
VISUALSTYLE
  5
6F7
102
{ACAD_REACTORS
330
6E8
102
}
330
6E8
100
AcDbVisualStyle
  2
Facepattern
 70
    15
177
     3
291
     1
 70
    58
 90
        2
176
     1
 90
        2
176
     1
 90
        0
176
     1
 90
        0
176
     1
 40
0.6
176
     1
 40
30.0
176
     1
 62
     7
420
 16777215
176
     1
 90
        1
176
     1
 90
        4
176
     1
 62
     7
176
     1
 62
   257
176
     1
 90
        1
176
     1
 90
        1
176
     1
 40
1.0
176
     1
 90
        8
176
     1
 62
     7
176
     1
 40
1.0
176
     1
 90
        1
176
     1
 90
        6
176
     1
 90
        2
176
     1
 62
     7
176
     1
 90
        5
176
     1
 90
        0
176
     1
 90
        0
176
     1
290
     0
176
     1
 90
        1
176
     1
 40
0.0
176
     1
 90
        0
176
     1
290
     0
176
     1
290
     1
176
     1
290
     1
176
     1
290
     0
176
     1
290
     0
176
     1
290
     0
176
     1
290
     0
176
     1
290
     0
176
     1
290
     0
176
     1
 90
       50
176
     1
 40
0.0
176
     1
 40
1.0
176
     1
 90
        0
176
     1
 62
    18
420
        0
176
     1
 90
       50
176
     1
 90
        3
176
     1
 62
     5
420
      255
176
     1
290
     0
176
     1
 90
       50
176
     1
 90
       50
176
     1
 90
       50
176
     1
290
     0
176
     1
 90
       50
176
     1
 62
   256
176
     0
 40
1.0
176
     0
 90
        2
176
     1
  1
strokes_ogs.tif
176
     1
290
     0
176
     1
 40
1.0
176
     1
 40
1.0
176
     1
  0
VISUALSTYLE
  5
6E9
102
{ACAD_REACTORS
330
6E8
102
}
330
6E8
100
AcDbVisualStyle
  2
Flat
 70
     0
177
     3
291
     1
 70
    58
 90
        2
176
     1
 90
        1
176
     1
 90
        1
176
     1
 90
        2
176
     1
 40
0.6
176
     1
 40
30.0
176
     1
 62
     7
420
 16777215
176
     1
 90
        0
176
     1
 90
        0
176
     1
 62
     7
176
     1
 62
   257
176
     1
 90
        1
176
     1
 90
        1
176
     1
 40
1.0
176
     1
 90
        8
176
     1
 62
     7
176
     1
 40
1.0
176
     1
 90
        1
176
     1
 90
        6
176
     1
 90
        2
176
     1
 62
     7
176
     1
 90
        5
176
     1
 90
        0
176
     1
 90
        0
176
     1
290
     0
176
     1
 90
       13
176
     1
 40
0.0
176
     1
 90
        0
176
     1
290
     0
176
     1
290
     1
176
     1
290
     1
176
     1
290
     0
176
     1
290
     0
176
     1
290
     0
176
     1
290
     0
176
     1
290
     0
176
     1
290
     0
176
     1
 90
       50
176
     1
 40
0.0
176
     1
 40
1.0
176
     1
 90
        0
176
     1
 62
    18
420
        0
176
     1
 90
       50
176
     1
 90
        3
176
     1
 62
     5
420
      255
176
     1
290
     0
176
     1
 90
       50
176
     1
 90
       50
176
     1
 90
       50
176
     1
290
     0
176
     1
 90
       50
176
     1
 62
   256
176
     0
 40
1.0
176
     0
 90
        2
176
     1
  1
strokes_ogs.tif
176
     1
290
     0
176
     1
 40
1.0
176
     1
 40
1.0
176
     1
  0
VISUALSTYLE
  5
6EA
102
{ACAD_REACTORS
330
6E8
102
}
330
6E8
100
AcDbVisualStyle
  2
FlatWithEdges
 70
     1
177
     3
291
     1
 70
    58
 90
        2
176
     1
 90
        1
176
     1
 90
        1
176
     1
 90
        2
176
     1
 40
0.6
176
     1
 40
30.0
176
     1
 62
     7
420
 16777215
176
     1
 90
        1
176
     1
 90
        0
176
     1
 62
     7
176
     1
 62
   257
176
     1
 90
        1
176
     1
 90
        1
176
     1
 40
1.0
176
     1
 90
        0
176
     1
 62
   257
176
     1
 40
1.0
176
     1
 90
        1
176
     1
 90
        6
176
     1
 90
        2
176
     1
 62
     7
176
     1
 90
        5
176
     1
 90
        0
176
     1
 90
        0
176
     1
290
     0
176
     1
 90
       13
176
     1
 40
0.0
176
     1
 90
        0
176
     1
290
     0
176
     1
290
     1
176
     1
290
     1
176
     1
290
     0
176
     1
290
     0
176
     1
290
     0
176
     1
290
     0
176
     1
290
     0
176
     1
290
     0
176
     1
 90
       50
176
     1
 40
0.0
176
     1
 40
1.0
176
     1
 90
        0
176
     1
 62
    18
420
        0
176
     1
 90
       50
176
     1
 90
        3
176
     1
 62
     5
420
      255
176
     1
290
     0
176
     1
 90
       50
176
     1
 90
       50
176
     1
 90
       50
176
     1
290
     0
176
     1
 90
       50
176
     1
 62
   256
176
     0
 40
1.0
176
     0
 90
        2
176
     1
  1
strokes_ogs.tif
176
     1
290
     0
176
     1
 40
1.0
176
     1
 40
1.0
176
     1
  0
VISUALSTYLE
  5
6EB
102
{ACAD_REACTORS
330
6E8
102
}
330
6E8
100
AcDbVisualStyle
  2
Gouraud
 70
     2
177
     3
291
     1
 70
    58
 90
        2
176
     1
 90
        2
176
     1
 90
        1
176
     1
 90
        2
176
     1
 40
0.6
176
     1
 40
30.0
176
     1
 62
     7
420
 16777215
176
     1
 90
        0
176
     1
 90
        0
176
     1
 62
     7
176
     1
 62
   257
176
     1
 90
        1
176
     1
 90
        1
176
     1
 40
1.0
176
     1
 90
        0
176
     1
 62
     7
176
     1
 40
1.0
176
     1
 90
        1
176
     1
 90
        6
176
     1
 90
        2
176
     1
 62
     7
176
     1
 90
        5
176
     1
 90
        0
176
     1
 90
        0
176
     1
290
     0
176
     1
 90
       13
176
     1
 40
0.0
176
     1
 90
        0
176
     1
290
     0
176
     1
290
     1
176
     1
290
     1
176
     1
290
     0
176
     1
290
     0
176
     1
290
     0
176
     1
290
     0
176
     1
290
     0
176
     1
290
     0
176
     1
 90
       50
176
     1
 40
0.0
176
     1
 40
1.0
176
     1
 90
        0
176
     1
 62
    18
420
        0
176
     1
 90
       50
176
     1
 90
        3
176
     1
 62
     5
420
      255
176
     1
290
     0
176
     1
 90
       50
176
     1
 90
       50
176
     1
 90
       50
176
     1
290
     0
176
     1
 90
       50
176
     1
 62
   256
176
     0
 40
1.0
176
     0
 90
        2
176
     1
  1
strokes_ogs.tif
176
     1
290
     0
176
     1
 40
1.0
176
     1
 40
1.0
176
     1
  0
VISUALSTYLE
  5
6EC
102
{ACAD_REACTORS
330
6E8
102
}
330
6E8
100
AcDbVisualStyle
  2
GouraudWithEdges
 70
     3
177
     3
291
     1
 70
    58
 90
        2
176
     1
 90
        2
176
     1
 90
        1
176
     1
 90
        2
176
     1
 40
0.6
176
     1
 40
30.0
176
     1
 62
     7
420
 16777215
176
     1
 90
        1
176
     1
 90
        0
176
     1
 62
     7
176
     1
 62
   257
176
     1
 90
        1
176
     1
 90
        1
176
     1
 40
1.0
176
     1
 90
        0
176
     1
 62
   257
176
     1
 40
1.0
176
     1
 90
        1
176
     1
 90
        6
176
     1
 90
        2
176
     1
 62
     7
176
     1
 90
        5
176
     1
 90
        0
176
     1
 90
        0
176
     1
290
     0
176
     1
 90
       13
176
     1
 40
0.0
176
     1
 90
        0
176
     1
290
     0
176
     1
290
     1
176
     1
290
     1
176
     1
290
     0
176
     1
290
     0
176
     1
290
     0
176
     1
290
     0
176
     1
290
     0
176
     1
290
     0
176
     1
 90
       50
176
     1
 40
0.0
176
     1
 40
1.0
176
     1
 90
        0
176
     1
 62
    18
420
        0
176
     1
 90
       50
176
     1
 90
        3
176
     1
 62
     5
420
      255
176
     1
290
     0
176
     1
 90
       50
176
     1
 90
       50
176
     1
 90
       50
176
     1
290
     0
176
     1
 90
       50
176
     1
 62
   256
176
     0
 40
1.0
176
     0
 90
        2
176
     1
  1
strokes_ogs.tif
176
     1
290
     0
176
     1
 40
1.0
176
     1
 40
1.0
176
     1
  0
VISUALSTYLE
  5
6EF
102
{ACAD_REACTORS
330
6E8
102
}
330
6E8
100
AcDbVisualStyle
  2
Hidden
 70
     6
177
     3
291
     0
 70
    58
 90
        1
176
     1
 90
        2
176
     1
 90
        2
176
     1
 90
        0
176
     1
 40
0.6
176
     1
 40
30.0
176
     1
 62
     7
420
 16777215
176
     1
 90
        2
176
     1
 90
        2
176
     1
 62
     7
176
     1
 62
   257
176
     1
 90
        2
176
     1
 90
        1
176
     1
 40
40.0
176
     1
 90
        0
176
     1
 62
   257
176
     1
 40
1.0
176
     1
 90
        1
176
     1
 90
        6
176
     1
 90
        2
176
     1
 62
     7
176
     1
 90
        3
176
     1
 90
        0
176
     1
 90
        0
176
     1
290
     0
176
     1
 90
        1
176
     1
 40
0.0
176
     1
 90
        0
176
     1
290
     0
176
     1
290
     1
176
     1
290
     1
176
     1
290
     0
176
     1
290
     0
176
     1
290
     0
176
     1
290
     0
176
     1
290
     0
176
     1
290
     0
176
     1
 90
       50
176
     1
 40
0.0
176
     1
 40
1.0
176
     1
 90
        0
176
     1
 62
    18
420
        0
176
     1
 90
       50
176
     1
 90
        3
176
     1
 62
     5
420
      255
176
     1
290
     0
176
     1
 90
       50
176
     1
 90
       50
176
     1
 90
       50
176
     1
290
     0
176
     1
 90
       50
176
     1
 62
   256
176
     0
 40
1.0
176
     0
 90
        2
176
     1
  1
strokes_ogs.tif
176
     1
290
     0
176
     1
 40
1.0
176
     1
 40
1.0
176
     1
  0
VISUALSTYLE
  5
6F9
102
{ACAD_REACTORS
330
6E8
102
}
330
6E8
100
AcDbVisualStyle
  2
JitterOff
 70
    20
177
     3
291
     1
 70
    58
 90
        2
176
     0
 90
        2
176
     0
 90
        0
176
     0
 90
        0
176
     0
 40
0.6
176
     0
 40
30.0
176
     0
 62
     7
420
 16777215
176
     0
 90
        1
176
     0
 90
        4
176
     0
 62
     7
176
     0
 62
   257
176
     0
 90
        1
176
     0
 90
        1
176
     0
 40
1.0
176
     0
 90
       10
176
     2
 62
     7
176
     0
 40
1.0
176
     0
 90
        1
176
     0
 90
        6
176
     0
 90
        2
176
     0
 62
     7
176
     0
 90
        5
176
     0
 90
        0
176
     0
 90
        0
176
     0
290
     0
176
     0
 90
        1
176
     0
 40
0.0
176
     0
 90
        0
176
     0
290
     0
176
     0
290
     1
176
     0
290
     1
176
     0
290
     0
176
     0
290
     0
176
     0
290
     0
176
     0
290
     0
176
     0
290
     0
176
     0
290
     0
176
     0
 90
       50
176
     0
 40
0.0
176
     0
 40
1.0
176
     0
 90
        0
176
     0
 62
    18
420
        0
176
     0
 90
       50
176
     0
 90
        3
176
     0
 62
     5
420
      255
176
     0
290
     0
176
     0
 90
       50
176
     0
 90
       50
176
     0
 90
       50
176
     0
290
     0
176
     0
 90
       50
176
     0
 62
   256
176
     0
 40
1.0
176
     0
 90
        2
176
     0
  1
strokes_ogs.tif
176
     0
290
     0
176
     0
 40
1.0
176
     0
 40
1.0
176
     0
  0
VISUALSTYLE
  5
6F6
102
{ACAD_REACTORS
330
6E8
102
}
330
6E8
100
AcDbVisualStyle
  2
Linepattern
 70
    14
177
     3
291
     1
 70
    58
 90
        2
176
     1
 90
        2
176
     1
 90
        0
176
     1
 90
        0
176
     1
 40
0.6
176
     1
 40
30.0
176
     1
 62
     7
420
 16777215
176
     1
 90
        1
176
     1
 90
        4
176
     1
 62
     7
176
     1
 62
   257
176
     1
 90
        7
176
     1
 90
        7
176
     1
 40
1.0
176
     1
 90
        8
176
     1
 62
     7
176
     1
 40
1.0
176
     1
 90
        1
176
     1
 90
        6
176
     1
 90
        2
176
     1
 62
     7
176
     1
 90
        5
176
     1
 90
        0
176
     1
 90
        0
176
     1
290
     0
176
     1
 90
        1
176
     1
 40
0.0
176
     1
 90
        0
176
     1
290
     0
176
     1
290
     1
176
     1
290
     1
176
     1
290
     0
176
     1
290
     0
176
     1
290
     0
176
     1
290
     0
176
     1
290
     0
176
     1
290
     0
176
     1
 90
       50
176
     1
 40
0.0
176
     1
 40
1.0
176
     1
 90
        0
176
     1
 62
    18
420
        0
176
     1
 90
       50
176
     1
 90
        3
176
     1
 62
     5
420
      255
176
     1
290
     0
176
     1
 90
       50
176
     1
 90
       50
176
     1
 90
       50
176
     1
290
     0
176
     1
 90
       50
176
     1
 62
   256
176
     0
 40
1.0
176
     0
 90
        2
176
     1
  1
strokes_ogs.tif
176
     1
290
     0
176
     1
 40
1.0
176
     1
 40
1.0
176
     1
  0
VISUALSTYLE
  5
6FA
102
{ACAD_REACTORS
330
6E8
102
}
330
6E8
100
AcDbVisualStyle
  2
OverhangOff
 70
    21
177
     3
291
     1
 70
    58
 90
        2
176
     0
 90
        2
176
     0
 90
        0
176
     0
 90
        0
176
     0
 40
0.6
176
     0
 40
30.0
176
     0
 62
     7
420
 16777215
176
     0
 90
        1
176
     0
 90
        4
176
     0
 62
     7
176
     0
 62
   257
176
     0
 90
        1
176
     0
 90
        1
176
     0
 40
1.0
176
     0
 90
        9
176
     2
 62
     7
176
     0
 40
1.0
176
     0
 90
        1
176
     0
 90
        6
176
     0
 90
        2
176
     0
 62
     7
176
     0
 90
        5
176
     0
 90
        0
176
     0
 90
        0
176
     0
290
     0
176
     0
 90
        1
176
     0
 40
0.0
176
     0
 90
        0
176
     0
290
     0
176
     0
290
     1
176
     0
290
     1
176
     0
290
     0
176
     0
290
     0
176
     0
290
     0
176
     0
290
     0
176
     0
290
     0
176
     0
290
     0
176
     0
 90
       50
176
     0
 40
0.0
176
     0
 40
1.0
176
     0
 90
        0
176
     0
 62
    18
420
        0
176
     0
 90
       50
176
     0
 90
        3
176
     0
 62
     5
420
      255
176
     0
290
     0
176
     0
 90
       50
176
     0
 90
       50
176
     0
 90
       50
176
     0
290
     0
176
     0
 90
       50
176
     0
 62
   256
176
     0
 40
1.0
176
     0
 90
        2
176
     0
  1
strokes_ogs.tif
176
     0
290
     0
176
     0
 40
1.0
176
     0
 40
1.0
176
     0
  0
VISUALSTYLE
  5
6F1
102
{ACAD_REACTORS
330
6E8
102
}
330
6E8
100
AcDbVisualStyle
  2
Realistic
 70
     8
177
     3
291
     0
 70
    58
 90
        2
176
     1
 90
        3
176
     1
 90
        0
176
     1
 90
        2
176
     1
 40
0.6
176
     1
 40
30.0
176
     1
 62
     7
420
 16777215
176
     1
 90
        0
176
     1
 90
        0
176
     1
 62
     7
176
     1
 62
   257
176
     1
 90
        1
176
     1
 90
        1
176
     1
 40
1.0
176
     1
 90
        8
176
     1
 62
   257
176
     1
 40
1.0
176
     1
 90
        1
176
     1
 90
        6
176
     1
 90
        2
176
     1
 62
     7
176
     1
 90
        3
176
     1
 90
        0
176
     1
 90
        0
176
     1
290
     0
176
     1
 90
       13
176
     1
 40
0.0
176
     1
 90
        0
176
     1
290
     0
176
     1
290
     1
176
     1
290
     1
176
     1
290
     0
176
     1
290
     0
176
     1
290
     0
176
     1
290
     0
176
     1
290
     0
176
     1
290
     0
176
     1
 90
       50
176
     1
 40
0.0
176
     1
 40
1.0
176
     1
 90
        0
176
     1
 62
    18
420
        0
176
     1
 90
       50
176
     1
 90
        3
176
     1
 62
     5
420
      255
176
     1
290
     0
176
     1
 90
       50
176
     1
 90
       50
176
     1
 90
       50
176
     1
290
     0
176
     1
 90
       50
176
     1
 62
   256
176
     0
 40
1.0
176
     0
 90
        2
176
     1
  1
strokes_ogs.tif
176
     1
290
     0
176
     1
 40
1.0
176
     1
 40
1.0
176
     1
  0
VISUALSTYLE
  5
700
102
{ACAD_REACTORS
330
6E8
102
}
330
6E8
100
AcDbVisualStyle
  2
Shaded
 70
    27
177
     3
291
     0
 70
    58
 90
        2
176
     1
 90
        2
176
     1
 90
        1
176
     1
 90
        2
176
     1
 40
0.6
176
     1
 40
30.0
176
     1
 62
     7
420
 16777215
176
     1
 90
        0
176
     1
 90
        4
176
     1
 62
     7
176
     1
 62
   257
176
     1
 90
        1
176
     1
 90
        1
176
     1
 40
1.0
176
     1
 90
        8
176
     1
 62
   257
176
     1
 40
1.0
176
     1
 90
        1
176
     1
 90
        6
176
     1
 90
        2
176
     1
 62
     8
420
  7895160
176
     1
 90
        3
176
     1
 90
        0
176
     1
 90
        0
176
     1
290
     0
176
     1
 90
        5
176
     1
 40
0.0
176
     1
 90
        0
176
     1
290
     0
176
     1
290
     1
176
     1
290
     1
176
     1
290
     0
176
     1
290
     0
176
     1
290
     0
176
     1
290
     0
176
     1
290
     0
176
     1
290
     0
176
     1
 90
       50
176
     1
 40
0.0
176
     1
 40
1.0
176
     1
 90
        0
176
     1
 62
    18
420
        0
176
     1
 90
       50
176
     1
 90
        3
176
     1
 62
     5
420
      255
176
     1
290
     0
176
     1
 90
       50
176
     1
 90
       50
176
     1
 90
       50
176
     1
290
     0
176
     1
 90
       50
176
     1
 62
   256
176
     0
 40
1.0
176
     0
 90
        2
176
     1
  1
strokes_ogs.tif
176
     1
290
     0
176
     1
 40
1.0
176
     1
 40
1.0
176
     1
  0
VISUALSTYLE
  5
6FF
102
{ACAD_REACTORS
330
6E8
102
}
330
6E8
100
AcDbVisualStyle
  2
Shaded with edges
 70
    26
177
     3
291
     0
 70
    58
 90
        2
176
     1
 90
        2
176
     1
 90
        1
176
     1
 90
        2
176
     1
 40
0.6
176
     1
 40
30.0
176
     1
 62
     7
420
 16777215
176
     1
 90
        1
176
     1
 90
       10
176
     1
 62
     7
176
     1
 62
   257
176
     1
 90
        2
176
     1
 90
        1
176
     1
 40
1.0
176
     1
 90
        8
176
     1
 62
   257
176
     1
 40
1.0
176
     1
 90
        1
176
     1
 90
        6
176
     1
 90
        2
176
     1
 62
     7
176
     1
 90
        3
176
     1
 90
        0
176
     1
 90
        0
176
     1
290
     0
176
     1
 90
        5
176
     1
 40
0.0
176
     1
 90
        0
176
     1
290
     0
176
     1
290
     1
176
     1
290
     1
176
     1
290
     0
176
     1
290
     0
176
     1
290
     0
176
     1
290
     0
176
     1
290
     0
176
     1
290
     0
176
     1
 90
       50
176
     1
 40
0.0
176
     1
 40
1.0
176
     1
 90
        0
176
     1
 62
    18
420
        0
176
     1
 90
       50
176
     1
 90
        3
176
     1
 62
     5
420
      255
176
     1
290
     0
176
     1
 90
       50
176
     1
 90
       50
176
     1
 90
       50
176
     1
290
     0
176
     1
 90
       50
176
     1
 62
   256
176
     0
 40
1.0
176
     0
 90
        2
176
     1
  1
strokes_ogs.tif
176
     1
290
     0
176
     1
 40
1.0
176
     1
 40
1.0
176
     1
  0
VISUALSTYLE
  5
6FC
102
{ACAD_REACTORS
330
6E8
102
}
330
6E8
100
AcDbVisualStyle
  2
Shades of Gray
 70
    23
177
     3
291
     0
 70
    58
 90
        2
176
     1
 90
        2
176
     1
 90
        3
176
     1
 90
        0
176
     1
 40
0.6
176
     1
 40
30.0
176
     1
 62
     7
420
 16777215
176
     1
 90
        2
176
     1
 90
        2
176
     1
 62
     7
176
     1
 62
     7
176
     1
 90
        1
176
     1
 90
        1
176
     1
 40
40.0
176
     1
 90
        8
176
     1
 62
     7
176
     1
 40
1.0
176
     1
 90
        1
176
     1
 90
        6
176
     1
 90
        2
176
     1
 62
     7
176
     1
 90
        3
176
     1
 90
        0
176
     1
 90
        0
176
     1
290
     0
176
     1
 90
        1
176
     1
 40
0.0
176
     1
 90
        0
176
     1
290
     0
176
     1
290
     1
176
     1
290
     1
176
     1
290
     0
176
     1
290
     0
176
     1
290
     0
176
     1
290
     0
176
     1
290
     0
176
     1
290
     0
176
     1
 90
       50
176
     1
 40
0.0
176
     1
 40
1.0
176
     1
 90
        0
176
     1
 62
    18
420
        0
176
     1
 90
       50
176
     1
 90
        3
176
     1
 62
     5
420
      255
176
     1
290
     0
176
     1
 90
       50
176
     1
 90
       50
176
     1
 90
       50
176
     1
290
     0
176
     1
 90
       50
176
     1
 62
   256
176
     0
 40
1.0
176
     0
 90
        2
176
     1
  1
strokes_ogs.tif
176
     1
290
     0
176
     1
 40
1.0
176
     1
 40
1.0
176
     1
  0
VISUALSTYLE
  5
6FD
102
{ACAD_REACTORS
330
6E8
102
}
330
6E8
100
AcDbVisualStyle
  2
Sketchy
 70
    24
177
     3
291
     0
 70
    58
 90
        1
176
     1
 90
        2
176
     1
 90
        2
176
     1
 90
        0
176
     1
 40
0.6
176
     1
 40
30.0
176
     1
 62
     7
420
 16777215
176
     1
 90
        2
176
     1
 90
        2
176
     1
 62
     7
176
     1
 62
     7
176
     1
 90
        1
176
     1
 90
        1
176
     1
 40
40.0
176
     1
 90
       11
176
     1
 62
     7
176
     1
 40
1.0
176
     1
 90
        1
176
     1
 90
        6
176
     1
 90
        2
176
     1
 62
     7
176
     1
 90
        6
176
     1
 90
        0
176
     1
 90
        0
176
     1
290
     0
176
     1
 90
        1
176
     1
 40
0.0
176
     1
 90
        0
176
     1
290
     0
176
     1
290
     1
176
     1
290
     1
176
     1
290
     0
176
     1
290
     0
176
     1
290
     0
176
     1
290
     0
176
     1
290
     0
176
     1
290
     0
176
     1
 90
       50
176
     1
 40
0.0
176
     1
 40
1.0
176
     1
 90
        0
176
     1
 62
    18
420
        0
176
     1
 90
       50
176
     1
 90
        3
176
     1
 62
     5
420
      255
176
     1
290
     0
176
     1
 90
       50
176
     1
 90
       50
176
     1
 90
       50
176
     1
290
     0
176
     1
 90
       50
176
     1
 62
   256
176
     0
 40
1.0
176
     0
 90
        2
176
     1
  1
strokes_ogs.tif
176
     1
290
     0
176
     1
 40
1.0
176
     1
 40
1.0
176
     1
  0
VISUALSTYLE
  5
6F5
102
{ACAD_REACTORS
330
6E8
102
}
330
6E8
100
AcDbVisualStyle
  2
Thicken
 70
    13
177
     3
291
     1
 70
    58
 90
        2
176
     1
 90
        2
176
     1
 90
        0
176
     1
 90
        0
176
     1
 40
0.6
176
     1
 40
30.0
176
     1
 62
     7
420
 16777215
176
     1
 90
        1
176
     1
 90
        4
176
     1
 62
     7
176
     1
 62
   257
176
     1
 90
        1
176
     1
 90
        1
176
     1
 40
1.0
176
     1
 90
       12
176
     1
 62
     7
176
     1
 40
1.0
176
     1
 90
        1
176
     1
 90
        6
176
     1
 90
        2
176
     1
 62
     7
176
     1
 90
        5
176
     1
 90
        0
176
     1
 90
        0
176
     1
290
     0
176
     1
 90
        1
176
     1
 40
0.0
176
     1
 90
        0
176
     1
290
     0
176
     1
290
     1
176
     1
290
     1
176
     1
290
     0
176
     1
290
     0
176
     1
290
     0
176
     1
290
     0
176
     1
290
     0
176
     1
290
     0
176
     1
 90
       50
176
     1
 40
0.0
176
     1
 40
1.0
176
     1
 90
        0
176
     1
 62
    18
420
        0
176
     1
 90
       50
176
     1
 90
        3
176
     1
 62
     5
420
      255
176
     1
290
     0
176
     1
 90
       50
176
     1
 90
       50
176
     1
 90
       50
176
     1
290
     0
176
     1
 90
       50
176
     1
 62
   256
176
     0
 40
1.0
176
     0
 90
        2
176
     1
  1
strokes_ogs.tif
176
     1
290
     0
176
     1
 40
1.0
176
     1
 40
1.0
176
     1
  0
VISUALSTYLE
  5
6EE
102
{ACAD_REACTORS
330
6E8
102
}
330
6E8
100
AcDbVisualStyle
  2
Wireframe
 70
     5
177
     3
291
     0
 70
    58
 90
        0
176
     1
 90
        2
176
     1
 90
        0
176
     1
 90
        0
176
     1
 40
0.6
176
     1
 40
30.0
176
     1
 62
     7
420
 16777215
176
     1
 90
        1
176
     1
 90
        4
176
     1
 62
     7
176
     1
 62
   257
176
     1
 90
        1
176
     1
 90
        1
176
     1
 40
1.0
176
     1
 90
        0
176
     1
 62
   257
176
     1
 40
1.0
176
     1
 90
        1
176
     1
 90
        6
176
     1
 90
        2
176
     1
 62
     7
176
     1
 90
        3
176
     1
 90
        0
176
     1
 90
        0
176
     1
290
     0
176
     1
 90
        1
176
     1
 40
0.0
176
     1
 90
        0
176
     1
290
     0
176
     1
290
     1
176
     1
290
     1
176
     1
290
     0
176
     1
290
     0
176
     1
290
     0
176
     1
290
     0
176
     1
290
     0
176
     1
290
     0
176
     1
 90
       50
176
     1
 40
0.0
176
     1
 40
1.0
176
     1
 90
        0
176
     1
 62
    18
420
        0
176
     1
 90
       50
176
     1
 90
        3
176
     1
 62
     5
420
      255
176
     1
290
     0
176
     1
 90
       50
176
     1
 90
       50
176
     1
 90
       50
176
     1
290
     0
176
     1
 90
       50
176
     1
 62
   256
176
     0
 40
1.0
176
     0
 90
        2
176
     1
  1
strokes_ogs.tif
176
     1
290
     0
176
     1
 40
1.0
176
     1
 40
1.0
176
     1
  0
VISUALSTYLE
  5
6FE
102
{ACAD_REACTORS
330
6E8
102
}
330
6E8
100
AcDbVisualStyle
  2
X-Ray
 70
    25
177
     3
291
     0
 70
    58
 90
        2
176
     1
 90
        2
176
     1
 90
        1
176
     1
 90
        1
176
     1
 40
0.5
176
     1
 40
30.0
176
     1
 62
     7
420
 16777215
176
     1
 90
        1
176
     1
 90
        0
176
     1
 62
     7
176
     1
 62
   257
176
     1
 90
        1
176
     1
 90
        1
176
     1
 40
1.0
176
     1
 90
        8
176
     1
 62
     7
176
     1
 40
1.0
176
     1
 90
        1
176
     1
 90
        6
176
     1
 90
        2
176
     1
 62
     7
176
     1
 90
        3
176
     1
 90
        0
176
     1
 90
        0
176
     1
290
     0
176
     1
 90
       13
176
     1
 40
0.0
176
     1
 90
        0
176
     1
290
     0
176
     1
290
     1
176
     1
290
     1
176
     1
290
     0
176
     1
290
     0
176
     1
290
     0
176
     1
290
     0
176
     1
290
     0
176
     1
290
     0
176
     1
 90
       50
176
     1
 40
0.0
176
     1
 40
1.0
176
     1
 90
        0
176
     1
 62
    18
420
        0
176
     1
 90
       50
176
     1
 90
        3
176
     1
 62
     5
420
      255
176
     1
290
     0
176
     1
 90
       50
176
     1
 90
       50
176
     1
 90
       50
176
     1
290
     0
176
     1
 90
       50
176
     1
 62
   256
176
     0
 40
1.0
176
     0
 90
        2
176
     1
  1
strokes_ogs.tif
176
     1
290
     0
176
     1
 40
1.0
176
     1
 40
1.0
176
     1
  0
DICTIONARYVAR
  5
7AA
102
{ACAD_REACTORS
330
7A9
102
}
330
7A9
100
DictionaryVariables
280
     0
  1
1:1
  0
DICTIONARYVAR
  5
7AF
102
{ACAD_REACTORS
330
7A9
102
}
330
7A9
100
DictionaryVariables
280
     0
  1
Standard
  0
DICTIONARYVAR
  5
7AE
102
{ACAD_REACTORS
330
7A9
102
}
330
7A9
100
DictionaryVariables
280
     0
  1
Standard
  0
XRECORD
  5
72F
102
{ACAD_REACTORS
330
72D
102
}
330
72D
100
AcDbXrecord
280
     1
1000
#ffffff
  0
XRECORD
  5
730
102
{ACAD_REACTORS
330
72D
102
}
330
72D
100
AcDbXrecord
280
     1
1000
FullColor
  0
XRECORD
  5
731
102
{ACAD_REACTORS
330
72D
102
}
330
72D
100
AcDbXrecord
280
     1
290
     1
  0
XRECORD
  5
732
102
{ACAD_REACTORS
330
72D
102
}
330
72D
100
AcDbXrecord
280
     1
290
     1
  0
XRECORD
  5
733
102
{ACAD_REACTORS
330
72D
102
}
330
72D
100
AcDbXrecord
280
     1
290
     1
  0
XRECORD
  5
734
102
{ACAD_REACTORS
330
72D
102
}
330
72D
100
AcDbXrecord
280
     1
290
     1
  0
XRECORD
  5
735
102
{ACAD_REACTORS
330
72D
102
}
330
72D
100
AcDbXrecord
280
     1
1000
auto
  0
XRECORD
  5
736
102
{ACAD_REACTORS
330
72D
102
}
330
72D
100
AcDbXrecord
280
     1
1000
auto
  0
XRECORD
  5
737
102
{ACAD_REACTORS
330
72D
102
}
330
72D
100
AcDbXrecord
280
     1
1000
auto
  0
XRECORD
  5
738
102
{ACAD_REACTORS
330
72D
102
}
330
72D
100
AcDbXrecord
280
     1
1000
auto
  0
XRECORD
  5
739
102
{ACAD_REACTORS
330
72D
102
}
330
72D
100
AcDbXrecord
280
     1
1000
auto
  0
XRECORD
  5
73A
102
{ACAD_REACTORS
330
72D
102
}
330
72D
100
AcDbXrecord
280
     1
1000
auto
  0
XRECORD
  5
73B
102
{ACAD_REACTORS
330
72D
102
}
330
72D
100
AcDbXrecord
280
     1
1000
auto
  0
XRECORD
  5
73C
102
{ACAD_REACTORS
330
72D
102
}
330
72D
100
AcDbXrecord
280
     1
1000
auto
  0
XRECORD
  5
73D
102
{ACAD_REACTORS
330
72D
102
}
330
72D
100
AcDbXrecord
280
     1
290
     0
  0
XRECORD
  5
73E
102
{ACAD_REACTORS
330
72D
102
}
330
72D
100
AcDbXrecord
280
     1
290
     0
  0
XRECORD
  5
73F
102
{ACAD_REACTORS
330
72D
102
}
330
72D
100
AcDbXrecord
280
     1
290
     0
  0
XRECORD
  5
740
102
{ACAD_REACTORS
330
72D
102
}
330
72D
100
AcDbXrecord
280
     1
290
     0
  0
XRECORD
  5
741
102
{ACAD_REACTORS
330
72D
102
}
330
72D
100
AcDbXrecord
280
     1
 90
    65537
  0
XRECORD
  5
742
102
{ACAD_REACTORS
330
72D
102
}
330
72D
100
AcDbXrecord
280
     1
 90
    65537
  0
XRECORD
  5
743
102
{ACAD_REACTORS
330
72D
102
}
330
72D
100
AcDbXrecord
280
     1
 90
    65537
  0
XRECORD
  5
744
102
{ACAD_REACTORS
330
72D
102
}
330
72D
100
AcDbXrecord
280
     1
 90
    65537
  0
XRECORD
  5
745
102
{ACAD_REACTORS
330
72D
102
}
330
72D
100
AcDbXrecord
280
     1
1000
auto
  0
XRECORD
  5
746
102
{ACAD_REACTORS
330
72D
102
}
330
72D
100
AcDbXrecord
280
     1
1000
auto
  0
XRECORD
  5
747
102
{ACAD_REACTORS
330
72D
102
}
330
72D
100
AcDbXrecord
280
     1
1000
auto
  0
XRECORD
  5
748
102
{ACAD_REACTORS
330
72D
102
}
330
72D
100
AcDbXrecord
280
     1
1000
auto
  0
XRECORD
  5
749
102
{ACAD_REACTORS
330
72D
102
}
330
72D
100
AcDbXrecord
280
     1
1000
auto
  0
XRECORD
  5
74A
102
{ACAD_REACTORS
330
72D
102
}
330
72D
100
AcDbXrecord
280
     1
1000
auto
  0
XRECORD
  5
74B
102
{ACAD_REACTORS
330
72D
102
}
330
72D
100
AcDbXrecord
280
     1
1000
auto
  0
XRECORD
  5
74C
102
{ACAD_REACTORS
330
72D
102
}
330
72D
100
AcDbXrecord
280
     1
1000
auto
  0
XRECORD
  5
74D
102
{ACAD_REACTORS
330
72D
102
}
330
72D
100
AcDbXrecord
280
     1
 90
        1
  0
XRECORD
  5
74E
102
{ACAD_REACTORS
330
72D
102
}
330
72D
100
AcDbXrecord
280
     1
 40
10.0
  0
XRECORD
  5
74F
102
{ACAD_REACTORS
330
72D
102
}
330
72D
100
AcDbXrecord
280
     1
 40
10.0
  0
XRECORD
  5
750
102
{ACAD_REACTORS
330
72D
102
}
330
72D
100
AcDbXrecord
280
     1
 40
10.0
  0
XRECORD
  5
751
102
{ACAD_REACTORS
330
72D
102
}
330
72D
100
AcDbXrecord
280
     1
 40
10.0
  0
XRECORD
  5
752
102
{ACAD_REACTORS
330
72D
102
}
330
72D
100
AcDbXrecord
280
     1
290
     0
  0
XRECORD
  5
753
102
{ACAD_REACTORS
330
72D
102
}
330
72D
100
AcDbXrecord
280
     1
 90
        1
  0
XRECORD
  5
754
102
{ACAD_REACTORS
330
72D
102
}
330
72D
100
AcDbXrecord
280
     1
 40
0.0
  0
XRECORD
  5
755
102
{ACAD_REACTORS
330
72D
102
}
330
72D
100
AcDbXrecord
280
     1
 40
0.0
  0
XRECORD
  5
756
102
{ACAD_REACTORS
330
72D
102
}
330
72D
100
AcDbXrecord
280
     1
1000
Portrait
  0
XRECORD
  5
757
102
{ACAD_REACTORS
330
72D
102
}
330
72D
100
AcDbXrecord
280
     1
 40
841.0
  0
XRECORD
  5
758
102
{ACAD_REACTORS
330
72D
102
}
330
72D
100
AcDbXrecord
280
     1
 40
594.0
  0
XRECORD
  5
759
102
{ACAD_REACTORS
330
72D
102
}
330
72D
100
AcDbXrecord
280
     1
1000
1:1
  0
XRECORD
  5
75A
102
{ACAD_REACTORS
330
72D
102
}
330
72D
100
AcDbXrecord
280
     1
290
     1
  0
XRECORD
  5
75B
102
{ACAD_REACTORS
330
72D
102
}
330
72D
100
AcDbXrecord
280
     1
290
     0
  0
XRECORD
  5
75C
102
{ACAD_REACTORS
330
72D
102
}
330
72D
100
AcDbXrecord
280
     1
1000
Inside
  0
XRECORD
  5
75D
102
{ACAD_REACTORS
330
72D
102
}
330
72D
100
AcDbXrecord
280
     1
1000
Arial,10,-1,5,50,0,0,0,0,0
  0
XRECORD
  5
75E
102
{ACAD_REACTORS
330
72D
102
}
330
72D
100
AcDbXrecord
280
     1
1000
TopLeft
  0
XRECORD
  5
75F
102
{ACAD_REACTORS
330
72D
102
}
330
72D
100
AcDbXrecord
280
     1
1000
3.25.2
  0
XRECORD
  5
760
102
{ACAD_REACTORS
330
72D
102
}
330
72D
100
AcDbXrecord
280
     1
 90
        4
  0
XRECORD
  5
761
102
{ACAD_REACTORS
330
72D
102
}
330
72D
100
AcDbXrecord
280
     1
  0
XRECORD
  5
762
102
{ACAD_REACTORS
330
72D
102
}
330
72D
100
AcDbXrecord
280
     1
 40
347.5033413766575
  0
XRECORD
  5
763
102
{ACAD_REACTORS
330
72D
102
}
330
72D
100
AcDbXrecord
280
     1
 40
606.6909164365956
  0
DICTIONARY
  5
7AB
330
728
100
AcDbDictionary
280
     1
281
     1
  3
ACAD_ROUNDTRIP_2008_TABLESTYLE_CELLSTYLEMAP
360
7AC
  0
CELLSTYLEMAP
  5
7AC
102
{ACAD_REACTORS
330
7AB
102
}
330
7AB
100
AcDbCellStyleMap
 90
        3
300
CELLSTYLE
  1
TABLEFORMAT_BEGIN
 90
        5
170
     1
 91
        0
 92
    32768
 62
   257
 93
        1
300
CONTENTFORMAT
  1
CONTENTFORMAT_BEGIN
 90
        0
 91
        0
 92
        4
 93
        0
300

 40
0.0
140
1.0
 94
        5
 62
     0
340
6D0
144
0.25
309
CONTENTFORMAT_END
171
     1
301
MARGIN
  1
CELLMARGIN_BEGIN
 40
0.06
 40
0.06
 40
0.06
 40
0.06
 40
0.06
 40
0.06
309
CELLMARGIN_END
 94
        6
 95
        1
302
GRIDFORMAT
  1
GRIDFORMAT_BEGIN
 90
        0
 91
        1
 62
     0
 92
       -2
340
6D2
 93
        0
 40
0.045
309
GRIDFORMAT_END
 95
        2
302
GRIDFORMAT
  1
GRIDFORMAT_BEGIN
 90
        0
 91
        1
 62
     0
 92
       -2
340
6D2
 93
        0
 40
0.045
309
GRIDFORMAT_END
 95
        4
302
GRIDFORMAT
  1
GRIDFORMAT_BEGIN
 90
        0
 91
        1
 62
     0
 92
       -2
340
6D2
 93
        0
 40
0.045
309
GRIDFORMAT_END
 95
        8
302
GRIDFORMAT
  1
GRIDFORMAT_BEGIN
 90
        0
 91
        1
 62
     0
 92
       -2
340
6D2
 93
        0
 40
0.045
309
GRIDFORMAT_END
 95
       16
302
GRIDFORMAT
  1
GRIDFORMAT_BEGIN
 90
        0
 91
        1
 62
     0
 92
       -2
340
6D2
 93
        0
 40
0.045
309
GRIDFORMAT_END
 95
       32
302
GRIDFORMAT
  1
GRIDFORMAT_BEGIN
 90
        0
 91
        1
 62
     0
 92
       -2
340
6D2
 93
        0
 40
0.045
309
GRIDFORMAT_END
309
TABLEFORMAT_END
  1
CELLSTYLE_BEGIN
 90
        1
 91
        1
300
_TITLE
309
CELLSTYLE_END
300
CELLSTYLE
  1
TABLEFORMAT_BEGIN
 90
        5
170
     1
 91
        0
 92
        0
 62
   257
 93
        1
300
CONTENTFORMAT
  1
CONTENTFORMAT_BEGIN
 90
        0
 91
        0
 92
        4
 93
        0
300

 40
0.0
140
1.0
 94
        5
 62
     0
340
6D0
144
0.18
309
CONTENTFORMAT_END
171
     1
301
MARGIN
  1
CELLMARGIN_BEGIN
 40
0.06
 40
0.06
 40
0.06
 40
0.06
 40
0.06
 40
0.06
309
CELLMARGIN_END
 94
        6
 95
        1
302
GRIDFORMAT
  1
GRIDFORMAT_BEGIN
 90
        0
 91
        1
 62
     0
 92
       -2
340
6D2
 93
        0
 40
0.045
309
GRIDFORMAT_END
 95
        2
302
GRIDFORMAT
  1
GRIDFORMAT_BEGIN
 90
        0
 91
        1
 62
     0
 92
       -2
340
6D2
 93
        0
 40
0.045
309
GRIDFORMAT_END
 95
        4
302
GRIDFORMAT
  1
GRIDFORMAT_BEGIN
 90
        0
 91
        1
 62
     0
 92
       -2
340
6D2
 93
        0
 40
0.045
309
GRIDFORMAT_END
 95
        8
302
GRIDFORMAT
  1
GRIDFORMAT_BEGIN
 90
        0
 91
        1
 62
     0
 92
       -2
340
6D2
 93
        0
 40
0.045
309
GRIDFORMAT_END
 95
       16
302
GRIDFORMAT
  1
GRIDFORMAT_BEGIN
 90
        0
 91
        1
 62
     0
 92
       -2
340
6D2
 93
        0
 40
0.045
309
GRIDFORMAT_END
 95
       32
302
GRIDFORMAT
  1
GRIDFORMAT_BEGIN
 90
        0
 91
        1
 62
     0
 92
       -2
340
6D2
 93
        0
 40
0.045
309
GRIDFORMAT_END
309
TABLEFORMAT_END
  1
CELLSTYLE_BEGIN
 90
        2
 91
        1
300
_HEADER
309
CELLSTYLE_END
300
CELLSTYLE
  1
TABLEFORMAT_BEGIN
 90
        5
170
     1
 91
        0
 92
        0
 62
   257
 93
        1
300
CONTENTFORMAT
  1
CONTENTFORMAT_BEGIN
 90
        0
 91
        0
 92
        4
 93
        0
300

 40
0.0
140
1.0
 94
        2
 62
     0
340
6D0
144
0.18
309
CONTENTFORMAT_END
171
     1
301
MARGIN
  1
CELLMARGIN_BEGIN
 40
0.06
 40
0.06
 40
0.06
 40
0.06
 40
0.06
 40
0.06
309
CELLMARGIN_END
 94
        6
 95
        1
302
GRIDFORMAT
  1
GRIDFORMAT_BEGIN
 90
        0
 91
        1
 62
     0
 92
       -2
340
6D2
 93
        0
 40
0.045
309
GRIDFORMAT_END
 95
        2
302
GRIDFORMAT
  1
GRIDFORMAT_BEGIN
 90
        0
 91
        1
 62
     0
 92
       -2
340
6D2
 93
        0
 40
0.045
309
GRIDFORMAT_END
 95
        4
302
GRIDFORMAT
  1
GRIDFORMAT_BEGIN
 90
        0
 91
        1
 62
     0
 92
       -2
340
6D2
 93
        0
 40
0.045
309
GRIDFORMAT_END
 95
        8
302
GRIDFORMAT
  1
GRIDFORMAT_BEGIN
 90
        0
 91
        1
 62
     0
 92
       -2
340
6D2
 93
        0
 40
0.045
309
GRIDFORMAT_END
 95
       16
302
GRIDFORMAT
  1
GRIDFORMAT_BEGIN
 90
        0
 91
        1
 62
     0
 92
       -2
340
6D2
 93
        0
 40
0.045
309
GRIDFORMAT_END
 95
       32
302
GRIDFORMAT
  1
GRIDFORMAT_BEGIN
 90
        0
 91
        1
 62
     0
 92
       -2
340
6D2
 93
        0
 40
0.045
309
GRIDFORMAT_END
309
TABLEFORMAT_END
  1
CELLSTYLE_BEGIN
 90
        3
 91
        2
300
_DATA
309
CELLSTYLE_END
  0
ENDSEC
  0
EOF
