0
SECTION
2
HEADER
9
$INSUNITS
70
1
9
$ACADVER
1
AC1014
9
$HANDSEED
5
FFFF
0
ENDSEC
0
SECTION
2
TABLES
0
TABLE
2
VPORT
5
8
100
AcDbSymbolTable
0
ENDTAB
0
TABLE
2
LTYPE
5
5
100
AcDbSymbolTable
0
LTYPE
5
14
100
AcDbSymbolTableRecord
100
AcDbLinetypeTableRecord
2
BYBLOCK
70
0
0
LTYPE
5
15
100
AcDbSymbolTableRecord
100
AcDbLinetypeTableRecord
2
BYLAYER
70
0
0
ENDTAB
0
TABLE
2
LAYER
5
2
100
AcDbSymbolTable
70
2
0
LAYER
5
50
100
AcDbSymbolTableRecord
100
AcDbLayerTableRecord
2
0
70
0
6
CONTINUOUS
0
ENDTAB
0
TABLE
2
STYLE
5
3
100
AcDbSymbolTable
70
1
0
STYLE
5
11
100
AcDbSymbolTableRecord
100
AcDbTextStyleTableRecord
2
STANDARD
70
0
0
ENDTAB
0
TABLE
2
VIEW
5
6
100
AcDbSymbolTable
70
0
0
ENDTAB
0
TABLE
2
UCS
5
7
100
AcDbSymbolTable
70
0
0
ENDTAB
0
TABLE
2
APPID
5
9
100
AcDbSymbolTable
70
2
0
APPID
5
12
100
AcDbSymbolTableRecord
100
AcDbRegAppTableRecord
2
ACAD
70
0
0
ENDTAB
0
TABLE
2
DIMSTYLE
5
A
100
AcDbSymbolTable
70
1
0
ENDTAB
0
TABLE
2
BLOCK_RECORD
5
1
100
AcDbSymbolTable
70
1
0
BLOCK_RECORD
5
1F
100
AcDbSymbolTableRecord
100
AcDbBlockTableRecord
2
*MODEL_SPACE
0
BLOCK_RECORD
5
1B
100
AcDbSymbolTableRecord
100
AcDbBlockTableRecord
2
*PAPER_SPACE
0
ENDTAB
0
ENDSEC
0
SECTION
2
BLOCKS
0
BLOCK
5
20
100
AcDbEntity
100
AcDbBlockBegin
2
*MODEL_SPACE
0
ENDBLK
5
21
100
AcDbEntity
100
AcDbBlockEnd
0
BLOCK
5
1C
100
AcDbEntity
100
AcDbBlockBegin
2
*PAPER_SPACE
0
ENDBLK
5
1D
100
AcDbEntity
100
AcDbBlockEnd
0
ENDSEC
0
SECTION
2
ENTITIES
0
LINE
5
100
100
AcDbEntity
8
0
100
AcDbLine
10
-18.066261338582677
20
-0.55403452755905902
30
0
11
-21.269242795275595
21
-0.56366291338583141
31
0
0
LINE
5
101
100
AcDbEntity
8
0
100
AcDbLine
10
-38.057752440944888
20
0.23723988188975553
30
0
11
-38.0601546456693
21
0.5971192519684958
31
0
0
LINE
5
102
100
AcDbEntity
8
0
100
AcDbLine
10
-38.064148700787406
20
1.6826541338582597
30
0
11
-38.06522515748032
21
2.0488333858267636
31
0
0
LINE
5
103
100
AcDbEntity
8
0
100
AcDbLine
10
-14.279496614173233
20
-0.54273232283464878
30
0
11
-18.066261338582677
21
-0.55403452755905902
31
0
0
LINE
5
104
100
AcDbEntity
8
0
100
AcDbLine
10
-38.06522515748032
20
2.0488333858267636
30
0
11
-38.06623401574803
21
2.4129455118110159
31
0
0
LINE
5
105
100
AcDbEntity
8
0
100
AcDbLine
10
-21.269242795275595
20
-0.56366291338583141
30
0
11
-23.979295984251973
21
-0.57193015748032028
31
0
0
LINE
5
106
100
AcDbEntity
8
0
100
AcDbLine
10
-33.414076299212596
20
-0.60151232283465317
30
0
11
-34.255743070866153
21
-0.60440086614173982
31
0
0
LINE
5
107
100
AcDbEntity
8
0
100
AcDbLine
10
-5.3326226371370637
20
-0.51611840417076105
30
0
11
-8.450867052530306
21
-0.52538338527327466
31
0
0
LINE
5
108
100
AcDbEntity
8
0
100
AcDbLine
10
-36.082413149606303
20
-0.61018188976378751
30
0
11
-36.515119015748034
21
-0.61113370078740958
31
0
0
LINE
5
109
100
AcDbEntity
8
0
100
AcDbLine
10
-31.245440157480317
20
-0.59448173228347145
30
0
11
-32.419935866141742
21
-0.598212283464574
31
0
0
LINE
5
110
100
AcDbEntity
8
0
100
AcDbLine
10
-34.255743070866153
20
-0.60440086614173982
30
0
11
-34.968448661417327
21
-0.60670330708662201
31
0
0
LINE
5
111
100
AcDbEntity
8
0
100
AcDbLine
10
-36.87964354330709
20
-0.61218740157481122
30
0
11
-37.20694515748032
21
-0.61480661417323645
31
0
0
LINE
5
112
100
AcDbEntity
8
0
100
AcDbLine
10
-38.072206496062996
20
4.9975872834645587
30
0
11
-38.074020629921272
21
5.3691475590551105
31
0
0
LINE
5
113
100
AcDbEntity
8
0
100
AcDbLine
10
-38.0601546456693
20
0.5971192519684958
30
0
11
-38.061772440944885
21
0.95768661417322021
31
0
0
LINE
5
114
100
AcDbEntity
8
0
100
AcDbLine
10
-38.079781732283465
20
6.4882505511810953
30
0
11
-38.080986692913385
21
6.8611511023621974
31
0
0
LINE
5
115
100
AcDbEntity
8
0
100
AcDbLine
10
-35.571314251968502
20
-0.60858956692914168
30
0
11
-36.082413149606303
21
-0.61018188976378751
31
0
0
LINE
5
116
100
AcDbEntity
8
0
100
AcDbLine
10
-38.070538622047245
20
4.2557545669291255
30
0
11
-38.071073267716542
21
4.6262779527558981
31
0
0
LINE
5
117
100
AcDbEntity
8
0
100
AcDbLine
10
-38.061772440944885
20
0.95768661417322021
30
0
11
-38.062995118110244
21
1.3201923228346375
31
0
0
LINE
5
118
100
AcDbEntity
8
0
100
AcDbLine
10
-38.071073267716542
20
4.6262779527558981
30
0
11
-38.072206496062996
21
4.9975872834645587
31
0
0
LINE
5
119
100
AcDbEntity
8
0
100
AcDbLine
10
-38.078232322834651
20
6.115397440944875
30
0
11
-38.079781732283465
21
6.4882505511810953
31
0
0
LINE
5
120
100
AcDbEntity
8
0
100
AcDbLine
10
-38.080986692913385
20
6.8611511023621974
30
0
11
-38.082074409448815
21
7.2340365354330638
31
0
0
LINE
5
121
100
AcDbEntity
8
0
100
AcDbLine
10
-38.070174094488188
20
3.8851123228346385
30
0
11
-38.070538622047245
21
4.2557545669291255
31
0
0
LINE
5
122
100
AcDbEntity
8
0
100
AcDbLine
10
-38.069509212598433
20
3.5151988976377866
30
0
11
-38.070174094488188
21
3.8851123228346385
31
0
0
LINE
5
123
100
AcDbEntity
8
0
100
AcDbLine
10
-26.272879291338583
20
-0.5789739370078798
30
0
11
-28.214831496062995
21
-0.58489271653543928
31
0
0
LINE
5
124
100
AcDbEntity
8
0
100
AcDbLine
10
-38.084544606299218
20
7.9807099212598347
30
0
11
-38.086146496062995
21
8.3541023622047188
31
0
0
LINE
5
125
100
AcDbEntity
8
0
100
AcDbLine
10
-38.088009724409453
20
8.7276841338582614
30
0
11
-38.0901994488189
21
9.1042161417322767
31
0
0
LINE
5
126
100
AcDbEntity
8
0
100
AcDbLine
10
-37.20694515748032
20
-0.61480661417323645
30
0
11
-38.052941850393701
21
-0.61734476377953595
31
0
0
LINE
5
127
100
AcDbEntity
8
0
100
AcDbLine
10
-38.074020629921272
20
5.3691475590551105
30
0
11
-38.076219212598431
21
5.7416471259842448
31
0
0
LINE
5
128
100
AcDbEntity
8
0
100
AcDbLine
10
-29.8573375984252
20
-0.59008082677166018
30
0
11
-31.245440157480317
21
-0.59448173228347145
31
0
0
LINE
5
129
100
AcDbEntity
8
0
100
AcDbLine
10
-38.068432283464567
20
3.1455913779527478
30
0
11
-38.069509212598433
21
3.5151988976377866
31
0
0
LINE
5
130
100
AcDbEntity
8
0
100
AcDbLine
10
-38.082074409448815
20
7.2340365354330638
30
0
11
-38.083209685039378
21
7.607666889763772
31
0
0
LINE
5
131
100
AcDbEntity
8
0
100
AcDbLine
10
-38.083209685039378
20
7.607666889763772
30
0
11
-38.084544606299218
21
7.9807099212598347
31
0
0
LINE
5
132
100
AcDbEntity
8
0
100
AcDbLine
10
-32.419935866141742
20
-0.598212283464574
30
0
11
-33.414076299212596
21
-0.60151232283465317
31
0
0
LINE
5
133
100
AcDbEntity
8
0
100
AcDbLine
10
-23.979295984251973
20
-0.57193015748032028
30
0
11
-26.272879291338583
21
-0.5789739370078798
31
0
0
LINE
5
134
100
AcDbEntity
8
0
100
AcDbLine
10
-38.067274370078742
20
2.7790662204724326
30
0
11
-38.068432283464567
21
3.1455913779527478
31
0
0
LINE
5
135
100
AcDbEntity
8
0
100
AcDbLine
10
-38.052941850393701
20
-0.61734476377953595
30
0
11
-38.057752440944888
21
0.23723988188975553
31
0
0
LINE
5
136
100
AcDbEntity
8
0
100
AcDbLine
10
-38.086146496062995
20
8.3541023622047188
30
0
11
-38.088009724409453
21
8.7276841338582614
31
0
0
LINE
5
137
100
AcDbEntity
8
0
100
AcDbLine
10
-38.076219212598431
20
5.7416471259842448
30
0
11
-38.078232322834651
21
6.115397440944875
31
0
0
LINE
5
138
100
AcDbEntity
8
0
100
AcDbLine
10
-38.062995118110244
20
1.3201923228346375
30
0
11
-38.064148700787406
21
1.6826541338582597
31
0
0
LINE
5
139
100
AcDbEntity
8
0
100
AcDbLine
10
-38.06623401574803
20
2.4129455118110159
30
0
11
-38.067274370078742
21
2.7790662204724326
31
0
0
LINE
5
140
100
AcDbEntity
8
0
100
AcDbLine
10
-34.968448661417327
20
-0.60670330708662201
30
0
11
-35.571314251968502
21
-0.60858956692914168
31
0
0
LINE
5
141
100
AcDbEntity
8
0
100
AcDbLine
10
-9.8375169617365774
20
-0.52950342318344557
30
0
11
-14.279496614173233
21
-0.54273232283464878
31
0
0
LINE
5
142
100
AcDbEntity
8
0
100
AcDbLine
10
-28.214831496062995
20
-0.58489271653543928
30
0
11
-29.8573375984252
21
-0.59008082677166018
31
0
0
LINE
5
143
100
AcDbEntity
8
0
100
AcDbLine
10
-26.306147401574812
20
10.388877677165349
30
0
11
-24.012063976377959
21
10.395816417322832
31
0
0
LINE
5
144
100
AcDbEntity
8
0
100
AcDbLine
10
-24.012063976377959
20
10.395816417322832
30
0
11
-21.300573031496072
21
10.40392527559055
31
0
0
LINE
5
145
100
AcDbEntity
8
0
100
AcDbLine
10
-36.118279566929139
20
10.358209212598418
30
0
11
-35.607231850393703
21
10.3598429527559
31
0
0
LINE
5
146
100
AcDbEntity
8
0
100
AcDbLine
10
-5.9181535597243826
20
10.450016853554216
30
0
11
-5.3652102623947737
21
10.451697637236299
31
0
0
LINE
5
147
100
AcDbEntity
8
0
100
AcDbLine
10
-28.249062283464571
20
10.382842637795271
30
0
11
-26.306147401574812
21
10.388877677165349
31
0
0
LINE
5
148
100
AcDbEntity
8
0
100
AcDbLine
10
-21.300573031496072
20
10.40392527559055
30
0
11
-18.093345236220479
21
10.41352708661417
31
0
0
LINE
5
149
100
AcDbEntity
8
0
100
AcDbLine
10
-36.515119015748034
20
-0.61113370078740958
30
0
11
-36.87964354330709
21
-0.61218740157481122
31
0
0
LINE
5
150
100
AcDbEntity
8
0
100
AcDbLine
10
-38.0901994488189
20
9.1042161417322767
30
0
11
-38.089203503937014
21
9.4814026771653488
31
0
0
LINE
5
151
100
AcDbEntity
8
0
100
AcDbLine
10
-34.291528937007875
20
10.364128858267712
30
0
11
-33.449656968503938
21
10.366667913385823
31
0
0
LINE
5
152
100
AcDbEntity
8
0
100
AcDbLine
10
-36.916453346456692
20
10.354984291338576
30
0
11
-36.551398897637796
21
10.356577283464562
31
0
0
LINE
5
153
100
AcDbEntity
8
0
100
AcDbLine
10
-38.089203503937014
20
9.4814026771653488
30
0
11
-38.088895944881891
21
10.353210511811017
31
0
0
LINE
5
154
100
AcDbEntity
8
0
100
AcDbLine
10
-38.088895944881891
20
10.353210511811017
30
0
11
-37.24321909448819
21
10.355631929133851
31
0
0
LINE
5
155
100
AcDbEntity
8
0
100
AcDbLine
10
-35.004354448818901
20
10.361820157480308
30
0
11
-34.291528937007875
21
10.364128858267712
31
0
0
LINE
5
156
100
AcDbEntity
8
0
100
AcDbLine
10
-33.449656968503938
20
10.366667913385823
30
0
11
-32.455239133858271
21
10.369743070866138
31
0
0
LINE
5
157
100
AcDbEntity
8
0
100
AcDbLine
10
-14.305350275590555
20
10.42481874015748
30
0
11
-9.864820078740161
21
10.438020157480317
31
0
0
LINE
5
158
100
AcDbEntity
8
0
100
AcDbLine
10
-37.24321909448819
20
10.355631929133851
30
0
11
-36.916453346456692
21
10.354984291338576
31
0
0
LINE
5
159
100
AcDbEntity
8
0
100
AcDbLine
10
-31.280414133858272
20
10.373478779527554
30
0
11
-29.891946417322842
21
10.377807440944878
31
0
0
LINE
5
160
100
AcDbEntity
8
0
100
AcDbLine
10
-29.891946417322842
20
10.377807440944878
30
0
11
-28.249062283464571
21
10.382842637795271
31
0
0
LINE
5
161
100
AcDbEntity
8
0
100
AcDbLine
10
-18.093345236220479
20
10.41352708661417
30
0
11
-14.305350275590555
21
10.42481874015748
31
0
0
LINE
5
162
100
AcDbEntity
8
0
100
AcDbLine
10
-36.551398897637796
20
10.356577283464562
30
0
11
-36.118279566929139
21
10.358209212598418
31
0
0
LINE
5
163
100
AcDbEntity
8
0
100
AcDbLine
10
-35.607231850393703
20
10.3598429527559
30
0
11
-35.004354448818901
21
10.361820157480308
31
0
0
LINE
5
164
100
AcDbEntity
8
0
100
AcDbLine
10
-32.455239133858271
20
10.369743070866138
30
0
11
-31.280414133858272
21
10.373478779527554
31
0
0
LINE
5
165
100
AcDbEntity
8
0
100
AcDbLine
10
-5.3326077826487239
20
-0.52111788886858201
30
0
11
-5.3326226371370637
21
-0.51611840417076105
31
0
0
LINE
5
166
100
AcDbEntity
8
0
100
AcDbLine
10
-9.4147103129673742
20
-0.52824717284221057
30
0
11
-9.8375169617365774
21
-0.52950342318344557
31
0
0
LINE
5
167
100
AcDbEntity
8
0
100
AcDbLine
10
-9.864820078740161
20
10.438020157480317
30
0
11
-6.3603210607375011
21
10.448672795449017
31
0
0
LINE
5
168
100
AcDbEntity
8
0
100
AcDbLine
10
-6.3603210607375011
20
10.448672795449017
30
0
11
-5.9181535597243826
21
10.450016853554216
31
0
0
LINE
5
169
100
AcDbEntity
8
0
100
AcDbLine
10
-5.3652102623947737
20
10.451697637236299
30
0
11
-5.2276461091564252
21
10.452115791475848
31
0
0
LINE
5
170
100
AcDbEntity
8
0
100
AcDbLine
10
-8.450867052530306
20
-0.52538338527327466
30
0
11
-9.4147103129673742
21
-0.52824717284221057
31
0
0
LINE
5
171
100
AcDbEntity
8
0
100
AcDbLine
10
-5.1929960629921261
20
-0.51570354330708768
30
0
11
-5.3326226371370637
21
-0.51611840417076105
31
0
0
LINE
5
172
100
AcDbEntity
8
0
100
AcDbLine
10
-5.3854460991822437
20
-0.51626979098555525
30
0
11
-5.3869372642526256
21
-0.0162720238453135
31
0
0
LINE
5
173
100
AcDbEntity
8
0
100
AcDbLine
10
-5.3869372642526256
20
-0.0162720238453135
30
0
11
-5.4181549733383498
21
10.451237675865906
31
0
0
LINE
5
174
100
AcDbEntity
8
0
100
AcDbLine
10
-6.3603210607375011
20
10.448672795449017
30
0
11
-6.418150526181762
21
10.44825534566978
31
0
0
LINE
5
175
100
AcDbEntity
8
0
100
AcDbLine
10
-31.385618425196846
20
-12.50146929133858
30
0
11
-36.192996062992123
21
-12.515703543307085
31
0
0
LINE
5
176
100
AcDbEntity
8
0
100
AcDbLine
10
-36.365209338951551
20
-1.5486105816236604
30
0
11
-36.227645157480318
21
-1.5482018503936963
31
0
0
LINE
5
177
100
AcDbEntity
8
0
100
AcDbLine
10
-37.385441652025655
20
-12.519252121181678
30
0
11
-37.38544166861675
21
-12.519246558072451
31
0
0
LINE
5
178
100
AcDbEntity
8
0
100
AcDbLine
10
-37.386932817096032
20
-12.019254354041436
30
0
11
-37.418150526181755
21
-1.5517446543302165
31
0
0
LINE
5
179
100
AcDbEntity
8
0
100
AcDbLine
10
-36.332622637137064
20
-12.51611840417076
30
0
11
-36.885443875603947
21
-12.517760956083615
31
0
0
LINE
5
180
100
AcDbEntity
8
0
100
AcDbLine
10
-36.885429021137305
20
-12.522760433478242
30
0
11
-36.885443875603947
21
-12.517760956083615
31
0
0
LINE
5
181
100
AcDbEntity
8
0
100
AcDbLine
10
-37.365204924954526
20
-1.5515817723904359
30
0
11
-36.918152749760054
21
-1.5502534892321542
31
0
0
LINE
5
182
100
AcDbEntity
8
0
100
AcDbLine
10
-31.396867952755901
20
-8.6789889370078708
30
0
11
-31.385618425196846
21
-12.50146929133858
31
0
0
LINE
5
183
100
AcDbEntity
8
0
100
AcDbLine
10
-31.406778937007871
20
-5.3557686614173203
30
0
11
-31.396867952755901
21
-8.6789889370078708
31
0
0
LINE
5
184
100
AcDbEntity
8
0
100
AcDbLine
10
-36.227645157480318
20
-1.5482018503936963
30
0
11
-31.418264330708659
21
-1.5338502755905474
31
0
0
LINE
5
185
100
AcDbEntity
8
0
100
AcDbLine
10
-36.885443875603947
20
-12.517760956083615
30
0
11
-37.332618223100781
21
-12.519089608148247
31
0
0
LINE
5
186
100
AcDbEntity
8
0
100
AcDbLine
10
-36.192996062992123
20
-12.515703543307085
30
0
11
-36.332622637137064
21
-12.51611840417076
31
0
0
LINE
5
187
100
AcDbEntity
8
0
100
AcDbLine
10
-36.332607782648715
20
-12.521117888868581
30
0
11
-36.332622637137064
21
-12.51611840417076
31
0
0
LINE
5
188
100
AcDbEntity
8
0
100
AcDbLine
10
-31.418264330708659
20
-1.5338502755905474
30
0
11
-31.406778937007871
21
-5.3557686614173203
31
0
0
LINE
5
189
100
AcDbEntity
8
0
100
AcDbLine
10
-36.918152749760054
20
-1.5502534892321542
30
0
11
-36.365209338951551
21
-1.5486105816236604
31
0
0
LINE
5
190
100
AcDbEntity
8
0
100
AcDbLine
10
-37.332618223100781
20
-12.519089608148247
30
0
11
-37.38544166861675
21
-12.519246558072451
31
0
0
LINE
5
191
100
AcDbEntity
8
0
100
AcDbLine
10
-37.38544166861675
20
-12.519246558072451
30
0
11
-37.386932817096032
21
-12.019254354041436
31
0
0
ENDSEC
0
SECTION
2
OBJECTS
0
DICTIONARY
5
C
100
AcDbDictionary
3
ACAD_GROUP
350
D
3
ACAD_MLINESTYLE
350
17
0
DICTIONARY
5
D
100
AcDbDictionary
0
DICTIONARY
5
1A
330
C
100
AcDbDictionary
0
DICTIONARY
5
17
100
AcDbDictionary
0
ENDSEC
0
EOF
