0
SECTION
2
HEADER
9
$INSUNITS
70
1
9
$ACADVER
1
AC1014
9
$HANDSEED
5
FFFF
0
ENDSEC
0
SECTION
2
TABLES
0
TABLE
2
VPORT
5
8
100
AcDbSymbolTable
0
ENDTAB
0
TABLE
2
LTYPE
5
5
100
AcDbSymbolTable
0
LTYPE
5
14
100
AcDbSymbolTableRecord
100
AcDbLinetypeTableRecord
2
BYBLOCK
70
0
0
LTYPE
5
15
100
AcDbSymbolTableRecord
100
AcDbLinetypeTableRecord
2
BYLAYER
70
0
0
ENDTAB
0
TABLE
2
LAYER
5
2
100
AcDbSymbolTable
70
2
0
LAYER
5
50
100
AcDbSymbolTableRecord
100
AcDbLayerTableRecord
2
0
70
0
6
CONTINUOUS
0
ENDTAB
0
TABLE
2
STYLE
5
3
100
AcDbSymbolTable
70
1
0
STYLE
5
11
100
AcDbSymbolTableRecord
100
AcDbTextStyleTableRecord
2
STANDARD
70
0
0
ENDTAB
0
TABLE
2
VIEW
5
6
100
AcDbSymbolTable
70
0
0
ENDTAB
0
TABLE
2
UCS
5
7
100
AcDbSymbolTable
70
0
0
ENDTAB
0
TABLE
2
APPID
5
9
100
AcDbSymbolTable
70
2
0
APPID
5
12
100
AcDbSymbolTableRecord
100
AcDbRegAppTableRecord
2
ACAD
70
0
0
ENDTAB
0
TABLE
2
DIMSTYLE
5
A
100
AcDbSymbolTable
70
1
0
ENDTAB
0
TABLE
2
BLOCK_RECORD
5
1
100
AcDbSymbolTable
70
1
0
BLOCK_RECORD
5
1F
100
AcDbSymbolTableRecord
100
AcDbBlockTableRecord
2
*MODEL_SPACE
0
BLOCK_RECORD
5
1B
100
AcDbSymbolTableRecord
100
AcDbBlockTableRecord
2
*PAPER_SPACE
0
ENDTAB
0
ENDSEC
0
SECTION
2
BLOCKS
0
BLOCK
5
20
100
AcDbEntity
100
AcDbBlockBegin
2
*MODEL_SPACE
0
ENDBLK
5
21
100
AcDbEntity
100
AcDbBlockEnd
0
BLOCK
5
1C
100
AcDbEntity
100
AcDbBlockBegin
2
*PAPER_SPACE
0
ENDBLK
5
1D
100
AcDbEntity
100
AcDbBlockEnd
0
ENDSEC
0
SECTION
2
ENTITIES
0
LINE
5
100
100
AcDbEntity
8
0
100
AcDbLine
10
-19.525687022808064
20
10.50514593056581
30
0
11
-16.272784371592593
21
10.542344753989893
31
0
0
LINE
5
101
100
AcDbEntity
8
0
100
AcDbLine
10
-21.01256626648825
20
-0.64119786932427458
30
0
11
-23.724546866048737
21
-0.70829860314294479
31
0
0
LINE
5
102
100
AcDbEntity
8
0
100
AcDbLine
10
-27.964602479226659
20
-0.79047090043434254
30
0
11
-29.609844515125875
21
-0.81114724917511805
31
0
0
LINE
5
103
100
AcDbEntity
8
0
100
AcDbLine
10
-0.075815359002553609
20
-0.041189690681735516
30
0
11
-4.9455878828527977
21
-0.17054909930341944
31
0
0
LINE
5
104
100
AcDbEntity
8
0
100
AcDbLine
10
-26.723911908175939
20
10.403037991758282
30
0
11
-24.654585080368083
21
10.436459169299138
31
0
0
LINE
5
105
100
AcDbEntity
8
0
100
AcDbLine
10
-0.23672852221810659
20
5.3398363559811868
30
0
11
-0.075815359002553609
21
-0.041189690681735516
31
0
0
LINE
5
106
100
AcDbEntity
8
0
100
AcDbLine
10
-0.3303782980016074
20
10.717768476885638
30
0
11
-0.2365917277129804
21
5.3352618713311211
31
0
0
LINE
5
107
100
AcDbEntity
8
0
100
AcDbLine
10
-17.805527374370541
20
-0.55410670363520254
30
0
11
-21.01256626648825
21
-0.64119786932427458
31
0
0
LINE
5
108
100
AcDbEntity
8
0
100
AcDbLine
10
-16.272784371592593
20
10.542344753989893
30
0
11
-12.568668555765564
21
10.581273001312121
31
0
0
LINE
5
109
100
AcDbEntity
8
0
100
AcDbLine
10
-0.2365917277129804
20
5.3352618713311211
30
0
11
-0.23672852221810659
21
5.3398363559811868
31
0
0
LINE
5
110
100
AcDbEntity
8
0
100
AcDbLine
10
-14.018420419810473
20
-0.44368076080602009
30
0
11
-17.805527374370541
21
-0.55410670363520254
31
0
0
LINE
5
111
100
AcDbEntity
8
0
100
AcDbLine
10
-35.968846786028706
20
10.144377680263954
30
0
11
-35.469181644436425
21
10.167486654757553
31
0
0
LINE
5
112
100
AcDbEntity
8
0
100
AcDbLine
10
-28.489991493527818
20
10.370868847804809
30
0
11
-26.723911908175939
21
10.403037991758282
31
0
0
LINE
5
113
100
AcDbEntity
8
0
100
AcDbLine
10
-36.390668418495231
20
10.123311023668723
30
0
11
-35.968846786028706
21
10.144377680263954
31
0
0
LINE
5
114
100
AcDbEntity
8
0
100
AcDbLine
10
-34.022754795362985
20
-0.80015901760181307
30
0
11
-34.73986052452576
21
-0.78349363170911857
31
0
0
LINE
5
115
100
AcDbEntity
8
0
100
AcDbLine
10
-36.990706485315307
20
-0.67316377563234142
30
0
11
-37.803411338582677
21
-0.63379925196851228
31
0
0
LINE
5
116
100
AcDbEntity
8
0
100
AcDbLine
10
-32.434846424759968
20
10.276387061899875
30
0
11
-31.311667620075557
21
10.307379261647517
31
0
0
LINE
5
117
100
AcDbEntity
8
0
100
AcDbLine
10
-23.724546866048737
20
-0.70829860314294479
30
0
11
-26.019889549941812
21
-0.75740545653533109
31
0
0
LINE
5
118
100
AcDbEntity
8
0
100
AcDbLine
10
-24.654585080368083
20
10.436459169299138
30
0
11
-22.278383225066438
21
10.470303516491308
31
0
0
LINE
5
119
100
AcDbEntity
8
0
100
AcDbLine
10
-35.469181644436425
20
10.167486654757553
30
0
11
-34.882532482344295
21
10.192756079328884
31
0
0
LINE
5
120
100
AcDbEntity
8
0
100
AcDbLine
10
-37.803411338582677
20
-0.63379925196851228
30
0
11
-37.811877182887102
21
0.21148989981157051
31
0
0
LINE
5
121
100
AcDbEntity
8
0
100
AcDbLine
10
-31.001352645295931
20
-0.82021362800902553
30
0
11
-32.179487560176106
21
-0.81971610175928844
31
0
0
LINE
5
122
100
AcDbEntity
8
0
100
AcDbLine
10
-4.5818946127459173
20
10.664684712579703
30
0
11
-0.3303782980016074
21
10.717768476885638
31
0
0
LINE
5
123
100
AcDbEntity
8
0
100
AcDbLine
10
-35.862891400709948
20
-0.7414172115493729
30
0
11
-36.300209093136822
21
-0.71747039349488784
31
0
0
LINE
5
124
100
AcDbEntity
8
0
100
AcDbLine
10
-5.5738438139719175
20
-0.18933634996527604
30
0
11
-9.5797505550107367
21
-0.30912825378041625
31
0
0
LINE
5
125
100
AcDbEntity
8
0
100
AcDbLine
10
-22.278383225066438
20
10.470303516491308
30
0
11
-19.525687022808064
21
10.50514593056581
31
0
0
LINE
5
126
100
AcDbEntity
8
0
100
AcDbLine
10
-37.889180694047759
20
10.066954496839855
30
0
11
-37.062277171618447
21
10.091646191498929
31
0
0
LINE
5
127
100
AcDbEntity
8
0
100
AcDbLine
10
-35.347131514277343
20
-0.76331370257339703
30
0
11
-35.862891400709948
21
-0.7414172115493729
31
0
0
LINE
5
128
100
AcDbEntity
8
0
100
AcDbLine
10
-32.179487560176106
20
-0.81971610175928844
30
0
11
-33.177225896292384
21
-0.81234296229266711
31
0
0
LINE
5
129
100
AcDbEntity
8
0
100
AcDbLine
10
-36.667842435699328
20
-0.69402355432067697
30
0
11
-36.990706485315307
21
-0.67316377563234142
31
0
0
LINE
5
130
100
AcDbEntity
8
0
100
AcDbLine
10
-36.747084688257736
20
10.105693021530698
30
0
11
-36.390668418495231
21
10.123311023668723
31
0
0
LINE
5
131
100
AcDbEntity
8
0
100
AcDbLine
10
-33.385374614372488
20
10.246834106160296
30
0
11
-32.434846424759968
21
10.276387061899875
31
0
0
LINE
5
132
100
AcDbEntity
8
0
100
AcDbLine
10
-34.882532482344295
20
10.192756079328884
30
0
11
-34.195442069876577
21
10.219099535513728
31
0
0
LINE
5
133
100
AcDbEntity
8
0
100
AcDbLine
10
-29.999242434980818
20
10.339186599275811
30
0
11
-28.489991493527818
21
10.370868847804809
31
0
0
LINE
5
134
100
AcDbEntity
8
0
100
AcDbLine
10
-34.195442069876577
20
10.219099535513728
30
0
11
-33.385374614372488
21
10.246834106160296
31
0
0
LINE
5
135
100
AcDbEntity
8
0
100
AcDbLine
10
-31.311667620075557
20
10.307379261647517
30
0
11
-29.999242434980818
21
10.339186599275811
31
0
0
LINE
5
136
100
AcDbEntity
8
0
100
AcDbLine
10
-12.568668555765564
20
10.581273001312121
30
0
11
-8.5503407706106831
21
10.622314384628751
31
0
0
LINE
5
137
100
AcDbEntity
8
0
100
AcDbLine
10
-26.019889549941812
20
-0.75740545653533109
30
0
11
-27.964602479226659
21
-0.79047090043434254
31
0
0
LINE
5
138
100
AcDbEntity
8
0
100
AcDbLine
10
-29.609844515125875
20
-0.81114724917511805
30
0
11
-31.001352645295931
21
-0.82021362800902553
31
0
0
LINE
5
139
100
AcDbEntity
8
0
100
AcDbLine
10
-37.062277171618447
20
10.091646191498929
30
0
11
-36.747084688257736
21
10.105693021530698
31
0
0
LWPOLYLINE
5
140
100
AcDbEntity
8
0
100
AcDbPolyline
90
70
70
1
43
0.0
10
-26.715321747230991
20
9.9031115056182415
10
-28.480191618324916
20
9.8709644136092134
10
-29.987938456656188
20
9.8393137135921283
10
-31.298714787658874
20
9.8075463643356713
10
-32.420181661915478
20
9.7766013996060845
10
-33.369051209668939
20
9.7471000248664925
10
-34.177309572195668
20
9.7194273871299437
10
-34.862195688361226
20
9.6931684346383129
10
-35.446873134012904
20
9.667983943546572
10
-35.944826834808538
20
9.6449541004038384
10
-36.365855775005002
20
9.6239270896666635
10
-36.723611418141303
20
9.6062428530321604
10
-37.043683984399699
20
9.5919785542116749
10
-37.384926985203023
20
9.5817888618238332
10
-37.381659244566656
20
9.2074023980625697
10
-37.380191274806648
20
8.8332204627249933
10
-37.379493517557556
20
8.4575433520641443
10
-37.376373238016427
20
8.0824954517649008
10
-37.373099179734936
20
7.7080434241146687
10
-37.370174208985084
20
7.333815864592915
10
-37.367644126961878
20
6.9594478172139818
10
-37.365147362178234
20
6.5847879410800498
10
-37.362325017753214
20
6.2099709808219101
10
-37.359098576479731
20
5.8351901591936421
10
-37.35570630766491
20
5.4605385259499419
10
-37.352307753154015
20
5.085915825046766
10
-37.348967827870474
20
4.7113272220379434
10
-37.345754173061501
20
4.3367367825922507
10
-37.342631529212021
20
3.9620971589798746
10
-37.339494830427128
20
3.5874248474290091
10
-37.336357937710019
20
3.2127710144893813
10
-37.333317251019601
20
2.8380989616923391
10
-37.330375588028986
20
2.4637306321459413
10
-37.327489498996187
20
2.0893080025531705
10
-37.324691233593398
20
1.7152109591612807
10
-37.322022831780018
20
1.3406373576874773
10
-37.319287472318393
20
0.96611626990686561
10
-37.31603108882674
20
0.59124584412817915
10
-37.311904786304716
20
0.21674802566762491
10
-37.308159570819328
20
-0.15720130272250984
10
-36.962491197562954
20
-0.17394424257349694
10
-36.63581179040014
20
-0.19505052108498488
10
-36.270627224650028
20
-0.21834117561322669
10
-35.83861719482865
20
-0.24199736532864433
10
-35.328223898682978
20
-0.26366604771110436
10
-34.725748763771826
20
-0.28368659666481311
10
-34.013344155373602
20
-0.30024270318625862
10
-33.171776301127736
20
-0.31236958877301035
10
-32.177534570442759
20
-0.31971689644643142
10
-31.00287594317264
20
-0.3202129346681048
10
-29.614615006198441
20
-0.31116771932101223
10
-27.971994161505798
20
-0.2905243038774033
10
-26.029486953235807
20
-0.2574964072731315
10
-23.736077905396364
20
-0.20843086864882332
10
-21.025536515617745
20
-0.14136574043452971
10
-17.819600456672365
20
-0.054304554836462363
10
-14.033281888189467
20
0.056098438232932667
10
-9.594798106135384
20
0.19064529153060414
10
-4.9596991200530054
20
0.3292523960493165
10
-0.6518055941304105
20
0.44368621497126587
10
-0.73665295325563895
20
5.3311449249710678
10
-0.7365162373130103
20
5.3265730674947802
10
-0.82163447901448872
20
10.211595772056882
10
-4.5761043170347024
20
10.164718042744497
10
-8.5451184802704478
20
10.122341645446738
10
-12.563488117322491
20
10.08129981356819
10
-16.267298434105953
20
10.042374795056194
10
-19.51966417619699
20
10.005182113676744
10
-22.271658706176574
20
9.970348578620964
10
-24.646987534605067
20
9.9365166539616467
0
LINE
5
141
100
AcDbEntity
8
0
100
AcDbLine
10
-37.848948722150318
20
4.7069535567753134
30
0
11
-37.85228753072262
21
5.0814189558328318
31
0
0
LINE
5
142
100
AcDbEntity
8
0
100
AcDbLine
10
-34.73986052452576
20
-0.78349363170911857
30
0
11
-35.347131514277343
21
-0.76331370257339703
31
0
0
LINE
5
143
100
AcDbEntity
8
0
100
AcDbLine
10
-37.811877182887102
20
0.21148989981157051
30
0
11
-37.816007150353776
21
0.58631985274614751
31
0
0
LINE
5
144
100
AcDbEntity
8
0
100
AcDbLine
10
-19.311818670118843
20
1.6585614814599057
30
0
11
-18.723109915730198
21
8.3875333352156698
31
0
0
LINE
5
145
100
AcDbEntity
8
0
100
AcDbLine
10
-36.300209093136822
20
-0.71747039349488784
30
0
11
-36.667842435699328
21
-0.69402355432067697
31
0
0
LINE
5
146
100
AcDbEntity
8
0
100
AcDbLine
10
-8.5503407706106831
20
10.622314384628751
30
0
11
-5.8980001602867427
21
10.650632909569383
31
0
0
LINE
5
147
100
AcDbEntity
8
0
100
AcDbLine
10
-9.5797505550107367
20
-0.30912825378041625
30
0
11
-14.018420419810473
21
-0.44368076080602009
31
0
0
LINE
5
148
100
AcDbEntity
8
0
100
AcDbLine
10
-33.177225896292384
20
-0.81234296229266711
30
0
11
-34.022754795362985
21
-0.80015901760181307
31
0
0
LINE
5
149
100
AcDbEntity
8
0
100
AcDbLine
10
-37.880189474620927
20
8.8317753552976033
30
0
11
-37.881650706631937
21
9.2042396159497972
31
0
0
LINE
5
150
100
AcDbEntity
8
0
100
AcDbLine
10
-37.84573630882501
20
4.3325083846171539
30
0
11
-37.848948722150318
21
4.7069535567753134
31
0
0
LINE
5
151
100
AcDbEntity
8
0
100
AcDbLine
10
-37.816007150353776
20
0.58631985274614751
30
0
11
-37.819271610911933
21
0.96211884667839209
31
0
0
LINE
5
152
100
AcDbEntity
8
0
100
AcDbLine
10
-37.876355076267615
20
8.0782297994818322
30
0
11
-37.879489666535541
21
8.4549991591329761
31
0
0
LINE
5
153
100
AcDbEntity
8
0
100
AcDbLine
10
-37.867632846345927
20
6.9560923304780573
30
0
11
-37.870160974413103
21
7.3301723793537823
31
0
0
LINE
5
154
100
AcDbEntity
8
0
100
AcDbLine
10
-37.873082100899666
20
7.7039036206972131
30
0
11
-37.876355076267615
21
8.0782297994818322
31
0
0
LINE
5
155
100
AcDbEntity
8
0
100
AcDbLine
10
-37.870160974413103
20
7.3301723793537823
30
0
11
-37.873082100899666
21
7.7039036206972131
31
0
0
LINE
5
156
100
AcDbEntity
8
0
100
AcDbLine
10
-37.833301297002841
20
2.8341057590513818
30
0
11
-37.836340958596701
21
3.2086490435266546
31
0
0
LINE
5
157
100
AcDbEntity
8
0
100
AcDbLine
10
-37.822009825098171
20
1.3370305673786389
30
0
11
-37.82467789549483
21
1.7115600745375952
31
0
0
LINE
5
158
100
AcDbEntity
8
0
100
AcDbLine
10
-37.85228753072262
20
5.0814189558328318
30
0
11
-37.855685747060846
21
5.4560071257828771
31
0
0
LINE
5
159
100
AcDbEntity
8
0
100
AcDbLine
10
-37.859079075143235
20
5.8307744885841277
30
0
11
-37.862308809320169
21
6.2059364175149287
31
0
0
LINE
5
160
100
AcDbEntity
8
0
100
AcDbLine
10
-37.862308809320169
20
6.2059364175149287
30
0
11
-37.865134820912772
21
6.5812395236977501
31
0
0
LINE
5
161
100
AcDbEntity
8
0
100
AcDbLine
10
-37.842614111688484
20
3.9579205718976147
30
0
11
-37.84573630882501
21
4.3325083846171539
31
0
0
LINE
5
162
100
AcDbEntity
8
0
100
AcDbLine
10
-37.881650706631937
20
9.2042396159497972
30
0
11
-37.889180694047759
21
10.066954496839855
31
0
0
LINE
5
163
100
AcDbEntity
8
0
100
AcDbLine
10
-37.879489666535541
20
8.4549991591329761
30
0
11
-37.880189474620927
21
8.8317753552976033
31
0
0
LINE
5
164
100
AcDbEntity
8
0
100
AcDbLine
10
-37.836340958596701
20
3.2086490435266546
30
0
11
-37.839477291704775
21
3.5832388043518417
31
0
0
LINE
5
165
100
AcDbEntity
8
0
100
AcDbLine
10
-37.865134820912772
20
6.5812395236977501
30
0
11
-37.867632846345927
21
6.9560923304780573
31
0
0
LINE
5
166
100
AcDbEntity
8
0
100
AcDbLine
10
-37.82747506648105
20
2.0855110730993371
30
0
11
-37.830360443095003
21
2.4598393050110867
31
0
0
LINE
5
167
100
AcDbEntity
8
0
100
AcDbLine
10
-37.830360443095003
20
2.4598393050110867
30
0
11
-37.833301297002841
21
2.8341057590513818
31
0
0
LINE
5
168
100
AcDbEntity
8
0
100
AcDbLine
10
-37.839477291704775
20
3.5832388043518417
30
0
11
-37.842614111688484
21
3.9579205718976147
31
0
0
LINE
5
169
100
AcDbEntity
8
0
100
AcDbLine
10
-37.855685747060846
20
5.4560071257828771
30
0
11
-37.859079075143235
21
5.8307744885841277
31
0
0
LINE
5
170
100
AcDbEntity
8
0
100
AcDbLine
10
-37.819271610911933
20
0.96211884667839209
30
0
11
-37.822009825098171
21
1.3370305673786389
31
0
0
LINE
5
171
100
AcDbEntity
8
0
100
AcDbLine
10
-37.82467789549483
20
1.7115600745375952
30
0
11
-37.82747506648105
21
2.0855110730993371
31
0
0
LINE
5
172
100
AcDbEntity
8
0
100
AcDbLine
10
-5.8980001602867427
20
10.650632909569383
30
0
11
-4.5818946127459173
21
10.664684712579703
31
0
0
LINE
5
173
100
AcDbEntity
8
0
100
AcDbLine
10
-4.9455878828527977
20
-0.17054909930341944
30
0
11
-5.5738438139719175
21
-0.18933634996527604
31
0
0
LINE
5
174
100
AcDbEntity
8
0
100
AcDbLine
10
-5.5738438139719175
20
-0.18933634996527604
30
0
11
-5.5887890357403238
21
0.31044021275891442
31
0
0
LINE
5
175
100
AcDbEntity
8
0
100
AcDbLine
10
-5.8830521773842115
20
10.150764012977955
30
0
11
-5.8980001602867427
21
10.650632909569383
31
0
0
LINE
5
176
100
AcDbEntity
8
0
100
AcDbLine
10
-5.5887890357403238
20
0.31044021275891442
30
0
11
-5.8830521773842115
21
10.150764012977955
31
0
0
ENDSEC
0
SECTION
2
OBJECTS
0
DICTIONARY
5
C
100
AcDbDictionary
3
ACAD_GROUP
350
D
3
ACAD_MLINESTYLE
350
17
0
DICTIONARY
5
D
100
AcDbDictionary
0
DICTIONARY
5
1A
330
C
100
AcDbDictionary
0
DICTIONARY
5
17
100
AcDbDictionary
0
ENDSEC
0
EOF
