0
SECTION
2
HEADER
9
$INSUNITS
70
1
9
$ACADVER
1
AC1014
9
$HANDSEED
5
FFFF
0
ENDSEC
0
SECTION
2
TABLES
0
TABLE
2
VPORT
5
8
100
AcDbSymbolTable
0
ENDTAB
0
TABLE
2
LTYPE
5
5
100
AcDbSymbolTable
0
LTYPE
5
14
100
AcDbSymbolTableRecord
100
AcDbLinetypeTableRecord
2
BYBLOCK
70
0
0
LTYPE
5
15
100
AcDbSymbolTableRecord
100
AcDbLinetypeTableRecord
2
BYLAYER
70
0
0
ENDTAB
0
TABLE
2
LAYER
5
2
100
AcDbSymbolTable
70
2
0
LAYER
5
50
100
AcDbSymbolTableRecord
100
AcDbLayerTableRecord
2
0
70
0
6
CONTINUOUS
0
ENDTAB
0
TABLE
2
STYLE
5
3
100
AcDbSymbolTable
70
1
0
STYLE
5
11
100
AcDbSymbolTableRecord
100
AcDbTextStyleTableRecord
2
STANDARD
70
0
0
ENDTAB
0
TABLE
2
VIEW
5
6
100
AcDbSymbolTable
70
0
0
ENDTAB
0
TABLE
2
UCS
5
7
100
AcDbSymbolTable
70
0
0
ENDTAB
0
TABLE
2
APPID
5
9
100
AcDbSymbolTable
70
2
0
APPID
5
12
100
AcDbSymbolTableRecord
100
AcDbRegAppTableRecord
2
ACAD
70
0
0
ENDTAB
0
TABLE
2
DIMSTYLE
5
A
100
AcDbSymbolTable
70
1
0
ENDTAB
0
TABLE
2
BLOCK_RECORD
5
1
100
AcDbSymbolTable
70
1
0
BLOCK_RECORD
5
1F
100
AcDbSymbolTableRecord
100
AcDbBlockTableRecord
2
*MODEL_SPACE
0
BLOCK_RECORD
5
1B
100
AcDbSymbolTableRecord
100
AcDbBlockTableRecord
2
*PAPER_SPACE
0
ENDTAB
0
ENDSEC
0
SECTION
2
BLOCKS
0
BLOCK
5
20
100
AcDbEntity
100
AcDbBlockBegin
2
*MODEL_SPACE
0
ENDBLK
5
21
100
AcDbEntity
100
AcDbBlockEnd
0
BLOCK
5
1C
100
AcDbEntity
100
AcDbBlockBegin
2
*PAPER_SPACE
0
ENDBLK
5
1D
100
AcDbEntity
100
AcDbBlockEnd
0
ENDSEC
0
SECTION
2
ENTITIES
0
LWPOLYLINE
5
100
100
AcDbEntity
8
0
100
AcDbPolyline
90
71
70
1
43
0.0
10
-22.235642792754561
20
-1.0041921400640335
10
-19.861262470771806
20
-0.9260951403164176
10
-17.111106873004367
20
-0.81711324211664604
10
-13.861709171296141
20
-0.67157131103963352
10
-10.162007806529369
20
-0.49139806976984046
10
-6.1483941747086117
20
-0.29092465023328234
10
-2.1837091051263764
20
-0.10101017384882664
10
1.5680800110451154
20
0.049092359705698654
10
1.5037370061231363
20
3.5454956322158262
10
1.4479356284100713
20
6.5758565424749831
10
1.3995733620010118
20
9.2054594652951565
10
-1.2743419204183024
20
9.1563210361975518
10
-4.0318746646198145
20
9.1055181691094216
10
-6.9169300823624491
20
9.0525438709809407
10
-9.9416212882381867
20
8.9970280424632723
10
-13.091302761196809
20
8.9392131221007389
10
-16.241967670759347
20
8.8811844257702042
10
-19.095668235948185
20
8.8283223867329514
10
-21.516267834720761
20
8.7833153748975086
10
-23.568785303776242
20
8.7453641228516066
10
-25.302999155800517
20
8.7139267179569728
10
-26.772348413167663
20
8.6885659735126239
10
-28.023852298284798
20
8.6690908995949272
10
-29.079252481626426
20
8.6556592357496385
10
-29.971910017987341
20
8.6480556555392578
10
-30.725375135356469
20
8.6452757760500063
10
-31.367329843138055
20
8.6480781902927824
10
-31.90961114754155
20
8.6575246906375938
10
-32.369581425382108
20
8.6718863789657608
10
-32.759846451569281
20
8.6941965163282919
10
-33.090983002833106
20
8.7248526685692767
10
-33.385647514559608
20
8.7766319951134459
10
-33.696698378298663
20
8.8546678898689972
10
-33.744077707874148
20
8.4928789305126031
10
-33.792574164697186
20
8.1312719000557561
10
-33.842568224383903
20
7.7681019655611738
10
-33.889984306618615
20
7.4047775161669716
10
-33.937218992631003
20
7.0416562669093539
10
-33.984750371752469
20
6.6784704047782943
10
-34.032744699525352
20
6.3148841845710777
10
-34.080899301567548
20
5.9506738814478366
10
-34.12879793930766
20
5.5859020687778616
10
-34.176342627511261
20
5.2211590266174754
10
-34.223774202366521
20
4.8565179299199714
10
-34.271219587586081
20
4.4919173897374565
10
-34.318819381148423
20
4.1270408110961991
10
-34.366656256722919
20
3.762238512733088
10
-34.414788362872031
20
3.3967111824793434
10
-34.463133985117544
20
3.0307654693734922
10
-34.511637247324643
20
2.6642555077488859
10
-34.560050189242986
20
2.2972241412822649
10
-34.608275969236594
20
1.9301939408968583
10
-34.656526372751216
20
1.5636232286937126
10
-34.704987436814427
20
1.1966433590372645
10
-34.753480532650499
20
0.82931457947151566
10
-34.802395683180826
20
0.46140866303531225
10
-34.849807607490156
20
0.092749182208935521
10
-34.897572244616015
20
-0.27563228450305793
10
-34.578366257143145
20
-0.3977249039002671
10
-34.276774103023193
20
-0.50602966764180324
10
-33.930607620041094
20
-0.60065491446706798
10
-33.518343500722075
20
-0.69160015235206429
10
-33.026624504820916
20
-0.77495287088282505
10
-32.446632745395107
20
-0.85395618320658595
10
-31.764567036487382
20
-0.92237533320297349
10
-30.957827232555385
20
-0.98098705145492282
10
-30.009659763454337
20
-1.0306467378393493
10
-28.888205970131551
20
-1.0664833810698433
10
-27.577021213268704
20
-1.0847319946943152
10
-26.068817433250828
20
-1.0815625452552557
10
-24.303737940751525
20
-1.0549177639740028
0
LINE
5
101
100
AcDbEntity
8
0
100
AcDbLine
10
-29.084778054051888
20
9.1540292052967285
30
0
11
-28.031139034453233
21
9.1674936718360378
31
0
0
LINE
5
102
100
AcDbEntity
8
0
100
AcDbLine
10
-9.9510299505590112
20
9.4963444581757823
30
0
11
-6.9263430936758228
21
9.5520189151181025
31
0
0
LINE
5
103
100
AcDbEntity
8
0
100
AcDbLine
10
-31.362098288956883
20
9.1463367328271552
30
0
11
-30.725420331647527
21
9.143590784235581
31
0
0
LINE
5
104
100
AcDbEntity
8
0
100
AcDbLine
10
-28.031139034453233
20
9.1674936718360378
30
0
11
-26.780769072891474
21
9.1870167453449003
31
0
0
LINE
5
105
100
AcDbEntity
8
0
100
AcDbLine
10
-29.975176128378227
20
9.1463981103266168
30
0
11
-29.084778054051888
21
9.1540292052967285
31
0
0
LINE
5
106
100
AcDbEntity
8
0
100
AcDbLine
10
-30.725420331647527
20
9.143590784235581
30
0
11
-29.975176128378227
21
9.1463981103266168
31
0
0
LINE
5
107
100
AcDbEntity
8
0
100
AcDbLine
10
-32.347722961032837
20
9.1696666806343128
30
0
11
-31.897669082227221
21
9.1556382493136717
31
0
0
LINE
5
108
100
AcDbEntity
8
0
100
AcDbLine
10
-33.024776687338566
20
9.2190316970428974
30
0
11
-32.722737117441213
21
9.1910852629108177
31
0
0
LINE
5
109
100
AcDbEntity
8
0
100
AcDbLine
10
-23.57815770614938
20
9.2439662185789206
30
0
11
-21.525758528099967
21
9.2820229640593244
31
0
0
LINE
5
110
100
AcDbEntity
8
0
100
AcDbLine
10
-1.2837814660667917
20
9.6560916756892556
30
0
11
1.8900506639660852
21
9.7145835865403232
31
0
0
LINE
5
111
100
AcDbEntity
8
0
100
AcDbLine
10
-6.9263430936758228
20
9.5520189151181025
30
0
11
-3.6087608034668834
21
9.6131092168849293
31
0
0
LINE
5
112
100
AcDbEntity
8
0
100
AcDbLine
10
-4.0413077408471452
20
9.6051442530584552
30
0
11
-1.2837814660667917
21
9.6560916756892556
31
0
0
LINE
5
113
100
AcDbEntity
8
0
100
AcDbLine
10
-32.722737117441213
20
9.1910852629108177
30
0
11
-32.347722961032837
21
9.1696666806343128
31
0
0
LINE
5
114
100
AcDbEntity
8
0
100
AcDbLine
10
-31.897669082227221
20
9.1556382493136717
30
0
11
-31.362098288956883
21
9.1463367328271552
31
0
0
LINE
5
115
100
AcDbEntity
8
0
100
AcDbLine
10
-3.4195712982664102
20
-0.66105433762108146
30
0
11
-6.1236540359772498
21
-0.79072619604646599
31
0
0
LINE
5
116
100
AcDbEntity
8
0
100
AcDbLine
10
-34.050133705933348
20
-1.0881013351809601
30
0
11
-34.427099675226657
21
-0.98507824928528986
31
0
0
LINE
5
117
100
AcDbEntity
8
0
100
AcDbLine
10
-35.152056713801066
20
1.6270565213942885
30
0
11
-35.103846678366033
21
1.9934691172821191
31
0
0
LINE
5
118
100
AcDbEntity
8
0
100
AcDbLine
10
-17.965033106804377
20
-0.77132375323815483
30
0
11
-14.317247605620485
21
9.2508845422785768
31
0
0
LINE
5
119
100
AcDbEntity
8
0
100
AcDbLine
10
-34.751880123559474
20
-0.86846556646592155
30
0
11
-35.443768779527559
21
-0.60386767716536194
31
0
0
LINE
5
120
100
AcDbEntity
8
0
100
AcDbLine
10
-35.443768779527559
20
-0.60386767716536194
30
0
11
-35.345432939584846
21
0.15485286111695035
31
0
0
LINE
5
121
100
AcDbEntity
8
0
100
AcDbLine
10
2.0772866952512219
20
-0.43091515889630433
30
0
11
-2.1614560775280673
21
-0.60072255246109296
31
0
0
LINE
5
122
100
AcDbEntity
8
0
100
AcDbLine
10
-21.525758528099967
20
9.2820229640593244
30
0
11
-19.105169803351487
21
9.327156812867937
31
0
0
LINE
5
123
100
AcDbEntity
8
0
100
AcDbLine
10
-19.105169803351487
20
9.327156812867937
30
0
11
-16.251428190065429
21
9.380169342425754
31
0
0
LINE
5
124
100
AcDbEntity
8
0
100
AcDbLine
10
-33.613711118979815
20
-1.1843519001646685
30
0
11
-34.050133705933348
21
-1.0881013351809601
31
0
0
LINE
5
125
100
AcDbEntity
8
0
100
AcDbLine
10
-13.100724273084788
20
9.4383640793074228
30
0
11
-9.9510299505590112
21
9.4963444581757823
31
0
0
LINE
5
126
100
AcDbEntity
8
0
100
AcDbLine
10
-35.055631276991384
20
2.3605695065319177
30
0
11
-35.007207280060982
21
2.7278333294137012
31
0
0
LINE
5
127
100
AcDbEntity
8
0
100
AcDbLine
10
-35.007207280060982
20
2.7278333294137012
30
0
11
-34.958716543769725
21
3.094396354127424
31
0
0
LINE
5
128
100
AcDbEntity
8
0
100
AcDbLine
10
2.0037312788394885
20
3.5547259219832381
30
0
11
2.0772866952512219
21
-0.43091515889630433
31
0
0
LINE
5
129
100
AcDbEntity
8
0
100
AcDbLine
10
-34.958716543769725
20
3.094396354127424
30
0
11
-34.910411320747841
21
3.4601838953870647
31
0
0
LINE
5
130
100
AcDbEntity
8
0
100
AcDbLine
10
-30.988678394819882
20
-1.4817414205903678
30
0
11
-31.807303239432443
21
-1.4223093903793189
31
0
0
LINE
5
131
100
AcDbEntity
8
0
100
AcDbLine
10
-35.103846678366033
20
1.9934691172821191
30
0
11
-35.055631276991384
21
2.3605695065319177
31
0
0
LINE
5
132
100
AcDbEntity
8
0
100
AcDbLine
10
-25.312062487772948
20
9.2124434375811841
30
0
11
-23.57815770614938
21
9.2439662185789206
31
0
0
LINE
5
133
100
AcDbEntity
8
0
100
AcDbLine
10
1.8900506639660852
20
9.7145835865403232
30
0
11
1.9477710388327361
21
6.5850811463457442
31
0
0
LINE
5
134
100
AcDbEntity
8
0
100
AcDbLine
10
-30.030376687661214
20
-1.5318814792594919
30
0
11
-30.988678394819882
21
-1.4817414205903678
31
0
0
LINE
5
135
100
AcDbEntity
8
0
100
AcDbLine
10
-22.220949659827198
20
-1.5052335177990632
30
0
11
-24.293487147340855
21
-1.5561768791761708
31
0
0
LINE
5
136
100
AcDbEntity
8
0
100
AcDbLine
10
-35.200486025318369
20
1.2601688966451035
30
0
11
-35.152056713801066
21
1.6270565213942885
31
0
0
LINE
5
137
100
AcDbEntity
8
0
100
AcDbLine
10
-24.293487147340855
20
-1.5561768791761708
30
0
11
-26.064170019540676
21
-1.582999189702252
31
0
0
LINE
5
138
100
AcDbEntity
8
0
100
AcDbLine
10
-35.297937104873867
20
0.52431799163036541
30
0
11
-35.248930848601624
21
0.8930572396639116
31
0
0
LINE
5
139
100
AcDbEntity
8
0
100
AcDbLine
10
-17.089686706527598
20
-1.3176439211955997
30
0
11
-19.842804459067438
21
-1.4268878068960442
31
0
0
LINE
5
140
100
AcDbEntity
8
0
100
AcDbLine
10
-26.064170019540676
20
-1.582999189702252
30
0
11
-27.579626533950453
21
-1.5862633657188101
31
0
0
LINE
5
141
100
AcDbEntity
8
0
100
AcDbLine
10
-26.780769072891474
20
9.1870167453449003
30
0
11
-25.312062487772948
21
9.2124434375811841
31
0
0
LINE
5
142
100
AcDbEntity
8
0
100
AcDbLine
10
-19.842804459067438
20
-1.4268878068960442
30
0
11
-22.220949659827198
21
-1.5052335177990632
31
0
0
LINE
5
143
100
AcDbEntity
8
0
100
AcDbLine
10
-34.427099675226657
20
-0.98507824928528986
30
0
11
-34.751880123559474
21
-0.86846556646592155
31
0
0
LINE
5
144
100
AcDbEntity
8
0
100
AcDbLine
10
-35.248930848601624
20
0.8930572396639116
30
0
11
-35.200486025318369
21
1.2601688966451035
31
0
0
LINE
5
145
100
AcDbEntity
8
0
100
AcDbLine
10
-28.899323144477066
20
-1.5679655107272459
30
0
11
-30.030376687661214
21
-1.5318814792594919
31
0
0
LINE
5
146
100
AcDbEntity
8
0
100
AcDbLine
10
-31.807303239432443
20
-1.4223093903793189
30
0
11
-32.505009554318399
21
-1.3523582541051504
31
0
0
LINE
5
147
100
AcDbEntity
8
0
100
AcDbLine
10
-16.251428190065429
20
9.380169342425754
30
0
11
-13.100724273084788
21
9.4383640793074228
31
0
0
LINE
5
148
100
AcDbEntity
8
0
100
AcDbLine
10
-35.345432939584846
20
0.15485286111695035
30
0
11
-35.297937104873867
21
0.52431799163036541
31
0
0
LINE
5
149
100
AcDbEntity
8
0
100
AcDbLine
10
-32.505009554318399
20
-1.3523582541051504
30
0
11
-33.101836640165025
21
-1.2710936219089148
31
0
0
LINE
5
150
100
AcDbEntity
8
0
100
AcDbLine
10
-33.101836640165025
20
-1.2710936219089148
30
0
11
-33.613711118979815
21
-1.1843519001646685
31
0
0
LINE
5
151
100
AcDbEntity
8
0
100
AcDbLine
10
-34.576664705862093
20
6.0141001575407858
30
0
11
-34.528506944540666
21
6.3784814358771813
31
0
0
LINE
5
152
100
AcDbEntity
8
0
100
AcDbLine
10
-34.480574851887127
20
6.7417430003568004
30
0
11
-34.433123824831959
21
7.1044627209917053
31
0
0
LINE
5
153
100
AcDbEntity
8
0
100
AcDbLine
10
-34.62460384341837
20
5.648871339001154
30
0
11
-34.576664705862093
21
6.0141001575407858
31
0
0
LINE
5
154
100
AcDbEntity
8
0
100
AcDbLine
10
-34.528506944540666
20
6.3784814358771813
30
0
11
-34.480574851887127
21
6.7417430003568004
31
0
0
LINE
5
155
100
AcDbEntity
8
0
100
AcDbLine
10
-34.433123824831959
20
7.1044627209917053
30
0
11
-34.385919836437587
21
7.4674968810971389
31
0
0
LINE
5
156
100
AcDbEntity
8
0
100
AcDbLine
10
-34.385919836437587
20
7.4674968810971389
30
0
11
-34.338281977303097
21
7.8326699894921656
31
0
0
LINE
5
157
100
AcDbEntity
8
0
100
AcDbLine
10
-34.910411320747841
20
3.4601838953870647
30
0
11
-34.862329873955858
21
3.8254748348986074
31
0
0
LINE
5
158
100
AcDbEntity
8
0
100
AcDbLine
10
-34.672168590657563
20
5.2838250878942263
30
0
11
-34.62460384341837
21
5.648871339001154
31
0
0
LINE
5
159
100
AcDbEntity
8
0
100
AcDbLine
10
-13.838035350559824
20
-1.1718301435232923
30
0
11
-17.089686706527598
21
-1.3176439211955997
31
0
0
LINE
5
160
100
AcDbEntity
8
0
100
AcDbLine
10
-27.579626533950453
20
-1.5862633657188101
30
0
11
-28.899323144477066
21
-1.5679655107272459
31
0
0
LINE
5
161
100
AcDbEntity
8
0
100
AcDbLine
10
-34.862329873955858
20
3.8254748348986074
30
0
11
-34.8145512322494
21
4.1899813648742201
31
0
0
LINE
5
162
100
AcDbEntity
8
0
100
AcDbLine
10
-34.767002401766923
20
4.5546164526244679
30
0
11
-34.719588031277311
21
4.9191275299734176
31
0
0
LINE
5
163
100
AcDbEntity
8
0
100
AcDbLine
10
-6.1236540359772498
20
-0.79072619604646599
30
0
11
-10.137058374735346
21
-0.99140020001002049
31
0
0
LINE
5
164
100
AcDbEntity
8
0
100
AcDbLine
10
1.9477710388327361
20
6.5850811463457442
30
0
11
2.0037312788394885
21
3.5547259219832381
31
0
0
LINE
5
165
100
AcDbEntity
8
0
100
AcDbLine
10
-10.137058374735346
20
-0.99140020001002049
30
0
11
-13.838035350559824
21
-1.1718301435232923
31
0
0
LINE
5
166
100
AcDbEntity
8
0
100
AcDbLine
10
-34.719588031277311
20
4.9191275299734176
30
0
11
-34.672168590657563
21
5.2838250878942263
31
0
0
LINE
5
167
100
AcDbEntity
8
0
100
AcDbLine
10
-34.8145512322494
20
4.1899813648742201
30
0
11
-34.767002401766923
21
4.5546164526244679
31
0
0
LINE
5
168
100
AcDbEntity
8
0
100
AcDbLine
10
-34.338281977303097
20
7.8326699894921656
30
0
11
-34.288186129039389
21
8.1967206284124643
31
0
0
LINE
5
169
100
AcDbEntity
8
0
100
AcDbLine
10
-34.288186129039389
20
8.1967206284124643
30
0
11
-34.239927307776306
21
8.5566990622976871
31
0
0
LINE
5
170
100
AcDbEntity
8
0
100
AcDbLine
10
-34.239927307776306
20
8.5566990622976871
30
0
11
-34.119797622179874
21
9.4743840491932794
31
0
0
LINE
5
171
100
AcDbEntity
8
0
100
AcDbLine
10
-34.119797622179874
20
9.4743840491932794
30
0
11
-33.281631439823812
21
9.2641530558600387
31
0
0
LINE
5
172
100
AcDbEntity
8
0
100
AcDbLine
10
-33.281631439823812
20
9.2641530558600387
30
0
11
-33.024776687338566
21
9.2190316970428974
31
0
0
LINE
5
173
100
AcDbEntity
8
0
100
AcDbLine
10
-3.4195712982664102
20
-0.66105433762108146
30
0
11
-3.6087608034668834
21
9.6131092168849293
31
0
0
LINE
5
174
100
AcDbEntity
8
0
100
AcDbLine
10
-3.6087608034668834
20
9.6131092168849293
30
0
11
-4.0413077408471452
21
9.6051442530584552
31
0
0
LINE
5
175
100
AcDbEntity
8
0
100
AcDbLine
10
-2.1614560775280673
20
-0.60072255246109296
30
0
11
-3.4195712982664102
21
-0.66105433762108146
31
0
0
ENDSEC
0
SECTION
2
OBJECTS
0
DICTIONARY
5
C
100
AcDbDictionary
3
ACAD_GROUP
350
D
3
ACAD_MLINESTYLE
350
17
0
DICTIONARY
5
D
100
AcDbDictionary
0
DICTIONARY
5
1A
330
C
100
AcDbDictionary
0
DICTIONARY
5
17
100
AcDbDictionary
0
ENDSEC
0
EOF
