0
SECTION
2
HEADER
9
$INSUNITS
70
4
9
$ACADVER
1
AC1014
9
$HANDSEED
5
FFFF
0
ENDSEC
0
SECTION
2
TABLES
0
TABLE
2
VPORT
5
8
100
AcDbSymbolTable
0
ENDTAB
0
TABLE
2
LTYPE
5
5
100
AcDbSymbolTable
0
LTYPE
5
14
100
AcDbSymbolTableRecord
100
AcDbLinetypeTableRecord
2
BYBLOCK
70
0
0
LTYPE
5
15
100
AcDbSymbolTableRecord
100
AcDbLinetypeTableRecord
2
BYLAYER
70
0
0
ENDTAB
0
TABLE
2
LAYER
5
2
100
AcDbSymbolTable
70
2
0
LAYER
5
50
100
AcDbSymbolTableRecord
100
AcDbLayerTableRecord
2
0
70
0
6
CONTINUOUS
0
ENDTAB
0
TABLE
2
STYLE
5
3
100
AcDbSymbolTable
70
1
0
STYLE
5
11
100
AcDbSymbolTableRecord
100
AcDbTextStyleTableRecord
2
STANDARD
70
0
0
ENDTAB
0
TABLE
2
VIEW
5
6
100
AcDbSymbolTable
70
0
0
ENDTAB
0
TABLE
2
UCS
5
7
100
AcDbSymbolTable
70
0
0
ENDTAB
0
TABLE
2
APPID
5
9
100
AcDbSymbolTable
70
2
0
APPID
5
12
100
AcDbSymbolTableRecord
100
AcDbRegAppTableRecord
2
ACAD
70
0
0
ENDTAB
0
TABLE
2
DIMSTYLE
5
A
100
AcDbSymbolTable
70
1
0
ENDTAB
0
TABLE
2
BLOCK_RECORD
5
1
100
AcDbSymbolTable
70
1
0
BLOCK_RECORD
5
1F
100
AcDbSymbolTableRecord
100
AcDbBlockTableRecord
2
*MODEL_SPACE
0
BLOCK_RECORD
5
1B
100
AcDbSymbolTableRecord
100
AcDbBlockTableRecord
2
*PAPER_SPACE
0
ENDTAB
0
ENDSEC
0
SECTION
2
BLOCKS
0
BLOCK
5
20
100
AcDbEntity
100
AcDbBlockBegin
2
*MODEL_SPACE
0
ENDBLK
5
21
100
AcDbEntity
100
AcDbBlockEnd
0
BLOCK
5
1C
100
AcDbEntity
100
AcDbBlockBegin
2
*PAPER_SPACE
0
ENDBLK
5
1D
100
AcDbEntity
100
AcDbBlockEnd
0
ENDSEC
0
SECTION
2
ENTITIES
0
SPLINE
5
100
100
AcDbEntity
8
0
100
AcDbSpline
70
4
71
5
72
36
73
30
74
0
42
0.000000001
43
0.0000000001
44
0.0000000001
40
0
40
0
40
0
40
0
40
0
40
0
40
0.040000000000000001
40
0.080000000000000002
40
0.12
40
0.16
40
0.20000000000000001
40
0.24000000000000002
40
0.28000000000000003
40
0.32000000000000001
40
0.35999999999999999
40
0.39999999999999997
40
0.43999999999999995
40
0.47999999999999993
40
0.51999999999999991
40
0.55999999999999994
40
0.59999999999999998
40
0.64000000000000001
40
0.68000000000000005
40
0.72000000000000008
40
0.76000000000000012
40
0.80000000000000016
40
0.84000000000000019
40
0.88000000000000023
40
0.92000000000000026
40
0.9600000000000003
40
1
40
1
40
1
40
1
40
1
40
1
41
1
41
1
41
1
41
1
41
1
41
1
41
1
41
1
41
1
41
1
41
1
41
1
41
1
41
1
41
1
41
1
41
1
41
1
41
1
41
1
41
1
41
1
41
1
41
1
41
1
41
1
41
1
41
1
41
1
41
1
10
121.94331921368168
20
-25.175475642661276
30
0
10
117.67611946337844
20
-25.176331465913911
30
0
10
109.03324342528421
20
-24.862613694116597
30
0
10
95.835792431878986
20
-23.446925970728646
30
0
10
78.4785670596833
20
-19.758309987196334
30
0
10
59.921523166726658
20
-12.670219948891479
30
0
10
47.495861637475514
20
-3.809568904558327
30
0
10
43.78656377781784
20
6.0491250096505329
30
0
10
50.143227347984649
20
16.191762380188194
30
0
10
66.548632653004461
20
26.006203846849388
30
0
10
91.922610975243202
20
34.968559749523529
30
0
10
124.2739432732518
20
42.647373754109708
30
0
10
160.91155918366806
20
48.701219481683601
30
0
10
198.59018235180662
20
52.881932978298735
30
0
10
233.82411676152162
20
55.030514217389268
30
0
10
263.28368861436127
20
55.071207022719541
30
0
10
284.1534817972103
20
53.007898362618377
30
0
10
294.54407186734369
20
48.92115158145014
30
0
10
293.82134572249214
20
42.967345071524932
30
0
10
283.1664341161038
20
35.377309654903101
30
0
10
265.35326274081029
20
26.46259970877372
30
0
10
243.72467432550505
20
16.630828220484641
30
0
10
221.42387150544482
20
6.3978661551872298
30
0
10
200.46353473511519
20
-3.5922558899701222
30
0
10
181.03069973241332
20
-12.5630652416733
30
0
10
162.28435079562783
20
-19.721573701853874
30
0
10
146.85760408310301
20
-23.434301713262204
30
0
10
134.63644192710336
20
-24.85747875460077
30
0
10
126.21051896398481
20
-25.174619819408637
30
0
10
121.94331921368168
20
-25.175475642661276
30
0
0
SPLINE
5
101
100
AcDbEntity
8
0
100
AcDbSpline
70
4
71
5
72
36
73
30
74
0
42
0.000000001
43
0.0000000001
44
0.0000000001
40
0
40
0
40
0
40
0
40
0
40
0
40
0.040000000000000001
40
0.080000000000000002
40
0.12
40
0.16
40
0.20000000000000001
40
0.24000000000000002
40
0.28000000000000003
40
0.32000000000000001
40
0.35999999999999999
40
0.39999999999999997
40
0.43999999999999995
40
0.47999999999999993
40
0.51999999999999991
40
0.55999999999999994
40
0.59999999999999998
40
0.64000000000000001
40
0.68000000000000005
40
0.72000000000000008
40
0.76000000000000012
40
0.80000000000000016
40
0.84000000000000019
40
0.88000000000000023
40
0.92000000000000026
40
0.9600000000000003
40
1
40
1
40
1
40
1
40
1
40
1
41
1
41
1
41
1
41
1
41
1
41
1
41
1
41
1
41
1
41
1
41
1
41
1
41
1
41
1
41
1
41
1
41
1
41
1
41
1
41
1
41
1
41
1
41
1
41
1
41
1
41
1
41
1
41
1
41
1
41
1
10
375.16561370652363
20
-37.836590367303337
30
0
10
368.19855707680904
20
-37.917366747602649
30
0
10
354.21728346617328
20
-38.083333756340735
30
0
10
333.41195056749507
20
-38.335970990703132
30
0
10
307.25954685869101
20
-38.489745280904927
30
0
10
280.16688198341279
20
-37.460985595442644
30
0
10
261.14596029062051
20
-34.163565787853379
30
0
10
251.86825303749299
20
-27.746474652498726
30
0
10
252.93740247525474
20
-17.837574672592346
30
0
10
263.44328165568379
20
-4.9491481091565923
30
0
10
281.14123333569421
20
9.5582079232568216
30
0
10
303.17112524244544
20
23.899234407542696
30
0
10
326.64518473541784
20
36.184937936684612
30
0
10
349.21915487883814
20
44.758604882489905
30
0
10
369.83322111773157
20
48.587315381598685
30
0
10
388.82418038734033
20
47.42232628408086
30
0
10
407.1272268190765
20
41.60448059032661
30
0
10
425.66942982611744
20
31.966817857820836
30
0
10
444.76753890659813
20
19.699526684462288
30
0
10
463.32169879912522
20
6.2526012511111144
30
0
10
478.98967308270159
20
-6.8465744464129674
30
0
10
489.05575165747712
20
-18.239953043277954
30
0
10
491.04512964679884
20
-26.945753260246835
30
0
10
483.54095574658123
20
-32.63627069201749
30
0
10
466.62159210048583
20
-35.730154061418375
30
0
10
441.46636993766941
20
-37.033484727596147
30
0
10
416.40051298223239
20
-37.385766473432597
30
0
10
396.0196232444606
20
-37.59867547454482
30
0
10
382.13267033623811
20
-37.755813987004018
30
0
10
375.16561370652363
20
-37.836590367303337
30
0
0
SPLINE
5
102
100
AcDbEntity
8
0
100
AcDbSpline
70
4
71
5
72
36
73
30
74
0
42
0.000000001
43
0.0000000001
44
0.0000000001
40
0
40
0
40
0
40
0
40
0
40
0
40
0.040000000000000001
40
0.080000000000000002
40
0.12
40
0.16
40
0.20000000000000001
40
0.24000000000000002
40
0.28000000000000003
40
0.32000000000000001
40
0.35999999999999999
40
0.39999999999999997
40
0.43999999999999995
40
0.47999999999999993
40
0.51999999999999991
40
0.55999999999999994
40
0.59999999999999998
40
0.64000000000000001
40
0.68000000000000005
40
0.72000000000000008
40
0.76000000000000012
40
0.80000000000000016
40
0.84000000000000019
40
0.88000000000000023
40
0.92000000000000026
40
0.9600000000000003
40
1
40
1
40
1
40
1
40
1
40
1
41
1
41
1
41
1
41
1
41
1
41
1
41
1
41
1
41
1
41
1
41
1
41
1
41
1
41
1
41
1
41
1
41
1
41
1
41
1
41
1
41
1
41
1
41
1
41
1
41
1
41
1
41
1
41
1
41
1
41
1
10
663.83902942836335
20
-20.111029752804441
30
0
10
659.61387583721137
20
-20.793430614962297
30
0
10
651.25588190684448
20
-22.157284688177455
30
0
10
639.11207201653031
20
-24.135308492796703
30
0
10
623.76186341715641
20
-26.270328225239638
30
0
10
604.88422317831566
20
-26.965022969383348
30
0
10
584.8168212801063
20
-24.650355073961521
30
0
10
562.4384668427416
20
-18.699797793911287
30
0
10
537.87577437858977
20
-9.2438237142393334
30
0
10
513.15694177071225
20
2.5793785785173826
30
0
10
491.35331983530824
20
15.070544054343177
30
0
10
475.88273922812567
20
26.34056937318833
30
0
10
469.76966360227351
20
34.699065343763195
30
0
10
474.88637603653757
20
39.055484976871227
30
0
10
491.28324904679732
20
39.267353135599265
30
0
10
517.62236177182842
20
35.863412606846019
30
0
10
551.50627732050384
20
29.823559853270027
30
0
10
589.82976499826589
20
22.345776420288082
30
0
10
629.1095213985252
20
14.619611227536456
30
0
10
665.81437514979757
20
7.6065597894324002
30
0
10
696.69599325305535
20
1.7938758251850633
30
0
10
719.07526317543261
20
-2.7237452265142235
30
0
10
731.12991274815727
20
-6.132073745017883
30
0
10
732.19267420525728
20
-8.7999714651312715
30
0
10
723.06277241607381
20
-11.178697287232017
30
0
10
706.32758108240569
20
-13.704216847090617
30
0
10
689.58143261141697
20
-16.076326850703456
30
0
10
676.60680345375511
20
-18.062879515230339
30
0
10
668.06418301951521
20
-19.428628890646589
30
0
10
663.83902942836335
20
-20.111029752804441
30
0
0
LINE
5
103
100
AcDbEntity
8
0
100
AcDbLine
10
11.481434253013351
20
-11.669114986067068
30
0
11
15.623254739567889
21
-24.411388631628167
31
0
0
SPLINE
5
104
100
AcDbEntity
8
0
100
AcDbSpline
70
0
71
3
72
44
73
40
74
0
42
0.000000001
43
0.0000000001
44
0.0000000001
40
0.53933767972430846
40
0.53933767972430846
40
0.53933767972430846
40
0.53933767972430846
40
0.54531611036283734
40
0.54531611036283734
40
0.54531611036283734
40
0.55300910817051407
40
0.55300910817051407
40
0.55300910817051407
40
0.56352368883116066
40
0.56352368883116066
40
0.56352368883116066
40
0.58011624276773199
40
0.58011624276773199
40
0.58011624276773199
40
0.59762377208798545
40
0.59762377208798545
40
0.59762377208798545
40
0.62041598890373451
40
0.62041598890373451
40
0.62041598890373451
40
0.65099650931236419
40
0.65099650931236419
40
0.65099650931236419
40
0.69171859807881764
40
0.69171859807881764
40
0.69171859807881764
40
0.73014369109953803
40
0.73014369109953803
40
0.73014369109953803
40
0.7763244275910316
40
0.7763244275910316
40
0.7763244275910316
40
0.8224756804304566
40
0.8224756804304566
40
0.8224756804304566
40
0.86767162231121731
40
0.86767162231121731
40
0.86767162231121731
40
0.88682303580676936
40
0.88682303580676936
40
0.88682303580676936
40
0.88682303580676936
10
15.623254739567788
20
-24.41138863162811
30
0
10
17.34051632100018
20
-25.324543056587594
30
0
10
19.189895536790409
20
-26.227057437736839
30
0
10
21.136385183145478
20
-27.077790253421504
30
0
10
23.641112842871202
20
-28.172506589813086
30
0
10
26.375667805911995
20
-29.214594871070744
30
0
10
29.485857566442878
20
-30.300670026505841
30
0
10
33.736780538809498
20
-31.78508807923841
30
0
10
38.56666455023489
20
-33.330042939561636
30
0
10
43.523078033830629
20
-34.799475133720833
30
0
10
51.344555723978893
20
-37.11831539227493
30
0
10
59.52415502790803
20
-39.189008427089021
30
0
10
68.324235755185427
20
-41.113215389971927
30
0
10
77.609585794869687
20
-43.143530310127609
30
0
10
87.510064284771659
20
-45.050798586605644
30
0
10
97.700940437081854
20
-46.773146801347359
30
0
10
110.96795570560391
20
-49.015389737202199
30
0
10
124.8418355164531
20
-50.926462251243059
30
0
10
139.26965363083474
20
-52.58707922021852
30
0
10
158.62758576466618
20
-54.815143805651047
30
0
10
178.85255444595794
20
-56.585719099791802
30
0
10
199.63892930968763
20
-57.868992375232779
30
0
10
227.31879188307602
20
-59.577843877294818
30
0
10
256.09478730145065
20
-60.397813055525233
30
0
10
285.6423926226189
20
-60.587757872758019
30
0
10
313.52331713798236
20
-60.766988543189314
30
0
10
342.01610831627113
20
-60.423911305770943
30
0
10
370.71401520591121
20
-59.571607742461119
30
0
10
405.20424988701501
20
-58.547276942617728
30
0
10
440.09008056024072
20
-56.740166032538689
30
0
10
474.96743558407172
20
-54.395904371393186
30
0
10
509.82252349224552
20
-52.053139381813061
30
0
10
544.60217612964675
20
-49.219992572609918
30
0
10
578.66695907223016
20
-45.844130650847902
30
0
10
612.02661575176694
20
-42.538147609731219
30
0
10
644.75175155540705
20
-38.639149256576594
30
0
10
676.56101303868593
20
-34.33771643581818
30
0
10
690.03992938169802
20
-32.515019194746813
30
0
10
703.35223135727529
20
-30.626360576560895
30
0
10
716.4387644954337
20
-28.70462312397537
30
0
0
SPLINE
5
105
100
AcDbEntity
8
0
100
AcDbSpline
70
0
71
3
72
26
73
22
74
0
42
0.000000001
43
0.0000000001
44
0.0000000001
40
0.88040764581965092
40
0.88040764581965092
40
0.88040764581965092
40
0.88040764581965092
40
0.8833844932501449
40
0.8833844932501449
40
0.8833844932501449
40
0.91223780133207433
40
0.91223780133207433
40
0.91223780133207433
40
0.931962370350782
40
0.931962370350782
40
0.931962370350782
40
0.94647492011407475
40
0.94647492011407475
40
0.94647492011407475
40
0.95947275674670007
40
0.95947275674670007
40
0.95947275674670007
40
0.96960456756002511
40
0.96960456756002511
40
0.96960456756002511
40
0.97267035159099413
40
0.97267035159099413
40
0.97267035159099413
40
0.97267035159099413
10
716.43876449543484
20
-28.704623123980678
30
0
10
718.50942363908814
20
-28.426087005676337
30
0
10
720.57499698697734
20
-28.146426863355956
30
0
10
722.63533415644565
20
-27.865746916735151
30
0
10
742.60530053576076
20
-25.145236322436514
30
0
10
762.061864686072
20
-22.331358203033872
30
0
10
780.86952113179632
20
-19.55741478742037
30
0
10
793.726726849437
20
-17.661104035117908
30
0
10
806.21436564846658
20
-15.79061450324086
30
0
10
818.25182648815883
20
-13.996310888984954
30
0
10
827.10850920168366
20
-12.676133983337621
30
0
10
835.78752521064825
20
-11.389765149316862
30
0
10
844.2012129915646
20
-10.172040881737473
30
0
10
851.73674196738045
20
-9.0814137106517894
30
0
10
858.98117268356032
20
-8.0556269942191232
30
0
10
865.8014493069727
20
-7.1297147874633913
30
0
10
871.11785344375903
20
-6.4079664247358519
30
0
10
876.22959386759464
20
-5.7406669739963796
30
0
10
881.28264947904177
20
-5.1177488592971718
30
0
10
882.81165327575673
20
-4.9292601040457864
30
0
10
884.33105310628662
20
-4.7453189052408291
30
0
10
885.83653767831277
20
-4.5665952407386348
30
0
0
SPLINE
5
106
100
AcDbEntity
8
0
100
AcDbSpline
70
0
71
3
72
92
73
88
74
0
42
0.000000001
43
0.0000000001
44
0.0000000001
40
0.026621007433277642
40
0.026621007433277642
40
0.026621007433277642
40
0.026621007433277642
40
0.029207276174275994
40
0.029207276174275994
40
0.029207276174275994
40
0.040780927809772431
40
0.040780927809772431
40
0.040780927809772431
40
0.053630328433646977
40
0.053630328433646977
40
0.053630328433646977
40
0.068481721631441478
40
0.068481721631441478
40
0.068481721631441478
40
0.087751816414712414
40
0.087751816414712414
40
0.087751816414712414
40
0.11481596548541169
40
0.11481596548541169
40
0.11481596548541169
40
0.15398619991854179
40
0.15398619991854179
40
0.15398619991854179
40
0.22046483471288475
40
0.22046483471288475
40
0.22046483471288475
40
0.28961645180084056
40
0.28961645180084056
40
0.28961645180084056
40
0.33567250992541892
40
0.33567250992541892
40
0.33567250992541892
40
0.37608669673276046
40
0.37608669673276046
40
0.37608669673276046
40
0.4068705651825465
40
0.4068705651825465
40
0.4068705651825465
40
0.42845632147713081
40
0.42845632147713081
40
0.42845632147713081
40
0.44421794172740348
40
0.44421794172740348
40
0.44421794172740348
40
0.45461079585689196
40
0.45461079585689196
40
0.45461079585689196
40
0.46327185939453636
40
0.46327185939453636
40
0.46327185939453636
40
0.47023343296330455
40
0.47023343296330455
40
0.47023343296330455
40
0.47851103557325292
40
0.47851103557325292
40
0.47851103557325292
40
0.48379812627271851
40
0.48379812627271851
40
0.48379812627271851
40
0.48840238039200473
40
0.48840238039200473
40
0.48840238039200473
40
0.49228011097647617
40
0.49228011097647617
40
0.49228011097647617
40
0.49618541049375886
40
0.49618541049375886
40
0.49618541049375886
40
0.50265826596637742
40
0.50265826596637742
40
0.50265826596637742
40
0.51022958165306609
40
0.51022958165306609
40
0.51022958165306609
40
0.51532102396550072
40
0.51532102396550072
40
0.51532102396550072
40
0.52005049826443217
40
0.52005049826443217
40
0.52005049826443217
40
0.5266032556528345
40
0.5266032556528345
40
0.5266032556528345
40
0.53249088356270491
40
0.53249088356270491
40
0.53249088356270491
40
0.53473968333380106
40
0.53473968333380106
40
0.53473968333380106
40
0.53473968333380106
10
885.83653767831277
20
-4.5665952407391108
30
0
10
884.54323928496228
20
-4.4744981378339563
30
0
10
883.23612354284012
20
-4.3781941711730159
30
0
10
881.92021044998046
20
-4.2780042949444965
30
0
10
876.03144897755044
20
-3.8296507628885958
30
0
10
870.04321914079412
20
-3.3084161266111991
30
0
10
863.77805241773808
20
-2.7035188201074241
30
0
10
856.82228428721942
20
-2.0319444482185087
30
0
10
849.43128190875495
20
-1.250963891915329
30
0
10
841.73572295167901
20
-0.37518965073642802
30
0
10
832.84116239638092
20
0.63703403105006617
30
0
10
823.64029235473117
20
1.7689430684692551
30
0
10
814.24991079983226
20
3.0000337847177043
30
0
10
802.06563016002985
20
4.597408150405867
30
0
10
789.44804592331798
20
6.3693432270861408
30
0
10
776.46544552732757
20
8.2814467586977258
30
0
10
758.231854235009
20
10.966926804341925
30
0
10
739.41536082179186
20
13.919600790670705
30
0
10
720.19064951311873
20
17.038809128057572
30
0
10
692.3665177843576
20
21.553272948887425
30
0
10
663.67244851913438
20
26.418132072333322
30
0
10
634.57899746162866
20
31.34325465738058
30
0
10
585.20239975295772
20
39.702036022543894
30
0
10
534.62261289909861
20
48.229280427665834
30
0
10
484.26768191838289
20
55.706087493533325
30
0
10
431.88807279371997
20
63.483523069021231
30
0
10
379.69867231857103
20
70.140824908052522
30
0
10
329.18612762515659
20
74.417252648482332
30
0
10
295.54398312604479
20
77.265420382987813
30
0
10
262.63672132283881
20
79.073056662492718
30
0
10
231.07685400565958
20
79.350196789892323
30
0
10
203.38307331080836
20
79.593387226430366
30
0
10
176.74760249560026
20
78.609925053282382
30
0
10
151.65156330765194
20
75.87149582636296
30
0
10
132.53567282455708
20
73.785608375938651
30
0
10
114.33576203174917
20
70.735034137215024
30
0
10
97.398501191553706
20
66.395505341130516
30
0
10
85.522034613266783
20
63.352612561803369
30
0
10
74.275365673926586
20
59.764051116295278
30
0
10
63.789464319652751
20
55.506375205778923
30
0
10
56.132804396676129
20
52.39747923130107
30
0
10
48.852950220430891
20
48.910980682840886
30
0
10
42.184598469002083
20
45.271804054220269
30
0
10
37.787638896554583
20
42.872213704234298
30
0
10
33.674721681877678
20
40.396795428021981
30
0
10
29.822728865319075
20
37.626237509964426
30
0
10
26.612604474551183
20
35.317345470872453
30
0
10
23.56322641562322
20
32.767056712390918
30
0
10
20.739309073714843
20
30.203382811439525
30
0
10
18.469506035973559
20
28.142757763460928
30
0
10
16.358854895698364
20
26.122954036705739
30
0
10
14.469989517244137
20
24.190589859480845
30
0
10
12.224049453250762
20
21.892927901482196
30
0
10
10.297768902609858
20
19.676633385742303
30
0
10
8.5166043843290602
20
16.896517140197734
30
0
10
7.3789346020780266
20
15.120794453584775
30
0
10
6.295035086524515
20
13.094255558623757
30
0
10
5.374444977072387
20
11.120813016912127
30
0
10
4.5727506153608406
20
9.402243870222657
30
0
10
3.9101052015790412
20
7.7683485538862653
30
0
10
3.4618719362011574
20
6.5130114101083114
30
0
10
3.0843671771018095
20
5.4557588975112372
30
0
10
2.8650661492942979
20
4.689335916706364
30
0
10
2.7348439147545998
20
4.1018797897778514
30
0
10
2.6036958582795355
20
3.5102471121220398
30
0
10
2.5362355858416623
20
3.0123326207691283
30
0
10
2.4632570201598898
20
2.397571202417641
30
0
10
2.3422983827579129
20
1.378632246898055
30
0
10
2.2502847731048718
20
0.16713750025167651
30
0
10
2.2993791121304459
20
-0.84936494540691765
30
0
10
2.3568048867000075
20
-2.0383704693103946
30
0
10
2.5258138614883974
20
-2.9210355693304413
30
0
10
2.7553796472674277
20
-3.6418404237833051
30
0
10
2.9097545278786798
20
-4.1265562231022814
30
0
10
3.1218907409186309
20
-4.5560130773285383
30
0
10
3.4258612762490164
20
-5.0104196123569187
30
0
10
3.7082215086268726
20
-5.4325208357046817
30
0
10
4.027490841631395
20
-5.8335327414706999
30
0
10
4.467798881659566
20
-6.3012939228725804
30
0
10
5.0778522575959597
20
-6.9493840368481461
30
0
10
6.0760909984922691
20
-7.8559789892149157
30
0
10
6.9917162666580754
20
-8.6033450109178808
30
0
10
7.8144021322109207
20
-9.2748505752861092
30
0
10
8.5962896540858527
20
-9.8419917691597476
30
0
10
9.8490309543400567
20
-10.649030733639437
30
0
10
10.327519811377282
20
-10.957282047474173
30
0
10
10.874735820887329
20
-11.300120543021084
30
0
10
11.481434253001401
20
-11.6691149860598
30
0
0
SPLINE
5
107
100
AcDbEntity
8
0
100
AcDbSpline
70
12
71
2
41
1
41
0.69490013045834154
41
1
72
6
73
3
74
0
42
0.000000001
43
0.0000000001
44
0.0000000001
40
0
40
0
40
0
40
6.1657759508621028
40
6.1657759508621028
40
6.1657759508621028
10
64.339435107522888
20
-40.222052998187451
30
0
10
100.13736201049483
20
-2.534966086228343
30
0
10
113.76701758319983
20
-49.289430057276476
30
0
0
SPLINE
5
108
100
AcDbEntity
8
0
100
AcDbSpline
70
12
71
2
41
1
41
0.69490013045834154
41
1
72
6
73
3
74
0
42
0.000000001
43
0.0000000001
44
0.0000000001
40
0
40
0
40
0
40
7.6970524395215847
40
7.6970524395215847
40
7.6970524395215847
10
235.99426870625553
20
-59.603223484213842
30
0
10
266.05038462296801
20
-3.7598536948463934
30
0
10
297.54588392243454
20
-60.632541424508759
30
0
0
SPLINE
5
109
100
AcDbEntity
8
0
100
AcDbSpline
70
12
71
2
41
1
41
0.69490013045834154
41
1
72
6
73
3
74
0
42
0.000000001
43
0.0000000001
44
0.0000000001
40
0
40
0
40
0
40
7.7817009760769071
40
7.7817009760769071
40
7.7817009760769071
10
499.47492710780534
20
-52.665630911534045
30
0
10
519.1278186551599
20
12.463032262389547
30
0
10
557.22227499778512
20
-47.889991836977082
30
0
0
SPLINE
5
110
100
AcDbEntity
8
0
100
AcDbSpline
70
12
71
2
41
1
41
0.69490013045834154
41
1
72
6
73
3
74
0
42
0.000000001
43
0.0000000001
44
0.0000000001
40
0
40
0
40
0
40
7.5831592749853947
40
7.5831592749853947
40
7.5831592749853947
10
807.98150920323064
20
-15.528507732305361
30
0
10
800.14688636824053
20
4.8987721114542691
30
0
10
880.5143982681077
20
-5.2127402749197271
30
0
0
SPLINE
5
111
100
AcDbEntity
8
0
100
AcDbSpline
70
0
71
3
72
44
73
40
74
0
42
0.000000001
43
0.0000000001
44
0.0000000001
40
0.53933767972430846
40
0.53933767972430846
40
0.53933767972430846
40
0.53933767972430846
40
0.54531611036283734
40
0.54531611036283734
40
0.54531611036283734
40
0.55300910817051407
40
0.55300910817051407
40
0.55300910817051407
40
0.56352368883116066
40
0.56352368883116066
40
0.56352368883116066
40
0.58011624276773199
40
0.58011624276773199
40
0.58011624276773199
40
0.59762377208798545
40
0.59762377208798545
40
0.59762377208798545
40
0.62041598890373451
40
0.62041598890373451
40
0.62041598890373451
40
0.65099650931236419
40
0.65099650931236419
40
0.65099650931236419
40
0.69171859807881764
40
0.69171859807881764
40
0.69171859807881764
40
0.73014369109953803
40
0.73014369109953803
40
0.73014369109953803
40
0.7763244275910316
40
0.7763244275910316
40
0.7763244275910316
40
0.8224756804304566
40
0.8224756804304566
40
0.8224756804304566
40
0.86767162231121731
40
0.86767162231121731
40
0.86767162231121731
40
0.88682303580676936
40
0.88682303580676936
40
0.88682303580676936
40
0.88682303580676936
10
15.623254739567788
20
-24.41138863162811
30
0
10
17.34051632100018
20
-25.324543056587594
30
0
10
19.189895536790409
20
-26.227057437736839
30
0
10
21.136385183145478
20
-27.077790253421504
30
0
10
23.641112842871202
20
-28.172506589813086
30
0
10
26.375667805911995
20
-29.214594871070744
30
0
10
29.485857566442878
20
-30.300670026505841
30
0
10
33.736780538809498
20
-31.78508807923841
30
0
10
38.56666455023489
20
-33.330042939561636
30
0
10
43.523078033830629
20
-34.799475133720833
30
0
10
51.344555723978893
20
-37.11831539227493
30
0
10
59.52415502790803
20
-39.189008427089021
30
0
10
68.324235755185427
20
-41.113215389971927
30
0
10
77.609585794869687
20
-43.143530310127609
30
0
10
87.510064284771659
20
-45.050798586605644
30
0
10
97.700940437081854
20
-46.773146801347359
30
0
10
110.96795570560391
20
-49.015389737202199
30
0
10
124.8418355164531
20
-50.926462251243059
30
0
10
139.26965363083474
20
-52.58707922021852
30
0
10
158.62758576466618
20
-54.815143805651047
30
0
10
178.85255444595794
20
-56.585719099791802
30
0
10
199.63892930968763
20
-57.868992375232779
30
0
10
227.31879188307602
20
-59.577843877294818
30
0
10
256.09478730145065
20
-60.397813055525233
30
0
10
285.6423926226189
20
-60.587757872758019
30
0
10
313.52331713798236
20
-60.766988543189314
30
0
10
342.01610831627113
20
-60.423911305770943
30
0
10
370.71401520591121
20
-59.571607742461119
30
0
10
405.20424988701501
20
-58.547276942617728
30
0
10
440.09008056024072
20
-56.740166032538689
30
0
10
474.96743558407172
20
-54.395904371393186
30
0
10
509.82252349224552
20
-52.053139381813061
30
0
10
544.60217612964675
20
-49.219992572609918
30
0
10
578.66695907223016
20
-45.844130650847902
30
0
10
612.02661575176694
20
-42.538147609731219
30
0
10
644.75175155540705
20
-38.639149256576594
30
0
10
676.56101303868593
20
-34.33771643581818
30
0
10
690.03992938169802
20
-32.515019194746813
30
0
10
703.35223135727529
20
-30.626360576560895
30
0
10
716.4387644954337
20
-28.70462312397537
30
0
0
SPLINE
5
112
100
AcDbEntity
8
0
100
AcDbSpline
70
0
71
3
72
26
73
22
74
0
42
0.000000001
43
0.0000000001
44
0.0000000001
40
0.88040764581965092
40
0.88040764581965092
40
0.88040764581965092
40
0.88040764581965092
40
0.8833844932501449
40
0.8833844932501449
40
0.8833844932501449
40
0.91223780133207433
40
0.91223780133207433
40
0.91223780133207433
40
0.931962370350782
40
0.931962370350782
40
0.931962370350782
40
0.94647492011407475
40
0.94647492011407475
40
0.94647492011407475
40
0.95947275674670007
40
0.95947275674670007
40
0.95947275674670007
40
0.96960456756002511
40
0.96960456756002511
40
0.96960456756002511
40
0.97267035159099413
40
0.97267035159099413
40
0.97267035159099413
40
0.97267035159099413
10
716.43876449543484
20
-28.704623123980678
30
0
10
718.50942363908814
20
-28.426087005676337
30
0
10
720.57499698697734
20
-28.146426863355956
30
0
10
722.63533415644565
20
-27.865746916735151
30
0
10
742.60530053576076
20
-25.145236322436514
30
0
10
762.061864686072
20
-22.331358203033872
30
0
10
780.86952113179632
20
-19.55741478742037
30
0
10
793.726726849437
20
-17.661104035117908
30
0
10
806.21436564846658
20
-15.79061450324086
30
0
10
818.25182648815883
20
-13.996310888984954
30
0
10
827.10850920168366
20
-12.676133983337621
30
0
10
835.78752521064825
20
-11.389765149316862
30
0
10
844.2012129915646
20
-10.172040881737473
30
0
10
851.73674196738045
20
-9.0814137106517894
30
0
10
858.98117268356032
20
-8.0556269942191232
30
0
10
865.8014493069727
20
-7.1297147874633913
30
0
10
871.11785344375903
20
-6.4079664247358519
30
0
10
876.22959386759464
20
-5.7406669739963796
30
0
10
881.28264947904177
20
-5.1177488592971718
30
0
10
882.81165327575673
20
-4.9292601040457864
30
0
10
884.33105310628662
20
-4.7453189052408291
30
0
10
885.83653767831277
20
-4.5665952407386348
30
0
0
ENDSEC
0
SECTION
2
OBJECTS
0
DICTIONARY
5
C
100
AcDbDictionary
3
ACAD_GROUP
350
D
3
ACAD_MLINESTYLE
350
17
0
DICTIONARY
5
D
100
AcDbDictionary
0
DICTIONARY
5
1A
330
C
100
AcDbDictionary
0
DICTIONARY
5
17
100
AcDbDictionary
0
ENDSEC
0
EOF
