  0
SECTION
  2
BLOCKS
  0
ENDSEC
  0
SECTION
  2
ENTITIES
  0
LINE
  8
0
 10
-26.25
 20
71.6
 11
-18.75
 21
71.6
  0
LINE
  8
0
 10
-18.75
 20
71.6
 11
-18.75
 21
69.7
  0
LINE
  8
0
 10
-18.75
 20
69.7
 11
-11.25
 21
69.7
  0
LINE
  8
0
 10
-11.25
 20
69.7
 11
-11.25
 21
71.6
  0
LINE
  8
0
 10
-11.25
 20
71.6
 11
-3.75
 21
71.6
  0
LINE
  8
0
 10
-3.75
 20
71.6
 11
-3.75
 21
69.7
  0
LINE
  8
0
 10
-3.75
 20
69.7
 11
3.75
 21
69.7
  0
LINE
  8
0
 10
3.75
 20
69.7
 11
3.75
 21
71.6
  0
LINE
  8
0
 10
3.75
 20
71.6
 11
11.25
 21
71.6
  0
LINE
  8
0
 10
11.25
 20
71.6
 11
11.25
 21
69.7
  0
LINE
  8
0
 10
11.25
 20
69.7
 11
18.75
 21
69.7
  0
LINE
  8
0
 10
18.75
 20
69.7
 11
18.75
 21
71.6
  0
LINE
  8
0
 10
18.75
 20
71.6
 11
26.25
 21
71.6
  0
LINE
  8
0
 10
26.25
 20
71.6
 11
26.25
 21
69.7
  0
LINE
  8
0
 10
26.25
 20
69.7
 11
33.75
 21
69.7
  0
LINE
  8
0
 10
33.75
 20
69.7
 11
33.75
 21
71.6
  0
LINE
  8
0
 10
33.75
 20
71.6
 11
40.6
 21
71.6
  0
LINE
  8
0
 10
40.6
 20
71.6
 11
40.6
 21
77.85
  0
LINE
  8
0
 10
40.6
 20
77.85
 11
42.5
 21
77.85
  0
LINE
  8
0
 10
42.5
 20
77.85
 11
42.5
 21
85.35
  0
LINE
  8
0
 10
42.5
 20
85.35
 11
40.6
 21
85.35
  0
LINE
  8
0
 10
40.6
 20
85.35
 11
40.6
 21
91.5999
  0
LINE
  8
0
 10
40.6
 20
91.5999
 11
33.75
 21
91.5999
  0
LINE
  8
0
 10
33.75
 20
91.5999
 11
33.75
 21
93.5
  0
LINE
  8
0
 10
33.75
 20
93.5
 11
26.25
 21
93.5
  0
LINE
  8
0
 10
26.25
 20
93.5
 11
26.25
 21
91.5999
  0
LINE
  8
0
 10
26.25
 20
91.5999
 11
18.75
 21
91.5999
  0
LINE
  8
0
 10
18.75
 20
91.5999
 11
18.75
 21
93.5
  0
LINE
  8
0
 10
18.75
 20
93.5
 11
11.25
 21
93.5
  0
LINE
  8
0
 10
11.25
 20
93.5
 11
11.25
 21
91.5999
  0
LINE
  8
0
 10
11.25
 20
91.5999
 11
3.75
 21
91.5999
  0
LINE
  8
0
 10
3.75
 20
91.5999
 11
3.75
 21
93.5
  0
LINE
  8
0
 10
3.75
 20
93.5
 11
-3.75
 21
93.5
  0
LINE
  8
0
 10
-3.75
 20
93.5
 11
-3.75
 21
91.5999
  0
LINE
  8
0
 10
-3.75
 20
91.5999
 11
-11.25
 21
91.5999
  0
LINE
  8
0
 10
-11.25
 20
91.5999
 11
-11.25
 21
93.5
  0
LINE
  8
0
 10
-11.25
 20
93.5
 11
-18.75
 21
93.5
  0
LINE
  8
0
 10
-18.75
 20
93.5
 11
-18.75
 21
91.5999
  0
LINE
  8
0
 10
-18.75
 20
91.5999
 11
-26.25
 21
91.5999
  0
LINE
  8
0
 10
-26.25
 20
91.5999
 11
-26.25
 21
93.5
  0
LINE
  8
0
 10
-26.25
 20
93.5
 11
-33.75
 21
93.5
  0
LINE
  8
0
 10
-33.75
 20
93.5
 11
-33.75
 21
91.6
  0
LINE
  8
0
 10
-33.75
 20
91.6
 11
-40.5999
 21
91.6
  0
LINE
  8
0
 10
-40.5999
 20
91.6
 11
-40.5999
 21
85.35
  0
LINE
  8
0
 10
-40.5999
 20
85.35
 11
-42.5
 21
85.35
  0
LINE
  8
0
 10
-42.5
 20
85.35
 11
-42.5
 21
77.85
  0
LINE
  8
0
 10
-42.5
 20
77.85
 11
-40.5999
 21
77.85
  0
LINE
  8
0
 10
-40.5999
 20
77.85
 11
-40.5999
 21
71.6
  0
LINE
  8
0
 10
-40.5999
 20
71.6
 11
-33.75
 21
71.6
  0
LINE
  8
0
 10
-33.75
 20
71.6
 11
-33.75
 21
69.7
  0
LINE
  8
0
 10
-33.75
 20
69.7
 11
-26.25
 21
69.7
  0
LINE
  8
0
 10
-26.25
 20
69.7
 11
-26.25
 21
71.6
  0
LINE
  8
0
 10
35.5506
 20
85.6262
 11
35.5014
 21
85.63
  0
LINE
  8
0
 10
35.5014
 20
85.63
 11
35.4523
 21
85.6362
  0
LINE
  8
0
 10
35.4523
 20
85.6362
 11
35.4037
 21
85.6449
  0
LINE
  8
0
 10
35.4037
 20
85.6449
 11
35.3556
 21
85.6561
  0
LINE
  8
0
 10
35.3556
 20
85.6561
 11
35.3081
 21
85.6697
  0
LINE
  8
0
 10
35.3081
 20
85.6697
 11
35.2614
 21
85.6857
  0
LINE
  8
0
 10
35.2614
 20
85.6857
 11
35.2155
 21
85.704
  0
LINE
  8
0
 10
35.2155
 20
85.704
 11
35.1706
 21
85.7246
  0
LINE
  8
0
 10
35.1706
 20
85.7246
 11
35.1268
 21
85.7475
  0
LINE
  8
0
 10
35.1268
 20
85.7475
 11
35.0843
 21
85.7726
  0
LINE
  8
0
 10
35.0843
 20
85.7726
 11
35.043
 21
85.7997
  0
LINE
  8
0
 10
35.043
 20
85.7997
 11
35.0032
 21
85.829
  0
LINE
  8
0
 10
35.0032
 20
85.829
 11
34.9649
 21
85.8602
  0
LINE
  8
0
 10
34.9649
 20
85.8602
 11
34.9283
 21
85.8933
  0
LINE
  8
0
 10
34.9283
 20
85.8933
 11
34.8933
 21
85.9282
  0
LINE
  8
0
 10
34.8933
 20
85.9282
 11
34.8602
 21
85.9649
  0
LINE
  8
0
 10
34.8602
 20
85.9649
 11
34.829
 21
86.0032
  0
LINE
  8
0
 10
34.829
 20
86.0032
 11
34.7997
 21
86.043
  0
LINE
  8
0
 10
34.7997
 20
86.043
 11
34.7726
 21
86.0842
  0
LINE
  8
0
 10
34.7726
 20
86.0842
 11
34.7475
 21
86.1268
  0
LINE
  8
0
 10
34.7475
 20
86.1268
 11
34.7246
 21
86.1706
  0
LINE
  8
0
 10
34.7246
 20
86.1706
 11
34.704
 21
86.2155
  0
LINE
  8
0
 10
34.704
 20
86.2155
 11
34.6857
 21
86.2614
  0
LINE
  8
0
 10
34.6857
 20
86.2614
 11
34.6697
 21
86.3081
  0
LINE
  8
0
 10
34.6697
 20
86.3081
 11
34.6561
 21
86.3556
  0
LINE
  8
0
 10
34.6561
 20
86.3556
 11
34.6449
 21
86.4037
  0
LINE
  8
0
 10
34.6449
 20
86.4037
 11
34.6362
 21
86.4523
  0
LINE
  8
0
 10
34.6362
 20
86.4523
 11
34.63
 21
86.5013
  0
LINE
  8
0
 10
34.63
 20
86.5013
 11
34.6263
 21
86.5506
  0
LINE
  8
0
 10
34.6263
 20
86.5506
 11
34.625
 21
86.6
  0
LINE
  8
0
 10
34.625
 20
86.6
 11
34.6263
 21
86.6494
  0
LINE
  8
0
 10
34.6263
 20
86.6494
 11
34.63
 21
86.6986
  0
LINE
  8
0
 10
34.63
 20
86.6986
 11
34.6362
 21
86.7476
  0
LINE
  8
0
 10
34.6362
 20
86.7476
 11
34.6449
 21
86.7962
  0
LINE
  8
0
 10
34.6449
 20
86.7962
 11
34.6561
 21
86.8444
  0
LINE
  8
0
 10
34.6561
 20
86.8444
 11
34.6697
 21
86.8919
  0
LINE
  8
0
 10
34.6697
 20
86.8919
 11
34.6857
 21
86.9386
  0
LINE
  8
0
 10
34.6857
 20
86.9386
 11
34.704
 21
86.9845
  0
LINE
  8
0
 10
34.704
 20
86.9845
 11
34.7246
 21
87.0294
  0
LINE
  8
0
 10
34.7246
 20
87.0294
 11
34.7475
 21
87.0732
  0
LINE
  8
0
 10
34.7475
 20
87.0732
 11
34.7726
 21
87.1157
  0
LINE
  8
0
 10
34.7726
 20
87.1157
 11
34.7997
 21
87.157
  0
LINE
  8
0
 10
34.7997
 20
87.157
 11
34.829
 21
87.1968
  0
LINE
  8
0
 10
34.829
 20
87.1968
 11
34.8602
 21
87.2351
  0
LINE
  8
0
 10
34.8602
 20
87.2351
 11
34.8933
 21
87.2717
  0
LINE
  8
0
 10
34.8933
 20
87.2717
 11
34.9283
 21
87.3067
  0
LINE
  8
0
 10
34.9283
 20
87.3067
 11
34.9649
 21
87.3398
  0
LINE
  8
0
 10
34.9649
 20
87.3398
 11
35.0032
 21
87.371
  0
LINE
  8
0
 10
35.0032
 20
87.371
 11
35.043
 21
87.4002
  0
LINE
  8
0
 10
35.043
 20
87.4002
 11
35.0843
 21
87.4274
  0
LINE
  8
0
 10
35.0843
 20
87.4274
 11
35.1268
 21
87.4525
  0
LINE
  8
0
 10
35.1268
 20
87.4525
 11
35.1706
 21
87.4753
  0
LINE
  8
0
 10
35.1706
 20
87.4753
 11
35.2155
 21
87.496
  0
LINE
  8
0
 10
35.2155
 20
87.496
 11
35.2614
 21
87.5143
  0
LINE
  8
0
 10
35.2614
 20
87.5143
 11
35.3081
 21
87.5303
  0
LINE
  8
0
 10
35.3081
 20
87.5303
 11
35.3556
 21
87.5439
  0
LINE
  8
0
 10
35.3556
 20
87.5439
 11
35.4037
 21
87.555
  0
LINE
  8
0
 10
35.4037
 20
87.555
 11
35.4523
 21
87.5637
  0
LINE
  8
0
 10
35.4523
 20
87.5637
 11
35.5014
 21
87.57
  0
LINE
  8
0
 10
35.5014
 20
87.57
 11
35.5506
 21
87.5737
  0
LINE
  8
0
 10
35.5506
 20
87.5737
 11
35.6
 21
87.575
  0
LINE
  8
0
 10
35.6
 20
87.575
 11
35.6494
 21
87.5737
  0
LINE
  8
0
 10
35.6494
 20
87.5737
 11
35.6986
 21
87.57
  0
LINE
  8
0
 10
35.6986
 20
87.57
 11
35.7476
 21
87.5637
  0
LINE
  8
0
 10
35.7476
 20
87.5637
 11
35.7963
 21
87.555
  0
LINE
  8
0
 10
35.7963
 20
87.555
 11
35.8444
 21
87.5439
  0
LINE
  8
0
 10
35.8444
 20
87.5439
 11
35.8919
 21
87.5303
  0
LINE
  8
0
 10
35.8919
 20
87.5303
 11
35.9386
 21
87.5143
  0
LINE
  8
0
 10
35.9386
 20
87.5143
 11
35.9845
 21
87.496
  0
LINE
  8
0
 10
35.9845
 20
87.496
 11
36.0294
 21
87.4753
  0
LINE
  8
0
 10
36.0294
 20
87.4753
 11
36.0732
 21
87.4525
  0
LINE
  8
0
 10
36.0732
 20
87.4525
 11
36.1157
 21
87.4274
  0
LINE
  8
0
 10
36.1157
 20
87.4274
 11
36.157
 21
87.4002
  0
LINE
  8
0
 10
36.157
 20
87.4002
 11
36.1968
 21
87.371
  0
LINE
  8
0
 10
36.1968
 20
87.371
 11
36.2351
 21
87.3398
  0
LINE
  8
0
 10
36.2351
 20
87.3398
 11
36.2717
 21
87.3067
  0
LINE
  8
0
 10
36.2717
 20
87.3067
 11
36.3067
 21
87.2717
  0
LINE
  8
0
 10
36.3067
 20
87.2717
 11
36.3398
 21
87.2351
  0
LINE
  8
0
 10
36.3398
 20
87.2351
 11
36.371
 21
87.1968
  0
LINE
  8
0
 10
36.371
 20
87.1968
 11
36.4002
 21
87.157
  0
LINE
  8
0
 10
36.4002
 20
87.157
 11
36.4274
 21
87.1157
  0
LINE
  8
0
 10
36.4274
 20
87.1157
 11
36.4525
 21
87.0732
  0
LINE
  8
0
 10
36.4525
 20
87.0732
 11
36.4754
 21
87.0294
  0
LINE
  8
0
 10
36.4754
 20
87.0294
 11
36.496
 21
86.9845
  0
LINE
  8
0
 10
36.496
 20
86.9845
 11
36.5143
 21
86.9386
  0
LINE
  8
0
 10
36.5143
 20
86.9386
 11
36.5303
 21
86.8919
  0
LINE
  8
0
 10
36.5303
 20
86.8919
 11
36.5439
 21
86.8444
  0
LINE
  8
0
 10
36.5439
 20
86.8444
 11
36.555
 21
86.7962
  0
LINE
  8
0
 10
36.555
 20
86.7962
 11
36.5638
 21
86.7476
  0
LINE
  8
0
 10
36.5638
 20
86.7476
 11
36.57
 21
86.6986
  0
LINE
  8
0
 10
36.57
 20
86.6986
 11
36.5737
 21
86.6494
  0
LINE
  8
0
 10
36.5737
 20
86.6494
 11
36.575
 21
86.6
  0
LINE
  8
0
 10
36.575
 20
86.6
 11
36.5737
 21
86.5506
  0
LINE
  8
0
 10
36.5737
 20
86.5506
 11
36.57
 21
86.5013
  0
LINE
  8
0
 10
36.57
 20
86.5013
 11
36.5638
 21
86.4523
  0
LINE
  8
0
 10
36.5638
 20
86.4523
 11
36.555
 21
86.4037
  0
LINE
  8
0
 10
36.555
 20
86.4037
 11
36.5439
 21
86.3556
  0
LINE
  8
0
 10
36.5439
 20
86.3556
 11
36.5303
 21
86.3081
  0
LINE
  8
0
 10
36.5303
 20
86.3081
 11
36.5143
 21
86.2614
  0
LINE
  8
0
 10
36.5143
 20
86.2614
 11
36.496
 21
86.2155
  0
LINE
  8
0
 10
36.496
 20
86.2155
 11
36.4754
 21
86.1706
  0
LINE
  8
0
 10
36.4754
 20
86.1706
 11
36.4525
 21
86.1268
  0
LINE
  8
0
 10
36.4525
 20
86.1268
 11
36.4274
 21
86.0842
  0
LINE
  8
0
 10
36.4274
 20
86.0842
 11
36.4002
 21
86.043
  0
LINE
  8
0
 10
36.4002
 20
86.043
 11
36.371
 21
86.0032
  0
LINE
  8
0
 10
36.371
 20
86.0032
 11
36.3398
 21
85.9649
  0
LINE
  8
0
 10
36.3398
 20
85.9649
 11
36.3067
 21
85.9282
  0
LINE
  8
0
 10
36.3067
 20
85.9282
 11
36.2717
 21
85.8933
  0
LINE
  8
0
 10
36.2717
 20
85.8933
 11
36.2351
 21
85.8602
  0
LINE
  8
0
 10
36.2351
 20
85.8602
 11
36.1968
 21
85.829
  0
LINE
  8
0
 10
36.1968
 20
85.829
 11
36.157
 21
85.7997
  0
LINE
  8
0
 10
36.157
 20
85.7997
 11
36.1157
 21
85.7726
  0
LINE
  8
0
 10
36.1157
 20
85.7726
 11
36.0732
 21
85.7475
  0
LINE
  8
0
 10
36.0732
 20
85.7475
 11
36.0294
 21
85.7246
  0
LINE
  8
0
 10
36.0294
 20
85.7246
 11
35.9845
 21
85.704
  0
LINE
  8
0
 10
35.9845
 20
85.704
 11
35.9386
 21
85.6857
  0
LINE
  8
0
 10
35.9386
 20
85.6857
 11
35.8919
 21
85.6697
  0
LINE
  8
0
 10
35.8919
 20
85.6697
 11
35.8444
 21
85.6561
  0
LINE
  8
0
 10
35.8444
 20
85.6561
 11
35.7963
 21
85.6449
  0
LINE
  8
0
 10
35.7963
 20
85.6449
 11
35.7476
 21
85.6362
  0
LINE
  8
0
 10
35.7476
 20
85.6362
 11
35.6986
 21
85.63
  0
LINE
  8
0
 10
35.6986
 20
85.63
 11
35.6494
 21
85.6262
  0
LINE
  8
0
 10
35.6494
 20
85.6262
 11
35.6
 21
85.625
  0
LINE
  8
0
 10
35.6
 20
85.625
 11
35.5506
 21
85.6262
  0
LINE
  8
0
 10
-35.6494
 20
85.6262
 11
-35.6986
 21
85.63
  0
LINE
  8
0
 10
-35.6986
 20
85.63
 11
-35.7476
 21
85.6362
  0
LINE
  8
0
 10
-35.7476
 20
85.6362
 11
-35.7963
 21
85.6449
  0
LINE
  8
0
 10
-35.7963
 20
85.6449
 11
-35.8444
 21
85.6561
  0
LINE
  8
0
 10
-35.8444
 20
85.6561
 11
-35.8919
 21
85.6697
  0
LINE
  8
0
 10
-35.8919
 20
85.6697
 11
-35.9386
 21
85.6857
  0
LINE
  8
0
 10
-35.9386
 20
85.6857
 11
-35.9845
 21
85.704
  0
LINE
  8
0
 10
-35.9845
 20
85.704
 11
-36.0294
 21
85.7246
  0
LINE
  8
0
 10
-36.0294
 20
85.7246
 11
-36.0732
 21
85.7475
  0
LINE
  8
0
 10
-36.0732
 20
85.7475
 11
-36.1157
 21
85.7726
  0
LINE
  8
0
 10
-36.1157
 20
85.7726
 11
-36.157
 21
85.7997
  0
LINE
  8
0
 10
-36.157
 20
85.7997
 11
-36.1968
 21
85.829
  0
LINE
  8
0
 10
-36.1968
 20
85.829
 11
-36.2351
 21
85.8602
  0
LINE
  8
0
 10
-36.2351
 20
85.8602
 11
-36.2717
 21
85.8933
  0
LINE
  8
0
 10
-36.2717
 20
85.8933
 11
-36.3067
 21
85.9282
  0
LINE
  8
0
 10
-36.3067
 20
85.9282
 11
-36.3398
 21
85.9649
  0
LINE
  8
0
 10
-36.3398
 20
85.9649
 11
-36.371
 21
86.0032
  0
LINE
  8
0
 10
-36.371
 20
86.0032
 11
-36.4002
 21
86.043
  0
LINE
  8
0
 10
-36.4002
 20
86.043
 11
-36.4274
 21
86.0842
  0
LINE
  8
0
 10
-36.4274
 20
86.0842
 11
-36.4525
 21
86.1268
  0
LINE
  8
0
 10
-36.4525
 20
86.1268
 11
-36.4754
 21
86.1706
  0
LINE
  8
0
 10
-36.4754
 20
86.1706
 11
-36.496
 21
86.2155
  0
LINE
  8
0
 10
-36.496
 20
86.2155
 11
-36.5143
 21
86.2614
  0
LINE
  8
0
 10
-36.5143
 20
86.2614
 11
-36.5303
 21
86.3081
  0
LINE
  8
0
 10
-36.5303
 20
86.3081
 11
-36.5439
 21
86.3556
  0
LINE
  8
0
 10
-36.5439
 20
86.3556
 11
-36.555
 21
86.4037
  0
LINE
  8
0
 10
-36.555
 20
86.4037
 11
-36.5638
 21
86.4523
  0
LINE
  8
0
 10
-36.5638
 20
86.4523
 11
-36.57
 21
86.5013
  0
LINE
  8
0
 10
-36.57
 20
86.5013
 11
-36.5737
 21
86.5506
  0
LINE
  8
0
 10
-36.5737
 20
86.5506
 11
-36.575
 21
86.6
  0
LINE
  8
0
 10
-36.575
 20
86.6
 11
-36.5737
 21
86.6494
  0
LINE
  8
0
 10
-36.5737
 20
86.6494
 11
-36.57
 21
86.6986
  0
LINE
  8
0
 10
-36.57
 20
86.6986
 11
-36.5638
 21
86.7476
  0
LINE
  8
0
 10
-36.5638
 20
86.7476
 11
-36.555
 21
86.7962
  0
LINE
  8
0
 10
-36.555
 20
86.7962
 11
-36.5439
 21
86.8444
  0
LINE
  8
0
 10
-36.5439
 20
86.8444
 11
-36.5303
 21
86.8919
  0
LINE
  8
0
 10
-36.5303
 20
86.8919
 11
-36.5143
 21
86.9386
  0
LINE
  8
0
 10
-36.5143
 20
86.9386
 11
-36.496
 21
86.9845
  0
LINE
  8
0
 10
-36.496
 20
86.9845
 11
-36.4754
 21
87.0294
  0
LINE
  8
0
 10
-36.4754
 20
87.0294
 11
-36.4525
 21
87.0732
  0
LINE
  8
0
 10
-36.4525
 20
87.0732
 11
-36.4274
 21
87.1157
  0
LINE
  8
0
 10
-36.4274
 20
87.1157
 11
-36.4002
 21
87.157
  0
LINE
  8
0
 10
-36.4002
 20
87.157
 11
-36.371
 21
87.1968
  0
LINE
  8
0
 10
-36.371
 20
87.1968
 11
-36.3398
 21
87.2351
  0
LINE
  8
0
 10
-36.3398
 20
87.2351
 11
-36.3067
 21
87.2717
  0
LINE
  8
0
 10
-36.3067
 20
87.2717
 11
-36.2717
 21
87.3067
  0
LINE
  8
0
 10
-36.2717
 20
87.3067
 11
-36.2351
 21
87.3398
  0
LINE
  8
0
 10
-36.2351
 20
87.3398
 11
-36.1968
 21
87.371
  0
LINE
  8
0
 10
-36.1968
 20
87.371
 11
-36.157
 21
87.4002
  0
LINE
  8
0
 10
-36.157
 20
87.4002
 11
-36.1157
 21
87.4274
  0
LINE
  8
0
 10
-36.1157
 20
87.4274
 11
-36.0732
 21
87.4525
  0
LINE
  8
0
 10
-36.0732
 20
87.4525
 11
-36.0294
 21
87.4753
  0
LINE
  8
0
 10
-36.0294
 20
87.4753
 11
-35.9845
 21
87.496
  0
LINE
  8
0
 10
-35.9845
 20
87.496
 11
-35.9386
 21
87.5143
  0
LINE
  8
0
 10
-35.9386
 20
87.5143
 11
-35.8919
 21
87.5303
  0
LINE
  8
0
 10
-35.8919
 20
87.5303
 11
-35.8444
 21
87.5439
  0
LINE
  8
0
 10
-35.8444
 20
87.5439
 11
-35.7963
 21
87.555
  0
LINE
  8
0
 10
-35.7963
 20
87.555
 11
-35.7476
 21
87.5637
  0
LINE
  8
0
 10
-35.7476
 20
87.5637
 11
-35.6986
 21
87.57
  0
LINE
  8
0
 10
-35.6986
 20
87.57
 11
-35.6494
 21
87.5737
  0
LINE
  8
0
 10
-35.6494
 20
87.5737
 11
-35.6
 21
87.575
  0
LINE
  8
0
 10
-35.6
 20
87.575
 11
-35.5506
 21
87.5737
  0
LINE
  8
0
 10
-35.5506
 20
87.5737
 11
-35.5014
 21
87.57
  0
LINE
  8
0
 10
-35.5014
 20
87.57
 11
-35.4523
 21
87.5637
  0
LINE
  8
0
 10
-35.4523
 20
87.5637
 11
-35.4037
 21
87.555
  0
LINE
  8
0
 10
-35.4037
 20
87.555
 11
-35.3556
 21
87.5439
  0
LINE
  8
0
 10
-35.3556
 20
87.5439
 11
-35.3081
 21
87.5303
  0
LINE
  8
0
 10
-35.3081
 20
87.5303
 11
-35.2614
 21
87.5143
  0
LINE
  8
0
 10
-35.2614
 20
87.5143
 11
-35.2155
 21
87.496
  0
LINE
  8
0
 10
-35.2155
 20
87.496
 11
-35.1706
 21
87.4753
  0
LINE
  8
0
 10
-35.1706
 20
87.4753
 11
-35.1268
 21
87.4525
  0
LINE
  8
0
 10
-35.1268
 20
87.4525
 11
-35.0843
 21
87.4274
  0
LINE
  8
0
 10
-35.0843
 20
87.4274
 11
-35.043
 21
87.4002
  0
LINE
  8
0
 10
-35.043
 20
87.4002
 11
-35.0032
 21
87.371
  0
LINE
  8
0
 10
-35.0032
 20
87.371
 11
-34.9649
 21
87.3398
  0
LINE
  8
0
 10
-34.9649
 20
87.3398
 11
-34.9283
 21
87.3067
  0
LINE
  8
0
 10
-34.9283
 20
87.3067
 11
-34.8933
 21
87.2717
  0
LINE
  8
0
 10
-34.8933
 20
87.2717
 11
-34.8602
 21
87.2351
  0
LINE
  8
0
 10
-34.8602
 20
87.2351
 11
-34.829
 21
87.1968
  0
LINE
  8
0
 10
-34.829
 20
87.1968
 11
-34.7997
 21
87.157
  0
LINE
  8
0
 10
-34.7997
 20
87.157
 11
-34.7726
 21
87.1157
  0
LINE
  8
0
 10
-34.7726
 20
87.1157
 11
-34.7475
 21
87.0732
  0
LINE
  8
0
 10
-34.7475
 20
87.0732
 11
-34.7246
 21
87.0294
  0
LINE
  8
0
 10
-34.7246
 20
87.0294
 11
-34.704
 21
86.9845
  0
LINE
  8
0
 10
-34.704
 20
86.9845
 11
-34.6857
 21
86.9386
  0
LINE
  8
0
 10
-34.6857
 20
86.9386
 11
-34.6697
 21
86.8919
  0
LINE
  8
0
 10
-34.6697
 20
86.8919
 11
-34.6561
 21
86.8444
  0
LINE
  8
0
 10
-34.6561
 20
86.8444
 11
-34.6449
 21
86.7962
  0
LINE
  8
0
 10
-34.6449
 20
86.7962
 11
-34.6362
 21
86.7476
  0
LINE
  8
0
 10
-34.6362
 20
86.7476
 11
-34.63
 21
86.6986
  0
LINE
  8
0
 10
-34.63
 20
86.6986
 11
-34.6263
 21
86.6494
  0
LINE
  8
0
 10
-34.6263
 20
86.6494
 11
-34.625
 21
86.6
  0
LINE
  8
0
 10
-34.625
 20
86.6
 11
-34.6263
 21
86.5506
  0
LINE
  8
0
 10
-34.6263
 20
86.5506
 11
-34.63
 21
86.5013
  0
LINE
  8
0
 10
-34.63
 20
86.5013
 11
-34.6362
 21
86.4523
  0
LINE
  8
0
 10
-34.6362
 20
86.4523
 11
-34.6449
 21
86.4037
  0
LINE
  8
0
 10
-34.6449
 20
86.4037
 11
-34.6561
 21
86.3556
  0
LINE
  8
0
 10
-34.6561
 20
86.3556
 11
-34.6697
 21
86.3081
  0
LINE
  8
0
 10
-34.6697
 20
86.3081
 11
-34.6857
 21
86.2614
  0
LINE
  8
0
 10
-34.6857
 20
86.2614
 11
-34.704
 21
86.2155
  0
LINE
  8
0
 10
-34.704
 20
86.2155
 11
-34.7246
 21
86.1706
  0
LINE
  8
0
 10
-34.7246
 20
86.1706
 11
-34.7475
 21
86.1268
  0
LINE
  8
0
 10
-34.7475
 20
86.1268
 11
-34.7726
 21
86.0842
  0
LINE
  8
0
 10
-34.7726
 20
86.0842
 11
-34.7997
 21
86.043
  0
LINE
  8
0
 10
-34.7997
 20
86.043
 11
-34.829
 21
86.0032
  0
LINE
  8
0
 10
-34.829
 20
86.0032
 11
-34.8602
 21
85.9649
  0
LINE
  8
0
 10
-34.8602
 20
85.9649
 11
-34.8933
 21
85.9282
  0
LINE
  8
0
 10
-34.8933
 20
85.9282
 11
-34.9283
 21
85.8933
  0
LINE
  8
0
 10
-34.9283
 20
85.8933
 11
-34.9649
 21
85.8602
  0
LINE
  8
0
 10
-34.9649
 20
85.8602
 11
-35.0032
 21
85.829
  0
LINE
  8
0
 10
-35.0032
 20
85.829
 11
-35.043
 21
85.7997
  0
LINE
  8
0
 10
-35.043
 20
85.7997
 11
-35.0843
 21
85.7726
  0
LINE
  8
0
 10
-35.0843
 20
85.7726
 11
-35.1268
 21
85.7475
  0
LINE
  8
0
 10
-35.1268
 20
85.7475
 11
-35.1706
 21
85.7246
  0
LINE
  8
0
 10
-35.1706
 20
85.7246
 11
-35.2155
 21
85.704
  0
LINE
  8
0
 10
-35.2155
 20
85.704
 11
-35.2614
 21
85.6857
  0
LINE
  8
0
 10
-35.2614
 20
85.6857
 11
-35.3081
 21
85.6697
  0
LINE
  8
0
 10
-35.3081
 20
85.6697
 11
-35.3556
 21
85.6561
  0
LINE
  8
0
 10
-35.3556
 20
85.6561
 11
-35.4037
 21
85.6449
  0
LINE
  8
0
 10
-35.4037
 20
85.6449
 11
-35.4523
 21
85.6362
  0
LINE
  8
0
 10
-35.4523
 20
85.6362
 11
-35.5014
 21
85.63
  0
LINE
  8
0
 10
-35.5014
 20
85.63
 11
-35.5506
 21
85.6262
  0
LINE
  8
0
 10
-35.5506
 20
85.6262
 11
-35.6
 21
85.625
  0
LINE
  8
0
 10
-35.6
 20
85.625
 11
-35.6494
 21
85.6262
  0
LINE
  8
0
 10
35.5506
 20
75.6263
 11
35.5014
 21
75.63
  0
LINE
  8
0
 10
35.5014
 20
75.63
 11
35.4523
 21
75.6362
  0
LINE
  8
0
 10
35.4523
 20
75.6362
 11
35.4037
 21
75.645
  0
LINE
  8
0
 10
35.4037
 20
75.645
 11
35.3556
 21
75.6561
  0
LINE
  8
0
 10
35.3556
 20
75.6561
 11
35.3081
 21
75.6697
  0
LINE
  8
0
 10
35.3081
 20
75.6697
 11
35.2614
 21
75.6857
  0
LINE
  8
0
 10
35.2614
 20
75.6857
 11
35.2155
 21
75.704
  0
LINE
  8
0
 10
35.2155
 20
75.704
 11
35.1706
 21
75.7246
  0
LINE
  8
0
 10
35.1706
 20
75.7246
 11
35.1268
 21
75.7475
  0
LINE
  8
0
 10
35.1268
 20
75.7475
 11
35.0843
 21
75.7726
  0
LINE
  8
0
 10
35.0843
 20
75.7726
 11
35.043
 21
75.7998
  0
LINE
  8
0
 10
35.043
 20
75.7998
 11
35.0032
 21
75.829
  0
LINE
  8
0
 10
35.0032
 20
75.829
 11
34.9649
 21
75.8602
  0
LINE
  8
0
 10
34.9649
 20
75.8602
 11
34.9283
 21
75.8933
  0
LINE
  8
0
 10
34.9283
 20
75.8933
 11
34.8933
 21
75.9283
  0
LINE
  8
0
 10
34.8933
 20
75.9283
 11
34.8602
 21
75.9649
  0
LINE
  8
0
 10
34.8602
 20
75.9649
 11
34.829
 21
76.0032
  0
LINE
  8
0
 10
34.829
 20
76.0032
 11
34.7997
 21
76.043
  0
LINE
  8
0
 10
34.7997
 20
76.043
 11
34.7726
 21
76.0843
  0
LINE
  8
0
 10
34.7726
 20
76.0843
 11
34.7475
 21
76.1268
  0
LINE
  8
0
 10
34.7475
 20
76.1268
 11
34.7246
 21
76.1706
  0
LINE
  8
0
 10
34.7246
 20
76.1706
 11
34.704
 21
76.2155
  0
LINE
  8
0
 10
34.704
 20
76.2155
 11
34.6857
 21
76.2614
  0
LINE
  8
0
 10
34.6857
 20
76.2614
 11
34.6697
 21
76.3081
  0
LINE
  8
0
 10
34.6697
 20
76.3081
 11
34.6561
 21
76.3556
  0
LINE
  8
0
 10
34.6561
 20
76.3556
 11
34.6449
 21
76.4037
  0
LINE
  8
0
 10
34.6449
 20
76.4037
 11
34.6362
 21
76.4524
  0
LINE
  8
0
 10
34.6362
 20
76.4524
 11
34.63
 21
76.5014
  0
LINE
  8
0
 10
34.63
 20
76.5014
 11
34.6263
 21
76.5506
  0
LINE
  8
0
 10
34.6263
 20
76.5506
 11
34.625
 21
76.6
  0
LINE
  8
0
 10
34.625
 20
76.6
 11
34.6263
 21
76.6494
  0
LINE
  8
0
 10
34.6263
 20
76.6494
 11
34.63
 21
76.6986
  0
LINE
  8
0
 10
34.63
 20
76.6986
 11
34.6362
 21
76.7476
  0
LINE
  8
0
 10
34.6362
 20
76.7476
 11
34.6449
 21
76.7963
  0
LINE
  8
0
 10
34.6449
 20
76.7963
 11
34.6561
 21
76.8444
  0
LINE
  8
0
 10
34.6561
 20
76.8444
 11
34.6697
 21
76.8919
  0
LINE
  8
0
 10
34.6697
 20
76.8919
 11
34.6857
 21
76.9386
  0
LINE
  8
0
 10
34.6857
 20
76.9386
 11
34.704
 21
76.9845
  0
LINE
  8
0
 10
34.704
 20
76.9845
 11
34.7246
 21
77.0294
  0
LINE
  8
0
 10
34.7246
 20
77.0294
 11
34.7475
 21
77.0732
  0
LINE
  8
0
 10
34.7475
 20
77.0732
 11
34.7726
 21
77.1157
  0
LINE
  8
0
 10
34.7726
 20
77.1157
 11
34.7997
 21
77.157
  0
LINE
  8
0
 10
34.7997
 20
77.157
 11
34.829
 21
77.1968
  0
LINE
  8
0
 10
34.829
 20
77.1968
 11
34.8602
 21
77.2351
  0
LINE
  8
0
 10
34.8602
 20
77.2351
 11
34.8933
 21
77.2717
  0
LINE
  8
0
 10
34.8933
 20
77.2717
 11
34.9283
 21
77.3067
  0
LINE
  8
0
 10
34.9283
 20
77.3067
 11
34.9649
 21
77.3398
  0
LINE
  8
0
 10
34.9649
 20
77.3398
 11
35.0032
 21
77.371
  0
LINE
  8
0
 10
35.0032
 20
77.371
 11
35.043
 21
77.4002
  0
LINE
  8
0
 10
35.043
 20
77.4002
 11
35.0843
 21
77.4274
  0
LINE
  8
0
 10
35.0843
 20
77.4274
 11
35.1268
 21
77.4525
  0
LINE
  8
0
 10
35.1268
 20
77.4525
 11
35.1706
 21
77.4754
  0
LINE
  8
0
 10
35.1706
 20
77.4754
 11
35.2155
 21
77.496
  0
LINE
  8
0
 10
35.2155
 20
77.496
 11
35.2614
 21
77.5143
  0
LINE
  8
0
 10
35.2614
 20
77.5143
 11
35.3081
 21
77.5303
  0
LINE
  8
0
 10
35.3081
 20
77.5303
 11
35.3556
 21
77.5439
  0
LINE
  8
0
 10
35.3556
 20
77.5439
 11
35.4037
 21
77.555
  0
LINE
  8
0
 10
35.4037
 20
77.555
 11
35.4523
 21
77.5638
  0
LINE
  8
0
 10
35.4523
 20
77.5638
 11
35.5014
 21
77.57
  0
LINE
  8
0
 10
35.5014
 20
77.57
 11
35.5506
 21
77.5737
  0
LINE
  8
0
 10
35.5506
 20
77.5737
 11
35.6
 21
77.575
  0
LINE
  8
0
 10
35.6
 20
77.575
 11
35.6494
 21
77.5737
  0
LINE
  8
0
 10
35.6494
 20
77.5737
 11
35.6986
 21
77.57
  0
LINE
  8
0
 10
35.6986
 20
77.57
 11
35.7476
 21
77.5638
  0
LINE
  8
0
 10
35.7476
 20
77.5638
 11
35.7963
 21
77.555
  0
LINE
  8
0
 10
35.7963
 20
77.555
 11
35.8444
 21
77.5439
  0
LINE
  8
0
 10
35.8444
 20
77.5439
 11
35.8919
 21
77.5303
  0
LINE
  8
0
 10
35.8919
 20
77.5303
 11
35.9386
 21
77.5143
  0
LINE
  8
0
 10
35.9386
 20
77.5143
 11
35.9845
 21
77.496
  0
LINE
  8
0
 10
35.9845
 20
77.496
 11
36.0294
 21
77.4754
  0
LINE
  8
0
 10
36.0294
 20
77.4754
 11
36.0732
 21
77.4525
  0
LINE
  8
0
 10
36.0732
 20
77.4525
 11
36.1157
 21
77.4274
  0
LINE
  8
0
 10
36.1157
 20
77.4274
 11
36.157
 21
77.4002
  0
LINE
  8
0
 10
36.157
 20
77.4002
 11
36.1968
 21
77.371
  0
LINE
  8
0
 10
36.1968
 20
77.371
 11
36.2351
 21
77.3398
  0
LINE
  8
0
 10
36.2351
 20
77.3398
 11
36.2717
 21
77.3067
  0
LINE
  8
0
 10
36.2717
 20
77.3067
 11
36.3067
 21
77.2717
  0
LINE
  8
0
 10
36.3067
 20
77.2717
 11
36.3398
 21
77.2351
  0
LINE
  8
0
 10
36.3398
 20
77.2351
 11
36.371
 21
77.1968
  0
LINE
  8
0
 10
36.371
 20
77.1968
 11
36.4002
 21
77.157
  0
LINE
  8
0
 10
36.4002
 20
77.157
 11
36.4274
 21
77.1157
  0
LINE
  8
0
 10
36.4274
 20
77.1157
 11
36.4525
 21
77.0732
  0
LINE
  8
0
 10
36.4525
 20
77.0732
 11
36.4754
 21
77.0294
  0
LINE
  8
0
 10
36.4754
 20
77.0294
 11
36.496
 21
76.9845
  0
LINE
  8
0
 10
36.496
 20
76.9845
 11
36.5143
 21
76.9386
  0
LINE
  8
0
 10
36.5143
 20
76.9386
 11
36.5303
 21
76.8919
  0
LINE
  8
0
 10
36.5303
 20
76.8919
 11
36.5439
 21
76.8444
  0
LINE
  8
0
 10
36.5439
 20
76.8444
 11
36.555
 21
76.7963
  0
LINE
  8
0
 10
36.555
 20
76.7963
 11
36.5638
 21
76.7476
  0
LINE
  8
0
 10
36.5638
 20
76.7476
 11
36.57
 21
76.6986
  0
LINE
  8
0
 10
36.57
 20
76.6986
 11
36.5737
 21
76.6494
  0
LINE
  8
0
 10
36.5737
 20
76.6494
 11
36.575
 21
76.6
  0
LINE
  8
0
 10
36.575
 20
76.6
 11
36.5737
 21
76.5506
  0
LINE
  8
0
 10
36.5737
 20
76.5506
 11
36.57
 21
76.5014
  0
LINE
  8
0
 10
36.57
 20
76.5014
 11
36.5638
 21
76.4524
  0
LINE
  8
0
 10
36.5638
 20
76.4524
 11
36.555
 21
76.4037
  0
LINE
  8
0
 10
36.555
 20
76.4037
 11
36.5439
 21
76.3556
  0
LINE
  8
0
 10
36.5439
 20
76.3556
 11
36.5303
 21
76.3081
  0
LINE
  8
0
 10
36.5303
 20
76.3081
 11
36.5143
 21
76.2614
  0
LINE
  8
0
 10
36.5143
 20
76.2614
 11
36.496
 21
76.2155
  0
LINE
  8
0
 10
36.496
 20
76.2155
 11
36.4754
 21
76.1706
  0
LINE
  8
0
 10
36.4754
 20
76.1706
 11
36.4525
 21
76.1268
  0
LINE
  8
0
 10
36.4525
 20
76.1268
 11
36.4274
 21
76.0843
  0
LINE
  8
0
 10
36.4274
 20
76.0843
 11
36.4002
 21
76.043
  0
LINE
  8
0
 10
36.4002
 20
76.043
 11
36.371
 21
76.0032
  0
LINE
  8
0
 10
36.371
 20
76.0032
 11
36.3398
 21
75.9649
  0
LINE
  8
0
 10
36.3398
 20
75.9649
 11
36.3067
 21
75.9283
  0
LINE
  8
0
 10
36.3067
 20
75.9283
 11
36.2717
 21
75.8933
  0
LINE
  8
0
 10
36.2717
 20
75.8933
 11
36.2351
 21
75.8602
  0
LINE
  8
0
 10
36.2351
 20
75.8602
 11
36.1968
 21
75.829
  0
LINE
  8
0
 10
36.1968
 20
75.829
 11
36.157
 21
75.7998
  0
LINE
  8
0
 10
36.157
 20
75.7998
 11
36.1157
 21
75.7726
  0
LINE
  8
0
 10
36.1157
 20
75.7726
 11
36.0732
 21
75.7475
  0
LINE
  8
0
 10
36.0732
 20
75.7475
 11
36.0294
 21
75.7246
  0
LINE
  8
0
 10
36.0294
 20
75.7246
 11
35.9845
 21
75.704
  0
LINE
  8
0
 10
35.9845
 20
75.704
 11
35.9386
 21
75.6857
  0
LINE
  8
0
 10
35.9386
 20
75.6857
 11
35.8919
 21
75.6697
  0
LINE
  8
0
 10
35.8919
 20
75.6697
 11
35.8444
 21
75.6561
  0
LINE
  8
0
 10
35.8444
 20
75.6561
 11
35.7963
 21
75.645
  0
LINE
  8
0
 10
35.7963
 20
75.645
 11
35.7476
 21
75.6362
  0
LINE
  8
0
 10
35.7476
 20
75.6362
 11
35.6986
 21
75.63
  0
LINE
  8
0
 10
35.6986
 20
75.63
 11
35.6494
 21
75.6263
  0
LINE
  8
0
 10
35.6494
 20
75.6263
 11
35.6
 21
75.625
  0
LINE
  8
0
 10
35.6
 20
75.625
 11
35.5506
 21
75.6263
  0
LINE
  8
0
 10
-35.6494
 20
75.6263
 11
-35.6986
 21
75.63
  0
LINE
  8
0
 10
-35.6986
 20
75.63
 11
-35.7476
 21
75.6362
  0
LINE
  8
0
 10
-35.7476
 20
75.6362
 11
-35.7963
 21
75.645
  0
LINE
  8
0
 10
-35.7963
 20
75.645
 11
-35.8444
 21
75.6561
  0
LINE
  8
0
 10
-35.8444
 20
75.6561
 11
-35.8919
 21
75.6697
  0
LINE
  8
0
 10
-35.8919
 20
75.6697
 11
-35.9386
 21
75.6857
  0
LINE
  8
0
 10
-35.9386
 20
75.6857
 11
-35.9845
 21
75.704
  0
LINE
  8
0
 10
-35.9845
 20
75.704
 11
-36.0294
 21
75.7246
  0
LINE
  8
0
 10
-36.0294
 20
75.7246
 11
-36.0732
 21
75.7475
  0
LINE
  8
0
 10
-36.0732
 20
75.7475
 11
-36.1157
 21
75.7726
  0
LINE
  8
0
 10
-36.1157
 20
75.7726
 11
-36.157
 21
75.7998
  0
LINE
  8
0
 10
-36.157
 20
75.7998
 11
-36.1968
 21
75.829
  0
LINE
  8
0
 10
-36.1968
 20
75.829
 11
-36.2351
 21
75.8602
  0
LINE
  8
0
 10
-36.2351
 20
75.8602
 11
-36.2717
 21
75.8933
  0
LINE
  8
0
 10
-36.2717
 20
75.8933
 11
-36.3067
 21
75.9283
  0
LINE
  8
0
 10
-36.3067
 20
75.9283
 11
-36.3398
 21
75.9649
  0
LINE
  8
0
 10
-36.3398
 20
75.9649
 11
-36.371
 21
76.0032
  0
LINE
  8
0
 10
-36.371
 20
76.0032
 11
-36.4002
 21
76.043
  0
LINE
  8
0
 10
-36.4002
 20
76.043
 11
-36.4274
 21
76.0843
  0
LINE
  8
0
 10
-36.4274
 20
76.0843
 11
-36.4525
 21
76.1268
  0
LINE
  8
0
 10
-36.4525
 20
76.1268
 11
-36.4754
 21
76.1706
  0
LINE
  8
0
 10
-36.4754
 20
76.1706
 11
-36.496
 21
76.2155
  0
LINE
  8
0
 10
-36.496
 20
76.2155
 11
-36.5143
 21
76.2614
  0
LINE
  8
0
 10
-36.5143
 20
76.2614
 11
-36.5303
 21
76.3081
  0
LINE
  8
0
 10
-36.5303
 20
76.3081
 11
-36.5439
 21
76.3556
  0
LINE
  8
0
 10
-36.5439
 20
76.3556
 11
-36.555
 21
76.4037
  0
LINE
  8
0
 10
-36.555
 20
76.4037
 11
-36.5638
 21
76.4524
  0
LINE
  8
0
 10
-36.5638
 20
76.4524
 11
-36.57
 21
76.5014
  0
LINE
  8
0
 10
-36.57
 20
76.5014
 11
-36.5737
 21
76.5506
  0
LINE
  8
0
 10
-36.5737
 20
76.5506
 11
-36.575
 21
76.6
  0
LINE
  8
0
 10
-36.575
 20
76.6
 11
-36.5737
 21
76.6494
  0
LINE
  8
0
 10
-36.5737
 20
76.6494
 11
-36.57
 21
76.6986
  0
LINE
  8
0
 10
-36.57
 20
76.6986
 11
-36.5638
 21
76.7476
  0
LINE
  8
0
 10
-36.5638
 20
76.7476
 11
-36.555
 21
76.7963
  0
LINE
  8
0
 10
-36.555
 20
76.7963
 11
-36.5439
 21
76.8444
  0
LINE
  8
0
 10
-36.5439
 20
76.8444
 11
-36.5303
 21
76.8919
  0
LINE
  8
0
 10
-36.5303
 20
76.8919
 11
-36.5143
 21
76.9386
  0
LINE
  8
0
 10
-36.5143
 20
76.9386
 11
-36.496
 21
76.9845
  0
LINE
  8
0
 10
-36.496
 20
76.9845
 11
-36.4754
 21
77.0294
  0
LINE
  8
0
 10
-36.4754
 20
77.0294
 11
-36.4525
 21
77.0732
  0
LINE
  8
0
 10
-36.4525
 20
77.0732
 11
-36.4274
 21
77.1157
  0
LINE
  8
0
 10
-36.4274
 20
77.1157
 11
-36.4002
 21
77.157
  0
LINE
  8
0
 10
-36.4002
 20
77.157
 11
-36.371
 21
77.1968
  0
LINE
  8
0
 10
-36.371
 20
77.1968
 11
-36.3398
 21
77.2351
  0
LINE
  8
0
 10
-36.3398
 20
77.2351
 11
-36.3067
 21
77.2717
  0
LINE
  8
0
 10
-36.3067
 20
77.2717
 11
-36.2717
 21
77.3067
  0
LINE
  8
0
 10
-36.2717
 20
77.3067
 11
-36.2351
 21
77.3398
  0
LINE
  8
0
 10
-36.2351
 20
77.3398
 11
-36.1968
 21
77.371
  0
LINE
  8
0
 10
-36.1968
 20
77.371
 11
-36.157
 21
77.4002
  0
LINE
  8
0
 10
-36.157
 20
77.4002
 11
-36.1157
 21
77.4274
  0
LINE
  8
0
 10
-36.1157
 20
77.4274
 11
-36.0732
 21
77.4525
  0
LINE
  8
0
 10
-36.0732
 20
77.4525
 11
-36.0294
 21
77.4754
  0
LINE
  8
0
 10
-36.0294
 20
77.4754
 11
-35.9845
 21
77.496
  0
LINE
  8
0
 10
-35.9845
 20
77.496
 11
-35.9386
 21
77.5143
  0
LINE
  8
0
 10
-35.9386
 20
77.5143
 11
-35.8919
 21
77.5303
  0
LINE
  8
0
 10
-35.8919
 20
77.5303
 11
-35.8444
 21
77.5439
  0
LINE
  8
0
 10
-35.8444
 20
77.5439
 11
-35.7963
 21
77.555
  0
LINE
  8
0
 10
-35.7963
 20
77.555
 11
-35.7476
 21
77.5638
  0
LINE
  8
0
 10
-35.7476
 20
77.5638
 11
-35.6986
 21
77.57
  0
LINE
  8
0
 10
-35.6986
 20
77.57
 11
-35.6494
 21
77.5737
  0
LINE
  8
0
 10
-35.6494
 20
77.5737
 11
-35.6
 21
77.575
  0
LINE
  8
0
 10
-35.6
 20
77.575
 11
-35.5506
 21
77.5737
  0
LINE
  8
0
 10
-35.5506
 20
77.5737
 11
-35.5014
 21
77.57
  0
LINE
  8
0
 10
-35.5014
 20
77.57
 11
-35.4523
 21
77.5638
  0
LINE
  8
0
 10
-35.4523
 20
77.5638
 11
-35.4037
 21
77.555
  0
LINE
  8
0
 10
-35.4037
 20
77.555
 11
-35.3556
 21
77.5439
  0
LINE
  8
0
 10
-35.3556
 20
77.5439
 11
-35.3081
 21
77.5303
  0
LINE
  8
0
 10
-35.3081
 20
77.5303
 11
-35.2614
 21
77.5143
  0
LINE
  8
0
 10
-35.2614
 20
77.5143
 11
-35.2155
 21
77.496
  0
LINE
  8
0
 10
-35.2155
 20
77.496
 11
-35.1706
 21
77.4754
  0
LINE
  8
0
 10
-35.1706
 20
77.4754
 11
-35.1268
 21
77.4525
  0
LINE
  8
0
 10
-35.1268
 20
77.4525
 11
-35.0843
 21
77.4274
  0
LINE
  8
0
 10
-35.0843
 20
77.4274
 11
-35.043
 21
77.4002
  0
LINE
  8
0
 10
-35.043
 20
77.4002
 11
-35.0032
 21
77.371
  0
LINE
  8
0
 10
-35.0032
 20
77.371
 11
-34.9649
 21
77.3398
  0
LINE
  8
0
 10
-34.9649
 20
77.3398
 11
-34.9283
 21
77.3067
  0
LINE
  8
0
 10
-34.9283
 20
77.3067
 11
-34.8933
 21
77.2717
  0
LINE
  8
0
 10
-34.8933
 20
77.2717
 11
-34.8602
 21
77.2351
  0
LINE
  8
0
 10
-34.8602
 20
77.2351
 11
-34.829
 21
77.1968
  0
LINE
  8
0
 10
-34.829
 20
77.1968
 11
-34.7997
 21
77.157
  0
LINE
  8
0
 10
-34.7997
 20
77.157
 11
-34.7726
 21
77.1157
  0
LINE
  8
0
 10
-34.7726
 20
77.1157
 11
-34.7475
 21
77.0732
  0
LINE
  8
0
 10
-34.7475
 20
77.0732
 11
-34.7246
 21
77.0294
  0
LINE
  8
0
 10
-34.7246
 20
77.0294
 11
-34.704
 21
76.9845
  0
LINE
  8
0
 10
-34.704
 20
76.9845
 11
-34.6857
 21
76.9386
  0
LINE
  8
0
 10
-34.6857
 20
76.9386
 11
-34.6697
 21
76.8919
  0
LINE
  8
0
 10
-34.6697
 20
76.8919
 11
-34.6561
 21
76.8444
  0
LINE
  8
0
 10
-34.6561
 20
76.8444
 11
-34.6449
 21
76.7963
  0
LINE
  8
0
 10
-34.6449
 20
76.7963
 11
-34.6362
 21
76.7476
  0
LINE
  8
0
 10
-34.6362
 20
76.7476
 11
-34.63
 21
76.6986
  0
LINE
  8
0
 10
-34.63
 20
76.6986
 11
-34.6263
 21
76.6494
  0
LINE
  8
0
 10
-34.6263
 20
76.6494
 11
-34.625
 21
76.6
  0
LINE
  8
0
 10
-34.625
 20
76.6
 11
-34.6263
 21
76.5506
  0
LINE
  8
0
 10
-34.6263
 20
76.5506
 11
-34.63
 21
76.5014
  0
LINE
  8
0
 10
-34.63
 20
76.5014
 11
-34.6362
 21
76.4524
  0
LINE
  8
0
 10
-34.6362
 20
76.4524
 11
-34.6449
 21
76.4037
  0
LINE
  8
0
 10
-34.6449
 20
76.4037
 11
-34.6561
 21
76.3556
  0
LINE
  8
0
 10
-34.6561
 20
76.3556
 11
-34.6697
 21
76.3081
  0
LINE
  8
0
 10
-34.6697
 20
76.3081
 11
-34.6857
 21
76.2614
  0
LINE
  8
0
 10
-34.6857
 20
76.2614
 11
-34.704
 21
76.2155
  0
LINE
  8
0
 10
-34.704
 20
76.2155
 11
-34.7246
 21
76.1706
  0
LINE
  8
0
 10
-34.7246
 20
76.1706
 11
-34.7475
 21
76.1268
  0
LINE
  8
0
 10
-34.7475
 20
76.1268
 11
-34.7726
 21
76.0843
  0
LINE
  8
0
 10
-34.7726
 20
76.0843
 11
-34.7997
 21
76.043
  0
LINE
  8
0
 10
-34.7997
 20
76.043
 11
-34.829
 21
76.0032
  0
LINE
  8
0
 10
-34.829
 20
76.0032
 11
-34.8602
 21
75.9649
  0
LINE
  8
0
 10
-34.8602
 20
75.9649
 11
-34.8933
 21
75.9283
  0
LINE
  8
0
 10
-34.8933
 20
75.9283
 11
-34.9283
 21
75.8933
  0
LINE
  8
0
 10
-34.9283
 20
75.8933
 11
-34.9649
 21
75.8602
  0
LINE
  8
0
 10
-34.9649
 20
75.8602
 11
-35.0032
 21
75.829
  0
LINE
  8
0
 10
-35.0032
 20
75.829
 11
-35.043
 21
75.7998
  0
LINE
  8
0
 10
-35.043
 20
75.7998
 11
-35.0843
 21
75.7726
  0
LINE
  8
0
 10
-35.0843
 20
75.7726
 11
-35.1268
 21
75.7475
  0
LINE
  8
0
 10
-35.1268
 20
75.7475
 11
-35.1706
 21
75.7246
  0
LINE
  8
0
 10
-35.1706
 20
75.7246
 11
-35.2155
 21
75.704
  0
LINE
  8
0
 10
-35.2155
 20
75.704
 11
-35.2614
 21
75.6857
  0
LINE
  8
0
 10
-35.2614
 20
75.6857
 11
-35.3081
 21
75.6697
  0
LINE
  8
0
 10
-35.3081
 20
75.6697
 11
-35.3556
 21
75.6561
  0
LINE
  8
0
 10
-35.3556
 20
75.6561
 11
-35.4037
 21
75.645
  0
LINE
  8
0
 10
-35.4037
 20
75.645
 11
-35.4523
 21
75.6362
  0
LINE
  8
0
 10
-35.4523
 20
75.6362
 11
-35.5014
 21
75.63
  0
LINE
  8
0
 10
-35.5014
 20
75.63
 11
-35.5506
 21
75.6263
  0
LINE
  8
0
 10
-35.5506
 20
75.6263
 11
-35.6
 21
75.625
  0
LINE
  8
0
 10
-35.6
 20
75.625
 11
-35.6494
 21
75.6263
  0
LINE
  8
0
 10
66.75
 20
71.6
 11
74.25
 21
71.6
  0
LINE
  8
0
 10
74.25
 20
71.6
 11
74.25
 21
69.7
  0
LINE
  8
0
 10
74.25
 20
69.7
 11
81.75
 21
69.7
  0
LINE
  8
0
 10
81.75
 20
69.7
 11
81.75
 21
71.6
  0
LINE
  8
0
 10
81.75
 20
71.6
 11
89.25
 21
71.6
  0
LINE
  8
0
 10
89.25
 20
71.6
 11
89.25
 21
69.7
  0
LINE
  8
0
 10
89.25
 20
69.7
 11
96.75
 21
69.7
  0
LINE
  8
0
 10
96.75
 20
69.7
 11
96.75
 21
71.6
  0
LINE
  8
0
 10
96.75
 20
71.6
 11
104.25
 21
71.6
  0
LINE
  8
0
 10
104.25
 20
71.6
 11
104.25
 21
69.7
  0
LINE
  8
0
 10
104.25
 20
69.7
 11
111.75
 21
69.7
  0
LINE
  8
0
 10
111.75
 20
69.7
 11
111.75
 21
71.6
  0
LINE
  8
0
 10
111.75
 20
71.6
 11
119.25
 21
71.6
  0
LINE
  8
0
 10
119.25
 20
71.6
 11
119.25
 21
69.7
  0
LINE
  8
0
 10
119.25
 20
69.7
 11
126.75
 21
69.7
  0
LINE
  8
0
 10
126.75
 20
69.7
 11
126.75
 21
71.6
  0
LINE
  8
0
 10
126.75
 20
71.6
 11
133.6
 21
71.6
  0
LINE
  8
0
 10
133.6
 20
71.6
 11
133.6
 21
77.85
  0
LINE
  8
0
 10
133.6
 20
77.85
 11
135.5
 21
77.85
  0
LINE
  8
0
 10
135.5
 20
77.85
 11
135.5
 21
85.35
  0
LINE
  8
0
 10
135.5
 20
85.35
 11
133.6
 21
85.35
  0
LINE
  8
0
 10
133.6
 20
85.35
 11
133.6
 21
91.5999
  0
LINE
  8
0
 10
133.6
 20
91.5999
 11
126.75
 21
91.5999
  0
LINE
  8
0
 10
126.75
 20
91.5999
 11
126.75
 21
93.5
  0
LINE
  8
0
 10
126.75
 20
93.5
 11
119.25
 21
93.5
  0
LINE
  8
0
 10
119.25
 20
93.5
 11
119.25
 21
91.5999
  0
LINE
  8
0
 10
119.25
 20
91.5999
 11
111.75
 21
91.5999
  0
LINE
  8
0
 10
111.75
 20
91.5999
 11
111.75
 21
93.5
  0
LINE
  8
0
 10
111.75
 20
93.5
 11
104.25
 21
93.5
  0
LINE
  8
0
 10
104.25
 20
93.5
 11
104.25
 21
91.5999
  0
LINE
  8
0
 10
104.25
 20
91.5999
 11
96.75
 21
91.5999
  0
LINE
  8
0
 10
96.75
 20
91.5999
 11
96.75
 21
93.5
  0
LINE
  8
0
 10
96.75
 20
93.5
 11
89.25
 21
93.5
  0
LINE
  8
0
 10
89.25
 20
93.5
 11
89.25
 21
91.5999
  0
LINE
  8
0
 10
89.25
 20
91.5999
 11
81.75
 21
91.5999
  0
LINE
  8
0
 10
81.75
 20
91.5999
 11
81.75
 21
93.5
  0
LINE
  8
0
 10
81.75
 20
93.5
 11
74.25
 21
93.5
  0
LINE
  8
0
 10
74.25
 20
93.5
 11
74.25
 21
91.5999
  0
LINE
  8
0
 10
74.25
 20
91.5999
 11
66.75
 21
91.5999
  0
LINE
  8
0
 10
66.75
 20
91.5999
 11
66.75
 21
93.5
  0
LINE
  8
0
 10
66.75
 20
93.5
 11
59.25
 21
93.5
  0
LINE
  8
0
 10
59.25
 20
93.5
 11
59.25
 21
91.6
  0
LINE
  8
0
 10
59.25
 20
91.6
 11
52.4001
 21
91.6
  0
LINE
  8
0
 10
52.4001
 20
91.6
 11
52.4001
 21
85.35
  0
LINE
  8
0
 10
52.4001
 20
85.35
 11
50.5
 21
85.35
  0
LINE
  8
0
 10
50.5
 20
85.35
 11
50.5
 21
77.85
  0
LINE
  8
0
 10
50.5
 20
77.85
 11
52.4001
 21
77.85
  0
LINE
  8
0
 10
52.4001
 20
77.85
 11
52.4001
 21
71.6
  0
LINE
  8
0
 10
52.4001
 20
71.6
 11
59.25
 21
71.6
  0
LINE
  8
0
 10
59.25
 20
71.6
 11
59.25
 21
69.7
  0
LINE
  8
0
 10
59.25
 20
69.7
 11
66.75
 21
69.7
  0
LINE
  8
0
 10
66.75
 20
69.7
 11
66.75
 21
71.6
  0
LINE
  8
0
 10
57.3506
 20
85.6262
 11
57.3014
 21
85.63
  0
LINE
  8
0
 10
57.3014
 20
85.63
 11
57.2524
 21
85.6362
  0
LINE
  8
0
 10
57.2524
 20
85.6362
 11
57.2037
 21
85.6449
  0
LINE
  8
0
 10
57.2037
 20
85.6449
 11
57.1556
 21
85.6561
  0
LINE
  8
0
 10
57.1556
 20
85.6561
 11
57.1081
 21
85.6697
  0
LINE
  8
0
 10
57.1081
 20
85.6697
 11
57.0614
 21
85.6857
  0
LINE
  8
0
 10
57.0614
 20
85.6857
 11
57.0155
 21
85.704
  0
LINE
  8
0
 10
57.0155
 20
85.704
 11
56.9706
 21
85.7246
  0
LINE
  8
0
 10
56.9706
 20
85.7246
 11
56.9268
 21
85.7475
  0
LINE
  8
0
 10
56.9268
 20
85.7475
 11
56.8843
 21
85.7726
  0
LINE
  8
0
 10
56.8843
 20
85.7726
 11
56.843
 21
85.7997
  0
LINE
  8
0
 10
56.843
 20
85.7997
 11
56.8032
 21
85.829
  0
LINE
  8
0
 10
56.8032
 20
85.829
 11
56.7649
 21
85.8602
  0
LINE
  8
0
 10
56.7649
 20
85.8602
 11
56.7283
 21
85.8933
  0
LINE
  8
0
 10
56.7283
 20
85.8933
 11
56.6933
 21
85.9282
  0
LINE
  8
0
 10
56.6933
 20
85.9282
 11
56.6602
 21
85.9649
  0
LINE
  8
0
 10
56.6602
 20
85.9649
 11
56.629
 21
86.0032
  0
LINE
  8
0
 10
56.629
 20
86.0032
 11
56.5998
 21
86.043
  0
LINE
  8
0
 10
56.5998
 20
86.043
 11
56.5726
 21
86.0842
  0
LINE
  8
0
 10
56.5726
 20
86.0842
 11
56.5475
 21
86.1268
  0
LINE
  8
0
 10
56.5475
 20
86.1268
 11
56.5246
 21
86.1706
  0
LINE
  8
0
 10
56.5246
 20
86.1706
 11
56.504
 21
86.2155
  0
LINE
  8
0
 10
56.504
 20
86.2155
 11
56.4857
 21
86.2614
  0
LINE
  8
0
 10
56.4857
 20
86.2614
 11
56.4697
 21
86.3081
  0
LINE
  8
0
 10
56.4697
 20
86.3081
 11
56.4561
 21
86.3556
  0
LINE
  8
0
 10
56.4561
 20
86.3556
 11
56.445
 21
86.4037
  0
LINE
  8
0
 10
56.445
 20
86.4037
 11
56.4362
 21
86.4523
  0
LINE
  8
0
 10
56.4362
 20
86.4523
 11
56.43
 21
86.5013
  0
LINE
  8
0
 10
56.43
 20
86.5013
 11
56.4263
 21
86.5506
  0
LINE
  8
0
 10
56.4263
 20
86.5506
 11
56.425
 21
86.6
  0
LINE
  8
0
 10
56.425
 20
86.6
 11
56.4263
 21
86.6494
  0
LINE
  8
0
 10
56.4263
 20
86.6494
 11
56.43
 21
86.6986
  0
LINE
  8
0
 10
56.43
 20
86.6986
 11
56.4362
 21
86.7476
  0
LINE
  8
0
 10
56.4362
 20
86.7476
 11
56.445
 21
86.7962
  0
LINE
  8
0
 10
56.445
 20
86.7962
 11
56.4561
 21
86.8444
  0
LINE
  8
0
 10
56.4561
 20
86.8444
 11
56.4697
 21
86.8919
  0
LINE
  8
0
 10
56.4697
 20
86.8919
 11
56.4857
 21
86.9386
  0
LINE
  8
0
 10
56.4857
 20
86.9386
 11
56.504
 21
86.9845
  0
LINE
  8
0
 10
56.504
 20
86.9845
 11
56.5246
 21
87.0294
  0
LINE
  8
0
 10
56.5246
 20
87.0294
 11
56.5475
 21
87.0732
  0
LINE
  8
0
 10
56.5475
 20
87.0732
 11
56.5726
 21
87.1157
  0
LINE
  8
0
 10
56.5726
 20
87.1157
 11
56.5998
 21
87.157
  0
LINE
  8
0
 10
56.5998
 20
87.157
 11
56.629
 21
87.1968
  0
LINE
  8
0
 10
56.629
 20
87.1968
 11
56.6602
 21
87.2351
  0
LINE
  8
0
 10
56.6602
 20
87.2351
 11
56.6933
 21
87.2717
  0
LINE
  8
0
 10
56.6933
 20
87.2717
 11
56.7283
 21
87.3067
  0
LINE
  8
0
 10
56.7283
 20
87.3067
 11
56.7649
 21
87.3398
  0
LINE
  8
0
 10
56.7649
 20
87.3398
 11
56.8032
 21
87.371
  0
LINE
  8
0
 10
56.8032
 20
87.371
 11
56.843
 21
87.4002
  0
LINE
  8
0
 10
56.843
 20
87.4002
 11
56.8843
 21
87.4274
  0
LINE
  8
0
 10
56.8843
 20
87.4274
 11
56.9268
 21
87.4525
  0
LINE
  8
0
 10
56.9268
 20
87.4525
 11
56.9706
 21
87.4753
  0
LINE
  8
0
 10
56.9706
 20
87.4753
 11
57.0155
 21
87.496
  0
LINE
  8
0
 10
57.0155
 20
87.496
 11
57.0614
 21
87.5143
  0
LINE
  8
0
 10
57.0614
 20
87.5143
 11
57.1081
 21
87.5303
  0
LINE
  8
0
 10
57.1081
 20
87.5303
 11
57.1556
 21
87.5439
  0
LINE
  8
0
 10
57.1556
 20
87.5439
 11
57.2037
 21
87.555
  0
LINE
  8
0
 10
57.2037
 20
87.555
 11
57.2524
 21
87.5637
  0
LINE
  8
0
 10
57.2524
 20
87.5637
 11
57.3014
 21
87.57
  0
LINE
  8
0
 10
57.3014
 20
87.57
 11
57.3506
 21
87.5737
  0
LINE
  8
0
 10
57.3506
 20
87.5737
 11
57.4
 21
87.575
  0
LINE
  8
0
 10
57.4
 20
87.575
 11
57.4494
 21
87.5737
  0
LINE
  8
0
 10
57.4494
 20
87.5737
 11
57.4986
 21
87.57
  0
LINE
  8
0
 10
57.4986
 20
87.57
 11
57.5477
 21
87.5637
  0
LINE
  8
0
 10
57.5477
 20
87.5637
 11
57.5963
 21
87.555
  0
LINE
  8
0
 10
57.5963
 20
87.555
 11
57.6444
 21
87.5439
  0
LINE
  8
0
 10
57.6444
 20
87.5439
 11
57.6919
 21
87.5303
  0
LINE
  8
0
 10
57.6919
 20
87.5303
 11
57.7386
 21
87.5143
  0
LINE
  8
0
 10
57.7386
 20
87.5143
 11
57.7845
 21
87.496
  0
LINE
  8
0
 10
57.7845
 20
87.496
 11
57.8294
 21
87.4753
  0
LINE
  8
0
 10
57.8294
 20
87.4753
 11
57.8732
 21
87.4525
  0
LINE
  8
0
 10
57.8732
 20
87.4525
 11
57.9157
 21
87.4274
  0
LINE
  8
0
 10
57.9157
 20
87.4274
 11
57.957
 21
87.4002
  0
LINE
  8
0
 10
57.957
 20
87.4002
 11
57.9968
 21
87.371
  0
LINE
  8
0
 10
57.9968
 20
87.371
 11
58.0351
 21
87.3398
  0
LINE
  8
0
 10
58.0351
 20
87.3398
 11
58.0717
 21
87.3067
  0
LINE
  8
0
 10
58.0717
 20
87.3067
 11
58.1067
 21
87.2717
  0
LINE
  8
0
 10
58.1067
 20
87.2717
 11
58.1398
 21
87.2351
  0
LINE
  8
0
 10
58.1398
 20
87.2351
 11
58.171
 21
87.1968
  0
LINE
  8
0
 10
58.171
 20
87.1968
 11
58.2003
 21
87.157
  0
LINE
  8
0
 10
58.2003
 20
87.157
 11
58.2274
 21
87.1157
  0
LINE
  8
0
 10
58.2274
 20
87.1157
 11
58.2525
 21
87.0732
  0
LINE
  8
0
 10
58.2525
 20
87.0732
 11
58.2754
 21
87.0294
  0
LINE
  8
0
 10
58.2754
 20
87.0294
 11
58.296
 21
86.9845
  0
LINE
  8
0
 10
58.296
 20
86.9845
 11
58.3143
 21
86.9386
  0
LINE
  8
0
 10
58.3143
 20
86.9386
 11
58.3303
 21
86.8919
  0
LINE
  8
0
 10
58.3303
 20
86.8919
 11
58.3439
 21
86.8444
  0
LINE
  8
0
 10
58.3439
 20
86.8444
 11
58.3551
 21
86.7962
  0
LINE
  8
0
 10
58.3551
 20
86.7962
 11
58.3638
 21
86.7476
  0
LINE
  8
0
 10
58.3638
 20
86.7476
 11
58.37
 21
86.6986
  0
LINE
  8
0
 10
58.37
 20
86.6986
 11
58.3737
 21
86.6494
  0
LINE
  8
0
 10
58.3737
 20
86.6494
 11
58.375
 21
86.6
  0
LINE
  8
0
 10
58.375
 20
86.6
 11
58.3737
 21
86.5506
  0
LINE
  8
0
 10
58.3737
 20
86.5506
 11
58.37
 21
86.5013
  0
LINE
  8
0
 10
58.37
 20
86.5013
 11
58.3638
 21
86.4523
  0
LINE
  8
0
 10
58.3638
 20
86.4523
 11
58.3551
 21
86.4037
  0
LINE
  8
0
 10
58.3551
 20
86.4037
 11
58.3439
 21
86.3556
  0
LINE
  8
0
 10
58.3439
 20
86.3556
 11
58.3303
 21
86.3081
  0
LINE
  8
0
 10
58.3303
 20
86.3081
 11
58.3143
 21
86.2614
  0
LINE
  8
0
 10
58.3143
 20
86.2614
 11
58.296
 21
86.2155
  0
LINE
  8
0
 10
58.296
 20
86.2155
 11
58.2754
 21
86.1706
  0
LINE
  8
0
 10
58.2754
 20
86.1706
 11
58.2525
 21
86.1268
  0
LINE
  8
0
 10
58.2525
 20
86.1268
 11
58.2274
 21
86.0842
  0
LINE
  8
0
 10
58.2274
 20
86.0842
 11
58.2003
 21
86.043
  0
LINE
  8
0
 10
58.2003
 20
86.043
 11
58.171
 21
86.0032
  0
LINE
  8
0
 10
58.171
 20
86.0032
 11
58.1398
 21
85.9649
  0
LINE
  8
0
 10
58.1398
 20
85.9649
 11
58.1067
 21
85.9282
  0
LINE
  8
0
 10
58.1067
 20
85.9282
 11
58.0717
 21
85.8933
  0
LINE
  8
0
 10
58.0717
 20
85.8933
 11
58.0351
 21
85.8602
  0
LINE
  8
0
 10
58.0351
 20
85.8602
 11
57.9968
 21
85.829
  0
LINE
  8
0
 10
57.9968
 20
85.829
 11
57.957
 21
85.7997
  0
LINE
  8
0
 10
57.957
 20
85.7997
 11
57.9157
 21
85.7726
  0
LINE
  8
0
 10
57.9157
 20
85.7726
 11
57.8732
 21
85.7475
  0
LINE
  8
0
 10
57.8732
 20
85.7475
 11
57.8294
 21
85.7246
  0
LINE
  8
0
 10
57.8294
 20
85.7246
 11
57.7845
 21
85.704
  0
LINE
  8
0
 10
57.7845
 20
85.704
 11
57.7386
 21
85.6857
  0
LINE
  8
0
 10
57.7386
 20
85.6857
 11
57.6919
 21
85.6697
  0
LINE
  8
0
 10
57.6919
 20
85.6697
 11
57.6444
 21
85.6561
  0
LINE
  8
0
 10
57.6444
 20
85.6561
 11
57.5963
 21
85.6449
  0
LINE
  8
0
 10
57.5963
 20
85.6449
 11
57.5477
 21
85.6362
  0
LINE
  8
0
 10
57.5477
 20
85.6362
 11
57.4986
 21
85.63
  0
LINE
  8
0
 10
57.4986
 20
85.63
 11
57.4494
 21
85.6262
  0
LINE
  8
0
 10
57.4494
 20
85.6262
 11
57.4
 21
85.625
  0
LINE
  8
0
 10
57.4
 20
85.625
 11
57.3506
 21
85.6262
  0
LINE
  8
0
 10
128.551
 20
85.6262
 11
128.501
 21
85.63
  0
LINE
  8
0
 10
128.501
 20
85.63
 11
128.452
 21
85.6362
  0
LINE
  8
0
 10
128.452
 20
85.6362
 11
128.404
 21
85.6449
  0
LINE
  8
0
 10
128.404
 20
85.6449
 11
128.356
 21
85.6561
  0
LINE
  8
0
 10
128.356
 20
85.6561
 11
128.308
 21
85.6697
  0
LINE
  8
0
 10
128.308
 20
85.6697
 11
128.261
 21
85.6857
  0
LINE
  8
0
 10
128.261
 20
85.6857
 11
128.215
 21
85.704
  0
LINE
  8
0
 10
128.215
 20
85.704
 11
128.171
 21
85.7246
  0
LINE
  8
0
 10
128.171
 20
85.7246
 11
128.127
 21
85.7475
  0
LINE
  8
0
 10
128.127
 20
85.7475
 11
128.084
 21
85.7726
  0
LINE
  8
0
 10
128.084
 20
85.7726
 11
128.043
 21
85.7997
  0
LINE
  8
0
 10
128.043
 20
85.7997
 11
128.003
 21
85.829
  0
LINE
  8
0
 10
128.003
 20
85.829
 11
127.965
 21
85.8602
  0
LINE
  8
0
 10
127.965
 20
85.8602
 11
127.928
 21
85.8933
  0
LINE
  8
0
 10
127.928
 20
85.8933
 11
127.893
 21
85.9282
  0
LINE
  8
0
 10
127.893
 20
85.9282
 11
127.86
 21
85.9649
  0
LINE
  8
0
 10
127.86
 20
85.9649
 11
127.829
 21
86.0032
  0
LINE
  8
0
 10
127.829
 20
86.0032
 11
127.8
 21
86.043
  0
LINE
  8
0
 10
127.8
 20
86.043
 11
127.773
 21
86.0842
  0
LINE
  8
0
 10
127.773
 20
86.0842
 11
127.747
 21
86.1268
  0
LINE
  8
0
 10
127.747
 20
86.1268
 11
127.725
 21
86.1706
  0
LINE
  8
0
 10
127.725
 20
86.1706
 11
127.704
 21
86.2155
  0
LINE
  8
0
 10
127.704
 20
86.2155
 11
127.686
 21
86.2614
  0
LINE
  8
0
 10
127.686
 20
86.2614
 11
127.67
 21
86.3081
  0
LINE
  8
0
 10
127.67
 20
86.3081
 11
127.656
 21
86.3556
  0
LINE
  8
0
 10
127.656
 20
86.3556
 11
127.645
 21
86.4037
  0
LINE
  8
0
 10
127.645
 20
86.4037
 11
127.636
 21
86.4523
  0
LINE
  8
0
 10
127.636
 20
86.4523
 11
127.63
 21
86.5013
  0
LINE
  8
0
 10
127.63
 20
86.5013
 11
127.626
 21
86.5506
  0
LINE
  8
0
 10
127.626
 20
86.5506
 11
127.625
 21
86.6
  0
LINE
  8
0
 10
127.625
 20
86.6
 11
127.626
 21
86.6494
  0
LINE
  8
0
 10
127.626
 20
86.6494
 11
127.63
 21
86.6986
  0
LINE
  8
0
 10
127.63
 20
86.6986
 11
127.636
 21
86.7476
  0
LINE
  8
0
 10
127.636
 20
86.7476
 11
127.645
 21
86.7962
  0
LINE
  8
0
 10
127.645
 20
86.7962
 11
127.656
 21
86.8444
  0
LINE
  8
0
 10
127.656
 20
86.8444
 11
127.67
 21
86.8919
  0
LINE
  8
0
 10
127.67
 20
86.8919
 11
127.686
 21
86.9386
  0
LINE
  8
0
 10
127.686
 20
86.9386
 11
127.704
 21
86.9845
  0
LINE
  8
0
 10
127.704
 20
86.9845
 11
127.725
 21
87.0294
  0
LINE
  8
0
 10
127.725
 20
87.0294
 11
127.747
 21
87.0732
  0
LINE
  8
0
 10
127.747
 20
87.0732
 11
127.773
 21
87.1157
  0
LINE
  8
0
 10
127.773
 20
87.1157
 11
127.8
 21
87.157
  0
LINE
  8
0
 10
127.8
 20
87.157
 11
127.829
 21
87.1968
  0
LINE
  8
0
 10
127.829
 20
87.1968
 11
127.86
 21
87.2351
  0
LINE
  8
0
 10
127.86
 20
87.2351
 11
127.893
 21
87.2717
  0
LINE
  8
0
 10
127.893
 20
87.2717
 11
127.928
 21
87.3067
  0
LINE
  8
0
 10
127.928
 20
87.3067
 11
127.965
 21
87.3398
  0
LINE
  8
0
 10
127.965
 20
87.3398
 11
128.003
 21
87.371
  0
LINE
  8
0
 10
128.003
 20
87.371
 11
128.043
 21
87.4002
  0
LINE
  8
0
 10
128.043
 20
87.4002
 11
128.084
 21
87.4274
  0
LINE
  8
0
 10
128.084
 20
87.4274
 11
128.127
 21
87.4525
  0
LINE
  8
0
 10
128.127
 20
87.4525
 11
128.171
 21
87.4753
  0
LINE
  8
0
 10
128.171
 20
87.4753
 11
128.215
 21
87.496
  0
LINE
  8
0
 10
128.215
 20
87.496
 11
128.261
 21
87.5143
  0
LINE
  8
0
 10
128.261
 20
87.5143
 11
128.308
 21
87.5303
  0
LINE
  8
0
 10
128.308
 20
87.5303
 11
128.356
 21
87.5439
  0
LINE
  8
0
 10
128.356
 20
87.5439
 11
128.404
 21
87.555
  0
LINE
  8
0
 10
128.404
 20
87.555
 11
128.452
 21
87.5637
  0
LINE
  8
0
 10
128.452
 20
87.5637
 11
128.501
 21
87.57
  0
LINE
  8
0
 10
128.501
 20
87.57
 11
128.551
 21
87.5737
  0
LINE
  8
0
 10
128.551
 20
87.5737
 11
128.6
 21
87.575
  0
LINE
  8
0
 10
128.6
 20
87.575
 11
128.649
 21
87.5737
  0
LINE
  8
0
 10
128.649
 20
87.5737
 11
128.699
 21
87.57
  0
LINE
  8
0
 10
128.699
 20
87.57
 11
128.748
 21
87.5637
  0
LINE
  8
0
 10
128.748
 20
87.5637
 11
128.796
 21
87.555
  0
LINE
  8
0
 10
128.796
 20
87.555
 11
128.844
 21
87.5439
  0
LINE
  8
0
 10
128.844
 20
87.5439
 11
128.892
 21
87.5303
  0
LINE
  8
0
 10
128.892
 20
87.5303
 11
128.939
 21
87.5143
  0
LINE
  8
0
 10
128.939
 20
87.5143
 11
128.984
 21
87.496
  0
LINE
  8
0
 10
128.984
 20
87.496
 11
129.029
 21
87.4753
  0
LINE
  8
0
 10
129.029
 20
87.4753
 11
129.073
 21
87.4525
  0
LINE
  8
0
 10
129.073
 20
87.4525
 11
129.116
 21
87.4274
  0
LINE
  8
0
 10
129.116
 20
87.4274
 11
129.157
 21
87.4002
  0
LINE
  8
0
 10
129.157
 20
87.4002
 11
129.197
 21
87.371
  0
LINE
  8
0
 10
129.197
 20
87.371
 11
129.235
 21
87.3398
  0
LINE
  8
0
 10
129.235
 20
87.3398
 11
129.272
 21
87.3067
  0
LINE
  8
0
 10
129.272
 20
87.3067
 11
129.307
 21
87.2717
  0
LINE
  8
0
 10
129.307
 20
87.2717
 11
129.34
 21
87.2351
  0
LINE
  8
0
 10
129.34
 20
87.2351
 11
129.371
 21
87.1968
  0
LINE
  8
0
 10
129.371
 20
87.1968
 11
129.4
 21
87.157
  0
LINE
  8
0
 10
129.4
 20
87.157
 11
129.427
 21
87.1157
  0
LINE
  8
0
 10
129.427
 20
87.1157
 11
129.452
 21
87.0732
  0
LINE
  8
0
 10
129.452
 20
87.0732
 11
129.475
 21
87.0294
  0
LINE
  8
0
 10
129.475
 20
87.0294
 11
129.496
 21
86.9845
  0
LINE
  8
0
 10
129.496
 20
86.9845
 11
129.514
 21
86.9386
  0
LINE
  8
0
 10
129.514
 20
86.9386
 11
129.53
 21
86.8919
  0
LINE
  8
0
 10
129.53
 20
86.8919
 11
129.544
 21
86.8444
  0
LINE
  8
0
 10
129.544
 20
86.8444
 11
129.555
 21
86.7962
  0
LINE
  8
0
 10
129.555
 20
86.7962
 11
129.564
 21
86.7476
  0
LINE
  8
0
 10
129.564
 20
86.7476
 11
129.57
 21
86.6986
  0
LINE
  8
0
 10
129.57
 20
86.6986
 11
129.574
 21
86.6494
  0
LINE
  8
0
 10
129.574
 20
86.6494
 11
129.575
 21
86.6
  0
LINE
  8
0
 10
129.575
 20
86.6
 11
129.574
 21
86.5506
  0
LINE
  8
0
 10
129.574
 20
86.5506
 11
129.57
 21
86.5013
  0
LINE
  8
0
 10
129.57
 20
86.5013
 11
129.564
 21
86.4523
  0
LINE
  8
0
 10
129.564
 20
86.4523
 11
129.555
 21
86.4037
  0
LINE
  8
0
 10
129.555
 20
86.4037
 11
129.544
 21
86.3556
  0
LINE
  8
0
 10
129.544
 20
86.3556
 11
129.53
 21
86.3081
  0
LINE
  8
0
 10
129.53
 20
86.3081
 11
129.514
 21
86.2614
  0
LINE
  8
0
 10
129.514
 20
86.2614
 11
129.496
 21
86.2155
  0
LINE
  8
0
 10
129.496
 20
86.2155
 11
129.475
 21
86.1706
  0
LINE
  8
0
 10
129.475
 20
86.1706
 11
129.452
 21
86.1268
  0
LINE
  8
0
 10
129.452
 20
86.1268
 11
129.427
 21
86.0842
  0
LINE
  8
0
 10
129.427
 20
86.0842
 11
129.4
 21
86.043
  0
LINE
  8
0
 10
129.4
 20
86.043
 11
129.371
 21
86.0032
  0
LINE
  8
0
 10
129.371
 20
86.0032
 11
129.34
 21
85.9649
  0
LINE
  8
0
 10
129.34
 20
85.9649
 11
129.307
 21
85.9282
  0
LINE
  8
0
 10
129.307
 20
85.9282
 11
129.272
 21
85.8933
  0
LINE
  8
0
 10
129.272
 20
85.8933
 11
129.235
 21
85.8602
  0
LINE
  8
0
 10
129.235
 20
85.8602
 11
129.197
 21
85.829
  0
LINE
  8
0
 10
129.197
 20
85.829
 11
129.157
 21
85.7997
  0
LINE
  8
0
 10
129.157
 20
85.7997
 11
129.116
 21
85.7726
  0
LINE
  8
0
 10
129.116
 20
85.7726
 11
129.073
 21
85.7475
  0
LINE
  8
0
 10
129.073
 20
85.7475
 11
129.029
 21
85.7246
  0
LINE
  8
0
 10
129.029
 20
85.7246
 11
128.984
 21
85.704
  0
LINE
  8
0
 10
128.984
 20
85.704
 11
128.939
 21
85.6857
  0
LINE
  8
0
 10
128.939
 20
85.6857
 11
128.892
 21
85.6697
  0
LINE
  8
0
 10
128.892
 20
85.6697
 11
128.844
 21
85.6561
  0
LINE
  8
0
 10
128.844
 20
85.6561
 11
128.796
 21
85.6449
  0
LINE
  8
0
 10
128.796
 20
85.6449
 11
128.748
 21
85.6362
  0
LINE
  8
0
 10
128.748
 20
85.6362
 11
128.699
 21
85.63
  0
LINE
  8
0
 10
128.699
 20
85.63
 11
128.649
 21
85.6262
  0
LINE
  8
0
 10
128.649
 20
85.6262
 11
128.6
 21
85.625
  0
LINE
  8
0
 10
128.6
 20
85.625
 11
128.551
 21
85.6262
  0
LINE
  8
0
 10
128.551
 20
75.6263
 11
128.501
 21
75.63
  0
LINE
  8
0
 10
128.501
 20
75.63
 11
128.452
 21
75.6362
  0
LINE
  8
0
 10
128.452
 20
75.6362
 11
128.404
 21
75.645
  0
LINE
  8
0
 10
128.404
 20
75.645
 11
128.356
 21
75.6561
  0
LINE
  8
0
 10
128.356
 20
75.6561
 11
128.308
 21
75.6697
  0
LINE
  8
0
 10
128.308
 20
75.6697
 11
128.261
 21
75.6857
  0
LINE
  8
0
 10
128.261
 20
75.6857
 11
128.215
 21
75.704
  0
LINE
  8
0
 10
128.215
 20
75.704
 11
128.171
 21
75.7246
  0
LINE
  8
0
 10
128.171
 20
75.7246
 11
128.127
 21
75.7475
  0
LINE
  8
0
 10
128.127
 20
75.7475
 11
128.084
 21
75.7726
  0
LINE
  8
0
 10
128.084
 20
75.7726
 11
128.043
 21
75.7998
  0
LINE
  8
0
 10
128.043
 20
75.7998
 11
128.003
 21
75.829
  0
LINE
  8
0
 10
128.003
 20
75.829
 11
127.965
 21
75.8602
  0
LINE
  8
0
 10
127.965
 20
75.8602
 11
127.928
 21
75.8933
  0
LINE
  8
0
 10
127.928
 20
75.8933
 11
127.893
 21
75.9283
  0
LINE
  8
0
 10
127.893
 20
75.9283
 11
127.86
 21
75.9649
  0
LINE
  8
0
 10
127.86
 20
75.9649
 11
127.829
 21
76.0032
  0
LINE
  8
0
 10
127.829
 20
76.0032
 11
127.8
 21
76.043
  0
LINE
  8
0
 10
127.8
 20
76.043
 11
127.773
 21
76.0843
  0
LINE
  8
0
 10
127.773
 20
76.0843
 11
127.747
 21
76.1268
  0
LINE
  8
0
 10
127.747
 20
76.1268
 11
127.725
 21
76.1706
  0
LINE
  8
0
 10
127.725
 20
76.1706
 11
127.704
 21
76.2155
  0
LINE
  8
0
 10
127.704
 20
76.2155
 11
127.686
 21
76.2614
  0
LINE
  8
0
 10
127.686
 20
76.2614
 11
127.67
 21
76.3081
  0
LINE
  8
0
 10
127.67
 20
76.3081
 11
127.656
 21
76.3556
  0
LINE
  8
0
 10
127.656
 20
76.3556
 11
127.645
 21
76.4037
  0
LINE
  8
0
 10
127.645
 20
76.4037
 11
127.636
 21
76.4524
  0
LINE
  8
0
 10
127.636
 20
76.4524
 11
127.63
 21
76.5014
  0
LINE
  8
0
 10
127.63
 20
76.5014
 11
127.626
 21
76.5506
  0
LINE
  8
0
 10
127.626
 20
76.5506
 11
127.625
 21
76.6
  0
LINE
  8
0
 10
127.625
 20
76.6
 11
127.626
 21
76.6494
  0
LINE
  8
0
 10
127.626
 20
76.6494
 11
127.63
 21
76.6986
  0
LINE
  8
0
 10
127.63
 20
76.6986
 11
127.636
 21
76.7476
  0
LINE
  8
0
 10
127.636
 20
76.7476
 11
127.645
 21
76.7963
  0
LINE
  8
0
 10
127.645
 20
76.7963
 11
127.656
 21
76.8444
  0
LINE
  8
0
 10
127.656
 20
76.8444
 11
127.67
 21
76.8919
  0
LINE
  8
0
 10
127.67
 20
76.8919
 11
127.686
 21
76.9386
  0
LINE
  8
0
 10
127.686
 20
76.9386
 11
127.704
 21
76.9845
  0
LINE
  8
0
 10
127.704
 20
76.9845
 11
127.725
 21
77.0294
  0
LINE
  8
0
 10
127.725
 20
77.0294
 11
127.747
 21
77.0732
  0
LINE
  8
0
 10
127.747
 20
77.0732
 11
127.773
 21
77.1157
  0
LINE
  8
0
 10
127.773
 20
77.1157
 11
127.8
 21
77.157
  0
LINE
  8
0
 10
127.8
 20
77.157
 11
127.829
 21
77.1968
  0
LINE
  8
0
 10
127.829
 20
77.1968
 11
127.86
 21
77.2351
  0
LINE
  8
0
 10
127.86
 20
77.2351
 11
127.893
 21
77.2717
  0
LINE
  8
0
 10
127.893
 20
77.2717
 11
127.928
 21
77.3067
  0
LINE
  8
0
 10
127.928
 20
77.3067
 11
127.965
 21
77.3398
  0
LINE
  8
0
 10
127.965
 20
77.3398
 11
128.003
 21
77.371
  0
LINE
  8
0
 10
128.003
 20
77.371
 11
128.043
 21
77.4002
  0
LINE
  8
0
 10
128.043
 20
77.4002
 11
128.084
 21
77.4274
  0
LINE
  8
0
 10
128.084
 20
77.4274
 11
128.127
 21
77.4525
  0
LINE
  8
0
 10
128.127
 20
77.4525
 11
128.171
 21
77.4754
  0
LINE
  8
0
 10
128.171
 20
77.4754
 11
128.215
 21
77.496
  0
LINE
  8
0
 10
128.215
 20
77.496
 11
128.261
 21
77.5143
  0
LINE
  8
0
 10
128.261
 20
77.5143
 11
128.308
 21
77.5303
  0
LINE
  8
0
 10
128.308
 20
77.5303
 11
128.356
 21
77.5439
  0
LINE
  8
0
 10
128.356
 20
77.5439
 11
128.404
 21
77.555
  0
LINE
  8
0
 10
128.404
 20
77.555
 11
128.452
 21
77.5638
  0
LINE
  8
0
 10
128.452
 20
77.5638
 11
128.501
 21
77.57
  0
LINE
  8
0
 10
128.501
 20
77.57
 11
128.551
 21
77.5737
  0
LINE
  8
0
 10
128.551
 20
77.5737
 11
128.6
 21
77.575
  0
LINE
  8
0
 10
128.6
 20
77.575
 11
128.649
 21
77.5737
  0
LINE
  8
0
 10
128.649
 20
77.5737
 11
128.699
 21
77.57
  0
LINE
  8
0
 10
128.699
 20
77.57
 11
128.748
 21
77.5638
  0
LINE
  8
0
 10
128.748
 20
77.5638
 11
128.796
 21
77.555
  0
LINE
  8
0
 10
128.796
 20
77.555
 11
128.844
 21
77.5439
  0
LINE
  8
0
 10
128.844
 20
77.5439
 11
128.892
 21
77.5303
  0
LINE
  8
0
 10
128.892
 20
77.5303
 11
128.939
 21
77.5143
  0
LINE
  8
0
 10
128.939
 20
77.5143
 11
128.984
 21
77.496
  0
LINE
  8
0
 10
128.984
 20
77.496
 11
129.029
 21
77.4754
  0
LINE
  8
0
 10
129.029
 20
77.4754
 11
129.073
 21
77.4525
  0
LINE
  8
0
 10
129.073
 20
77.4525
 11
129.116
 21
77.4274
  0
LINE
  8
0
 10
129.116
 20
77.4274
 11
129.157
 21
77.4002
  0
LINE
  8
0
 10
129.157
 20
77.4002
 11
129.197
 21
77.371
  0
LINE
  8
0
 10
129.197
 20
77.371
 11
129.235
 21
77.3398
  0
LINE
  8
0
 10
129.235
 20
77.3398
 11
129.272
 21
77.3067
  0
LINE
  8
0
 10
129.272
 20
77.3067
 11
129.307
 21
77.2717
  0
LINE
  8
0
 10
129.307
 20
77.2717
 11
129.34
 21
77.2351
  0
LINE
  8
0
 10
129.34
 20
77.2351
 11
129.371
 21
77.1968
  0
LINE
  8
0
 10
129.371
 20
77.1968
 11
129.4
 21
77.157
  0
LINE
  8
0
 10
129.4
 20
77.157
 11
129.427
 21
77.1157
  0
LINE
  8
0
 10
129.427
 20
77.1157
 11
129.452
 21
77.0732
  0
LINE
  8
0
 10
129.452
 20
77.0732
 11
129.475
 21
77.0294
  0
LINE
  8
0
 10
129.475
 20
77.0294
 11
129.496
 21
76.9845
  0
LINE
  8
0
 10
129.496
 20
76.9845
 11
129.514
 21
76.9386
  0
LINE
  8
0
 10
129.514
 20
76.9386
 11
129.53
 21
76.8919
  0
LINE
  8
0
 10
129.53
 20
76.8919
 11
129.544
 21
76.8444
  0
LINE
  8
0
 10
129.544
 20
76.8444
 11
129.555
 21
76.7963
  0
LINE
  8
0
 10
129.555
 20
76.7963
 11
129.564
 21
76.7476
  0
LINE
  8
0
 10
129.564
 20
76.7476
 11
129.57
 21
76.6986
  0
LINE
  8
0
 10
129.57
 20
76.6986
 11
129.574
 21
76.6494
  0
LINE
  8
0
 10
129.574
 20
76.6494
 11
129.575
 21
76.6
  0
LINE
  8
0
 10
129.575
 20
76.6
 11
129.574
 21
76.5506
  0
LINE
  8
0
 10
129.574
 20
76.5506
 11
129.57
 21
76.5014
  0
LINE
  8
0
 10
129.57
 20
76.5014
 11
129.564
 21
76.4524
  0
LINE
  8
0
 10
129.564
 20
76.4524
 11
129.555
 21
76.4037
  0
LINE
  8
0
 10
129.555
 20
76.4037
 11
129.544
 21
76.3556
  0
LINE
  8
0
 10
129.544
 20
76.3556
 11
129.53
 21
76.3081
  0
LINE
  8
0
 10
129.53
 20
76.3081
 11
129.514
 21
76.2614
  0
LINE
  8
0
 10
129.514
 20
76.2614
 11
129.496
 21
76.2155
  0
LINE
  8
0
 10
129.496
 20
76.2155
 11
129.475
 21
76.1706
  0
LINE
  8
0
 10
129.475
 20
76.1706
 11
129.452
 21
76.1268
  0
LINE
  8
0
 10
129.452
 20
76.1268
 11
129.427
 21
76.0843
  0
LINE
  8
0
 10
129.427
 20
76.0843
 11
129.4
 21
76.043
  0
LINE
  8
0
 10
129.4
 20
76.043
 11
129.371
 21
76.0032
  0
LINE
  8
0
 10
129.371
 20
76.0032
 11
129.34
 21
75.9649
  0
LINE
  8
0
 10
129.34
 20
75.9649
 11
129.307
 21
75.9283
  0
LINE
  8
0
 10
129.307
 20
75.9283
 11
129.272
 21
75.8933
  0
LINE
  8
0
 10
129.272
 20
75.8933
 11
129.235
 21
75.8602
  0
LINE
  8
0
 10
129.235
 20
75.8602
 11
129.197
 21
75.829
  0
LINE
  8
0
 10
129.197
 20
75.829
 11
129.157
 21
75.7998
  0
LINE
  8
0
 10
129.157
 20
75.7998
 11
129.116
 21
75.7726
  0
LINE
  8
0
 10
129.116
 20
75.7726
 11
129.073
 21
75.7475
  0
LINE
  8
0
 10
129.073
 20
75.7475
 11
129.029
 21
75.7246
  0
LINE
  8
0
 10
129.029
 20
75.7246
 11
128.984
 21
75.704
  0
LINE
  8
0
 10
128.984
 20
75.704
 11
128.939
 21
75.6857
  0
LINE
  8
0
 10
128.939
 20
75.6857
 11
128.892
 21
75.6697
  0
LINE
  8
0
 10
128.892
 20
75.6697
 11
128.844
 21
75.6561
  0
LINE
  8
0
 10
128.844
 20
75.6561
 11
128.796
 21
75.645
  0
LINE
  8
0
 10
128.796
 20
75.645
 11
128.748
 21
75.6362
  0
LINE
  8
0
 10
128.748
 20
75.6362
 11
128.699
 21
75.63
  0
LINE
  8
0
 10
128.699
 20
75.63
 11
128.649
 21
75.6263
  0
LINE
  8
0
 10
128.649
 20
75.6263
 11
128.6
 21
75.625
  0
LINE
  8
0
 10
128.6
 20
75.625
 11
128.551
 21
75.6263
  0
LINE
  8
0
 10
57.3506
 20
75.6263
 11
57.3014
 21
75.63
  0
LINE
  8
0
 10
57.3014
 20
75.63
 11
57.2524
 21
75.6362
  0
LINE
  8
0
 10
57.2524
 20
75.6362
 11
57.2037
 21
75.645
  0
LINE
  8
0
 10
57.2037
 20
75.645
 11
57.1556
 21
75.6561
  0
LINE
  8
0
 10
57.1556
 20
75.6561
 11
57.1081
 21
75.6697
  0
LINE
  8
0
 10
57.1081
 20
75.6697
 11
57.0614
 21
75.6857
  0
LINE
  8
0
 10
57.0614
 20
75.6857
 11
57.0155
 21
75.704
  0
LINE
  8
0
 10
57.0155
 20
75.704
 11
56.9706
 21
75.7246
  0
LINE
  8
0
 10
56.9706
 20
75.7246
 11
56.9268
 21
75.7475
  0
LINE
  8
0
 10
56.9268
 20
75.7475
 11
56.8843
 21
75.7726
  0
LINE
  8
0
 10
56.8843
 20
75.7726
 11
56.843
 21
75.7998
  0
LINE
  8
0
 10
56.843
 20
75.7998
 11
56.8032
 21
75.829
  0
LINE
  8
0
 10
56.8032
 20
75.829
 11
56.7649
 21
75.8602
  0
LINE
  8
0
 10
56.7649
 20
75.8602
 11
56.7283
 21
75.8933
  0
LINE
  8
0
 10
56.7283
 20
75.8933
 11
56.6933
 21
75.9283
  0
LINE
  8
0
 10
56.6933
 20
75.9283
 11
56.6602
 21
75.9649
  0
LINE
  8
0
 10
56.6602
 20
75.9649
 11
56.629
 21
76.0032
  0
LINE
  8
0
 10
56.629
 20
76.0032
 11
56.5998
 21
76.043
  0
LINE
  8
0
 10
56.5998
 20
76.043
 11
56.5726
 21
76.0843
  0
LINE
  8
0
 10
56.5726
 20
76.0843
 11
56.5475
 21
76.1268
  0
LINE
  8
0
 10
56.5475
 20
76.1268
 11
56.5246
 21
76.1706
  0
LINE
  8
0
 10
56.5246
 20
76.1706
 11
56.504
 21
76.2155
  0
LINE
  8
0
 10
56.504
 20
76.2155
 11
56.4857
 21
76.2614
  0
LINE
  8
0
 10
56.4857
 20
76.2614
 11
56.4697
 21
76.3081
  0
LINE
  8
0
 10
56.4697
 20
76.3081
 11
56.4561
 21
76.3556
  0
LINE
  8
0
 10
56.4561
 20
76.3556
 11
56.445
 21
76.4037
  0
LINE
  8
0
 10
56.445
 20
76.4037
 11
56.4362
 21
76.4524
  0
LINE
  8
0
 10
56.4362
 20
76.4524
 11
56.43
 21
76.5014
  0
LINE
  8
0
 10
56.43
 20
76.5014
 11
56.4263
 21
76.5506
  0
LINE
  8
0
 10
56.4263
 20
76.5506
 11
56.425
 21
76.6
  0
LINE
  8
0
 10
56.425
 20
76.6
 11
56.4263
 21
76.6494
  0
LINE
  8
0
 10
56.4263
 20
76.6494
 11
56.43
 21
76.6986
  0
LINE
  8
0
 10
56.43
 20
76.6986
 11
56.4362
 21
76.7476
  0
LINE
  8
0
 10
56.4362
 20
76.7476
 11
56.445
 21
76.7963
  0
LINE
  8
0
 10
56.445
 20
76.7963
 11
56.4561
 21
76.8444
  0
LINE
  8
0
 10
56.4561
 20
76.8444
 11
56.4697
 21
76.8919
  0
LINE
  8
0
 10
56.4697
 20
76.8919
 11
56.4857
 21
76.9386
  0
LINE
  8
0
 10
56.4857
 20
76.9386
 11
56.504
 21
76.9845
  0
LINE
  8
0
 10
56.504
 20
76.9845
 11
56.5246
 21
77.0294
  0
LINE
  8
0
 10
56.5246
 20
77.0294
 11
56.5475
 21
77.0732
  0
LINE
  8
0
 10
56.5475
 20
77.0732
 11
56.5726
 21
77.1157
  0
LINE
  8
0
 10
56.5726
 20
77.1157
 11
56.5998
 21
77.157
  0
LINE
  8
0
 10
56.5998
 20
77.157
 11
56.629
 21
77.1968
  0
LINE
  8
0
 10
56.629
 20
77.1968
 11
56.6602
 21
77.2351
  0
LINE
  8
0
 10
56.6602
 20
77.2351
 11
56.6933
 21
77.2717
  0
LINE
  8
0
 10
56.6933
 20
77.2717
 11
56.7283
 21
77.3067
  0
LINE
  8
0
 10
56.7283
 20
77.3067
 11
56.7649
 21
77.3398
  0
LINE
  8
0
 10
56.7649
 20
77.3398
 11
56.8032
 21
77.371
  0
LINE
  8
0
 10
56.8032
 20
77.371
 11
56.843
 21
77.4002
  0
LINE
  8
0
 10
56.843
 20
77.4002
 11
56.8843
 21
77.4274
  0
LINE
  8
0
 10
56.8843
 20
77.4274
 11
56.9268
 21
77.4525
  0
LINE
  8
0
 10
56.9268
 20
77.4525
 11
56.9706
 21
77.4754
  0
LINE
  8
0
 10
56.9706
 20
77.4754
 11
57.0155
 21
77.496
  0
LINE
  8
0
 10
57.0155
 20
77.496
 11
57.0614
 21
77.5143
  0
LINE
  8
0
 10
57.0614
 20
77.5143
 11
57.1081
 21
77.5303
  0
LINE
  8
0
 10
57.1081
 20
77.5303
 11
57.1556
 21
77.5439
  0
LINE
  8
0
 10
57.1556
 20
77.5439
 11
57.2037
 21
77.555
  0
LINE
  8
0
 10
57.2037
 20
77.555
 11
57.2524
 21
77.5638
  0
LINE
  8
0
 10
57.2524
 20
77.5638
 11
57.3014
 21
77.57
  0
LINE
  8
0
 10
57.3014
 20
77.57
 11
57.3506
 21
77.5737
  0
LINE
  8
0
 10
57.3506
 20
77.5737
 11
57.4
 21
77.575
  0
LINE
  8
0
 10
57.4
 20
77.575
 11
57.4494
 21
77.5737
  0
LINE
  8
0
 10
57.4494
 20
77.5737
 11
57.4986
 21
77.57
  0
LINE
  8
0
 10
57.4986
 20
77.57
 11
57.5477
 21
77.5638
  0
LINE
  8
0
 10
57.5477
 20
77.5638
 11
57.5963
 21
77.555
  0
LINE
  8
0
 10
57.5963
 20
77.555
 11
57.6444
 21
77.5439
  0
LINE
  8
0
 10
57.6444
 20
77.5439
 11
57.6919
 21
77.5303
  0
LINE
  8
0
 10
57.6919
 20
77.5303
 11
57.7386
 21
77.5143
  0
LINE
  8
0
 10
57.7386
 20
77.5143
 11
57.7845
 21
77.496
  0
LINE
  8
0
 10
57.7845
 20
77.496
 11
57.8294
 21
77.4754
  0
LINE
  8
0
 10
57.8294
 20
77.4754
 11
57.8732
 21
77.4525
  0
LINE
  8
0
 10
57.8732
 20
77.4525
 11
57.9157
 21
77.4274
  0
LINE
  8
0
 10
57.9157
 20
77.4274
 11
57.957
 21
77.4002
  0
LINE
  8
0
 10
57.957
 20
77.4002
 11
57.9968
 21
77.371
  0
LINE
  8
0
 10
57.9968
 20
77.371
 11
58.0351
 21
77.3398
  0
LINE
  8
0
 10
58.0351
 20
77.3398
 11
58.0717
 21
77.3067
  0
LINE
  8
0
 10
58.0717
 20
77.3067
 11
58.1067
 21
77.2717
  0
LINE
  8
0
 10
58.1067
 20
77.2717
 11
58.1398
 21
77.2351
  0
LINE
  8
0
 10
58.1398
 20
77.2351
 11
58.171
 21
77.1968
  0
LINE
  8
0
 10
58.171
 20
77.1968
 11
58.2003
 21
77.157
  0
LINE
  8
0
 10
58.2003
 20
77.157
 11
58.2274
 21
77.1157
  0
LINE
  8
0
 10
58.2274
 20
77.1157
 11
58.2525
 21
77.0732
  0
LINE
  8
0
 10
58.2525
 20
77.0732
 11
58.2754
 21
77.0294
  0
LINE
  8
0
 10
58.2754
 20
77.0294
 11
58.296
 21
76.9845
  0
LINE
  8
0
 10
58.296
 20
76.9845
 11
58.3143
 21
76.9386
  0
LINE
  8
0
 10
58.3143
 20
76.9386
 11
58.3303
 21
76.8919
  0
LINE
  8
0
 10
58.3303
 20
76.8919
 11
58.3439
 21
76.8444
  0
LINE
  8
0
 10
58.3439
 20
76.8444
 11
58.3551
 21
76.7963
  0
LINE
  8
0
 10
58.3551
 20
76.7963
 11
58.3638
 21
76.7476
  0
LINE
  8
0
 10
58.3638
 20
76.7476
 11
58.37
 21
76.6986
  0
LINE
  8
0
 10
58.37
 20
76.6986
 11
58.3737
 21
76.6494
  0
LINE
  8
0
 10
58.3737
 20
76.6494
 11
58.375
 21
76.6
  0
LINE
  8
0
 10
58.375
 20
76.6
 11
58.3737
 21
76.5506
  0
LINE
  8
0
 10
58.3737
 20
76.5506
 11
58.37
 21
76.5014
  0
LINE
  8
0
 10
58.37
 20
76.5014
 11
58.3638
 21
76.4524
  0
LINE
  8
0
 10
58.3638
 20
76.4524
 11
58.3551
 21
76.4037
  0
LINE
  8
0
 10
58.3551
 20
76.4037
 11
58.3439
 21
76.3556
  0
LINE
  8
0
 10
58.3439
 20
76.3556
 11
58.3303
 21
76.3081
  0
LINE
  8
0
 10
58.3303
 20
76.3081
 11
58.3143
 21
76.2614
  0
LINE
  8
0
 10
58.3143
 20
76.2614
 11
58.296
 21
76.2155
  0
LINE
  8
0
 10
58.296
 20
76.2155
 11
58.2754
 21
76.1706
  0
LINE
  8
0
 10
58.2754
 20
76.1706
 11
58.2525
 21
76.1268
  0
LINE
  8
0
 10
58.2525
 20
76.1268
 11
58.2274
 21
76.0843
  0
LINE
  8
0
 10
58.2274
 20
76.0843
 11
58.2003
 21
76.043
  0
LINE
  8
0
 10
58.2003
 20
76.043
 11
58.171
 21
76.0032
  0
LINE
  8
0
 10
58.171
 20
76.0032
 11
58.1398
 21
75.9649
  0
LINE
  8
0
 10
58.1398
 20
75.9649
 11
58.1067
 21
75.9283
  0
LINE
  8
0
 10
58.1067
 20
75.9283
 11
58.0717
 21
75.8933
  0
LINE
  8
0
 10
58.0717
 20
75.8933
 11
58.0351
 21
75.8602
  0
LINE
  8
0
 10
58.0351
 20
75.8602
 11
57.9968
 21
75.829
  0
LINE
  8
0
 10
57.9968
 20
75.829
 11
57.957
 21
75.7998
  0
LINE
  8
0
 10
57.957
 20
75.7998
 11
57.9157
 21
75.7726
  0
LINE
  8
0
 10
57.9157
 20
75.7726
 11
57.8732
 21
75.7475
  0
LINE
  8
0
 10
57.8732
 20
75.7475
 11
57.8294
 21
75.7246
  0
LINE
  8
0
 10
57.8294
 20
75.7246
 11
57.7845
 21
75.704
  0
LINE
  8
0
 10
57.7845
 20
75.704
 11
57.7386
 21
75.6857
  0
LINE
  8
0
 10
57.7386
 20
75.6857
 11
57.6919
 21
75.6697
  0
LINE
  8
0
 10
57.6919
 20
75.6697
 11
57.6444
 21
75.6561
  0
LINE
  8
0
 10
57.6444
 20
75.6561
 11
57.5963
 21
75.645
  0
LINE
  8
0
 10
57.5963
 20
75.645
 11
57.5477
 21
75.6362
  0
LINE
  8
0
 10
57.5477
 20
75.6362
 11
57.4986
 21
75.63
  0
LINE
  8
0
 10
57.4986
 20
75.63
 11
57.4494
 21
75.6263
  0
LINE
  8
0
 10
57.4494
 20
75.6263
 11
57.4
 21
75.625
  0
LINE
  8
0
 10
57.4
 20
75.625
 11
57.3506
 21
75.6263
  0
LINE
  8
0
 10
59.25
 20
45.9
 11
66.75
 21
45.9
  0
LINE
  8
0
 10
66.75
 20
45.9
 11
66.75
 21
44
  0
LINE
  8
0
 10
66.75
 20
44
 11
74.25
 21
44
  0
LINE
  8
0
 10
74.25
 20
44
 11
74.25
 21
45.9
  0
LINE
  8
0
 10
74.25
 20
45.9
 11
81.75
 21
45.9
  0
LINE
  8
0
 10
81.75
 20
45.9
 11
81.75
 21
44
  0
LINE
  8
0
 10
81.75
 20
44
 11
89.25
 21
44
  0
LINE
  8
0
 10
89.25
 20
44
 11
89.25
 21
45.9
  0
LINE
  8
0
 10
89.25
 20
45.9
 11
96.75
 21
45.9
  0
LINE
  8
0
 10
96.75
 20
45.9
 11
96.75
 21
44
  0
LINE
  8
0
 10
96.75
 20
44
 11
104.25
 21
44
  0
LINE
  8
0
 10
104.25
 20
44
 11
104.25
 21
45.9
  0
LINE
  8
0
 10
104.25
 20
45.9
 11
111.75
 21
45.9
  0
LINE
  8
0
 10
111.75
 20
45.9
 11
111.75
 21
44
  0
LINE
  8
0
 10
111.75
 20
44
 11
119.25
 21
44
  0
LINE
  8
0
 10
119.25
 20
44
 11
119.25
 21
45.9
  0
LINE
  8
0
 10
119.25
 20
45.9
 11
126.75
 21
45.9
  0
LINE
  8
0
 10
126.75
 20
45.9
 11
126.75
 21
44
  0
LINE
  8
0
 10
126.75
 20
44
 11
139
 21
44
  0
LINE
  8
0
 10
139
 20
44
 11
139
 21
52.15
  0
LINE
  8
0
 10
139
 20
52.15
 11
137.1
 21
52.15
  0
LINE
  8
0
 10
137.1
 20
52.15
 11
137.1
 21
59.65
  0
LINE
  8
0
 10
137.1
 20
59.65
 11
139
 21
59.65
  0
LINE
  8
0
 10
139
 20
59.65
 11
139
 21
67.8
  0
LINE
  8
0
 10
139
 20
67.8
 11
126.75
 21
67.8
  0
LINE
  8
0
 10
126.75
 20
67.8
 11
126.75
 21
65.8999
  0
LINE
  8
0
 10
126.75
 20
65.8999
 11
119.25
 21
65.8999
  0
LINE
  8
0
 10
119.25
 20
65.8999
 11
119.25
 21
67.8
  0
LINE
  8
0
 10
119.25
 20
67.8
 11
111.75
 21
67.8
  0
LINE
  8
0
 10
111.75
 20
67.8
 11
111.75
 21
65.8999
  0
LINE
  8
0
 10
111.75
 20
65.8999
 11
104.25
 21
65.8999
  0
LINE
  8
0
 10
104.25
 20
65.8999
 11
104.25
 21
67.8
  0
LINE
  8
0
 10
104.25
 20
67.8
 11
96.75
 21
67.8
  0
LINE
  8
0
 10
96.75
 20
67.8
 11
96.75
 21
65.8999
  0
LINE
  8
0
 10
96.75
 20
65.8999
 11
89.25
 21
65.8999
  0
LINE
  8
0
 10
89.25
 20
65.8999
 11
89.25
 21
67.8
  0
LINE
  8
0
 10
89.25
 20
67.8
 11
81.75
 21
67.8
  0
LINE
  8
0
 10
81.75
 20
67.8
 11
81.75
 21
65.8999
  0
LINE
  8
0
 10
81.75
 20
65.8999
 11
74.25
 21
65.8999
  0
LINE
  8
0
 10
74.25
 20
65.8999
 11
74.25
 21
67.8
  0
LINE
  8
0
 10
74.25
 20
67.8
 11
66.75
 21
67.8
  0
LINE
  8
0
 10
66.75
 20
67.8
 11
66.75
 21
65.8999
  0
LINE
  8
0
 10
66.75
 20
65.8999
 11
59.25
 21
65.8999
  0
LINE
  8
0
 10
59.25
 20
65.8999
 11
59.25
 21
67.8
  0
LINE
  8
0
 10
59.25
 20
67.8
 11
47
 21
67.8
  0
LINE
  8
0
 10
47
 20
67.8
 11
47
 21
59.65
  0
LINE
  8
0
 10
47
 20
59.65
 11
48.9001
 21
59.65
  0
LINE
  8
0
 10
48.9001
 20
59.65
 11
48.9001
 21
52.15
  0
LINE
  8
0
 10
48.9001
 20
52.15
 11
47
 21
52.15
  0
LINE
  8
0
 10
47
 20
52.15
 11
47
 21
44
  0
LINE
  8
0
 10
47
 20
44
 11
59.25
 21
44
  0
LINE
  8
0
 10
59.25
 20
44
 11
59.25
 21
45.9
  0
LINE
  8
0
 10
53.8506
 20
59.9262
 11
53.8014
 21
59.93
  0
LINE
  8
0
 10
53.8014
 20
59.93
 11
53.7524
 21
59.9362
  0
LINE
  8
0
 10
53.7524
 20
59.9362
 11
53.7037
 21
59.9449
  0
LINE
  8
0
 10
53.7037
 20
59.9449
 11
53.6556
 21
59.9561
  0
LINE
  8
0
 10
53.6556
 20
59.9561
 11
53.6081
 21
59.9697
  0
LINE
  8
0
 10
53.6081
 20
59.9697
 11
53.5614
 21
59.9857
  0
LINE
  8
0
 10
53.5614
 20
59.9857
 11
53.5155
 21
60.004
  0
LINE
  8
0
 10
53.5155
 20
60.004
 11
53.4706
 21
60.0246
  0
LINE
  8
0
 10
53.4706
 20
60.0246
 11
53.4268
 21
60.0475
  0
LINE
  8
0
 10
53.4268
 20
60.0475
 11
53.3843
 21
60.0726
  0
LINE
  8
0
 10
53.3843
 20
60.0726
 11
53.343
 21
60.0997
  0
LINE
  8
0
 10
53.343
 20
60.0997
 11
53.3032
 21
60.129
  0
LINE
  8
0
 10
53.3032
 20
60.129
 11
53.2649
 21
60.1602
  0
LINE
  8
0
 10
53.2649
 20
60.1602
 11
53.2283
 21
60.1933
  0
LINE
  8
0
 10
53.2283
 20
60.1933
 11
53.1933
 21
60.2282
  0
LINE
  8
0
 10
53.1933
 20
60.2282
 11
53.1602
 21
60.2649
  0
LINE
  8
0
 10
53.1602
 20
60.2649
 11
53.129
 21
60.3032
  0
LINE
  8
0
 10
53.129
 20
60.3032
 11
53.0998
 21
60.343
  0
LINE
  8
0
 10
53.0998
 20
60.343
 11
53.0726
 21
60.3842
  0
LINE
  8
0
 10
53.0726
 20
60.3842
 11
53.0475
 21
60.4268
  0
LINE
  8
0
 10
53.0475
 20
60.4268
 11
53.0246
 21
60.4706
  0
LINE
  8
0
 10
53.0246
 20
60.4706
 11
53.004
 21
60.5155
  0
LINE
  8
0
 10
53.004
 20
60.5155
 11
52.9857
 21
60.5614
  0
LINE
  8
0
 10
52.9857
 20
60.5614
 11
52.9697
 21
60.6081
  0
LINE
  8
0
 10
52.9697
 20
60.6081
 11
52.9561
 21
60.6556
  0
LINE
  8
0
 10
52.9561
 20
60.6556
 11
52.945
 21
60.7037
  0
LINE
  8
0
 10
52.945
 20
60.7037
 11
52.9362
 21
60.7523
  0
LINE
  8
0
 10
52.9362
 20
60.7523
 11
52.93
 21
60.8013
  0
LINE
  8
0
 10
52.93
 20
60.8013
 11
52.9263
 21
60.8506
  0
LINE
  8
0
 10
52.9263
 20
60.8506
 11
52.925
 21
60.9
  0
LINE
  8
0
 10
52.925
 20
60.9
 11
52.9263
 21
60.9494
  0
LINE
  8
0
 10
52.9263
 20
60.9494
 11
52.93
 21
60.9986
  0
LINE
  8
0
 10
52.93
 20
60.9986
 11
52.9362
 21
61.0476
  0
LINE
  8
0
 10
52.9362
 20
61.0476
 11
52.945
 21
61.0963
  0
LINE
  8
0
 10
52.945
 20
61.0963
 11
52.9561
 21
61.1444
  0
LINE
  8
0
 10
52.9561
 20
61.1444
 11
52.9697
 21
61.1919
  0
LINE
  8
0
 10
52.9697
 20
61.1919
 11
52.9857
 21
61.2386
  0
LINE
  8
0
 10
52.9857
 20
61.2386
 11
53.004
 21
61.2845
  0
LINE
  8
0
 10
53.004
 20
61.2845
 11
53.0246
 21
61.3294
  0
LINE
  8
0
 10
53.0246
 20
61.3294
 11
53.0475
 21
61.3732
  0
LINE
  8
0
 10
53.0475
 20
61.3732
 11
53.0726
 21
61.4157
  0
LINE
  8
0
 10
53.0726
 20
61.4157
 11
53.0998
 21
61.457
  0
LINE
  8
0
 10
53.0998
 20
61.457
 11
53.129
 21
61.4968
  0
LINE
  8
0
 10
53.129
 20
61.4968
 11
53.1602
 21
61.5351
  0
LINE
  8
0
 10
53.1602
 20
61.5351
 11
53.1933
 21
61.5717
  0
LINE
  8
0
 10
53.1933
 20
61.5717
 11
53.2283
 21
61.6067
  0
LINE
  8
0
 10
53.2283
 20
61.6067
 11
53.2649
 21
61.6398
  0
LINE
  8
0
 10
53.2649
 20
61.6398
 11
53.3032
 21
61.671
  0
LINE
  8
0
 10
53.3032
 20
61.671
 11
53.343
 21
61.7002
  0
LINE
  8
0
 10
53.343
 20
61.7002
 11
53.3843
 21
61.7274
  0
LINE
  8
0
 10
53.3843
 20
61.7274
 11
53.4268
 21
61.7525
  0
LINE
  8
0
 10
53.4268
 20
61.7525
 11
53.4706
 21
61.7753
  0
LINE
  8
0
 10
53.4706
 20
61.7753
 11
53.5155
 21
61.796
  0
LINE
  8
0
 10
53.5155
 20
61.796
 11
53.5614
 21
61.8143
  0
LINE
  8
0
 10
53.5614
 20
61.8143
 11
53.6081
 21
61.8303
  0
LINE
  8
0
 10
53.6081
 20
61.8303
 11
53.6556
 21
61.8439
  0
LINE
  8
0
 10
53.6556
 20
61.8439
 11
53.7037
 21
61.855
  0
LINE
  8
0
 10
53.7037
 20
61.855
 11
53.7524
 21
61.8637
  0
LINE
  8
0
 10
53.7524
 20
61.8637
 11
53.8014
 21
61.87
  0
LINE
  8
0
 10
53.8014
 20
61.87
 11
53.8506
 21
61.8737
  0
LINE
  8
0
 10
53.8506
 20
61.8737
 11
53.9
 21
61.875
  0
LINE
  8
0
 10
53.9
 20
61.875
 11
53.9494
 21
61.8737
  0
LINE
  8
0
 10
53.9494
 20
61.8737
 11
53.9986
 21
61.87
  0
LINE
  8
0
 10
53.9986
 20
61.87
 11
54.0477
 21
61.8637
  0
LINE
  8
0
 10
54.0477
 20
61.8637
 11
54.0963
 21
61.855
  0
LINE
  8
0
 10
54.0963
 20
61.855
 11
54.1444
 21
61.8439
  0
LINE
  8
0
 10
54.1444
 20
61.8439
 11
54.1919
 21
61.8303
  0
LINE
  8
0
 10
54.1919
 20
61.8303
 11
54.2386
 21
61.8143
  0
LINE
  8
0
 10
54.2386
 20
61.8143
 11
54.2845
 21
61.796
  0
LINE
  8
0
 10
54.2845
 20
61.796
 11
54.3294
 21
61.7753
  0
LINE
  8
0
 10
54.3294
 20
61.7753
 11
54.3732
 21
61.7525
  0
LINE
  8
0
 10
54.3732
 20
61.7525
 11
54.4157
 21
61.7274
  0
LINE
  8
0
 10
54.4157
 20
61.7274
 11
54.457
 21
61.7002
  0
LINE
  8
0
 10
54.457
 20
61.7002
 11
54.4968
 21
61.671
  0
LINE
  8
0
 10
54.4968
 20
61.671
 11
54.5351
 21
61.6398
  0
LINE
  8
0
 10
54.5351
 20
61.6398
 11
54.5717
 21
61.6067
  0
LINE
  8
0
 10
54.5717
 20
61.6067
 11
54.6067
 21
61.5717
  0
LINE
  8
0
 10
54.6067
 20
61.5717
 11
54.6398
 21
61.5351
  0
LINE
  8
0
 10
54.6398
 20
61.5351
 11
54.671
 21
61.4968
  0
LINE
  8
0
 10
54.671
 20
61.4968
 11
54.7003
 21
61.457
  0
LINE
  8
0
 10
54.7003
 20
61.457
 11
54.7274
 21
61.4157
  0
LINE
  8
0
 10
54.7274
 20
61.4157
 11
54.7525
 21
61.3732
  0
LINE
  8
0
 10
54.7525
 20
61.3732
 11
54.7754
 21
61.3294
  0
LINE
  8
0
 10
54.7754
 20
61.3294
 11
54.796
 21
61.2845
  0
LINE
  8
0
 10
54.796
 20
61.2845
 11
54.8143
 21
61.2386
  0
LINE
  8
0
 10
54.8143
 20
61.2386
 11
54.8303
 21
61.1919
  0
LINE
  8
0
 10
54.8303
 20
61.1919
 11
54.8439
 21
61.1444
  0
LINE
  8
0
 10
54.8439
 20
61.1444
 11
54.8551
 21
61.0963
  0
LINE
  8
0
 10
54.8551
 20
61.0963
 11
54.8638
 21
61.0476
  0
LINE
  8
0
 10
54.8638
 20
61.0476
 11
54.87
 21
60.9986
  0
LINE
  8
0
 10
54.87
 20
60.9986
 11
54.8737
 21
60.9494
  0
LINE
  8
0
 10
54.8737
 20
60.9494
 11
54.875
 21
60.9
  0
LINE
  8
0
 10
54.875
 20
60.9
 11
54.8737
 21
60.8506
  0
LINE
  8
0
 10
54.8737
 20
60.8506
 11
54.87
 21
60.8013
  0
LINE
  8
0
 10
54.87
 20
60.8013
 11
54.8638
 21
60.7523
  0
LINE
  8
0
 10
54.8638
 20
60.7523
 11
54.8551
 21
60.7037
  0
LINE
  8
0
 10
54.8551
 20
60.7037
 11
54.8439
 21
60.6556
  0
LINE
  8
0
 10
54.8439
 20
60.6556
 11
54.8303
 21
60.6081
  0
LINE
  8
0
 10
54.8303
 20
60.6081
 11
54.8143
 21
60.5614
  0
LINE
  8
0
 10
54.8143
 20
60.5614
 11
54.796
 21
60.5155
  0
LINE
  8
0
 10
54.796
 20
60.5155
 11
54.7754
 21
60.4706
  0
LINE
  8
0
 10
54.7754
 20
60.4706
 11
54.7525
 21
60.4268
  0
LINE
  8
0
 10
54.7525
 20
60.4268
 11
54.7274
 21
60.3842
  0
LINE
  8
0
 10
54.7274
 20
60.3842
 11
54.7003
 21
60.343
  0
LINE
  8
0
 10
54.7003
 20
60.343
 11
54.671
 21
60.3032
  0
LINE
  8
0
 10
54.671
 20
60.3032
 11
54.6398
 21
60.2649
  0
LINE
  8
0
 10
54.6398
 20
60.2649
 11
54.6067
 21
60.2282
  0
LINE
  8
0
 10
54.6067
 20
60.2282
 11
54.5717
 21
60.1933
  0
LINE
  8
0
 10
54.5717
 20
60.1933
 11
54.5351
 21
60.1602
  0
LINE
  8
0
 10
54.5351
 20
60.1602
 11
54.4968
 21
60.129
  0
LINE
  8
0
 10
54.4968
 20
60.129
 11
54.457
 21
60.0997
  0
LINE
  8
0
 10
54.457
 20
60.0997
 11
54.4157
 21
60.0726
  0
LINE
  8
0
 10
54.4157
 20
60.0726
 11
54.3732
 21
60.0475
  0
LINE
  8
0
 10
54.3732
 20
60.0475
 11
54.3294
 21
60.0246
  0
LINE
  8
0
 10
54.3294
 20
60.0246
 11
54.2845
 21
60.004
  0
LINE
  8
0
 10
54.2845
 20
60.004
 11
54.2386
 21
59.9857
  0
LINE
  8
0
 10
54.2386
 20
59.9857
 11
54.1919
 21
59.9697
  0
LINE
  8
0
 10
54.1919
 20
59.9697
 11
54.1444
 21
59.9561
  0
LINE
  8
0
 10
54.1444
 20
59.9561
 11
54.0963
 21
59.9449
  0
LINE
  8
0
 10
54.0963
 20
59.9449
 11
54.0477
 21
59.9362
  0
LINE
  8
0
 10
54.0477
 20
59.9362
 11
53.9986
 21
59.93
  0
LINE
  8
0
 10
53.9986
 20
59.93
 11
53.9494
 21
59.9262
  0
LINE
  8
0
 10
53.9494
 20
59.9262
 11
53.9
 21
59.925
  0
LINE
  8
0
 10
53.9
 20
59.925
 11
53.8506
 21
59.9262
  0
LINE
  8
0
 10
132.051
 20
59.9262
 11
132.001
 21
59.93
  0
LINE
  8
0
 10
132.001
 20
59.93
 11
131.952
 21
59.9362
  0
LINE
  8
0
 10
131.952
 20
59.9362
 11
131.904
 21
59.9449
  0
LINE
  8
0
 10
131.904
 20
59.9449
 11
131.856
 21
59.9561
  0
LINE
  8
0
 10
131.856
 20
59.9561
 11
131.808
 21
59.9697
  0
LINE
  8
0
 10
131.808
 20
59.9697
 11
131.761
 21
59.9857
  0
LINE
  8
0
 10
131.761
 20
59.9857
 11
131.715
 21
60.004
  0
LINE
  8
0
 10
131.715
 20
60.004
 11
131.671
 21
60.0246
  0
LINE
  8
0
 10
131.671
 20
60.0246
 11
131.627
 21
60.0475
  0
LINE
  8
0
 10
131.627
 20
60.0475
 11
131.584
 21
60.0726
  0
LINE
  8
0
 10
131.584
 20
60.0726
 11
131.543
 21
60.0997
  0
LINE
  8
0
 10
131.543
 20
60.0997
 11
131.503
 21
60.129
  0
LINE
  8
0
 10
131.503
 20
60.129
 11
131.465
 21
60.1602
  0
LINE
  8
0
 10
131.465
 20
60.1602
 11
131.428
 21
60.1933
  0
LINE
  8
0
 10
131.428
 20
60.1933
 11
131.393
 21
60.2282
  0
LINE
  8
0
 10
131.393
 20
60.2282
 11
131.36
 21
60.2649
  0
LINE
  8
0
 10
131.36
 20
60.2649
 11
131.329
 21
60.3032
  0
LINE
  8
0
 10
131.329
 20
60.3032
 11
131.3
 21
60.343
  0
LINE
  8
0
 10
131.3
 20
60.343
 11
131.273
 21
60.3842
  0
LINE
  8
0
 10
131.273
 20
60.3842
 11
131.247
 21
60.4268
  0
LINE
  8
0
 10
131.247
 20
60.4268
 11
131.225
 21
60.4706
  0
LINE
  8
0
 10
131.225
 20
60.4706
 11
131.204
 21
60.5155
  0
LINE
  8
0
 10
131.204
 20
60.5155
 11
131.186
 21
60.5614
  0
LINE
  8
0
 10
131.186
 20
60.5614
 11
131.17
 21
60.6081
  0
LINE
  8
0
 10
131.17
 20
60.6081
 11
131.156
 21
60.6556
  0
LINE
  8
0
 10
131.156
 20
60.6556
 11
131.145
 21
60.7037
  0
LINE
  8
0
 10
131.145
 20
60.7037
 11
131.136
 21
60.7523
  0
LINE
  8
0
 10
131.136
 20
60.7523
 11
131.13
 21
60.8013
  0
LINE
  8
0
 10
131.13
 20
60.8013
 11
131.126
 21
60.8506
  0
LINE
  8
0
 10
131.126
 20
60.8506
 11
131.125
 21
60.9
  0
LINE
  8
0
 10
131.125
 20
60.9
 11
131.126
 21
60.9494
  0
LINE
  8
0
 10
131.126
 20
60.9494
 11
131.13
 21
60.9986
  0
LINE
  8
0
 10
131.13
 20
60.9986
 11
131.136
 21
61.0476
  0
LINE
  8
0
 10
131.136
 20
61.0476
 11
131.145
 21
61.0963
  0
LINE
  8
0
 10
131.145
 20
61.0963
 11
131.156
 21
61.1444
  0
LINE
  8
0
 10
131.156
 20
61.1444
 11
131.17
 21
61.1919
  0
LINE
  8
0
 10
131.17
 20
61.1919
 11
131.186
 21
61.2386
  0
LINE
  8
0
 10
131.186
 20
61.2386
 11
131.204
 21
61.2845
  0
LINE
  8
0
 10
131.204
 20
61.2845
 11
131.225
 21
61.3294
  0
LINE
  8
0
 10
131.225
 20
61.3294
 11
131.247
 21
61.3732
  0
LINE
  8
0
 10
131.247
 20
61.3732
 11
131.273
 21
61.4157
  0
LINE
  8
0
 10
131.273
 20
61.4157
 11
131.3
 21
61.457
  0
LINE
  8
0
 10
131.3
 20
61.457
 11
131.329
 21
61.4968
  0
LINE
  8
0
 10
131.329
 20
61.4968
 11
131.36
 21
61.5351
  0
LINE
  8
0
 10
131.36
 20
61.5351
 11
131.393
 21
61.5717
  0
LINE
  8
0
 10
131.393
 20
61.5717
 11
131.428
 21
61.6067
  0
LINE
  8
0
 10
131.428
 20
61.6067
 11
131.465
 21
61.6398
  0
LINE
  8
0
 10
131.465
 20
61.6398
 11
131.503
 21
61.671
  0
LINE
  8
0
 10
131.503
 20
61.671
 11
131.543
 21
61.7002
  0
LINE
  8
0
 10
131.543
 20
61.7002
 11
131.584
 21
61.7274
  0
LINE
  8
0
 10
131.584
 20
61.7274
 11
131.627
 21
61.7525
  0
LINE
  8
0
 10
131.627
 20
61.7525
 11
131.671
 21
61.7753
  0
LINE
  8
0
 10
131.671
 20
61.7753
 11
131.715
 21
61.796
  0
LINE
  8
0
 10
131.715
 20
61.796
 11
131.761
 21
61.8143
  0
LINE
  8
0
 10
131.761
 20
61.8143
 11
131.808
 21
61.8303
  0
LINE
  8
0
 10
131.808
 20
61.8303
 11
131.856
 21
61.8439
  0
LINE
  8
0
 10
131.856
 20
61.8439
 11
131.904
 21
61.855
  0
LINE
  8
0
 10
131.904
 20
61.855
 11
131.952
 21
61.8637
  0
LINE
  8
0
 10
131.952
 20
61.8637
 11
132.001
 21
61.87
  0
LINE
  8
0
 10
132.001
 20
61.87
 11
132.051
 21
61.8737
  0
LINE
  8
0
 10
132.051
 20
61.8737
 11
132.1
 21
61.875
  0
LINE
  8
0
 10
132.1
 20
61.875
 11
132.149
 21
61.8737
  0
LINE
  8
0
 10
132.149
 20
61.8737
 11
132.199
 21
61.87
  0
LINE
  8
0
 10
132.199
 20
61.87
 11
132.248
 21
61.8637
  0
LINE
  8
0
 10
132.248
 20
61.8637
 11
132.296
 21
61.855
  0
LINE
  8
0
 10
132.296
 20
61.855
 11
132.344
 21
61.8439
  0
LINE
  8
0
 10
132.344
 20
61.8439
 11
132.392
 21
61.8303
  0
LINE
  8
0
 10
132.392
 20
61.8303
 11
132.439
 21
61.8143
  0
LINE
  8
0
 10
132.439
 20
61.8143
 11
132.484
 21
61.796
  0
LINE
  8
0
 10
132.484
 20
61.796
 11
132.529
 21
61.7753
  0
LINE
  8
0
 10
132.529
 20
61.7753
 11
132.573
 21
61.7525
  0
LINE
  8
0
 10
132.573
 20
61.7525
 11
132.616
 21
61.7274
  0
LINE
  8
0
 10
132.616
 20
61.7274
 11
132.657
 21
61.7002
  0
LINE
  8
0
 10
132.657
 20
61.7002
 11
132.697
 21
61.671
  0
LINE
  8
0
 10
132.697
 20
61.671
 11
132.735
 21
61.6398
  0
LINE
  8
0
 10
132.735
 20
61.6398
 11
132.772
 21
61.6067
  0
LINE
  8
0
 10
132.772
 20
61.6067
 11
132.807
 21
61.5717
  0
LINE
  8
0
 10
132.807
 20
61.5717
 11
132.84
 21
61.5351
  0
LINE
  8
0
 10
132.84
 20
61.5351
 11
132.871
 21
61.4968
  0
LINE
  8
0
 10
132.871
 20
61.4968
 11
132.9
 21
61.457
  0
LINE
  8
0
 10
132.9
 20
61.457
 11
132.927
 21
61.4157
  0
LINE
  8
0
 10
132.927
 20
61.4157
 11
132.952
 21
61.3732
  0
LINE
  8
0
 10
132.952
 20
61.3732
 11
132.975
 21
61.3294
  0
LINE
  8
0
 10
132.975
 20
61.3294
 11
132.996
 21
61.2845
  0
LINE
  8
0
 10
132.996
 20
61.2845
 11
133.014
 21
61.2386
  0
LINE
  8
0
 10
133.014
 20
61.2386
 11
133.03
 21
61.1919
  0
LINE
  8
0
 10
133.03
 20
61.1919
 11
133.044
 21
61.1444
  0
LINE
  8
0
 10
133.044
 20
61.1444
 11
133.055
 21
61.0963
  0
LINE
  8
0
 10
133.055
 20
61.0963
 11
133.064
 21
61.0476
  0
LINE
  8
0
 10
133.064
 20
61.0476
 11
133.07
 21
60.9986
  0
LINE
  8
0
 10
133.07
 20
60.9986
 11
133.074
 21
60.9494
  0
LINE
  8
0
 10
133.074
 20
60.9494
 11
133.075
 21
60.9
  0
LINE
  8
0
 10
133.075
 20
60.9
 11
133.074
 21
60.8506
  0
LINE
  8
0
 10
133.074
 20
60.8506
 11
133.07
 21
60.8013
  0
LINE
  8
0
 10
133.07
 20
60.8013
 11
133.064
 21
60.7523
  0
LINE
  8
0
 10
133.064
 20
60.7523
 11
133.055
 21
60.7037
  0
LINE
  8
0
 10
133.055
 20
60.7037
 11
133.044
 21
60.6556
  0
LINE
  8
0
 10
133.044
 20
60.6556
 11
133.03
 21
60.6081
  0
LINE
  8
0
 10
133.03
 20
60.6081
 11
133.014
 21
60.5614
  0
LINE
  8
0
 10
133.014
 20
60.5614
 11
132.996
 21
60.5155
  0
LINE
  8
0
 10
132.996
 20
60.5155
 11
132.975
 21
60.4706
  0
LINE
  8
0
 10
132.975
 20
60.4706
 11
132.952
 21
60.4268
  0
LINE
  8
0
 10
132.952
 20
60.4268
 11
132.927
 21
60.3842
  0
LINE
  8
0
 10
132.927
 20
60.3842
 11
132.9
 21
60.343
  0
LINE
  8
0
 10
132.9
 20
60.343
 11
132.871
 21
60.3032
  0
LINE
  8
0
 10
132.871
 20
60.3032
 11
132.84
 21
60.2649
  0
LINE
  8
0
 10
132.84
 20
60.2649
 11
132.807
 21
60.2282
  0
LINE
  8
0
 10
132.807
 20
60.2282
 11
132.772
 21
60.1933
  0
LINE
  8
0
 10
132.772
 20
60.1933
 11
132.735
 21
60.1602
  0
LINE
  8
0
 10
132.735
 20
60.1602
 11
132.697
 21
60.129
  0
LINE
  8
0
 10
132.697
 20
60.129
 11
132.657
 21
60.0997
  0
LINE
  8
0
 10
132.657
 20
60.0997
 11
132.616
 21
60.0726
  0
LINE
  8
0
 10
132.616
 20
60.0726
 11
132.573
 21
60.0475
  0
LINE
  8
0
 10
132.573
 20
60.0475
 11
132.529
 21
60.0246
  0
LINE
  8
0
 10
132.529
 20
60.0246
 11
132.484
 21
60.004
  0
LINE
  8
0
 10
132.484
 20
60.004
 11
132.439
 21
59.9857
  0
LINE
  8
0
 10
132.439
 20
59.9857
 11
132.392
 21
59.9697
  0
LINE
  8
0
 10
132.392
 20
59.9697
 11
132.344
 21
59.9561
  0
LINE
  8
0
 10
132.344
 20
59.9561
 11
132.296
 21
59.9449
  0
LINE
  8
0
 10
132.296
 20
59.9449
 11
132.248
 21
59.9362
  0
LINE
  8
0
 10
132.248
 20
59.9362
 11
132.199
 21
59.93
  0
LINE
  8
0
 10
132.199
 20
59.93
 11
132.149
 21
59.9262
  0
LINE
  8
0
 10
132.149
 20
59.9262
 11
132.1
 21
59.925
  0
LINE
  8
0
 10
132.1
 20
59.925
 11
132.051
 21
59.9262
  0
LINE
  8
0
 10
132.051
 20
49.9263
 11
132.001
 21
49.93
  0
LINE
  8
0
 10
132.001
 20
49.93
 11
131.952
 21
49.9362
  0
LINE
  8
0
 10
131.952
 20
49.9362
 11
131.904
 21
49.945
  0
LINE
  8
0
 10
131.904
 20
49.945
 11
131.856
 21
49.9561
  0
LINE
  8
0
 10
131.856
 20
49.9561
 11
131.808
 21
49.9697
  0
LINE
  8
0
 10
131.808
 20
49.9697
 11
131.761
 21
49.9857
  0
LINE
  8
0
 10
131.761
 20
49.9857
 11
131.715
 21
50.004
  0
LINE
  8
0
 10
131.715
 20
50.004
 11
131.671
 21
50.0246
  0
LINE
  8
0
 10
131.671
 20
50.0246
 11
131.627
 21
50.0475
  0
LINE
  8
0
 10
131.627
 20
50.0475
 11
131.584
 21
50.0726
  0
LINE
  8
0
 10
131.584
 20
50.0726
 11
131.543
 21
50.0998
  0
LINE
  8
0
 10
131.543
 20
50.0998
 11
131.503
 21
50.129
  0
LINE
  8
0
 10
131.503
 20
50.129
 11
131.465
 21
50.1602
  0
LINE
  8
0
 10
131.465
 20
50.1602
 11
131.428
 21
50.1933
  0
LINE
  8
0
 10
131.428
 20
50.1933
 11
131.393
 21
50.2283
  0
LINE
  8
0
 10
131.393
 20
50.2283
 11
131.36
 21
50.2649
  0
LINE
  8
0
 10
131.36
 20
50.2649
 11
131.329
 21
50.3032
  0
LINE
  8
0
 10
131.329
 20
50.3032
 11
131.3
 21
50.343
  0
LINE
  8
0
 10
131.3
 20
50.343
 11
131.273
 21
50.3843
  0
LINE
  8
0
 10
131.273
 20
50.3843
 11
131.247
 21
50.4268
  0
LINE
  8
0
 10
131.247
 20
50.4268
 11
131.225
 21
50.4706
  0
LINE
  8
0
 10
131.225
 20
50.4706
 11
131.204
 21
50.5155
  0
LINE
  8
0
 10
131.204
 20
50.5155
 11
131.186
 21
50.5614
  0
LINE
  8
0
 10
131.186
 20
50.5614
 11
131.17
 21
50.6081
  0
LINE
  8
0
 10
131.17
 20
50.6081
 11
131.156
 21
50.6556
  0
LINE
  8
0
 10
131.156
 20
50.6556
 11
131.145
 21
50.7037
  0
LINE
  8
0
 10
131.145
 20
50.7037
 11
131.136
 21
50.7524
  0
LINE
  8
0
 10
131.136
 20
50.7524
 11
131.13
 21
50.8014
  0
LINE
  8
0
 10
131.13
 20
50.8014
 11
131.126
 21
50.8506
  0
LINE
  8
0
 10
131.126
 20
50.8506
 11
131.125
 21
50.9
  0
LINE
  8
0
 10
131.125
 20
50.9
 11
131.126
 21
50.9494
  0
LINE
  8
0
 10
131.126
 20
50.9494
 11
131.13
 21
50.9986
  0
LINE
  8
0
 10
131.13
 20
50.9986
 11
131.136
 21
51.0476
  0
LINE
  8
0
 10
131.136
 20
51.0476
 11
131.145
 21
51.0963
  0
LINE
  8
0
 10
131.145
 20
51.0963
 11
131.156
 21
51.1444
  0
LINE
  8
0
 10
131.156
 20
51.1444
 11
131.17
 21
51.1919
  0
LINE
  8
0
 10
131.17
 20
51.1919
 11
131.186
 21
51.2386
  0
LINE
  8
0
 10
131.186
 20
51.2386
 11
131.204
 21
51.2845
  0
LINE
  8
0
 10
131.204
 20
51.2845
 11
131.225
 21
51.3294
  0
LINE
  8
0
 10
131.225
 20
51.3294
 11
131.247
 21
51.3732
  0
LINE
  8
0
 10
131.247
 20
51.3732
 11
131.273
 21
51.4157
  0
LINE
  8
0
 10
131.273
 20
51.4157
 11
131.3
 21
51.457
  0
LINE
  8
0
 10
131.3
 20
51.457
 11
131.329
 21
51.4968
  0
LINE
  8
0
 10
131.329
 20
51.4968
 11
131.36
 21
51.5351
  0
LINE
  8
0
 10
131.36
 20
51.5351
 11
131.393
 21
51.5717
  0
LINE
  8
0
 10
131.393
 20
51.5717
 11
131.428
 21
51.6067
  0
LINE
  8
0
 10
131.428
 20
51.6067
 11
131.465
 21
51.6398
  0
LINE
  8
0
 10
131.465
 20
51.6398
 11
131.503
 21
51.671
  0
LINE
  8
0
 10
131.503
 20
51.671
 11
131.543
 21
51.7002
  0
LINE
  8
0
 10
131.543
 20
51.7002
 11
131.584
 21
51.7274
  0
LINE
  8
0
 10
131.584
 20
51.7274
 11
131.627
 21
51.7525
  0
LINE
  8
0
 10
131.627
 20
51.7525
 11
131.671
 21
51.7754
  0
LINE
  8
0
 10
131.671
 20
51.7754
 11
131.715
 21
51.796
  0
LINE
  8
0
 10
131.715
 20
51.796
 11
131.761
 21
51.8143
  0
LINE
  8
0
 10
131.761
 20
51.8143
 11
131.808
 21
51.8303
  0
LINE
  8
0
 10
131.808
 20
51.8303
 11
131.856
 21
51.8439
  0
LINE
  8
0
 10
131.856
 20
51.8439
 11
131.904
 21
51.855
  0
LINE
  8
0
 10
131.904
 20
51.855
 11
131.952
 21
51.8638
  0
LINE
  8
0
 10
131.952
 20
51.8638
 11
132.001
 21
51.87
  0
LINE
  8
0
 10
132.001
 20
51.87
 11
132.051
 21
51.8737
  0
LINE
  8
0
 10
132.051
 20
51.8737
 11
132.1
 21
51.875
  0
LINE
  8
0
 10
132.1
 20
51.875
 11
132.149
 21
51.8737
  0
LINE
  8
0
 10
132.149
 20
51.8737
 11
132.199
 21
51.87
  0
LINE
  8
0
 10
132.199
 20
51.87
 11
132.248
 21
51.8638
  0
LINE
  8
0
 10
132.248
 20
51.8638
 11
132.296
 21
51.855
  0
LINE
  8
0
 10
132.296
 20
51.855
 11
132.344
 21
51.8439
  0
LINE
  8
0
 10
132.344
 20
51.8439
 11
132.392
 21
51.8303
  0
LINE
  8
0
 10
132.392
 20
51.8303
 11
132.439
 21
51.8143
  0
LINE
  8
0
 10
132.439
 20
51.8143
 11
132.484
 21
51.796
  0
LINE
  8
0
 10
132.484
 20
51.796
 11
132.529
 21
51.7754
  0
LINE
  8
0
 10
132.529
 20
51.7754
 11
132.573
 21
51.7525
  0
LINE
  8
0
 10
132.573
 20
51.7525
 11
132.616
 21
51.7274
  0
LINE
  8
0
 10
132.616
 20
51.7274
 11
132.657
 21
51.7002
  0
LINE
  8
0
 10
132.657
 20
51.7002
 11
132.697
 21
51.671
  0
LINE
  8
0
 10
132.697
 20
51.671
 11
132.735
 21
51.6398
  0
LINE
  8
0
 10
132.735
 20
51.6398
 11
132.772
 21
51.6067
  0
LINE
  8
0
 10
132.772
 20
51.6067
 11
132.807
 21
51.5717
  0
LINE
  8
0
 10
132.807
 20
51.5717
 11
132.84
 21
51.5351
  0
LINE
  8
0
 10
132.84
 20
51.5351
 11
132.871
 21
51.4968
  0
LINE
  8
0
 10
132.871
 20
51.4968
 11
132.9
 21
51.457
  0
LINE
  8
0
 10
132.9
 20
51.457
 11
132.927
 21
51.4157
  0
LINE
  8
0
 10
132.927
 20
51.4157
 11
132.952
 21
51.3732
  0
LINE
  8
0
 10
132.952
 20
51.3732
 11
132.975
 21
51.3294
  0
LINE
  8
0
 10
132.975
 20
51.3294
 11
132.996
 21
51.2845
  0
LINE
  8
0
 10
132.996
 20
51.2845
 11
133.014
 21
51.2386
  0
LINE
  8
0
 10
133.014
 20
51.2386
 11
133.03
 21
51.1919
  0
LINE
  8
0
 10
133.03
 20
51.1919
 11
133.044
 21
51.1444
  0
LINE
  8
0
 10
133.044
 20
51.1444
 11
133.055
 21
51.0963
  0
LINE
  8
0
 10
133.055
 20
51.0963
 11
133.064
 21
51.0476
  0
LINE
  8
0
 10
133.064
 20
51.0476
 11
133.07
 21
50.9986
  0
LINE
  8
0
 10
133.07
 20
50.9986
 11
133.074
 21
50.9494
  0
LINE
  8
0
 10
133.074
 20
50.9494
 11
133.075
 21
50.9
  0
LINE
  8
0
 10
133.075
 20
50.9
 11
133.074
 21
50.8506
  0
LINE
  8
0
 10
133.074
 20
50.8506
 11
133.07
 21
50.8014
  0
LINE
  8
0
 10
133.07
 20
50.8014
 11
133.064
 21
50.7524
  0
LINE
  8
0
 10
133.064
 20
50.7524
 11
133.055
 21
50.7037
  0
LINE
  8
0
 10
133.055
 20
50.7037
 11
133.044
 21
50.6556
  0
LINE
  8
0
 10
133.044
 20
50.6556
 11
133.03
 21
50.6081
  0
LINE
  8
0
 10
133.03
 20
50.6081
 11
133.014
 21
50.5614
  0
LINE
  8
0
 10
133.014
 20
50.5614
 11
132.996
 21
50.5155
  0
LINE
  8
0
 10
132.996
 20
50.5155
 11
132.975
 21
50.4706
  0
LINE
  8
0
 10
132.975
 20
50.4706
 11
132.952
 21
50.4268
  0
LINE
  8
0
 10
132.952
 20
50.4268
 11
132.927
 21
50.3843
  0
LINE
  8
0
 10
132.927
 20
50.3843
 11
132.9
 21
50.343
  0
LINE
  8
0
 10
132.9
 20
50.343
 11
132.871
 21
50.3032
  0
LINE
  8
0
 10
132.871
 20
50.3032
 11
132.84
 21
50.2649
  0
LINE
  8
0
 10
132.84
 20
50.2649
 11
132.807
 21
50.2283
  0
LINE
  8
0
 10
132.807
 20
50.2283
 11
132.772
 21
50.1933
  0
LINE
  8
0
 10
132.772
 20
50.1933
 11
132.735
 21
50.1602
  0
LINE
  8
0
 10
132.735
 20
50.1602
 11
132.697
 21
50.129
  0
LINE
  8
0
 10
132.697
 20
50.129
 11
132.657
 21
50.0998
  0
LINE
  8
0
 10
132.657
 20
50.0998
 11
132.616
 21
50.0726
  0
LINE
  8
0
 10
132.616
 20
50.0726
 11
132.573
 21
50.0475
  0
LINE
  8
0
 10
132.573
 20
50.0475
 11
132.529
 21
50.0246
  0
LINE
  8
0
 10
132.529
 20
50.0246
 11
132.484
 21
50.004
  0
LINE
  8
0
 10
132.484
 20
50.004
 11
132.439
 21
49.9857
  0
LINE
  8
0
 10
132.439
 20
49.9857
 11
132.392
 21
49.9697
  0
LINE
  8
0
 10
132.392
 20
49.9697
 11
132.344
 21
49.9561
  0
LINE
  8
0
 10
132.344
 20
49.9561
 11
132.296
 21
49.945
  0
LINE
  8
0
 10
132.296
 20
49.945
 11
132.248
 21
49.9362
  0
LINE
  8
0
 10
132.248
 20
49.9362
 11
132.199
 21
49.93
  0
LINE
  8
0
 10
132.199
 20
49.93
 11
132.149
 21
49.9263
  0
LINE
  8
0
 10
132.149
 20
49.9263
 11
132.1
 21
49.925
  0
LINE
  8
0
 10
132.1
 20
49.925
 11
132.051
 21
49.9263
  0
LINE
  8
0
 10
53.8506
 20
49.9263
 11
53.8014
 21
49.93
  0
LINE
  8
0
 10
53.8014
 20
49.93
 11
53.7524
 21
49.9362
  0
LINE
  8
0
 10
53.7524
 20
49.9362
 11
53.7037
 21
49.945
  0
LINE
  8
0
 10
53.7037
 20
49.945
 11
53.6556
 21
49.9561
  0
LINE
  8
0
 10
53.6556
 20
49.9561
 11
53.6081
 21
49.9697
  0
LINE
  8
0
 10
53.6081
 20
49.9697
 11
53.5614
 21
49.9857
  0
LINE
  8
0
 10
53.5614
 20
49.9857
 11
53.5155
 21
50.004
  0
LINE
  8
0
 10
53.5155
 20
50.004
 11
53.4706
 21
50.0246
  0
LINE
  8
0
 10
53.4706
 20
50.0246
 11
53.4268
 21
50.0475
  0
LINE
  8
0
 10
53.4268
 20
50.0475
 11
53.3843
 21
50.0726
  0
LINE
  8
0
 10
53.3843
 20
50.0726
 11
53.343
 21
50.0998
  0
LINE
  8
0
 10
53.343
 20
50.0998
 11
53.3032
 21
50.129
  0
LINE
  8
0
 10
53.3032
 20
50.129
 11
53.2649
 21
50.1602
  0
LINE
  8
0
 10
53.2649
 20
50.1602
 11
53.2283
 21
50.1933
  0
LINE
  8
0
 10
53.2283
 20
50.1933
 11
53.1933
 21
50.2283
  0
LINE
  8
0
 10
53.1933
 20
50.2283
 11
53.1602
 21
50.2649
  0
LINE
  8
0
 10
53.1602
 20
50.2649
 11
53.129
 21
50.3032
  0
LINE
  8
0
 10
53.129
 20
50.3032
 11
53.0998
 21
50.343
  0
LINE
  8
0
 10
53.0998
 20
50.343
 11
53.0726
 21
50.3843
  0
LINE
  8
0
 10
53.0726
 20
50.3843
 11
53.0475
 21
50.4268
  0
LINE
  8
0
 10
53.0475
 20
50.4268
 11
53.0246
 21
50.4706
  0
LINE
  8
0
 10
53.0246
 20
50.4706
 11
53.004
 21
50.5155
  0
LINE
  8
0
 10
53.004
 20
50.5155
 11
52.9857
 21
50.5614
  0
LINE
  8
0
 10
52.9857
 20
50.5614
 11
52.9697
 21
50.6081
  0
LINE
  8
0
 10
52.9697
 20
50.6081
 11
52.9561
 21
50.6556
  0
LINE
  8
0
 10
52.9561
 20
50.6556
 11
52.945
 21
50.7037
  0
LINE
  8
0
 10
52.945
 20
50.7037
 11
52.9362
 21
50.7524
  0
LINE
  8
0
 10
52.9362
 20
50.7524
 11
52.93
 21
50.8014
  0
LINE
  8
0
 10
52.93
 20
50.8014
 11
52.9263
 21
50.8506
  0
LINE
  8
0
 10
52.9263
 20
50.8506
 11
52.925
 21
50.9
  0
LINE
  8
0
 10
52.925
 20
50.9
 11
52.9263
 21
50.9494
  0
LINE
  8
0
 10
52.9263
 20
50.9494
 11
52.93
 21
50.9986
  0
LINE
  8
0
 10
52.93
 20
50.9986
 11
52.9362
 21
51.0476
  0
LINE
  8
0
 10
52.9362
 20
51.0476
 11
52.945
 21
51.0963
  0
LINE
  8
0
 10
52.945
 20
51.0963
 11
52.9561
 21
51.1444
  0
LINE
  8
0
 10
52.9561
 20
51.1444
 11
52.9697
 21
51.1919
  0
LINE
  8
0
 10
52.9697
 20
51.1919
 11
52.9857
 21
51.2386
  0
LINE
  8
0
 10
52.9857
 20
51.2386
 11
53.004
 21
51.2845
  0
LINE
  8
0
 10
53.004
 20
51.2845
 11
53.0246
 21
51.3294
  0
LINE
  8
0
 10
53.0246
 20
51.3294
 11
53.0475
 21
51.3732
  0
LINE
  8
0
 10
53.0475
 20
51.3732
 11
53.0726
 21
51.4157
  0
LINE
  8
0
 10
53.0726
 20
51.4157
 11
53.0998
 21
51.457
  0
LINE
  8
0
 10
53.0998
 20
51.457
 11
53.129
 21
51.4968
  0
LINE
  8
0
 10
53.129
 20
51.4968
 11
53.1602
 21
51.5351
  0
LINE
  8
0
 10
53.1602
 20
51.5351
 11
53.1933
 21
51.5717
  0
LINE
  8
0
 10
53.1933
 20
51.5717
 11
53.2283
 21
51.6067
  0
LINE
  8
0
 10
53.2283
 20
51.6067
 11
53.2649
 21
51.6398
  0
LINE
  8
0
 10
53.2649
 20
51.6398
 11
53.3032
 21
51.671
  0
LINE
  8
0
 10
53.3032
 20
51.671
 11
53.343
 21
51.7002
  0
LINE
  8
0
 10
53.343
 20
51.7002
 11
53.3843
 21
51.7274
  0
LINE
  8
0
 10
53.3843
 20
51.7274
 11
53.4268
 21
51.7525
  0
LINE
  8
0
 10
53.4268
 20
51.7525
 11
53.4706
 21
51.7754
  0
LINE
  8
0
 10
53.4706
 20
51.7754
 11
53.5155
 21
51.796
  0
LINE
  8
0
 10
53.5155
 20
51.796
 11
53.5614
 21
51.8143
  0
LINE
  8
0
 10
53.5614
 20
51.8143
 11
53.6081
 21
51.8303
  0
LINE
  8
0
 10
53.6081
 20
51.8303
 11
53.6556
 21
51.8439
  0
LINE
  8
0
 10
53.6556
 20
51.8439
 11
53.7037
 21
51.855
  0
LINE
  8
0
 10
53.7037
 20
51.855
 11
53.7524
 21
51.8638
  0
LINE
  8
0
 10
53.7524
 20
51.8638
 11
53.8014
 21
51.87
  0
LINE
  8
0
 10
53.8014
 20
51.87
 11
53.8506
 21
51.8737
  0
LINE
  8
0
 10
53.8506
 20
51.8737
 11
53.9
 21
51.875
  0
LINE
  8
0
 10
53.9
 20
51.875
 11
53.9494
 21
51.8737
  0
LINE
  8
0
 10
53.9494
 20
51.8737
 11
53.9986
 21
51.87
  0
LINE
  8
0
 10
53.9986
 20
51.87
 11
54.0477
 21
51.8638
  0
LINE
  8
0
 10
54.0477
 20
51.8638
 11
54.0963
 21
51.855
  0
LINE
  8
0
 10
54.0963
 20
51.855
 11
54.1444
 21
51.8439
  0
LINE
  8
0
 10
54.1444
 20
51.8439
 11
54.1919
 21
51.8303
  0
LINE
  8
0
 10
54.1919
 20
51.8303
 11
54.2386
 21
51.8143
  0
LINE
  8
0
 10
54.2386
 20
51.8143
 11
54.2845
 21
51.796
  0
LINE
  8
0
 10
54.2845
 20
51.796
 11
54.3294
 21
51.7754
  0
LINE
  8
0
 10
54.3294
 20
51.7754
 11
54.3732
 21
51.7525
  0
LINE
  8
0
 10
54.3732
 20
51.7525
 11
54.4157
 21
51.7274
  0
LINE
  8
0
 10
54.4157
 20
51.7274
 11
54.457
 21
51.7002
  0
LINE
  8
0
 10
54.457
 20
51.7002
 11
54.4968
 21
51.671
  0
LINE
  8
0
 10
54.4968
 20
51.671
 11
54.5351
 21
51.6398
  0
LINE
  8
0
 10
54.5351
 20
51.6398
 11
54.5717
 21
51.6067
  0
LINE
  8
0
 10
54.5717
 20
51.6067
 11
54.6067
 21
51.5717
  0
LINE
  8
0
 10
54.6067
 20
51.5717
 11
54.6398
 21
51.5351
  0
LINE
  8
0
 10
54.6398
 20
51.5351
 11
54.671
 21
51.4968
  0
LINE
  8
0
 10
54.671
 20
51.4968
 11
54.7003
 21
51.457
  0
LINE
  8
0
 10
54.7003
 20
51.457
 11
54.7274
 21
51.4157
  0
LINE
  8
0
 10
54.7274
 20
51.4157
 11
54.7525
 21
51.3732
  0
LINE
  8
0
 10
54.7525
 20
51.3732
 11
54.7754
 21
51.3294
  0
LINE
  8
0
 10
54.7754
 20
51.3294
 11
54.796
 21
51.2845
  0
LINE
  8
0
 10
54.796
 20
51.2845
 11
54.8143
 21
51.2386
  0
LINE
  8
0
 10
54.8143
 20
51.2386
 11
54.8303
 21
51.1919
  0
LINE
  8
0
 10
54.8303
 20
51.1919
 11
54.8439
 21
51.1444
  0
LINE
  8
0
 10
54.8439
 20
51.1444
 11
54.8551
 21
51.0963
  0
LINE
  8
0
 10
54.8551
 20
51.0963
 11
54.8638
 21
51.0476
  0
LINE
  8
0
 10
54.8638
 20
51.0476
 11
54.87
 21
50.9986
  0
LINE
  8
0
 10
54.87
 20
50.9986
 11
54.8737
 21
50.9494
  0
LINE
  8
0
 10
54.8737
 20
50.9494
 11
54.875
 21
50.9
  0
LINE
  8
0
 10
54.875
 20
50.9
 11
54.8737
 21
50.8506
  0
LINE
  8
0
 10
54.8737
 20
50.8506
 11
54.87
 21
50.8014
  0
LINE
  8
0
 10
54.87
 20
50.8014
 11
54.8638
 21
50.7524
  0
LINE
  8
0
 10
54.8638
 20
50.7524
 11
54.8551
 21
50.7037
  0
LINE
  8
0
 10
54.8551
 20
50.7037
 11
54.8439
 21
50.6556
  0
LINE
  8
0
 10
54.8439
 20
50.6556
 11
54.8303
 21
50.6081
  0
LINE
  8
0
 10
54.8303
 20
50.6081
 11
54.8143
 21
50.5614
  0
LINE
  8
0
 10
54.8143
 20
50.5614
 11
54.796
 21
50.5155
  0
LINE
  8
0
 10
54.796
 20
50.5155
 11
54.7754
 21
50.4706
  0
LINE
  8
0
 10
54.7754
 20
50.4706
 11
54.7525
 21
50.4268
  0
LINE
  8
0
 10
54.7525
 20
50.4268
 11
54.7274
 21
50.3843
  0
LINE
  8
0
 10
54.7274
 20
50.3843
 11
54.7003
 21
50.343
  0
LINE
  8
0
 10
54.7003
 20
50.343
 11
54.671
 21
50.3032
  0
LINE
  8
0
 10
54.671
 20
50.3032
 11
54.6398
 21
50.2649
  0
LINE
  8
0
 10
54.6398
 20
50.2649
 11
54.6067
 21
50.2283
  0
LINE
  8
0
 10
54.6067
 20
50.2283
 11
54.5717
 21
50.1933
  0
LINE
  8
0
 10
54.5717
 20
50.1933
 11
54.5351
 21
50.1602
  0
LINE
  8
0
 10
54.5351
 20
50.1602
 11
54.4968
 21
50.129
  0
LINE
  8
0
 10
54.4968
 20
50.129
 11
54.457
 21
50.0998
  0
LINE
  8
0
 10
54.457
 20
50.0998
 11
54.4157
 21
50.0726
  0
LINE
  8
0
 10
54.4157
 20
50.0726
 11
54.3732
 21
50.0475
  0
LINE
  8
0
 10
54.3732
 20
50.0475
 11
54.3294
 21
50.0246
  0
LINE
  8
0
 10
54.3294
 20
50.0246
 11
54.2845
 21
50.004
  0
LINE
  8
0
 10
54.2845
 20
50.004
 11
54.2386
 21
49.9857
  0
LINE
  8
0
 10
54.2386
 20
49.9857
 11
54.1919
 21
49.9697
  0
LINE
  8
0
 10
54.1919
 20
49.9697
 11
54.1444
 21
49.9561
  0
LINE
  8
0
 10
54.1444
 20
49.9561
 11
54.0963
 21
49.945
  0
LINE
  8
0
 10
54.0963
 20
49.945
 11
54.0477
 21
49.9362
  0
LINE
  8
0
 10
54.0477
 20
49.9362
 11
53.9986
 21
49.93
  0
LINE
  8
0
 10
53.9986
 20
49.93
 11
53.9494
 21
49.9263
  0
LINE
  8
0
 10
53.9494
 20
49.9263
 11
53.9
 21
49.925
  0
LINE
  8
0
 10
53.9
 20
49.925
 11
53.8506
 21
49.9263
  0
LINE
  8
0
 10
-33.75
 20
45.9
 11
-26.25
 21
45.9
  0
LINE
  8
0
 10
-26.25
 20
45.9
 11
-26.25
 21
44
  0
LINE
  8
0
 10
-26.25
 20
44
 11
-18.75
 21
44
  0
LINE
  8
0
 10
-18.75
 20
44
 11
-18.75
 21
45.9
  0
LINE
  8
0
 10
-18.75
 20
45.9
 11
-11.25
 21
45.9
  0
LINE
  8
0
 10
-11.25
 20
45.9
 11
-11.25
 21
44
  0
LINE
  8
0
 10
-11.25
 20
44
 11
-3.75
 21
44
  0
LINE
  8
0
 10
-3.75
 20
44
 11
-3.75
 21
45.9
  0
LINE
  8
0
 10
-3.75
 20
45.9
 11
3.75
 21
45.9
  0
LINE
  8
0
 10
3.75
 20
45.9
 11
3.75
 21
44
  0
LINE
  8
0
 10
3.75
 20
44
 11
11.25
 21
44
  0
LINE
  8
0
 10
11.25
 20
44
 11
11.25
 21
45.9
  0
LINE
  8
0
 10
11.25
 20
45.9
 11
18.75
 21
45.9
  0
LINE
  8
0
 10
18.75
 20
45.9
 11
18.75
 21
44
  0
LINE
  8
0
 10
18.75
 20
44
 11
26.25
 21
44
  0
LINE
  8
0
 10
26.25
 20
44
 11
26.25
 21
45.9
  0
LINE
  8
0
 10
26.25
 20
45.9
 11
33.75
 21
45.9
  0
LINE
  8
0
 10
33.75
 20
45.9
 11
33.75
 21
44
  0
LINE
  8
0
 10
33.75
 20
44
 11
46
 21
44
  0
LINE
  8
0
 10
46
 20
44
 11
46
 21
52.15
  0
LINE
  8
0
 10
46
 20
52.15
 11
44.0999
 21
52.15
  0
LINE
  8
0
 10
44.0999
 20
52.15
 11
44.0999
 21
59.65
  0
LINE
  8
0
 10
44.0999
 20
59.65
 11
46
 21
59.65
  0
LINE
  8
0
 10
46
 20
59.65
 11
46
 21
67.8
  0
LINE
  8
0
 10
46
 20
67.8
 11
33.75
 21
67.8
  0
LINE
  8
0
 10
33.75
 20
67.8
 11
33.75
 21
65.8999
  0
LINE
  8
0
 10
33.75
 20
65.8999
 11
26.25
 21
65.8999
  0
LINE
  8
0
 10
26.25
 20
65.8999
 11
26.25
 21
67.8
  0
LINE
  8
0
 10
26.25
 20
67.8
 11
18.75
 21
67.8
  0
LINE
  8
0
 10
18.75
 20
67.8
 11
18.75
 21
65.8999
  0
LINE
  8
0
 10
18.75
 20
65.8999
 11
11.25
 21
65.8999
  0
LINE
  8
0
 10
11.25
 20
65.8999
 11
11.25
 21
67.8
  0
LINE
  8
0
 10
11.25
 20
67.8
 11
3.75
 21
67.8
  0
LINE
  8
0
 10
3.75
 20
67.8
 11
3.75
 21
65.8999
  0
LINE
  8
0
 10
3.75
 20
65.8999
 11
-3.75
 21
65.8999
  0
LINE
  8
0
 10
-3.75
 20
65.8999
 11
-3.75
 21
67.8
  0
LINE
  8
0
 10
-3.75
 20
67.8
 11
-11.25
 21
67.8
  0
LINE
  8
0
 10
-11.25
 20
67.8
 11
-11.25
 21
65.8999
  0
LINE
  8
0
 10
-11.25
 20
65.8999
 11
-18.75
 21
65.8999
  0
LINE
  8
0
 10
-18.75
 20
65.8999
 11
-18.75
 21
67.8
  0
LINE
  8
0
 10
-18.75
 20
67.8
 11
-26.25
 21
67.8
  0
LINE
  8
0
 10
-26.25
 20
67.8
 11
-26.25
 21
65.8999
  0
LINE
  8
0
 10
-26.25
 20
65.8999
 11
-33.75
 21
65.8999
  0
LINE
  8
0
 10
-33.75
 20
65.8999
 11
-33.75
 21
67.8
  0
LINE
  8
0
 10
-33.75
 20
67.8
 11
-46
 21
67.8
  0
LINE
  8
0
 10
-46
 20
67.8
 11
-46
 21
59.65
  0
LINE
  8
0
 10
-46
 20
59.65
 11
-44.0999
 21
59.65
  0
LINE
  8
0
 10
-44.0999
 20
59.65
 11
-44.0999
 21
52.15
  0
LINE
  8
0
 10
-44.0999
 20
52.15
 11
-46
 21
52.15
  0
LINE
  8
0
 10
-46
 20
52.15
 11
-46
 21
44
  0
LINE
  8
0
 10
-46
 20
44
 11
-33.75
 21
44
  0
LINE
  8
0
 10
-33.75
 20
44
 11
-33.75
 21
45.9
  0
LINE
  8
0
 10
39.0506
 20
59.9262
 11
39.0014
 21
59.93
  0
LINE
  8
0
 10
39.0014
 20
59.93
 11
38.9523
 21
59.9362
  0
LINE
  8
0
 10
38.9523
 20
59.9362
 11
38.9037
 21
59.9449
  0
LINE
  8
0
 10
38.9037
 20
59.9449
 11
38.8556
 21
59.9561
  0
LINE
  8
0
 10
38.8556
 20
59.9561
 11
38.8081
 21
59.9697
  0
LINE
  8
0
 10
38.8081
 20
59.9697
 11
38.7614
 21
59.9857
  0
LINE
  8
0
 10
38.7614
 20
59.9857
 11
38.7155
 21
60.004
  0
LINE
  8
0
 10
38.7155
 20
60.004
 11
38.6706
 21
60.0246
  0
LINE
  8
0
 10
38.6706
 20
60.0246
 11
38.6268
 21
60.0475
  0
LINE
  8
0
 10
38.6268
 20
60.0475
 11
38.5843
 21
60.0726
  0
LINE
  8
0
 10
38.5843
 20
60.0726
 11
38.543
 21
60.0997
  0
LINE
  8
0
 10
38.543
 20
60.0997
 11
38.5032
 21
60.129
  0
LINE
  8
0
 10
38.5032
 20
60.129
 11
38.4649
 21
60.1602
  0
LINE
  8
0
 10
38.4649
 20
60.1602
 11
38.4283
 21
60.1933
  0
LINE
  8
0
 10
38.4283
 20
60.1933
 11
38.3933
 21
60.2282
  0
LINE
  8
0
 10
38.3933
 20
60.2282
 11
38.3602
 21
60.2649
  0
LINE
  8
0
 10
38.3602
 20
60.2649
 11
38.329
 21
60.3032
  0
LINE
  8
0
 10
38.329
 20
60.3032
 11
38.2997
 21
60.343
  0
LINE
  8
0
 10
38.2997
 20
60.343
 11
38.2726
 21
60.3842
  0
LINE
  8
0
 10
38.2726
 20
60.3842
 11
38.2475
 21
60.4268
  0
LINE
  8
0
 10
38.2475
 20
60.4268
 11
38.2246
 21
60.4706
  0
LINE
  8
0
 10
38.2246
 20
60.4706
 11
38.204
 21
60.5155
  0
LINE
  8
0
 10
38.204
 20
60.5155
 11
38.1857
 21
60.5614
  0
LINE
  8
0
 10
38.1857
 20
60.5614
 11
38.1697
 21
60.6081
  0
LINE
  8
0
 10
38.1697
 20
60.6081
 11
38.1561
 21
60.6556
  0
LINE
  8
0
 10
38.1561
 20
60.6556
 11
38.1449
 21
60.7037
  0
LINE
  8
0
 10
38.1449
 20
60.7037
 11
38.1362
 21
60.7523
  0
LINE
  8
0
 10
38.1362
 20
60.7523
 11
38.13
 21
60.8013
  0
LINE
  8
0
 10
38.13
 20
60.8013
 11
38.1263
 21
60.8506
  0
LINE
  8
0
 10
38.1263
 20
60.8506
 11
38.125
 21
60.9
  0
LINE
  8
0
 10
38.125
 20
60.9
 11
38.1263
 21
60.9494
  0
LINE
  8
0
 10
38.1263
 20
60.9494
 11
38.13
 21
60.9986
  0
LINE
  8
0
 10
38.13
 20
60.9986
 11
38.1362
 21
61.0476
  0
LINE
  8
0
 10
38.1362
 20
61.0476
 11
38.1449
 21
61.0963
  0
LINE
  8
0
 10
38.1449
 20
61.0963
 11
38.1561
 21
61.1444
  0
LINE
  8
0
 10
38.1561
 20
61.1444
 11
38.1697
 21
61.1919
  0
LINE
  8
0
 10
38.1697
 20
61.1919
 11
38.1857
 21
61.2386
  0
LINE
  8
0
 10
38.1857
 20
61.2386
 11
38.204
 21
61.2845
  0
LINE
  8
0
 10
38.204
 20
61.2845
 11
38.2246
 21
61.3294
  0
LINE
  8
0
 10
38.2246
 20
61.3294
 11
38.2475
 21
61.3732
  0
LINE
  8
0
 10
38.2475
 20
61.3732
 11
38.2726
 21
61.4157
  0
LINE
  8
0
 10
38.2726
 20
61.4157
 11
38.2997
 21
61.457
  0
LINE
  8
0
 10
38.2997
 20
61.457
 11
38.329
 21
61.4968
  0
LINE
  8
0
 10
38.329
 20
61.4968
 11
38.3602
 21
61.5351
  0
LINE
  8
0
 10
38.3602
 20
61.5351
 11
38.3933
 21
61.5717
  0
LINE
  8
0
 10
38.3933
 20
61.5717
 11
38.4283
 21
61.6067
  0
LINE
  8
0
 10
38.4283
 20
61.6067
 11
38.4649
 21
61.6398
  0
LINE
  8
0
 10
38.4649
 20
61.6398
 11
38.5032
 21
61.671
  0
LINE
  8
0
 10
38.5032
 20
61.671
 11
38.543
 21
61.7002
  0
LINE
  8
0
 10
38.543
 20
61.7002
 11
38.5843
 21
61.7274
  0
LINE
  8
0
 10
38.5843
 20
61.7274
 11
38.6268
 21
61.7525
  0
LINE
  8
0
 10
38.6268
 20
61.7525
 11
38.6706
 21
61.7753
  0
LINE
  8
0
 10
38.6706
 20
61.7753
 11
38.7155
 21
61.796
  0
LINE
  8
0
 10
38.7155
 20
61.796
 11
38.7614
 21
61.8143
  0
LINE
  8
0
 10
38.7614
 20
61.8143
 11
38.8081
 21
61.8303
  0
LINE
  8
0
 10
38.8081
 20
61.8303
 11
38.8556
 21
61.8439
  0
LINE
  8
0
 10
38.8556
 20
61.8439
 11
38.9037
 21
61.855
  0
LINE
  8
0
 10
38.9037
 20
61.855
 11
38.9523
 21
61.8637
  0
LINE
  8
0
 10
38.9523
 20
61.8637
 11
39.0014
 21
61.87
  0
LINE
  8
0
 10
39.0014
 20
61.87
 11
39.0506
 21
61.8737
  0
LINE
  8
0
 10
39.0506
 20
61.8737
 11
39.1
 21
61.875
  0
LINE
  8
0
 10
39.1
 20
61.875
 11
39.1494
 21
61.8737
  0
LINE
  8
0
 10
39.1494
 20
61.8737
 11
39.1986
 21
61.87
  0
LINE
  8
0
 10
39.1986
 20
61.87
 11
39.2476
 21
61.8637
  0
LINE
  8
0
 10
39.2476
 20
61.8637
 11
39.2963
 21
61.855
  0
LINE
  8
0
 10
39.2963
 20
61.855
 11
39.3444
 21
61.8439
  0
LINE
  8
0
 10
39.3444
 20
61.8439
 11
39.3919
 21
61.8303
  0
LINE
  8
0
 10
39.3919
 20
61.8303
 11
39.4386
 21
61.8143
  0
LINE
  8
0
 10
39.4386
 20
61.8143
 11
39.4845
 21
61.796
  0
LINE
  8
0
 10
39.4845
 20
61.796
 11
39.5294
 21
61.7753
  0
LINE
  8
0
 10
39.5294
 20
61.7753
 11
39.5732
 21
61.7525
  0
LINE
  8
0
 10
39.5732
 20
61.7525
 11
39.6157
 21
61.7274
  0
LINE
  8
0
 10
39.6157
 20
61.7274
 11
39.657
 21
61.7002
  0
LINE
  8
0
 10
39.657
 20
61.7002
 11
39.6968
 21
61.671
  0
LINE
  8
0
 10
39.6968
 20
61.671
 11
39.7351
 21
61.6398
  0
LINE
  8
0
 10
39.7351
 20
61.6398
 11
39.7717
 21
61.6067
  0
LINE
  8
0
 10
39.7717
 20
61.6067
 11
39.8067
 21
61.5717
  0
LINE
  8
0
 10
39.8067
 20
61.5717
 11
39.8398
 21
61.5351
  0
LINE
  8
0
 10
39.8398
 20
61.5351
 11
39.871
 21
61.4968
  0
LINE
  8
0
 10
39.871
 20
61.4968
 11
39.9002
 21
61.457
  0
LINE
  8
0
 10
39.9002
 20
61.457
 11
39.9274
 21
61.4157
  0
LINE
  8
0
 10
39.9274
 20
61.4157
 11
39.9525
 21
61.3732
  0
LINE
  8
0
 10
39.9525
 20
61.3732
 11
39.9754
 21
61.3294
  0
LINE
  8
0
 10
39.9754
 20
61.3294
 11
39.996
 21
61.2845
  0
LINE
  8
0
 10
39.996
 20
61.2845
 11
40.0143
 21
61.2386
  0
LINE
  8
0
 10
40.0143
 20
61.2386
 11
40.0303
 21
61.1919
  0
LINE
  8
0
 10
40.0303
 20
61.1919
 11
40.0439
 21
61.1444
  0
LINE
  8
0
 10
40.0439
 20
61.1444
 11
40.055
 21
61.0963
  0
LINE
  8
0
 10
40.055
 20
61.0963
 11
40.0638
 21
61.0476
  0
LINE
  8
0
 10
40.0638
 20
61.0476
 11
40.07
 21
60.9986
  0
LINE
  8
0
 10
40.07
 20
60.9986
 11
40.0737
 21
60.9494
  0
LINE
  8
0
 10
40.0737
 20
60.9494
 11
40.075
 21
60.9
  0
LINE
  8
0
 10
40.075
 20
60.9
 11
40.0737
 21
60.8506
  0
LINE
  8
0
 10
40.0737
 20
60.8506
 11
40.07
 21
60.8013
  0
LINE
  8
0
 10
40.07
 20
60.8013
 11
40.0638
 21
60.7523
  0
LINE
  8
0
 10
40.0638
 20
60.7523
 11
40.055
 21
60.7037
  0
LINE
  8
0
 10
40.055
 20
60.7037
 11
40.0439
 21
60.6556
  0
LINE
  8
0
 10
40.0439
 20
60.6556
 11
40.0303
 21
60.6081
  0
LINE
  8
0
 10
40.0303
 20
60.6081
 11
40.0143
 21
60.5614
  0
LINE
  8
0
 10
40.0143
 20
60.5614
 11
39.996
 21
60.5155
  0
LINE
  8
0
 10
39.996
 20
60.5155
 11
39.9754
 21
60.4706
  0
LINE
  8
0
 10
39.9754
 20
60.4706
 11
39.9525
 21
60.4268
  0
LINE
  8
0
 10
39.9525
 20
60.4268
 11
39.9274
 21
60.3842
  0
LINE
  8
0
 10
39.9274
 20
60.3842
 11
39.9002
 21
60.343
  0
LINE
  8
0
 10
39.9002
 20
60.343
 11
39.871
 21
60.3032
  0
LINE
  8
0
 10
39.871
 20
60.3032
 11
39.8398
 21
60.2649
  0
LINE
  8
0
 10
39.8398
 20
60.2649
 11
39.8067
 21
60.2282
  0
LINE
  8
0
 10
39.8067
 20
60.2282
 11
39.7717
 21
60.1933
  0
LINE
  8
0
 10
39.7717
 20
60.1933
 11
39.7351
 21
60.1602
  0
LINE
  8
0
 10
39.7351
 20
60.1602
 11
39.6968
 21
60.129
  0
LINE
  8
0
 10
39.6968
 20
60.129
 11
39.657
 21
60.0997
  0
LINE
  8
0
 10
39.657
 20
60.0997
 11
39.6157
 21
60.0726
  0
LINE
  8
0
 10
39.6157
 20
60.0726
 11
39.5732
 21
60.0475
  0
LINE
  8
0
 10
39.5732
 20
60.0475
 11
39.5294
 21
60.0246
  0
LINE
  8
0
 10
39.5294
 20
60.0246
 11
39.4845
 21
60.004
  0
LINE
  8
0
 10
39.4845
 20
60.004
 11
39.4386
 21
59.9857
  0
LINE
  8
0
 10
39.4386
 20
59.9857
 11
39.3919
 21
59.9697
  0
LINE
  8
0
 10
39.3919
 20
59.9697
 11
39.3444
 21
59.9561
  0
LINE
  8
0
 10
39.3444
 20
59.9561
 11
39.2963
 21
59.9449
  0
LINE
  8
0
 10
39.2963
 20
59.9449
 11
39.2476
 21
59.9362
  0
LINE
  8
0
 10
39.2476
 20
59.9362
 11
39.1986
 21
59.93
  0
LINE
  8
0
 10
39.1986
 20
59.93
 11
39.1494
 21
59.9262
  0
LINE
  8
0
 10
39.1494
 20
59.9262
 11
39.1
 21
59.925
  0
LINE
  8
0
 10
39.1
 20
59.925
 11
39.0506
 21
59.9262
  0
LINE
  8
0
 10
-39.1494
 20
59.9262
 11
-39.1986
 21
59.93
  0
LINE
  8
0
 10
-39.1986
 20
59.93
 11
-39.2476
 21
59.9362
  0
LINE
  8
0
 10
-39.2476
 20
59.9362
 11
-39.2963
 21
59.9449
  0
LINE
  8
0
 10
-39.2963
 20
59.9449
 11
-39.3444
 21
59.9561
  0
LINE
  8
0
 10
-39.3444
 20
59.9561
 11
-39.3919
 21
59.9697
  0
LINE
  8
0
 10
-39.3919
 20
59.9697
 11
-39.4386
 21
59.9857
  0
LINE
  8
0
 10
-39.4386
 20
59.9857
 11
-39.4845
 21
60.004
  0
LINE
  8
0
 10
-39.4845
 20
60.004
 11
-39.5294
 21
60.0246
  0
LINE
  8
0
 10
-39.5294
 20
60.0246
 11
-39.5732
 21
60.0475
  0
LINE
  8
0
 10
-39.5732
 20
60.0475
 11
-39.6157
 21
60.0726
  0
LINE
  8
0
 10
-39.6157
 20
60.0726
 11
-39.657
 21
60.0997
  0
LINE
  8
0
 10
-39.657
 20
60.0997
 11
-39.6968
 21
60.129
  0
LINE
  8
0
 10
-39.6968
 20
60.129
 11
-39.7351
 21
60.1602
  0
LINE
  8
0
 10
-39.7351
 20
60.1602
 11
-39.7717
 21
60.1933
  0
LINE
  8
0
 10
-39.7717
 20
60.1933
 11
-39.8067
 21
60.2282
  0
LINE
  8
0
 10
-39.8067
 20
60.2282
 11
-39.8398
 21
60.2649
  0
LINE
  8
0
 10
-39.8398
 20
60.2649
 11
-39.871
 21
60.3032
  0
LINE
  8
0
 10
-39.871
 20
60.3032
 11
-39.9002
 21
60.343
  0
LINE
  8
0
 10
-39.9002
 20
60.343
 11
-39.9274
 21
60.3842
  0
LINE
  8
0
 10
-39.9274
 20
60.3842
 11
-39.9525
 21
60.4268
  0
LINE
  8
0
 10
-39.9525
 20
60.4268
 11
-39.9754
 21
60.4706
  0
LINE
  8
0
 10
-39.9754
 20
60.4706
 11
-39.996
 21
60.5155
  0
LINE
  8
0
 10
-39.996
 20
60.5155
 11
-40.0143
 21
60.5614
  0
LINE
  8
0
 10
-40.0143
 20
60.5614
 11
-40.0303
 21
60.6081
  0
LINE
  8
0
 10
-40.0303
 20
60.6081
 11
-40.0439
 21
60.6556
  0
LINE
  8
0
 10
-40.0439
 20
60.6556
 11
-40.055
 21
60.7037
  0
LINE
  8
0
 10
-40.055
 20
60.7037
 11
-40.0638
 21
60.7523
  0
LINE
  8
0
 10
-40.0638
 20
60.7523
 11
-40.07
 21
60.8013
  0
LINE
  8
0
 10
-40.07
 20
60.8013
 11
-40.0737
 21
60.8506
  0
LINE
  8
0
 10
-40.0737
 20
60.8506
 11
-40.075
 21
60.9
  0
LINE
  8
0
 10
-40.075
 20
60.9
 11
-40.0737
 21
60.9494
  0
LINE
  8
0
 10
-40.0737
 20
60.9494
 11
-40.07
 21
60.9986
  0
LINE
  8
0
 10
-40.07
 20
60.9986
 11
-40.0638
 21
61.0476
  0
LINE
  8
0
 10
-40.0638
 20
61.0476
 11
-40.055
 21
61.0963
  0
LINE
  8
0
 10
-40.055
 20
61.0963
 11
-40.0439
 21
61.1444
  0
LINE
  8
0
 10
-40.0439
 20
61.1444
 11
-40.0303
 21
61.1919
  0
LINE
  8
0
 10
-40.0303
 20
61.1919
 11
-40.0143
 21
61.2386
  0
LINE
  8
0
 10
-40.0143
 20
61.2386
 11
-39.996
 21
61.2845
  0
LINE
  8
0
 10
-39.996
 20
61.2845
 11
-39.9754
 21
61.3294
  0
LINE
  8
0
 10
-39.9754
 20
61.3294
 11
-39.9525
 21
61.3732
  0
LINE
  8
0
 10
-39.9525
 20
61.3732
 11
-39.9274
 21
61.4157
  0
LINE
  8
0
 10
-39.9274
 20
61.4157
 11
-39.9002
 21
61.457
  0
LINE
  8
0
 10
-39.9002
 20
61.457
 11
-39.871
 21
61.4968
  0
LINE
  8
0
 10
-39.871
 20
61.4968
 11
-39.8398
 21
61.5351
  0
LINE
  8
0
 10
-39.8398
 20
61.5351
 11
-39.8067
 21
61.5717
  0
LINE
  8
0
 10
-39.8067
 20
61.5717
 11
-39.7717
 21
61.6067
  0
LINE
  8
0
 10
-39.7717
 20
61.6067
 11
-39.7351
 21
61.6398
  0
LINE
  8
0
 10
-39.7351
 20
61.6398
 11
-39.6968
 21
61.671
  0
LINE
  8
0
 10
-39.6968
 20
61.671
 11
-39.657
 21
61.7002
  0
LINE
  8
0
 10
-39.657
 20
61.7002
 11
-39.6157
 21
61.7274
  0
LINE
  8
0
 10
-39.6157
 20
61.7274
 11
-39.5732
 21
61.7525
  0
LINE
  8
0
 10
-39.5732
 20
61.7525
 11
-39.5294
 21
61.7753
  0
LINE
  8
0
 10
-39.5294
 20
61.7753
 11
-39.4845
 21
61.796
  0
LINE
  8
0
 10
-39.4845
 20
61.796
 11
-39.4386
 21
61.8143
  0
LINE
  8
0
 10
-39.4386
 20
61.8143
 11
-39.3919
 21
61.8303
  0
LINE
  8
0
 10
-39.3919
 20
61.8303
 11
-39.3444
 21
61.8439
  0
LINE
  8
0
 10
-39.3444
 20
61.8439
 11
-39.2963
 21
61.855
  0
LINE
  8
0
 10
-39.2963
 20
61.855
 11
-39.2476
 21
61.8637
  0
LINE
  8
0
 10
-39.2476
 20
61.8637
 11
-39.1986
 21
61.87
  0
LINE
  8
0
 10
-39.1986
 20
61.87
 11
-39.1494
 21
61.8737
  0
LINE
  8
0
 10
-39.1494
 20
61.8737
 11
-39.1
 21
61.875
  0
LINE
  8
0
 10
-39.1
 20
61.875
 11
-39.0506
 21
61.8737
  0
LINE
  8
0
 10
-39.0506
 20
61.8737
 11
-39.0014
 21
61.87
  0
LINE
  8
0
 10
-39.0014
 20
61.87
 11
-38.9523
 21
61.8637
  0
LINE
  8
0
 10
-38.9523
 20
61.8637
 11
-38.9037
 21
61.855
  0
LINE
  8
0
 10
-38.9037
 20
61.855
 11
-38.8556
 21
61.8439
  0
LINE
  8
0
 10
-38.8556
 20
61.8439
 11
-38.8081
 21
61.8303
  0
LINE
  8
0
 10
-38.8081
 20
61.8303
 11
-38.7614
 21
61.8143
  0
LINE
  8
0
 10
-38.7614
 20
61.8143
 11
-38.7155
 21
61.796
  0
LINE
  8
0
 10
-38.7155
 20
61.796
 11
-38.6706
 21
61.7753
  0
LINE
  8
0
 10
-38.6706
 20
61.7753
 11
-38.6268
 21
61.7525
  0
LINE
  8
0
 10
-38.6268
 20
61.7525
 11
-38.5843
 21
61.7274
  0
LINE
  8
0
 10
-38.5843
 20
61.7274
 11
-38.543
 21
61.7002
  0
LINE
  8
0
 10
-38.543
 20
61.7002
 11
-38.5032
 21
61.671
  0
LINE
  8
0
 10
-38.5032
 20
61.671
 11
-38.4649
 21
61.6398
  0
LINE
  8
0
 10
-38.4649
 20
61.6398
 11
-38.4283
 21
61.6067
  0
LINE
  8
0
 10
-38.4283
 20
61.6067
 11
-38.3933
 21
61.5717
  0
LINE
  8
0
 10
-38.3933
 20
61.5717
 11
-38.3602
 21
61.5351
  0
LINE
  8
0
 10
-38.3602
 20
61.5351
 11
-38.329
 21
61.4968
  0
LINE
  8
0
 10
-38.329
 20
61.4968
 11
-38.2997
 21
61.457
  0
LINE
  8
0
 10
-38.2997
 20
61.457
 11
-38.2726
 21
61.4157
  0
LINE
  8
0
 10
-38.2726
 20
61.4157
 11
-38.2475
 21
61.3732
  0
LINE
  8
0
 10
-38.2475
 20
61.3732
 11
-38.2246
 21
61.3294
  0
LINE
  8
0
 10
-38.2246
 20
61.3294
 11
-38.204
 21
61.2845
  0
LINE
  8
0
 10
-38.204
 20
61.2845
 11
-38.1857
 21
61.2386
  0
LINE
  8
0
 10
-38.1857
 20
61.2386
 11
-38.1697
 21
61.1919
  0
LINE
  8
0
 10
-38.1697
 20
61.1919
 11
-38.1561
 21
61.1444
  0
LINE
  8
0
 10
-38.1561
 20
61.1444
 11
-38.1449
 21
61.0963
  0
LINE
  8
0
 10
-38.1449
 20
61.0963
 11
-38.1362
 21
61.0476
  0
LINE
  8
0
 10
-38.1362
 20
61.0476
 11
-38.13
 21
60.9986
  0
LINE
  8
0
 10
-38.13
 20
60.9986
 11
-38.1263
 21
60.9494
  0
LINE
  8
0
 10
-38.1263
 20
60.9494
 11
-38.125
 21
60.9
  0
LINE
  8
0
 10
-38.125
 20
60.9
 11
-38.1263
 21
60.8506
  0
LINE
  8
0
 10
-38.1263
 20
60.8506
 11
-38.13
 21
60.8013
  0
LINE
  8
0
 10
-38.13
 20
60.8013
 11
-38.1362
 21
60.7523
  0
LINE
  8
0
 10
-38.1362
 20
60.7523
 11
-38.1449
 21
60.7037
  0
LINE
  8
0
 10
-38.1449
 20
60.7037
 11
-38.1561
 21
60.6556
  0
LINE
  8
0
 10
-38.1561
 20
60.6556
 11
-38.1697
 21
60.6081
  0
LINE
  8
0
 10
-38.1697
 20
60.6081
 11
-38.1857
 21
60.5614
  0
LINE
  8
0
 10
-38.1857
 20
60.5614
 11
-38.204
 21
60.5155
  0
LINE
  8
0
 10
-38.204
 20
60.5155
 11
-38.2246
 21
60.4706
  0
LINE
  8
0
 10
-38.2246
 20
60.4706
 11
-38.2475
 21
60.4268
  0
LINE
  8
0
 10
-38.2475
 20
60.4268
 11
-38.2726
 21
60.3842
  0
LINE
  8
0
 10
-38.2726
 20
60.3842
 11
-38.2997
 21
60.343
  0
LINE
  8
0
 10
-38.2997
 20
60.343
 11
-38.329
 21
60.3032
  0
LINE
  8
0
 10
-38.329
 20
60.3032
 11
-38.3602
 21
60.2649
  0
LINE
  8
0
 10
-38.3602
 20
60.2649
 11
-38.3933
 21
60.2282
  0
LINE
  8
0
 10
-38.3933
 20
60.2282
 11
-38.4283
 21
60.1933
  0
LINE
  8
0
 10
-38.4283
 20
60.1933
 11
-38.4649
 21
60.1602
  0
LINE
  8
0
 10
-38.4649
 20
60.1602
 11
-38.5032
 21
60.129
  0
LINE
  8
0
 10
-38.5032
 20
60.129
 11
-38.543
 21
60.0997
  0
LINE
  8
0
 10
-38.543
 20
60.0997
 11
-38.5843
 21
60.0726
  0
LINE
  8
0
 10
-38.5843
 20
60.0726
 11
-38.6268
 21
60.0475
  0
LINE
  8
0
 10
-38.6268
 20
60.0475
 11
-38.6706
 21
60.0246
  0
LINE
  8
0
 10
-38.6706
 20
60.0246
 11
-38.7155
 21
60.004
  0
LINE
  8
0
 10
-38.7155
 20
60.004
 11
-38.7614
 21
59.9857
  0
LINE
  8
0
 10
-38.7614
 20
59.9857
 11
-38.8081
 21
59.9697
  0
LINE
  8
0
 10
-38.8081
 20
59.9697
 11
-38.8556
 21
59.9561
  0
LINE
  8
0
 10
-38.8556
 20
59.9561
 11
-38.9037
 21
59.9449
  0
LINE
  8
0
 10
-38.9037
 20
59.9449
 11
-38.9523
 21
59.9362
  0
LINE
  8
0
 10
-38.9523
 20
59.9362
 11
-39.0014
 21
59.93
  0
LINE
  8
0
 10
-39.0014
 20
59.93
 11
-39.0506
 21
59.9262
  0
LINE
  8
0
 10
-39.0506
 20
59.9262
 11
-39.1
 21
59.925
  0
LINE
  8
0
 10
-39.1
 20
59.925
 11
-39.1494
 21
59.9262
  0
LINE
  8
0
 10
-39.1494
 20
49.9263
 11
-39.1986
 21
49.93
  0
LINE
  8
0
 10
-39.1986
 20
49.93
 11
-39.2476
 21
49.9362
  0
LINE
  8
0
 10
-39.2476
 20
49.9362
 11
-39.2963
 21
49.945
  0
LINE
  8
0
 10
-39.2963
 20
49.945
 11
-39.3444
 21
49.9561
  0
LINE
  8
0
 10
-39.3444
 20
49.9561
 11
-39.3919
 21
49.9697
  0
LINE
  8
0
 10
-39.3919
 20
49.9697
 11
-39.4386
 21
49.9857
  0
LINE
  8
0
 10
-39.4386
 20
49.9857
 11
-39.4845
 21
50.004
  0
LINE
  8
0
 10
-39.4845
 20
50.004
 11
-39.5294
 21
50.0246
  0
LINE
  8
0
 10
-39.5294
 20
50.0246
 11
-39.5732
 21
50.0475
  0
LINE
  8
0
 10
-39.5732
 20
50.0475
 11
-39.6157
 21
50.0726
  0
LINE
  8
0
 10
-39.6157
 20
50.0726
 11
-39.657
 21
50.0998
  0
LINE
  8
0
 10
-39.657
 20
50.0998
 11
-39.6968
 21
50.129
  0
LINE
  8
0
 10
-39.6968
 20
50.129
 11
-39.7351
 21
50.1602
  0
LINE
  8
0
 10
-39.7351
 20
50.1602
 11
-39.7717
 21
50.1933
  0
LINE
  8
0
 10
-39.7717
 20
50.1933
 11
-39.8067
 21
50.2283
  0
LINE
  8
0
 10
-39.8067
 20
50.2283
 11
-39.8398
 21
50.2649
  0
LINE
  8
0
 10
-39.8398
 20
50.2649
 11
-39.871
 21
50.3032
  0
LINE
  8
0
 10
-39.871
 20
50.3032
 11
-39.9002
 21
50.343
  0
LINE
  8
0
 10
-39.9002
 20
50.343
 11
-39.9274
 21
50.3843
  0
LINE
  8
0
 10
-39.9274
 20
50.3843
 11
-39.9525
 21
50.4268
  0
LINE
  8
0
 10
-39.9525
 20
50.4268
 11
-39.9754
 21
50.4706
  0
LINE
  8
0
 10
-39.9754
 20
50.4706
 11
-39.996
 21
50.5155
  0
LINE
  8
0
 10
-39.996
 20
50.5155
 11
-40.0143
 21
50.5614
  0
LINE
  8
0
 10
-40.0143
 20
50.5614
 11
-40.0303
 21
50.6081
  0
LINE
  8
0
 10
-40.0303
 20
50.6081
 11
-40.0439
 21
50.6556
  0
LINE
  8
0
 10
-40.0439
 20
50.6556
 11
-40.055
 21
50.7037
  0
LINE
  8
0
 10
-40.055
 20
50.7037
 11
-40.0638
 21
50.7524
  0
LINE
  8
0
 10
-40.0638
 20
50.7524
 11
-40.07
 21
50.8014
  0
LINE
  8
0
 10
-40.07
 20
50.8014
 11
-40.0737
 21
50.8506
  0
LINE
  8
0
 10
-40.0737
 20
50.8506
 11
-40.075
 21
50.9
  0
LINE
  8
0
 10
-40.075
 20
50.9
 11
-40.0737
 21
50.9494
  0
LINE
  8
0
 10
-40.0737
 20
50.9494
 11
-40.07
 21
50.9986
  0
LINE
  8
0
 10
-40.07
 20
50.9986
 11
-40.0638
 21
51.0476
  0
LINE
  8
0
 10
-40.0638
 20
51.0476
 11
-40.055
 21
51.0963
  0
LINE
  8
0
 10
-40.055
 20
51.0963
 11
-40.0439
 21
51.1444
  0
LINE
  8
0
 10
-40.0439
 20
51.1444
 11
-40.0303
 21
51.1919
  0
LINE
  8
0
 10
-40.0303
 20
51.1919
 11
-40.0143
 21
51.2386
  0
LINE
  8
0
 10
-40.0143
 20
51.2386
 11
-39.996
 21
51.2845
  0
LINE
  8
0
 10
-39.996
 20
51.2845
 11
-39.9754
 21
51.3294
  0
LINE
  8
0
 10
-39.9754
 20
51.3294
 11
-39.9525
 21
51.3732
  0
LINE
  8
0
 10
-39.9525
 20
51.3732
 11
-39.9274
 21
51.4157
  0
LINE
  8
0
 10
-39.9274
 20
51.4157
 11
-39.9002
 21
51.457
  0
LINE
  8
0
 10
-39.9002
 20
51.457
 11
-39.871
 21
51.4968
  0
LINE
  8
0
 10
-39.871
 20
51.4968
 11
-39.8398
 21
51.5351
  0
LINE
  8
0
 10
-39.8398
 20
51.5351
 11
-39.8067
 21
51.5717
  0
LINE
  8
0
 10
-39.8067
 20
51.5717
 11
-39.7717
 21
51.6067
  0
LINE
  8
0
 10
-39.7717
 20
51.6067
 11
-39.7351
 21
51.6398
  0
LINE
  8
0
 10
-39.7351
 20
51.6398
 11
-39.6968
 21
51.671
  0
LINE
  8
0
 10
-39.6968
 20
51.671
 11
-39.657
 21
51.7002
  0
LINE
  8
0
 10
-39.657
 20
51.7002
 11
-39.6157
 21
51.7274
  0
LINE
  8
0
 10
-39.6157
 20
51.7274
 11
-39.5732
 21
51.7525
  0
LINE
  8
0
 10
-39.5732
 20
51.7525
 11
-39.5294
 21
51.7754
  0
LINE
  8
0
 10
-39.5294
 20
51.7754
 11
-39.4845
 21
51.796
  0
LINE
  8
0
 10
-39.4845
 20
51.796
 11
-39.4386
 21
51.8143
  0
LINE
  8
0
 10
-39.4386
 20
51.8143
 11
-39.3919
 21
51.8303
  0
LINE
  8
0
 10
-39.3919
 20
51.8303
 11
-39.3444
 21
51.8439
  0
LINE
  8
0
 10
-39.3444
 20
51.8439
 11
-39.2963
 21
51.855
  0
LINE
  8
0
 10
-39.2963
 20
51.855
 11
-39.2476
 21
51.8638
  0
LINE
  8
0
 10
-39.2476
 20
51.8638
 11
-39.1986
 21
51.87
  0
LINE
  8
0
 10
-39.1986
 20
51.87
 11
-39.1494
 21
51.8737
  0
LINE
  8
0
 10
-39.1494
 20
51.8737
 11
-39.1
 21
51.875
  0
LINE
  8
0
 10
-39.1
 20
51.875
 11
-39.0506
 21
51.8737
  0
LINE
  8
0
 10
-39.0506
 20
51.8737
 11
-39.0014
 21
51.87
  0
LINE
  8
0
 10
-39.0014
 20
51.87
 11
-38.9523
 21
51.8638
  0
LINE
  8
0
 10
-38.9523
 20
51.8638
 11
-38.9037
 21
51.855
  0
LINE
  8
0
 10
-38.9037
 20
51.855
 11
-38.8556
 21
51.8439
  0
LINE
  8
0
 10
-38.8556
 20
51.8439
 11
-38.8081
 21
51.8303
  0
LINE
  8
0
 10
-38.8081
 20
51.8303
 11
-38.7614
 21
51.8143
  0
LINE
  8
0
 10
-38.7614
 20
51.8143
 11
-38.7155
 21
51.796
  0
LINE
  8
0
 10
-38.7155
 20
51.796
 11
-38.6706
 21
51.7754
  0
LINE
  8
0
 10
-38.6706
 20
51.7754
 11
-38.6268
 21
51.7525
  0
LINE
  8
0
 10
-38.6268
 20
51.7525
 11
-38.5843
 21
51.7274
  0
LINE
  8
0
 10
-38.5843
 20
51.7274
 11
-38.543
 21
51.7002
  0
LINE
  8
0
 10
-38.543
 20
51.7002
 11
-38.5032
 21
51.671
  0
LINE
  8
0
 10
-38.5032
 20
51.671
 11
-38.4649
 21
51.6398
  0
LINE
  8
0
 10
-38.4649
 20
51.6398
 11
-38.4283
 21
51.6067
  0
LINE
  8
0
 10
-38.4283
 20
51.6067
 11
-38.3933
 21
51.5717
  0
LINE
  8
0
 10
-38.3933
 20
51.5717
 11
-38.3602
 21
51.5351
  0
LINE
  8
0
 10
-38.3602
 20
51.5351
 11
-38.329
 21
51.4968
  0
LINE
  8
0
 10
-38.329
 20
51.4968
 11
-38.2997
 21
51.457
  0
LINE
  8
0
 10
-38.2997
 20
51.457
 11
-38.2726
 21
51.4157
  0
LINE
  8
0
 10
-38.2726
 20
51.4157
 11
-38.2475
 21
51.3732
  0
LINE
  8
0
 10
-38.2475
 20
51.3732
 11
-38.2246
 21
51.3294
  0
LINE
  8
0
 10
-38.2246
 20
51.3294
 11
-38.204
 21
51.2845
  0
LINE
  8
0
 10
-38.204
 20
51.2845
 11
-38.1857
 21
51.2386
  0
LINE
  8
0
 10
-38.1857
 20
51.2386
 11
-38.1697
 21
51.1919
  0
LINE
  8
0
 10
-38.1697
 20
51.1919
 11
-38.1561
 21
51.1444
  0
LINE
  8
0
 10
-38.1561
 20
51.1444
 11
-38.1449
 21
51.0963
  0
LINE
  8
0
 10
-38.1449
 20
51.0963
 11
-38.1362
 21
51.0476
  0
LINE
  8
0
 10
-38.1362
 20
51.0476
 11
-38.13
 21
50.9986
  0
LINE
  8
0
 10
-38.13
 20
50.9986
 11
-38.1263
 21
50.9494
  0
LINE
  8
0
 10
-38.1263
 20
50.9494
 11
-38.125
 21
50.9
  0
LINE
  8
0
 10
-38.125
 20
50.9
 11
-38.1263
 21
50.8506
  0
LINE
  8
0
 10
-38.1263
 20
50.8506
 11
-38.13
 21
50.8014
  0
LINE
  8
0
 10
-38.13
 20
50.8014
 11
-38.1362
 21
50.7524
  0
LINE
  8
0
 10
-38.1362
 20
50.7524
 11
-38.1449
 21
50.7037
  0
LINE
  8
0
 10
-38.1449
 20
50.7037
 11
-38.1561
 21
50.6556
  0
LINE
  8
0
 10
-38.1561
 20
50.6556
 11
-38.1697
 21
50.6081
  0
LINE
  8
0
 10
-38.1697
 20
50.6081
 11
-38.1857
 21
50.5614
  0
LINE
  8
0
 10
-38.1857
 20
50.5614
 11
-38.204
 21
50.5155
  0
LINE
  8
0
 10
-38.204
 20
50.5155
 11
-38.2246
 21
50.4706
  0
LINE
  8
0
 10
-38.2246
 20
50.4706
 11
-38.2475
 21
50.4268
  0
LINE
  8
0
 10
-38.2475
 20
50.4268
 11
-38.2726
 21
50.3843
  0
LINE
  8
0
 10
-38.2726
 20
50.3843
 11
-38.2997
 21
50.343
  0
LINE
  8
0
 10
-38.2997
 20
50.343
 11
-38.329
 21
50.3032
  0
LINE
  8
0
 10
-38.329
 20
50.3032
 11
-38.3602
 21
50.2649
  0
LINE
  8
0
 10
-38.3602
 20
50.2649
 11
-38.3933
 21
50.2283
  0
LINE
  8
0
 10
-38.3933
 20
50.2283
 11
-38.4283
 21
50.1933
  0
LINE
  8
0
 10
-38.4283
 20
50.1933
 11
-38.4649
 21
50.1602
  0
LINE
  8
0
 10
-38.4649
 20
50.1602
 11
-38.5032
 21
50.129
  0
LINE
  8
0
 10
-38.5032
 20
50.129
 11
-38.543
 21
50.0998
  0
LINE
  8
0
 10
-38.543
 20
50.0998
 11
-38.5843
 21
50.0726
  0
LINE
  8
0
 10
-38.5843
 20
50.0726
 11
-38.6268
 21
50.0475
  0
LINE
  8
0
 10
-38.6268
 20
50.0475
 11
-38.6706
 21
50.0246
  0
LINE
  8
0
 10
-38.6706
 20
50.0246
 11
-38.7155
 21
50.004
  0
LINE
  8
0
 10
-38.7155
 20
50.004
 11
-38.7614
 21
49.9857
  0
LINE
  8
0
 10
-38.7614
 20
49.9857
 11
-38.8081
 21
49.9697
  0
LINE
  8
0
 10
-38.8081
 20
49.9697
 11
-38.8556
 21
49.9561
  0
LINE
  8
0
 10
-38.8556
 20
49.9561
 11
-38.9037
 21
49.945
  0
LINE
  8
0
 10
-38.9037
 20
49.945
 11
-38.9523
 21
49.9362
  0
LINE
  8
0
 10
-38.9523
 20
49.9362
 11
-39.0014
 21
49.93
  0
LINE
  8
0
 10
-39.0014
 20
49.93
 11
-39.0506
 21
49.9263
  0
LINE
  8
0
 10
-39.0506
 20
49.9263
 11
-39.1
 21
49.925
  0
LINE
  8
0
 10
-39.1
 20
49.925
 11
-39.1494
 21
49.9263
  0
LINE
  8
0
 10
39.0506
 20
49.9263
 11
39.0014
 21
49.93
  0
LINE
  8
0
 10
39.0014
 20
49.93
 11
38.9523
 21
49.9362
  0
LINE
  8
0
 10
38.9523
 20
49.9362
 11
38.9037
 21
49.945
  0
LINE
  8
0
 10
38.9037
 20
49.945
 11
38.8556
 21
49.9561
  0
LINE
  8
0
 10
38.8556
 20
49.9561
 11
38.8081
 21
49.9697
  0
LINE
  8
0
 10
38.8081
 20
49.9697
 11
38.7614
 21
49.9857
  0
LINE
  8
0
 10
38.7614
 20
49.9857
 11
38.7155
 21
50.004
  0
LINE
  8
0
 10
38.7155
 20
50.004
 11
38.6706
 21
50.0246
  0
LINE
  8
0
 10
38.6706
 20
50.0246
 11
38.6268
 21
50.0475
  0
LINE
  8
0
 10
38.6268
 20
50.0475
 11
38.5843
 21
50.0726
  0
LINE
  8
0
 10
38.5843
 20
50.0726
 11
38.543
 21
50.0998
  0
LINE
  8
0
 10
38.543
 20
50.0998
 11
38.5032
 21
50.129
  0
LINE
  8
0
 10
38.5032
 20
50.129
 11
38.4649
 21
50.1602
  0
LINE
  8
0
 10
38.4649
 20
50.1602
 11
38.4283
 21
50.1933
  0
LINE
  8
0
 10
38.4283
 20
50.1933
 11
38.3933
 21
50.2283
  0
LINE
  8
0
 10
38.3933
 20
50.2283
 11
38.3602
 21
50.2649
  0
LINE
  8
0
 10
38.3602
 20
50.2649
 11
38.329
 21
50.3032
  0
LINE
  8
0
 10
38.329
 20
50.3032
 11
38.2997
 21
50.343
  0
LINE
  8
0
 10
38.2997
 20
50.343
 11
38.2726
 21
50.3843
  0
LINE
  8
0
 10
38.2726
 20
50.3843
 11
38.2475
 21
50.4268
  0
LINE
  8
0
 10
38.2475
 20
50.4268
 11
38.2246
 21
50.4706
  0
LINE
  8
0
 10
38.2246
 20
50.4706
 11
38.204
 21
50.5155
  0
LINE
  8
0
 10
38.204
 20
50.5155
 11
38.1857
 21
50.5614
  0
LINE
  8
0
 10
38.1857
 20
50.5614
 11
38.1697
 21
50.6081
  0
LINE
  8
0
 10
38.1697
 20
50.6081
 11
38.1561
 21
50.6556
  0
LINE
  8
0
 10
38.1561
 20
50.6556
 11
38.1449
 21
50.7037
  0
LINE
  8
0
 10
38.1449
 20
50.7037
 11
38.1362
 21
50.7524
  0
LINE
  8
0
 10
38.1362
 20
50.7524
 11
38.13
 21
50.8014
  0
LINE
  8
0
 10
38.13
 20
50.8014
 11
38.1263
 21
50.8506
  0
LINE
  8
0
 10
38.1263
 20
50.8506
 11
38.125
 21
50.9
  0
LINE
  8
0
 10
38.125
 20
50.9
 11
38.1263
 21
50.9494
  0
LINE
  8
0
 10
38.1263
 20
50.9494
 11
38.13
 21
50.9986
  0
LINE
  8
0
 10
38.13
 20
50.9986
 11
38.1362
 21
51.0476
  0
LINE
  8
0
 10
38.1362
 20
51.0476
 11
38.1449
 21
51.0963
  0
LINE
  8
0
 10
38.1449
 20
51.0963
 11
38.1561
 21
51.1444
  0
LINE
  8
0
 10
38.1561
 20
51.1444
 11
38.1697
 21
51.1919
  0
LINE
  8
0
 10
38.1697
 20
51.1919
 11
38.1857
 21
51.2386
  0
LINE
  8
0
 10
38.1857
 20
51.2386
 11
38.204
 21
51.2845
  0
LINE
  8
0
 10
38.204
 20
51.2845
 11
38.2246
 21
51.3294
  0
LINE
  8
0
 10
38.2246
 20
51.3294
 11
38.2475
 21
51.3732
  0
LINE
  8
0
 10
38.2475
 20
51.3732
 11
38.2726
 21
51.4157
  0
LINE
  8
0
 10
38.2726
 20
51.4157
 11
38.2997
 21
51.457
  0
LINE
  8
0
 10
38.2997
 20
51.457
 11
38.329
 21
51.4968
  0
LINE
  8
0
 10
38.329
 20
51.4968
 11
38.3602
 21
51.5351
  0
LINE
  8
0
 10
38.3602
 20
51.5351
 11
38.3933
 21
51.5717
  0
LINE
  8
0
 10
38.3933
 20
51.5717
 11
38.4283
 21
51.6067
  0
LINE
  8
0
 10
38.4283
 20
51.6067
 11
38.4649
 21
51.6398
  0
LINE
  8
0
 10
38.4649
 20
51.6398
 11
38.5032
 21
51.671
  0
LINE
  8
0
 10
38.5032
 20
51.671
 11
38.543
 21
51.7002
  0
LINE
  8
0
 10
38.543
 20
51.7002
 11
38.5843
 21
51.7274
  0
LINE
  8
0
 10
38.5843
 20
51.7274
 11
38.6268
 21
51.7525
  0
LINE
  8
0
 10
38.6268
 20
51.7525
 11
38.6706
 21
51.7754
  0
LINE
  8
0
 10
38.6706
 20
51.7754
 11
38.7155
 21
51.796
  0
LINE
  8
0
 10
38.7155
 20
51.796
 11
38.7614
 21
51.8143
  0
LINE
  8
0
 10
38.7614
 20
51.8143
 11
38.8081
 21
51.8303
  0
LINE
  8
0
 10
38.8081
 20
51.8303
 11
38.8556
 21
51.8439
  0
LINE
  8
0
 10
38.8556
 20
51.8439
 11
38.9037
 21
51.855
  0
LINE
  8
0
 10
38.9037
 20
51.855
 11
38.9523
 21
51.8638
  0
LINE
  8
0
 10
38.9523
 20
51.8638
 11
39.0014
 21
51.87
  0
LINE
  8
0
 10
39.0014
 20
51.87
 11
39.0506
 21
51.8737
  0
LINE
  8
0
 10
39.0506
 20
51.8737
 11
39.1
 21
51.875
  0
LINE
  8
0
 10
39.1
 20
51.875
 11
39.1494
 21
51.8737
  0
LINE
  8
0
 10
39.1494
 20
51.8737
 11
39.1986
 21
51.87
  0
LINE
  8
0
 10
39.1986
 20
51.87
 11
39.2476
 21
51.8638
  0
LINE
  8
0
 10
39.2476
 20
51.8638
 11
39.2963
 21
51.855
  0
LINE
  8
0
 10
39.2963
 20
51.855
 11
39.3444
 21
51.8439
  0
LINE
  8
0
 10
39.3444
 20
51.8439
 11
39.3919
 21
51.8303
  0
LINE
  8
0
 10
39.3919
 20
51.8303
 11
39.4386
 21
51.8143
  0
LINE
  8
0
 10
39.4386
 20
51.8143
 11
39.4845
 21
51.796
  0
LINE
  8
0
 10
39.4845
 20
51.796
 11
39.5294
 21
51.7754
  0
LINE
  8
0
 10
39.5294
 20
51.7754
 11
39.5732
 21
51.7525
  0
LINE
  8
0
 10
39.5732
 20
51.7525
 11
39.6157
 21
51.7274
  0
LINE
  8
0
 10
39.6157
 20
51.7274
 11
39.657
 21
51.7002
  0
LINE
  8
0
 10
39.657
 20
51.7002
 11
39.6968
 21
51.671
  0
LINE
  8
0
 10
39.6968
 20
51.671
 11
39.7351
 21
51.6398
  0
LINE
  8
0
 10
39.7351
 20
51.6398
 11
39.7717
 21
51.6067
  0
LINE
  8
0
 10
39.7717
 20
51.6067
 11
39.8067
 21
51.5717
  0
LINE
  8
0
 10
39.8067
 20
51.5717
 11
39.8398
 21
51.5351
  0
LINE
  8
0
 10
39.8398
 20
51.5351
 11
39.871
 21
51.4968
  0
LINE
  8
0
 10
39.871
 20
51.4968
 11
39.9002
 21
51.457
  0
LINE
  8
0
 10
39.9002
 20
51.457
 11
39.9274
 21
51.4157
  0
LINE
  8
0
 10
39.9274
 20
51.4157
 11
39.9525
 21
51.3732
  0
LINE
  8
0
 10
39.9525
 20
51.3732
 11
39.9754
 21
51.3294
  0
LINE
  8
0
 10
39.9754
 20
51.3294
 11
39.996
 21
51.2845
  0
LINE
  8
0
 10
39.996
 20
51.2845
 11
40.0143
 21
51.2386
  0
LINE
  8
0
 10
40.0143
 20
51.2386
 11
40.0303
 21
51.1919
  0
LINE
  8
0
 10
40.0303
 20
51.1919
 11
40.0439
 21
51.1444
  0
LINE
  8
0
 10
40.0439
 20
51.1444
 11
40.055
 21
51.0963
  0
LINE
  8
0
 10
40.055
 20
51.0963
 11
40.0638
 21
51.0476
  0
LINE
  8
0
 10
40.0638
 20
51.0476
 11
40.07
 21
50.9986
  0
LINE
  8
0
 10
40.07
 20
50.9986
 11
40.0737
 21
50.9494
  0
LINE
  8
0
 10
40.0737
 20
50.9494
 11
40.075
 21
50.9
  0
LINE
  8
0
 10
40.075
 20
50.9
 11
40.0737
 21
50.8506
  0
LINE
  8
0
 10
40.0737
 20
50.8506
 11
40.07
 21
50.8014
  0
LINE
  8
0
 10
40.07
 20
50.8014
 11
40.0638
 21
50.7524
  0
LINE
  8
0
 10
40.0638
 20
50.7524
 11
40.055
 21
50.7037
  0
LINE
  8
0
 10
40.055
 20
50.7037
 11
40.0439
 21
50.6556
  0
LINE
  8
0
 10
40.0439
 20
50.6556
 11
40.0303
 21
50.6081
  0
LINE
  8
0
 10
40.0303
 20
50.6081
 11
40.0143
 21
50.5614
  0
LINE
  8
0
 10
40.0143
 20
50.5614
 11
39.996
 21
50.5155
  0
LINE
  8
0
 10
39.996
 20
50.5155
 11
39.9754
 21
50.4706
  0
LINE
  8
0
 10
39.9754
 20
50.4706
 11
39.9525
 21
50.4268
  0
LINE
  8
0
 10
39.9525
 20
50.4268
 11
39.9274
 21
50.3843
  0
LINE
  8
0
 10
39.9274
 20
50.3843
 11
39.9002
 21
50.343
  0
LINE
  8
0
 10
39.9002
 20
50.343
 11
39.871
 21
50.3032
  0
LINE
  8
0
 10
39.871
 20
50.3032
 11
39.8398
 21
50.2649
  0
LINE
  8
0
 10
39.8398
 20
50.2649
 11
39.8067
 21
50.2283
  0
LINE
  8
0
 10
39.8067
 20
50.2283
 11
39.7717
 21
50.1933
  0
LINE
  8
0
 10
39.7717
 20
50.1933
 11
39.7351
 21
50.1602
  0
LINE
  8
0
 10
39.7351
 20
50.1602
 11
39.6968
 21
50.129
  0
LINE
  8
0
 10
39.6968
 20
50.129
 11
39.657
 21
50.0998
  0
LINE
  8
0
 10
39.657
 20
50.0998
 11
39.6157
 21
50.0726
  0
LINE
  8
0
 10
39.6157
 20
50.0726
 11
39.5732
 21
50.0475
  0
LINE
  8
0
 10
39.5732
 20
50.0475
 11
39.5294
 21
50.0246
  0
LINE
  8
0
 10
39.5294
 20
50.0246
 11
39.4845
 21
50.004
  0
LINE
  8
0
 10
39.4845
 20
50.004
 11
39.4386
 21
49.9857
  0
LINE
  8
0
 10
39.4386
 20
49.9857
 11
39.3919
 21
49.9697
  0
LINE
  8
0
 10
39.3919
 20
49.9697
 11
39.3444
 21
49.9561
  0
LINE
  8
0
 10
39.3444
 20
49.9561
 11
39.2963
 21
49.945
  0
LINE
  8
0
 10
39.2963
 20
49.945
 11
39.2476
 21
49.9362
  0
LINE
  8
0
 10
39.2476
 20
49.9362
 11
39.1986
 21
49.93
  0
LINE
  8
0
 10
39.1986
 20
49.93
 11
39.1494
 21
49.9263
  0
LINE
  8
0
 10
39.1494
 20
49.9263
 11
39.1
 21
49.925
  0
LINE
  8
0
 10
39.1
 20
49.925
 11
39.0506
 21
49.9263
  0
LINE
  8
0
 10
-26.25
 20
-40.6
 11
-18.75
 21
-40.6
  0
LINE
  8
0
 10
-18.75
 20
-40.6
 11
-18.75
 21
-42.5
  0
LINE
  8
0
 10
-18.75
 20
-42.5
 11
-11.25
 21
-42.5
  0
LINE
  8
0
 10
-11.25
 20
-42.5
 11
-11.25
 21
-40.6
  0
LINE
  8
0
 10
-11.25
 20
-40.6
 11
-3.75
 21
-40.6
  0
LINE
  8
0
 10
-3.75
 20
-40.6
 11
-3.75
 21
-42.5
  0
LINE
  8
0
 10
-3.75
 20
-42.5
 11
3.75
 21
-42.5
  0
LINE
  8
0
 10
3.75
 20
-42.5
 11
3.75
 21
-40.6
  0
LINE
  8
0
 10
3.75
 20
-40.6
 11
11.25
 21
-40.6
  0
LINE
  8
0
 10
11.25
 20
-40.6
 11
11.25
 21
-42.5
  0
LINE
  8
0
 10
11.25
 20
-42.5
 11
18.75
 21
-42.5
  0
LINE
  8
0
 10
18.75
 20
-42.5
 11
18.75
 21
-40.6
  0
LINE
  8
0
 10
18.75
 20
-40.6
 11
26.25
 21
-40.6
  0
LINE
  8
0
 10
26.25
 20
-40.6
 11
26.25
 21
-42.5
  0
LINE
  8
0
 10
26.25
 20
-42.5
 11
33.75
 21
-42.5
  0
LINE
  8
0
 10
33.75
 20
-42.5
 11
33.75
 21
-40.6
  0
LINE
  8
0
 10
33.75
 20
-40.6
 11
46
 21
-40.6
  0
LINE
  8
0
 10
46
 20
-40.6
 11
46
 21
-33.75
  0
LINE
  8
0
 10
46
 20
-33.75
 11
44.1
 21
-33.75
  0
LINE
  8
0
 10
44.1
 20
-33.75
 11
44.1
 21
-26.25
  0
LINE
  8
0
 10
44.1
 20
-26.25
 11
46
 21
-26.25
  0
LINE
  8
0
 10
46
 20
-26.25
 11
46
 21
-18.75
  0
LINE
  8
0
 10
46
 20
-18.75
 11
44.1
 21
-18.75
  0
LINE
  8
0
 10
44.1
 20
-18.75
 11
44.1
 21
-11.25
  0
LINE
  8
0
 10
44.1
 20
-11.25
 11
46
 21
-11.25
  0
LINE
  8
0
 10
46
 20
-11.25
 11
46
 21
-3.75
  0
LINE
  8
0
 10
46
 20
-3.75
 11
44.1
 21
-3.75
  0
LINE
  8
0
 10
44.1
 20
-3.75
 11
44.1
 21
3.75
  0
LINE
  8
0
 10
44.1
 20
3.75
 11
46
 21
3.75
  0
LINE
  8
0
 10
46
 20
3.75
 11
46
 21
11.25
  0
LINE
  8
0
 10
46
 20
11.25
 11
44.1
 21
11.25
  0
LINE
  8
0
 10
44.1
 20
11.25
 11
44.1
 21
18.75
  0
LINE
  8
0
 10
44.1
 20
18.75
 11
46
 21
18.75
  0
LINE
  8
0
 10
46
 20
18.75
 11
46
 21
26.25
  0
LINE
  8
0
 10
46
 20
26.25
 11
44.1
 21
26.25
  0
LINE
  8
0
 10
44.1
 20
26.25
 11
44.1
 21
33.75
  0
LINE
  8
0
 10
44.1
 20
33.75
 11
46
 21
33.75
  0
LINE
  8
0
 10
46
 20
33.75
 11
46
 21
40.5999
  0
LINE
  8
0
 10
46
 20
40.5999
 11
33.75
 21
40.5999
  0
LINE
  8
0
 10
33.75
 20
40.5999
 11
33.75
 21
42.5
  0
LINE
  8
0
 10
33.75
 20
42.5
 11
26.25
 21
42.5
  0
LINE
  8
0
 10
26.25
 20
42.5
 11
26.25
 21
40.5999
  0
LINE
  8
0
 10
26.25
 20
40.5999
 11
18.75
 21
40.5999
  0
LINE
  8
0
 10
18.75
 20
40.5999
 11
18.75
 21
42.5
  0
LINE
  8
0
 10
18.75
 20
42.5
 11
11.25
 21
42.5
  0
LINE
  8
0
 10
11.25
 20
42.5
 11
11.25
 21
40.5999
  0
LINE
  8
0
 10
11.25
 20
40.5999
 11
3.75
 21
40.5999
  0
LINE
  8
0
 10
3.75
 20
40.5999
 11
3.75
 21
42.5
  0
LINE
  8
0
 10
3.75
 20
42.5
 11
-3.75
 21
42.5
  0
LINE
  8
0
 10
-3.75
 20
42.5
 11
-3.75
 21
40.5999
  0
LINE
  8
0
 10
-3.75
 20
40.5999
 11
-11.25
 21
40.5999
  0
LINE
  8
0
 10
-11.25
 20
40.5999
 11
-11.25
 21
42.5
  0
LINE
  8
0
 10
-11.25
 20
42.5
 11
-18.75
 21
42.5
  0
LINE
  8
0
 10
-18.75
 20
42.5
 11
-18.75
 21
40.5999
  0
LINE
  8
0
 10
-18.75
 20
40.5999
 11
-26.25
 21
40.5999
  0
LINE
  8
0
 10
-26.25
 20
40.5999
 11
-26.25
 21
42.5
  0
LINE
  8
0
 10
-26.25
 20
42.5
 11
-33.75
 21
42.5
  0
LINE
  8
0
 10
-33.75
 20
42.5
 11
-33.75
 21
40.6
  0
LINE
  8
0
 10
-33.75
 20
40.6
 11
-46
 21
40.6
  0
LINE
  8
0
 10
-46
 20
40.6
 11
-46
 21
33.75
  0
LINE
  8
0
 10
-46
 20
33.75
 11
-44.0999
 21
33.75
  0
LINE
  8
0
 10
-44.0999
 20
33.75
 11
-44.0999
 21
26.25
  0
LINE
  8
0
 10
-44.0999
 20
26.25
 11
-46
 21
26.25
  0
LINE
  8
0
 10
-46
 20
26.25
 11
-46
 21
18.75
  0
LINE
  8
0
 10
-46
 20
18.75
 11
-44.0999
 21
18.75
  0
LINE
  8
0
 10
-44.0999
 20
18.75
 11
-44.0999
 21
11.25
  0
LINE
  8
0
 10
-44.0999
 20
11.25
 11
-46
 21
11.25
  0
LINE
  8
0
 10
-46
 20
11.25
 11
-46
 21
3.75
  0
LINE
  8
0
 10
-46
 20
3.75
 11
-44.0999
 21
3.75
  0
LINE
  8
0
 10
-44.0999
 20
3.75
 11
-44.0999
 21
-3.75
  0
LINE
  8
0
 10
-44.0999
 20
-3.75
 11
-46
 21
-3.75
  0
LINE
  8
0
 10
-46
 20
-3.75
 11
-46
 21
-11.25
  0
LINE
  8
0
 10
-46
 20
-11.25
 11
-44.0999
 21
-11.25
  0
LINE
  8
0
 10
-44.0999
 20
-11.25
 11
-44.0999
 21
-18.75
  0
LINE
  8
0
 10
-44.0999
 20
-18.75
 11
-46
 21
-18.75
  0
LINE
  8
0
 10
-46
 20
-18.75
 11
-46
 21
-26.25
  0
LINE
  8
0
 10
-46
 20
-26.25
 11
-44.0999
 21
-26.25
  0
LINE
  8
0
 10
-44.0999
 20
-26.25
 11
-44.0999
 21
-33.75
  0
LINE
  8
0
 10
-44.0999
 20
-33.75
 11
-46
 21
-33.75
  0
LINE
  8
0
 10
-46
 20
-33.75
 11
-46
 21
-40.6
  0
LINE
  8
0
 10
-46
 20
-40.6
 11
-33.75
 21
-40.6
  0
LINE
  8
0
 10
-33.75
 20
-40.6
 11
-33.75
 21
-42.5
  0
LINE
  8
0
 10
-33.75
 20
-42.5
 11
-26.25
 21
-42.5
  0
LINE
  8
0
 10
-26.25
 20
-42.5
 11
-26.25
 21
-40.6
  0
LINE
  8
0
 10
39.0506
 20
34.6263
 11
39.0014
 21
34.63
  0
LINE
  8
0
 10
39.0014
 20
34.63
 11
38.9523
 21
34.6362
  0
LINE
  8
0
 10
38.9523
 20
34.6362
 11
38.9037
 21
34.6449
  0
LINE
  8
0
 10
38.9037
 20
34.6449
 11
38.8556
 21
34.6561
  0
LINE
  8
0
 10
38.8556
 20
34.6561
 11
38.8081
 21
34.6697
  0
LINE
  8
0
 10
38.8081
 20
34.6697
 11
38.7614
 21
34.6857
  0
LINE
  8
0
 10
38.7614
 20
34.6857
 11
38.7155
 21
34.704
  0
LINE
  8
0
 10
38.7155
 20
34.704
 11
38.6706
 21
34.7246
  0
LINE
  8
0
 10
38.6706
 20
34.7246
 11
38.6268
 21
34.7475
  0
LINE
  8
0
 10
38.6268
 20
34.7475
 11
38.5843
 21
34.7726
  0
LINE
  8
0
 10
38.5843
 20
34.7726
 11
38.543
 21
34.7997
  0
LINE
  8
0
 10
38.543
 20
34.7997
 11
38.5032
 21
34.829
  0
LINE
  8
0
 10
38.5032
 20
34.829
 11
38.4649
 21
34.8602
  0
LINE
  8
0
 10
38.4649
 20
34.8602
 11
38.4283
 21
34.8933
  0
LINE
  8
0
 10
38.4283
 20
34.8933
 11
38.3933
 21
34.9283
  0
LINE
  8
0
 10
38.3933
 20
34.9283
 11
38.3602
 21
34.9649
  0
LINE
  8
0
 10
38.3602
 20
34.9649
 11
38.329
 21
35.0032
  0
LINE
  8
0
 10
38.329
 20
35.0032
 11
38.2997
 21
35.043
  0
LINE
  8
0
 10
38.2997
 20
35.043
 11
38.2726
 21
35.0843
  0
LINE
  8
0
 10
38.2726
 20
35.0843
 11
38.2475
 21
35.1268
  0
LINE
  8
0
 10
38.2475
 20
35.1268
 11
38.2246
 21
35.1706
  0
LINE
  8
0
 10
38.2246
 20
35.1706
 11
38.204
 21
35.2155
  0
LINE
  8
0
 10
38.204
 20
35.2155
 11
38.1857
 21
35.2614
  0
LINE
  8
0
 10
38.1857
 20
35.2614
 11
38.1697
 21
35.3081
  0
LINE
  8
0
 10
38.1697
 20
35.3081
 11
38.1561
 21
35.3556
  0
LINE
  8
0
 10
38.1561
 20
35.3556
 11
38.1449
 21
35.4037
  0
LINE
  8
0
 10
38.1449
 20
35.4037
 11
38.1362
 21
35.4523
  0
LINE
  8
0
 10
38.1362
 20
35.4523
 11
38.13
 21
35.5014
  0
LINE
  8
0
 10
38.13
 20
35.5014
 11
38.1263
 21
35.5506
  0
LINE
  8
0
 10
38.1263
 20
35.5506
 11
38.125
 21
35.6
  0
LINE
  8
0
 10
38.125
 20
35.6
 11
38.1263
 21
35.6494
  0
LINE
  8
0
 10
38.1263
 20
35.6494
 11
38.13
 21
35.6986
  0
LINE
  8
0
 10
38.13
 20
35.6986
 11
38.1362
 21
35.7476
  0
LINE
  8
0
 10
38.1362
 20
35.7476
 11
38.1449
 21
35.7963
  0
LINE
  8
0
 10
38.1449
 20
35.7963
 11
38.1561
 21
35.8444
  0
LINE
  8
0
 10
38.1561
 20
35.8444
 11
38.1697
 21
35.8919
  0
LINE
  8
0
 10
38.1697
 20
35.8919
 11
38.1857
 21
35.9386
  0
LINE
  8
0
 10
38.1857
 20
35.9386
 11
38.204
 21
35.9845
  0
LINE
  8
0
 10
38.204
 20
35.9845
 11
38.2246
 21
36.0294
  0
LINE
  8
0
 10
38.2246
 20
36.0294
 11
38.2475
 21
36.0732
  0
LINE
  8
0
 10
38.2475
 20
36.0732
 11
38.2726
 21
36.1157
  0
LINE
  8
0
 10
38.2726
 20
36.1157
 11
38.2997
 21
36.157
  0
LINE
  8
0
 10
38.2997
 20
36.157
 11
38.329
 21
36.1968
  0
LINE
  8
0
 10
38.329
 20
36.1968
 11
38.3602
 21
36.2351
  0
LINE
  8
0
 10
38.3602
 20
36.2351
 11
38.3933
 21
36.2717
  0
LINE
  8
0
 10
38.3933
 20
36.2717
 11
38.4283
 21
36.3067
  0
LINE
  8
0
 10
38.4283
 20
36.3067
 11
38.4649
 21
36.3398
  0
LINE
  8
0
 10
38.4649
 20
36.3398
 11
38.5032
 21
36.371
  0
LINE
  8
0
 10
38.5032
 20
36.371
 11
38.543
 21
36.4002
  0
LINE
  8
0
 10
38.543
 20
36.4002
 11
38.5843
 21
36.4274
  0
LINE
  8
0
 10
38.5843
 20
36.4274
 11
38.6268
 21
36.4525
  0
LINE
  8
0
 10
38.6268
 20
36.4525
 11
38.6706
 21
36.4754
  0
LINE
  8
0
 10
38.6706
 20
36.4754
 11
38.7155
 21
36.496
  0
LINE
  8
0
 10
38.7155
 20
36.496
 11
38.7614
 21
36.5143
  0
LINE
  8
0
 10
38.7614
 20
36.5143
 11
38.8081
 21
36.5303
  0
LINE
  8
0
 10
38.8081
 20
36.5303
 11
38.8556
 21
36.5439
  0
LINE
  8
0
 10
38.8556
 20
36.5439
 11
38.9037
 21
36.555
  0
LINE
  8
0
 10
38.9037
 20
36.555
 11
38.9523
 21
36.5638
  0
LINE
  8
0
 10
38.9523
 20
36.5638
 11
39.0014
 21
36.57
  0
LINE
  8
0
 10
39.0014
 20
36.57
 11
39.0506
 21
36.5737
  0
LINE
  8
0
 10
39.0506
 20
36.5737
 11
39.1
 21
36.575
  0
LINE
  8
0
 10
39.1
 20
36.575
 11
39.1494
 21
36.5737
  0
LINE
  8
0
 10
39.1494
 20
36.5737
 11
39.1986
 21
36.57
  0
LINE
  8
0
 10
39.1986
 20
36.57
 11
39.2476
 21
36.5638
  0
LINE
  8
0
 10
39.2476
 20
36.5638
 11
39.2963
 21
36.555
  0
LINE
  8
0
 10
39.2963
 20
36.555
 11
39.3444
 21
36.5439
  0
LINE
  8
0
 10
39.3444
 20
36.5439
 11
39.3919
 21
36.5303
  0
LINE
  8
0
 10
39.3919
 20
36.5303
 11
39.4386
 21
36.5143
  0
LINE
  8
0
 10
39.4386
 20
36.5143
 11
39.4845
 21
36.496
  0
LINE
  8
0
 10
39.4845
 20
36.496
 11
39.5294
 21
36.4754
  0
LINE
  8
0
 10
39.5294
 20
36.4754
 11
39.5732
 21
36.4525
  0
LINE
  8
0
 10
39.5732
 20
36.4525
 11
39.6157
 21
36.4274
  0
LINE
  8
0
 10
39.6157
 20
36.4274
 11
39.657
 21
36.4002
  0
LINE
  8
0
 10
39.657
 20
36.4002
 11
39.6968
 21
36.371
  0
LINE
  8
0
 10
39.6968
 20
36.371
 11
39.7351
 21
36.3398
  0
LINE
  8
0
 10
39.7351
 20
36.3398
 11
39.7717
 21
36.3067
  0
LINE
  8
0
 10
39.7717
 20
36.3067
 11
39.8067
 21
36.2717
  0
LINE
  8
0
 10
39.8067
 20
36.2717
 11
39.8398
 21
36.2351
  0
LINE
  8
0
 10
39.8398
 20
36.2351
 11
39.871
 21
36.1968
  0
LINE
  8
0
 10
39.871
 20
36.1968
 11
39.9002
 21
36.157
  0
LINE
  8
0
 10
39.9002
 20
36.157
 11
39.9274
 21
36.1157
  0
LINE
  8
0
 10
39.9274
 20
36.1157
 11
39.9525
 21
36.0732
  0
LINE
  8
0
 10
39.9525
 20
36.0732
 11
39.9754
 21
36.0294
  0
LINE
  8
0
 10
39.9754
 20
36.0294
 11
39.996
 21
35.9845
  0
LINE
  8
0
 10
39.996
 20
35.9845
 11
40.0143
 21
35.9386
  0
LINE
  8
0
 10
40.0143
 20
35.9386
 11
40.0303
 21
35.8919
  0
LINE
  8
0
 10
40.0303
 20
35.8919
 11
40.0439
 21
35.8444
  0
LINE
  8
0
 10
40.0439
 20
35.8444
 11
40.055
 21
35.7963
  0
LINE
  8
0
 10
40.055
 20
35.7963
 11
40.0638
 21
35.7476
  0
LINE
  8
0
 10
40.0638
 20
35.7476
 11
40.07
 21
35.6986
  0
LINE
  8
0
 10
40.07
 20
35.6986
 11
40.0737
 21
35.6494
  0
LINE
  8
0
 10
40.0737
 20
35.6494
 11
40.075
 21
35.6
  0
LINE
  8
0
 10
40.075
 20
35.6
 11
40.0737
 21
35.5506
  0
LINE
  8
0
 10
40.0737
 20
35.5506
 11
40.07
 21
35.5014
  0
LINE
  8
0
 10
40.07
 20
35.5014
 11
40.0638
 21
35.4523
  0
LINE
  8
0
 10
40.0638
 20
35.4523
 11
40.055
 21
35.4037
  0
LINE
  8
0
 10
40.055
 20
35.4037
 11
40.0439
 21
35.3556
  0
LINE
  8
0
 10
40.0439
 20
35.3556
 11
40.0303
 21
35.3081
  0
LINE
  8
0
 10
40.0303
 20
35.3081
 11
40.0143
 21
35.2614
  0
LINE
  8
0
 10
40.0143
 20
35.2614
 11
39.996
 21
35.2155
  0
LINE
  8
0
 10
39.996
 20
35.2155
 11
39.9754
 21
35.1706
  0
LINE
  8
0
 10
39.9754
 20
35.1706
 11
39.9525
 21
35.1268
  0
LINE
  8
0
 10
39.9525
 20
35.1268
 11
39.9274
 21
35.0843
  0
LINE
  8
0
 10
39.9274
 20
35.0843
 11
39.9002
 21
35.043
  0
LINE
  8
0
 10
39.9002
 20
35.043
 11
39.871
 21
35.0032
  0
LINE
  8
0
 10
39.871
 20
35.0032
 11
39.8398
 21
34.9649
  0
LINE
  8
0
 10
39.8398
 20
34.9649
 11
39.8067
 21
34.9283
  0
LINE
  8
0
 10
39.8067
 20
34.9283
 11
39.7717
 21
34.8933
  0
LINE
  8
0
 10
39.7717
 20
34.8933
 11
39.7351
 21
34.8602
  0
LINE
  8
0
 10
39.7351
 20
34.8602
 11
39.6968
 21
34.829
  0
LINE
  8
0
 10
39.6968
 20
34.829
 11
39.657
 21
34.7997
  0
LINE
  8
0
 10
39.657
 20
34.7997
 11
39.6157
 21
34.7726
  0
LINE
  8
0
 10
39.6157
 20
34.7726
 11
39.5732
 21
34.7475
  0
LINE
  8
0
 10
39.5732
 20
34.7475
 11
39.5294
 21
34.7246
  0
LINE
  8
0
 10
39.5294
 20
34.7246
 11
39.4845
 21
34.704
  0
LINE
  8
0
 10
39.4845
 20
34.704
 11
39.4386
 21
34.6857
  0
LINE
  8
0
 10
39.4386
 20
34.6857
 11
39.3919
 21
34.6697
  0
LINE
  8
0
 10
39.3919
 20
34.6697
 11
39.3444
 21
34.6561
  0
LINE
  8
0
 10
39.3444
 20
34.6561
 11
39.2963
 21
34.6449
  0
LINE
  8
0
 10
39.2963
 20
34.6449
 11
39.2476
 21
34.6362
  0
LINE
  8
0
 10
39.2476
 20
34.6362
 11
39.1986
 21
34.63
  0
LINE
  8
0
 10
39.1986
 20
34.63
 11
39.1494
 21
34.6263
  0
LINE
  8
0
 10
39.1494
 20
34.6263
 11
39.1
 21
34.625
  0
LINE
  8
0
 10
39.1
 20
34.625
 11
39.0506
 21
34.6263
  0
LINE
  8
0
 10
-39.1494
 20
34.6263
 11
-39.1986
 21
34.63
  0
LINE
  8
0
 10
-39.1986
 20
34.63
 11
-39.2476
 21
34.6362
  0
LINE
  8
0
 10
-39.2476
 20
34.6362
 11
-39.2963
 21
34.6449
  0
LINE
  8
0
 10
-39.2963
 20
34.6449
 11
-39.3444
 21
34.6561
  0
LINE
  8
0
 10
-39.3444
 20
34.6561
 11
-39.3919
 21
34.6697
  0
LINE
  8
0
 10
-39.3919
 20
34.6697
 11
-39.4386
 21
34.6857
  0
LINE
  8
0
 10
-39.4386
 20
34.6857
 11
-39.4845
 21
34.704
  0
LINE
  8
0
 10
-39.4845
 20
34.704
 11
-39.5294
 21
34.7246
  0
LINE
  8
0
 10
-39.5294
 20
34.7246
 11
-39.5732
 21
34.7475
  0
LINE
  8
0
 10
-39.5732
 20
34.7475
 11
-39.6157
 21
34.7726
  0
LINE
  8
0
 10
-39.6157
 20
34.7726
 11
-39.657
 21
34.7997
  0
LINE
  8
0
 10
-39.657
 20
34.7997
 11
-39.6968
 21
34.829
  0
LINE
  8
0
 10
-39.6968
 20
34.829
 11
-39.7351
 21
34.8602
  0
LINE
  8
0
 10
-39.7351
 20
34.8602
 11
-39.7717
 21
34.8933
  0
LINE
  8
0
 10
-39.7717
 20
34.8933
 11
-39.8067
 21
34.9283
  0
LINE
  8
0
 10
-39.8067
 20
34.9283
 11
-39.8398
 21
34.9649
  0
LINE
  8
0
 10
-39.8398
 20
34.9649
 11
-39.871
 21
35.0032
  0
LINE
  8
0
 10
-39.871
 20
35.0032
 11
-39.9002
 21
35.043
  0
LINE
  8
0
 10
-39.9002
 20
35.043
 11
-39.9274
 21
35.0843
  0
LINE
  8
0
 10
-39.9274
 20
35.0843
 11
-39.9525
 21
35.1268
  0
LINE
  8
0
 10
-39.9525
 20
35.1268
 11
-39.9754
 21
35.1706
  0
LINE
  8
0
 10
-39.9754
 20
35.1706
 11
-39.996
 21
35.2155
  0
LINE
  8
0
 10
-39.996
 20
35.2155
 11
-40.0143
 21
35.2614
  0
LINE
  8
0
 10
-40.0143
 20
35.2614
 11
-40.0303
 21
35.3081
  0
LINE
  8
0
 10
-40.0303
 20
35.3081
 11
-40.0439
 21
35.3556
  0
LINE
  8
0
 10
-40.0439
 20
35.3556
 11
-40.055
 21
35.4037
  0
LINE
  8
0
 10
-40.055
 20
35.4037
 11
-40.0638
 21
35.4523
  0
LINE
  8
0
 10
-40.0638
 20
35.4523
 11
-40.07
 21
35.5014
  0
LINE
  8
0
 10
-40.07
 20
35.5014
 11
-40.0737
 21
35.5506
  0
LINE
  8
0
 10
-40.0737
 20
35.5506
 11
-40.075
 21
35.6
  0
LINE
  8
0
 10
-40.075
 20
35.6
 11
-40.0737
 21
35.6494
  0
LINE
  8
0
 10
-40.0737
 20
35.6494
 11
-40.07
 21
35.6986
  0
LINE
  8
0
 10
-40.07
 20
35.6986
 11
-40.0638
 21
35.7476
  0
LINE
  8
0
 10
-40.0638
 20
35.7476
 11
-40.055
 21
35.7963
  0
LINE
  8
0
 10
-40.055
 20
35.7963
 11
-40.0439
 21
35.8444
  0
LINE
  8
0
 10
-40.0439
 20
35.8444
 11
-40.0303
 21
35.8919
  0
LINE
  8
0
 10
-40.0303
 20
35.8919
 11
-40.0143
 21
35.9386
  0
LINE
  8
0
 10
-40.0143
 20
35.9386
 11
-39.996
 21
35.9845
  0
LINE
  8
0
 10
-39.996
 20
35.9845
 11
-39.9754
 21
36.0294
  0
LINE
  8
0
 10
-39.9754
 20
36.0294
 11
-39.9525
 21
36.0732
  0
LINE
  8
0
 10
-39.9525
 20
36.0732
 11
-39.9274
 21
36.1157
  0
LINE
  8
0
 10
-39.9274
 20
36.1157
 11
-39.9002
 21
36.157
  0
LINE
  8
0
 10
-39.9002
 20
36.157
 11
-39.871
 21
36.1968
  0
LINE
  8
0
 10
-39.871
 20
36.1968
 11
-39.8398
 21
36.2351
  0
LINE
  8
0
 10
-39.8398
 20
36.2351
 11
-39.8067
 21
36.2717
  0
LINE
  8
0
 10
-39.8067
 20
36.2717
 11
-39.7717
 21
36.3067
  0
LINE
  8
0
 10
-39.7717
 20
36.3067
 11
-39.7351
 21
36.3398
  0
LINE
  8
0
 10
-39.7351
 20
36.3398
 11
-39.6968
 21
36.371
  0
LINE
  8
0
 10
-39.6968
 20
36.371
 11
-39.657
 21
36.4002
  0
LINE
  8
0
 10
-39.657
 20
36.4002
 11
-39.6157
 21
36.4274
  0
LINE
  8
0
 10
-39.6157
 20
36.4274
 11
-39.5732
 21
36.4525
  0
LINE
  8
0
 10
-39.5732
 20
36.4525
 11
-39.5294
 21
36.4754
  0
LINE
  8
0
 10
-39.5294
 20
36.4754
 11
-39.4845
 21
36.496
  0
LINE
  8
0
 10
-39.4845
 20
36.496
 11
-39.4386
 21
36.5143
  0
LINE
  8
0
 10
-39.4386
 20
36.5143
 11
-39.3919
 21
36.5303
  0
LINE
  8
0
 10
-39.3919
 20
36.5303
 11
-39.3444
 21
36.5439
  0
LINE
  8
0
 10
-39.3444
 20
36.5439
 11
-39.2963
 21
36.555
  0
LINE
  8
0
 10
-39.2963
 20
36.555
 11
-39.2476
 21
36.5638
  0
LINE
  8
0
 10
-39.2476
 20
36.5638
 11
-39.1986
 21
36.57
  0
LINE
  8
0
 10
-39.1986
 20
36.57
 11
-39.1494
 21
36.5737
  0
LINE
  8
0
 10
-39.1494
 20
36.5737
 11
-39.1
 21
36.575
  0
LINE
  8
0
 10
-39.1
 20
36.575
 11
-39.0506
 21
36.5737
  0
LINE
  8
0
 10
-39.0506
 20
36.5737
 11
-39.0014
 21
36.57
  0
LINE
  8
0
 10
-39.0014
 20
36.57
 11
-38.9523
 21
36.5638
  0
LINE
  8
0
 10
-38.9523
 20
36.5638
 11
-38.9037
 21
36.555
  0
LINE
  8
0
 10
-38.9037
 20
36.555
 11
-38.8556
 21
36.5439
  0
LINE
  8
0
 10
-38.8556
 20
36.5439
 11
-38.8081
 21
36.5303
  0
LINE
  8
0
 10
-38.8081
 20
36.5303
 11
-38.7614
 21
36.5143
  0
LINE
  8
0
 10
-38.7614
 20
36.5143
 11
-38.7155
 21
36.496
  0
LINE
  8
0
 10
-38.7155
 20
36.496
 11
-38.6706
 21
36.4754
  0
LINE
  8
0
 10
-38.6706
 20
36.4754
 11
-38.6268
 21
36.4525
  0
LINE
  8
0
 10
-38.6268
 20
36.4525
 11
-38.5843
 21
36.4274
  0
LINE
  8
0
 10
-38.5843
 20
36.4274
 11
-38.543
 21
36.4002
  0
LINE
  8
0
 10
-38.543
 20
36.4002
 11
-38.5032
 21
36.371
  0
LINE
  8
0
 10
-38.5032
 20
36.371
 11
-38.4649
 21
36.3398
  0
LINE
  8
0
 10
-38.4649
 20
36.3398
 11
-38.4283
 21
36.3067
  0
LINE
  8
0
 10
-38.4283
 20
36.3067
 11
-38.3933
 21
36.2717
  0
LINE
  8
0
 10
-38.3933
 20
36.2717
 11
-38.3602
 21
36.2351
  0
LINE
  8
0
 10
-38.3602
 20
36.2351
 11
-38.329
 21
36.1968
  0
LINE
  8
0
 10
-38.329
 20
36.1968
 11
-38.2997
 21
36.157
  0
LINE
  8
0
 10
-38.2997
 20
36.157
 11
-38.2726
 21
36.1157
  0
LINE
  8
0
 10
-38.2726
 20
36.1157
 11
-38.2475
 21
36.0732
  0
LINE
  8
0
 10
-38.2475
 20
36.0732
 11
-38.2246
 21
36.0294
  0
LINE
  8
0
 10
-38.2246
 20
36.0294
 11
-38.204
 21
35.9845
  0
LINE
  8
0
 10
-38.204
 20
35.9845
 11
-38.1857
 21
35.9386
  0
LINE
  8
0
 10
-38.1857
 20
35.9386
 11
-38.1697
 21
35.8919
  0
LINE
  8
0
 10
-38.1697
 20
35.8919
 11
-38.1561
 21
35.8444
  0
LINE
  8
0
 10
-38.1561
 20
35.8444
 11
-38.1449
 21
35.7963
  0
LINE
  8
0
 10
-38.1449
 20
35.7963
 11
-38.1362
 21
35.7476
  0
LINE
  8
0
 10
-38.1362
 20
35.7476
 11
-38.13
 21
35.6986
  0
LINE
  8
0
 10
-38.13
 20
35.6986
 11
-38.1263
 21
35.6494
  0
LINE
  8
0
 10
-38.1263
 20
35.6494
 11
-38.125
 21
35.6
  0
LINE
  8
0
 10
-38.125
 20
35.6
 11
-38.1263
 21
35.5506
  0
LINE
  8
0
 10
-38.1263
 20
35.5506
 11
-38.13
 21
35.5014
  0
LINE
  8
0
 10
-38.13
 20
35.5014
 11
-38.1362
 21
35.4523
  0
LINE
  8
0
 10
-38.1362
 20
35.4523
 11
-38.1449
 21
35.4037
  0
LINE
  8
0
 10
-38.1449
 20
35.4037
 11
-38.1561
 21
35.3556
  0
LINE
  8
0
 10
-38.1561
 20
35.3556
 11
-38.1697
 21
35.3081
  0
LINE
  8
0
 10
-38.1697
 20
35.3081
 11
-38.1857
 21
35.2614
  0
LINE
  8
0
 10
-38.1857
 20
35.2614
 11
-38.204
 21
35.2155
  0
LINE
  8
0
 10
-38.204
 20
35.2155
 11
-38.2246
 21
35.1706
  0
LINE
  8
0
 10
-38.2246
 20
35.1706
 11
-38.2475
 21
35.1268
  0
LINE
  8
0
 10
-38.2475
 20
35.1268
 11
-38.2726
 21
35.0843
  0
LINE
  8
0
 10
-38.2726
 20
35.0843
 11
-38.2997
 21
35.043
  0
LINE
  8
0
 10
-38.2997
 20
35.043
 11
-38.329
 21
35.0032
  0
LINE
  8
0
 10
-38.329
 20
35.0032
 11
-38.3602
 21
34.9649
  0
LINE
  8
0
 10
-38.3602
 20
34.9649
 11
-38.3933
 21
34.9283
  0
LINE
  8
0
 10
-38.3933
 20
34.9283
 11
-38.4283
 21
34.8933
  0
LINE
  8
0
 10
-38.4283
 20
34.8933
 11
-38.4649
 21
34.8602
  0
LINE
  8
0
 10
-38.4649
 20
34.8602
 11
-38.5032
 21
34.829
  0
LINE
  8
0
 10
-38.5032
 20
34.829
 11
-38.543
 21
34.7997
  0
LINE
  8
0
 10
-38.543
 20
34.7997
 11
-38.5843
 21
34.7726
  0
LINE
  8
0
 10
-38.5843
 20
34.7726
 11
-38.6268
 21
34.7475
  0
LINE
  8
0
 10
-38.6268
 20
34.7475
 11
-38.6706
 21
34.7246
  0
LINE
  8
0
 10
-38.6706
 20
34.7246
 11
-38.7155
 21
34.704
  0
LINE
  8
0
 10
-38.7155
 20
34.704
 11
-38.7614
 21
34.6857
  0
LINE
  8
0
 10
-38.7614
 20
34.6857
 11
-38.8081
 21
34.6697
  0
LINE
  8
0
 10
-38.8081
 20
34.6697
 11
-38.8556
 21
34.6561
  0
LINE
  8
0
 10
-38.8556
 20
34.6561
 11
-38.9037
 21
34.6449
  0
LINE
  8
0
 10
-38.9037
 20
34.6449
 11
-38.9523
 21
34.6362
  0
LINE
  8
0
 10
-38.9523
 20
34.6362
 11
-39.0014
 21
34.63
  0
LINE
  8
0
 10
-39.0014
 20
34.63
 11
-39.0506
 21
34.6263
  0
LINE
  8
0
 10
-39.0506
 20
34.6263
 11
-39.1
 21
34.625
  0
LINE
  8
0
 10
-39.1
 20
34.625
 11
-39.1494
 21
34.6263
  0
LINE
  8
0
 10
39.0506
 20
-36.5737
 11
39.0014
 21
-36.57
  0
LINE
  8
0
 10
39.0014
 20
-36.57
 11
38.9523
 21
-36.5638
  0
LINE
  8
0
 10
38.9523
 20
-36.5638
 11
38.9037
 21
-36.555
  0
LINE
  8
0
 10
38.9037
 20
-36.555
 11
38.8556
 21
-36.5439
  0
LINE
  8
0
 10
38.8556
 20
-36.5439
 11
38.8081
 21
-36.5303
  0
LINE
  8
0
 10
38.8081
 20
-36.5303
 11
38.7614
 21
-36.5143
  0
LINE
  8
0
 10
38.7614
 20
-36.5143
 11
38.7155
 21
-36.496
  0
LINE
  8
0
 10
38.7155
 20
-36.496
 11
38.6706
 21
-36.4754
  0
LINE
  8
0
 10
38.6706
 20
-36.4754
 11
38.6268
 21
-36.4525
  0
LINE
  8
0
 10
38.6268
 20
-36.4525
 11
38.5843
 21
-36.4274
  0
LINE
  8
0
 10
38.5843
 20
-36.4274
 11
38.543
 21
-36.4002
  0
LINE
  8
0
 10
38.543
 20
-36.4002
 11
38.5032
 21
-36.371
  0
LINE
  8
0
 10
38.5032
 20
-36.371
 11
38.4649
 21
-36.3398
  0
LINE
  8
0
 10
38.4649
 20
-36.3398
 11
38.4283
 21
-36.3067
  0
LINE
  8
0
 10
38.4283
 20
-36.3067
 11
38.3933
 21
-36.2717
  0
LINE
  8
0
 10
38.3933
 20
-36.2717
 11
38.3602
 21
-36.2351
  0
LINE
  8
0
 10
38.3602
 20
-36.2351
 11
38.329
 21
-36.1968
  0
LINE
  8
0
 10
38.329
 20
-36.1968
 11
38.2997
 21
-36.157
  0
LINE
  8
0
 10
38.2997
 20
-36.157
 11
38.2726
 21
-36.1157
  0
LINE
  8
0
 10
38.2726
 20
-36.1157
 11
38.2475
 21
-36.0732
  0
LINE
  8
0
 10
38.2475
 20
-36.0732
 11
38.2246
 21
-36.0294
  0
LINE
  8
0
 10
38.2246
 20
-36.0294
 11
38.204
 21
-35.9845
  0
LINE
  8
0
 10
38.204
 20
-35.9845
 11
38.1857
 21
-35.9386
  0
LINE
  8
0
 10
38.1857
 20
-35.9386
 11
38.1697
 21
-35.8919
  0
LINE
  8
0
 10
38.1697
 20
-35.8919
 11
38.1561
 21
-35.8444
  0
LINE
  8
0
 10
38.1561
 20
-35.8444
 11
38.1449
 21
-35.7963
  0
LINE
  8
0
 10
38.1449
 20
-35.7963
 11
38.1362
 21
-35.7476
  0
LINE
  8
0
 10
38.1362
 20
-35.7476
 11
38.13
 21
-35.6986
  0
LINE
  8
0
 10
38.13
 20
-35.6986
 11
38.1263
 21
-35.6494
  0
LINE
  8
0
 10
38.1263
 20
-35.6494
 11
38.125
 21
-35.6
  0
LINE
  8
0
 10
38.125
 20
-35.6
 11
38.1263
 21
-35.5506
  0
LINE
  8
0
 10
38.1263
 20
-35.5506
 11
38.13
 21
-35.5014
  0
LINE
  8
0
 10
38.13
 20
-35.5014
 11
38.1362
 21
-35.4523
  0
LINE
  8
0
 10
38.1362
 20
-35.4523
 11
38.1449
 21
-35.4037
  0
LINE
  8
0
 10
38.1449
 20
-35.4037
 11
38.1561
 21
-35.3556
  0
LINE
  8
0
 10
38.1561
 20
-35.3556
 11
38.1697
 21
-35.3081
  0
LINE
  8
0
 10
38.1697
 20
-35.3081
 11
38.1857
 21
-35.2614
  0
LINE
  8
0
 10
38.1857
 20
-35.2614
 11
38.204
 21
-35.2155
  0
LINE
  8
0
 10
38.204
 20
-35.2155
 11
38.2246
 21
-35.1706
  0
LINE
  8
0
 10
38.2246
 20
-35.1706
 11
38.2475
 21
-35.1268
  0
LINE
  8
0
 10
38.2475
 20
-35.1268
 11
38.2726
 21
-35.0843
  0
LINE
  8
0
 10
38.2726
 20
-35.0843
 11
38.2997
 21
-35.043
  0
LINE
  8
0
 10
38.2997
 20
-35.043
 11
38.329
 21
-35.0032
  0
LINE
  8
0
 10
38.329
 20
-35.0032
 11
38.3602
 21
-34.9649
  0
LINE
  8
0
 10
38.3602
 20
-34.9649
 11
38.3933
 21
-34.9283
  0
LINE
  8
0
 10
38.3933
 20
-34.9283
 11
38.4283
 21
-34.8933
  0
LINE
  8
0
 10
38.4283
 20
-34.8933
 11
38.4649
 21
-34.8602
  0
LINE
  8
0
 10
38.4649
 20
-34.8602
 11
38.5032
 21
-34.829
  0
LINE
  8
0
 10
38.5032
 20
-34.829
 11
38.543
 21
-34.7997
  0
LINE
  8
0
 10
38.543
 20
-34.7997
 11
38.5843
 21
-34.7726
  0
LINE
  8
0
 10
38.5843
 20
-34.7726
 11
38.6268
 21
-34.7475
  0
LINE
  8
0
 10
38.6268
 20
-34.7475
 11
38.6706
 21
-34.7246
  0
LINE
  8
0
 10
38.6706
 20
-34.7246
 11
38.7155
 21
-34.704
  0
LINE
  8
0
 10
38.7155
 20
-34.704
 11
38.7614
 21
-34.6857
  0
LINE
  8
0
 10
38.7614
 20
-34.6857
 11
38.8081
 21
-34.6697
  0
LINE
  8
0
 10
38.8081
 20
-34.6697
 11
38.8556
 21
-34.6561
  0
LINE
  8
0
 10
38.8556
 20
-34.6561
 11
38.9037
 21
-34.6449
  0
LINE
  8
0
 10
38.9037
 20
-34.6449
 11
38.9523
 21
-34.6362
  0
LINE
  8
0
 10
38.9523
 20
-34.6362
 11
39.0014
 21
-34.63
  0
LINE
  8
0
 10
39.0014
 20
-34.63
 11
39.0506
 21
-34.6263
  0
LINE
  8
0
 10
39.0506
 20
-34.6263
 11
39.1
 21
-34.625
  0
LINE
  8
0
 10
39.1
 20
-34.625
 11
39.1494
 21
-34.6263
  0
LINE
  8
0
 10
39.1494
 20
-34.6263
 11
39.1986
 21
-34.63
  0
LINE
  8
0
 10
39.1986
 20
-34.63
 11
39.2476
 21
-34.6362
  0
LINE
  8
0
 10
39.2476
 20
-34.6362
 11
39.2963
 21
-34.6449
  0
LINE
  8
0
 10
39.2963
 20
-34.6449
 11
39.3444
 21
-34.6561
  0
LINE
  8
0
 10
39.3444
 20
-34.6561
 11
39.3919
 21
-34.6697
  0
LINE
  8
0
 10
39.3919
 20
-34.6697
 11
39.4386
 21
-34.6857
  0
LINE
  8
0
 10
39.4386
 20
-34.6857
 11
39.4845
 21
-34.704
  0
LINE
  8
0
 10
39.4845
 20
-34.704
 11
39.5294
 21
-34.7246
  0
LINE
  8
0
 10
39.5294
 20
-34.7246
 11
39.5732
 21
-34.7475
  0
LINE
  8
0
 10
39.5732
 20
-34.7475
 11
39.6157
 21
-34.7726
  0
LINE
  8
0
 10
39.6157
 20
-34.7726
 11
39.657
 21
-34.7997
  0
LINE
  8
0
 10
39.657
 20
-34.7997
 11
39.6968
 21
-34.829
  0
LINE
  8
0
 10
39.6968
 20
-34.829
 11
39.7351
 21
-34.8602
  0
LINE
  8
0
 10
39.7351
 20
-34.8602
 11
39.7717
 21
-34.8933
  0
LINE
  8
0
 10
39.7717
 20
-34.8933
 11
39.8067
 21
-34.9283
  0
LINE
  8
0
 10
39.8067
 20
-34.9283
 11
39.8398
 21
-34.9649
  0
LINE
  8
0
 10
39.8398
 20
-34.9649
 11
39.871
 21
-35.0032
  0
LINE
  8
0
 10
39.871
 20
-35.0032
 11
39.9002
 21
-35.043
  0
LINE
  8
0
 10
39.9002
 20
-35.043
 11
39.9274
 21
-35.0843
  0
LINE
  8
0
 10
39.9274
 20
-35.0843
 11
39.9525
 21
-35.1268
  0
LINE
  8
0
 10
39.9525
 20
-35.1268
 11
39.9754
 21
-35.1706
  0
LINE
  8
0
 10
39.9754
 20
-35.1706
 11
39.996
 21
-35.2155
  0
LINE
  8
0
 10
39.996
 20
-35.2155
 11
40.0143
 21
-35.2614
  0
LINE
  8
0
 10
40.0143
 20
-35.2614
 11
40.0303
 21
-35.3081
  0
LINE
  8
0
 10
40.0303
 20
-35.3081
 11
40.0439
 21
-35.3556
  0
LINE
  8
0
 10
40.0439
 20
-35.3556
 11
40.055
 21
-35.4037
  0
LINE
  8
0
 10
40.055
 20
-35.4037
 11
40.0638
 21
-35.4523
  0
LINE
  8
0
 10
40.0638
 20
-35.4523
 11
40.07
 21
-35.5014
  0
LINE
  8
0
 10
40.07
 20
-35.5014
 11
40.0737
 21
-35.5506
  0
LINE
  8
0
 10
40.0737
 20
-35.5506
 11
40.075
 21
-35.6
  0
LINE
  8
0
 10
40.075
 20
-35.6
 11
40.0737
 21
-35.6494
  0
LINE
  8
0
 10
40.0737
 20
-35.6494
 11
40.07
 21
-35.6986
  0
LINE
  8
0
 10
40.07
 20
-35.6986
 11
40.0638
 21
-35.7476
  0
LINE
  8
0
 10
40.0638
 20
-35.7476
 11
40.055
 21
-35.7963
  0
LINE
  8
0
 10
40.055
 20
-35.7963
 11
40.0439
 21
-35.8444
  0
LINE
  8
0
 10
40.0439
 20
-35.8444
 11
40.0303
 21
-35.8919
  0
LINE
  8
0
 10
40.0303
 20
-35.8919
 11
40.0143
 21
-35.9386
  0
LINE
  8
0
 10
40.0143
 20
-35.9386
 11
39.996
 21
-35.9845
  0
LINE
  8
0
 10
39.996
 20
-35.9845
 11
39.9754
 21
-36.0294
  0
LINE
  8
0
 10
39.9754
 20
-36.0294
 11
39.9525
 21
-36.0732
  0
LINE
  8
0
 10
39.9525
 20
-36.0732
 11
39.9274
 21
-36.1157
  0
LINE
  8
0
 10
39.9274
 20
-36.1157
 11
39.9002
 21
-36.157
  0
LINE
  8
0
 10
39.9002
 20
-36.157
 11
39.871
 21
-36.1968
  0
LINE
  8
0
 10
39.871
 20
-36.1968
 11
39.8398
 21
-36.2351
  0
LINE
  8
0
 10
39.8398
 20
-36.2351
 11
39.8067
 21
-36.2717
  0
LINE
  8
0
 10
39.8067
 20
-36.2717
 11
39.7717
 21
-36.3067
  0
LINE
  8
0
 10
39.7717
 20
-36.3067
 11
39.7351
 21
-36.3398
  0
LINE
  8
0
 10
39.7351
 20
-36.3398
 11
39.6968
 21
-36.371
  0
LINE
  8
0
 10
39.6968
 20
-36.371
 11
39.657
 21
-36.4002
  0
LINE
  8
0
 10
39.657
 20
-36.4002
 11
39.6157
 21
-36.4274
  0
LINE
  8
0
 10
39.6157
 20
-36.4274
 11
39.5732
 21
-36.4525
  0
LINE
  8
0
 10
39.5732
 20
-36.4525
 11
39.5294
 21
-36.4754
  0
LINE
  8
0
 10
39.5294
 20
-36.4754
 11
39.4845
 21
-36.496
  0
LINE
  8
0
 10
39.4845
 20
-36.496
 11
39.4386
 21
-36.5143
  0
LINE
  8
0
 10
39.4386
 20
-36.5143
 11
39.3919
 21
-36.5303
  0
LINE
  8
0
 10
39.3919
 20
-36.5303
 11
39.3444
 21
-36.5439
  0
LINE
  8
0
 10
39.3444
 20
-36.5439
 11
39.2963
 21
-36.555
  0
LINE
  8
0
 10
39.2963
 20
-36.555
 11
39.2476
 21
-36.5638
  0
LINE
  8
0
 10
39.2476
 20
-36.5638
 11
39.1986
 21
-36.57
  0
LINE
  8
0
 10
39.1986
 20
-36.57
 11
39.1494
 21
-36.5737
  0
LINE
  8
0
 10
39.1494
 20
-36.5737
 11
39.1
 21
-36.575
  0
LINE
  8
0
 10
39.1
 20
-36.575
 11
39.0506
 21
-36.5737
  0
LINE
  8
0
 10
-39.1494
 20
-36.5737
 11
-39.1986
 21
-36.57
  0
LINE
  8
0
 10
-39.1986
 20
-36.57
 11
-39.2476
 21
-36.5638
  0
LINE
  8
0
 10
-39.2476
 20
-36.5638
 11
-39.2963
 21
-36.555
  0
LINE
  8
0
 10
-39.2963
 20
-36.555
 11
-39.3444
 21
-36.5439
  0
LINE
  8
0
 10
-39.3444
 20
-36.5439
 11
-39.3919
 21
-36.5303
  0
LINE
  8
0
 10
-39.3919
 20
-36.5303
 11
-39.4386
 21
-36.5143
  0
LINE
  8
0
 10
-39.4386
 20
-36.5143
 11
-39.4845
 21
-36.496
  0
LINE
  8
0
 10
-39.4845
 20
-36.496
 11
-39.5294
 21
-36.4754
  0
LINE
  8
0
 10
-39.5294
 20
-36.4754
 11
-39.5732
 21
-36.4525
  0
LINE
  8
0
 10
-39.5732
 20
-36.4525
 11
-39.6157
 21
-36.4274
  0
LINE
  8
0
 10
-39.6157
 20
-36.4274
 11
-39.657
 21
-36.4002
  0
LINE
  8
0
 10
-39.657
 20
-36.4002
 11
-39.6968
 21
-36.371
  0
LINE
  8
0
 10
-39.6968
 20
-36.371
 11
-39.7351
 21
-36.3398
  0
LINE
  8
0
 10
-39.7351
 20
-36.3398
 11
-39.7717
 21
-36.3067
  0
LINE
  8
0
 10
-39.7717
 20
-36.3067
 11
-39.8067
 21
-36.2717
  0
LINE
  8
0
 10
-39.8067
 20
-36.2717
 11
-39.8398
 21
-36.2351
  0
LINE
  8
0
 10
-39.8398
 20
-36.2351
 11
-39.871
 21
-36.1968
  0
LINE
  8
0
 10
-39.871
 20
-36.1968
 11
-39.9002
 21
-36.157
  0
LINE
  8
0
 10
-39.9002
 20
-36.157
 11
-39.9274
 21
-36.1157
  0
LINE
  8
0
 10
-39.9274
 20
-36.1157
 11
-39.9525
 21
-36.0732
  0
LINE
  8
0
 10
-39.9525
 20
-36.0732
 11
-39.9754
 21
-36.0294
  0
LINE
  8
0
 10
-39.9754
 20
-36.0294
 11
-39.996
 21
-35.9845
  0
LINE
  8
0
 10
-39.996
 20
-35.9845
 11
-40.0143
 21
-35.9386
  0
LINE
  8
0
 10
-40.0143
 20
-35.9386
 11
-40.0303
 21
-35.8919
  0
LINE
  8
0
 10
-40.0303
 20
-35.8919
 11
-40.0439
 21
-35.8444
  0
LINE
  8
0
 10
-40.0439
 20
-35.8444
 11
-40.055
 21
-35.7963
  0
LINE
  8
0
 10
-40.055
 20
-35.7963
 11
-40.0638
 21
-35.7476
  0
LINE
  8
0
 10
-40.0638
 20
-35.7476
 11
-40.07
 21
-35.6986
  0
LINE
  8
0
 10
-40.07
 20
-35.6986
 11
-40.0737
 21
-35.6494
  0
LINE
  8
0
 10
-40.0737
 20
-35.6494
 11
-40.075
 21
-35.6
  0
LINE
  8
0
 10
-40.075
 20
-35.6
 11
-40.0737
 21
-35.5506
  0
LINE
  8
0
 10
-40.0737
 20
-35.5506
 11
-40.07
 21
-35.5014
  0
LINE
  8
0
 10
-40.07
 20
-35.5014
 11
-40.0638
 21
-35.4523
  0
LINE
  8
0
 10
-40.0638
 20
-35.4523
 11
-40.055
 21
-35.4037
  0
LINE
  8
0
 10
-40.055
 20
-35.4037
 11
-40.0439
 21
-35.3556
  0
LINE
  8
0
 10
-40.0439
 20
-35.3556
 11
-40.0303
 21
-35.3081
  0
LINE
  8
0
 10
-40.0303
 20
-35.3081
 11
-40.0143
 21
-35.2614
  0
LINE
  8
0
 10
-40.0143
 20
-35.2614
 11
-39.996
 21
-35.2155
  0
LINE
  8
0
 10
-39.996
 20
-35.2155
 11
-39.9754
 21
-35.1706
  0
LINE
  8
0
 10
-39.9754
 20
-35.1706
 11
-39.9525
 21
-35.1268
  0
LINE
  8
0
 10
-39.9525
 20
-35.1268
 11
-39.9274
 21
-35.0843
  0
LINE
  8
0
 10
-39.9274
 20
-35.0843
 11
-39.9002
 21
-35.043
  0
LINE
  8
0
 10
-39.9002
 20
-35.043
 11
-39.871
 21
-35.0032
  0
LINE
  8
0
 10
-39.871
 20
-35.0032
 11
-39.8398
 21
-34.9649
  0
LINE
  8
0
 10
-39.8398
 20
-34.9649
 11
-39.8067
 21
-34.9283
  0
LINE
  8
0
 10
-39.8067
 20
-34.9283
 11
-39.7717
 21
-34.8933
  0
LINE
  8
0
 10
-39.7717
 20
-34.8933
 11
-39.7351
 21
-34.8602
  0
LINE
  8
0
 10
-39.7351
 20
-34.8602
 11
-39.6968
 21
-34.829
  0
LINE
  8
0
 10
-39.6968
 20
-34.829
 11
-39.657
 21
-34.7997
  0
LINE
  8
0
 10
-39.657
 20
-34.7997
 11
-39.6157
 21
-34.7726
  0
LINE
  8
0
 10
-39.6157
 20
-34.7726
 11
-39.5732
 21
-34.7475
  0
LINE
  8
0
 10
-39.5732
 20
-34.7475
 11
-39.5294
 21
-34.7246
  0
LINE
  8
0
 10
-39.5294
 20
-34.7246
 11
-39.4845
 21
-34.704
  0
LINE
  8
0
 10
-39.4845
 20
-34.704
 11
-39.4386
 21
-34.6857
  0
LINE
  8
0
 10
-39.4386
 20
-34.6857
 11
-39.3919
 21
-34.6697
  0
LINE
  8
0
 10
-39.3919
 20
-34.6697
 11
-39.3444
 21
-34.6561
  0
LINE
  8
0
 10
-39.3444
 20
-34.6561
 11
-39.2963
 21
-34.6449
  0
LINE
  8
0
 10
-39.2963
 20
-34.6449
 11
-39.2476
 21
-34.6362
  0
LINE
  8
0
 10
-39.2476
 20
-34.6362
 11
-39.1986
 21
-34.63
  0
LINE
  8
0
 10
-39.1986
 20
-34.63
 11
-39.1494
 21
-34.6263
  0
LINE
  8
0
 10
-39.1494
 20
-34.6263
 11
-39.1
 21
-34.625
  0
LINE
  8
0
 10
-39.1
 20
-34.625
 11
-39.0506
 21
-34.6263
  0
LINE
  8
0
 10
-39.0506
 20
-34.6263
 11
-39.0014
 21
-34.63
  0
LINE
  8
0
 10
-39.0014
 20
-34.63
 11
-38.9523
 21
-34.6362
  0
LINE
  8
0
 10
-38.9523
 20
-34.6362
 11
-38.9037
 21
-34.6449
  0
LINE
  8
0
 10
-38.9037
 20
-34.6449
 11
-38.8556
 21
-34.6561
  0
LINE
  8
0
 10
-38.8556
 20
-34.6561
 11
-38.8081
 21
-34.6697
  0
LINE
  8
0
 10
-38.8081
 20
-34.6697
 11
-38.7614
 21
-34.6857
  0
LINE
  8
0
 10
-38.7614
 20
-34.6857
 11
-38.7155
 21
-34.704
  0
LINE
  8
0
 10
-38.7155
 20
-34.704
 11
-38.6706
 21
-34.7246
  0
LINE
  8
0
 10
-38.6706
 20
-34.7246
 11
-38.6268
 21
-34.7475
  0
LINE
  8
0
 10
-38.6268
 20
-34.7475
 11
-38.5843
 21
-34.7726
  0
LINE
  8
0
 10
-38.5843
 20
-34.7726
 11
-38.543
 21
-34.7997
  0
LINE
  8
0
 10
-38.543
 20
-34.7997
 11
-38.5032
 21
-34.829
  0
LINE
  8
0
 10
-38.5032
 20
-34.829
 11
-38.4649
 21
-34.8602
  0
LINE
  8
0
 10
-38.4649
 20
-34.8602
 11
-38.4283
 21
-34.8933
  0
LINE
  8
0
 10
-38.4283
 20
-34.8933
 11
-38.3933
 21
-34.9283
  0
LINE
  8
0
 10
-38.3933
 20
-34.9283
 11
-38.3602
 21
-34.9649
  0
LINE
  8
0
 10
-38.3602
 20
-34.9649
 11
-38.329
 21
-35.0032
  0
LINE
  8
0
 10
-38.329
 20
-35.0032
 11
-38.2997
 21
-35.043
  0
LINE
  8
0
 10
-38.2997
 20
-35.043
 11
-38.2726
 21
-35.0843
  0
LINE
  8
0
 10
-38.2726
 20
-35.0843
 11
-38.2475
 21
-35.1268
  0
LINE
  8
0
 10
-38.2475
 20
-35.1268
 11
-38.2246
 21
-35.1706
  0
LINE
  8
0
 10
-38.2246
 20
-35.1706
 11
-38.204
 21
-35.2155
  0
LINE
  8
0
 10
-38.204
 20
-35.2155
 11
-38.1857
 21
-35.2614
  0
LINE
  8
0
 10
-38.1857
 20
-35.2614
 11
-38.1697
 21
-35.3081
  0
LINE
  8
0
 10
-38.1697
 20
-35.3081
 11
-38.1561
 21
-35.3556
  0
LINE
  8
0
 10
-38.1561
 20
-35.3556
 11
-38.1449
 21
-35.4037
  0
LINE
  8
0
 10
-38.1449
 20
-35.4037
 11
-38.1362
 21
-35.4523
  0
LINE
  8
0
 10
-38.1362
 20
-35.4523
 11
-38.13
 21
-35.5014
  0
LINE
  8
0
 10
-38.13
 20
-35.5014
 11
-38.1263
 21
-35.5506
  0
LINE
  8
0
 10
-38.1263
 20
-35.5506
 11
-38.125
 21
-35.6
  0
LINE
  8
0
 10
-38.125
 20
-35.6
 11
-38.1263
 21
-35.6494
  0
LINE
  8
0
 10
-38.1263
 20
-35.6494
 11
-38.13
 21
-35.6986
  0
LINE
  8
0
 10
-38.13
 20
-35.6986
 11
-38.1362
 21
-35.7476
  0
LINE
  8
0
 10
-38.1362
 20
-35.7476
 11
-38.1449
 21
-35.7963
  0
LINE
  8
0
 10
-38.1449
 20
-35.7963
 11
-38.1561
 21
-35.8444
  0
LINE
  8
0
 10
-38.1561
 20
-35.8444
 11
-38.1697
 21
-35.8919
  0
LINE
  8
0
 10
-38.1697
 20
-35.8919
 11
-38.1857
 21
-35.9386
  0
LINE
  8
0
 10
-38.1857
 20
-35.9386
 11
-38.204
 21
-35.9845
  0
LINE
  8
0
 10
-38.204
 20
-35.9845
 11
-38.2246
 21
-36.0294
  0
LINE
  8
0
 10
-38.2246
 20
-36.0294
 11
-38.2475
 21
-36.0732
  0
LINE
  8
0
 10
-38.2475
 20
-36.0732
 11
-38.2726
 21
-36.1157
  0
LINE
  8
0
 10
-38.2726
 20
-36.1157
 11
-38.2997
 21
-36.157
  0
LINE
  8
0
 10
-38.2997
 20
-36.157
 11
-38.329
 21
-36.1968
  0
LINE
  8
0
 10
-38.329
 20
-36.1968
 11
-38.3602
 21
-36.2351
  0
LINE
  8
0
 10
-38.3602
 20
-36.2351
 11
-38.3933
 21
-36.2717
  0
LINE
  8
0
 10
-38.3933
 20
-36.2717
 11
-38.4283
 21
-36.3067
  0
LINE
  8
0
 10
-38.4283
 20
-36.3067
 11
-38.4649
 21
-36.3398
  0
LINE
  8
0
 10
-38.4649
 20
-36.3398
 11
-38.5032
 21
-36.371
  0
LINE
  8
0
 10
-38.5032
 20
-36.371
 11
-38.543
 21
-36.4002
  0
LINE
  8
0
 10
-38.543
 20
-36.4002
 11
-38.5843
 21
-36.4274
  0
LINE
  8
0
 10
-38.5843
 20
-36.4274
 11
-38.6268
 21
-36.4525
  0
LINE
  8
0
 10
-38.6268
 20
-36.4525
 11
-38.6706
 21
-36.4754
  0
LINE
  8
0
 10
-38.6706
 20
-36.4754
 11
-38.7155
 21
-36.496
  0
LINE
  8
0
 10
-38.7155
 20
-36.496
 11
-38.7614
 21
-36.5143
  0
LINE
  8
0
 10
-38.7614
 20
-36.5143
 11
-38.8081
 21
-36.5303
  0
LINE
  8
0
 10
-38.8081
 20
-36.5303
 11
-38.8556
 21
-36.5439
  0
LINE
  8
0
 10
-38.8556
 20
-36.5439
 11
-38.9037
 21
-36.555
  0
LINE
  8
0
 10
-38.9037
 20
-36.555
 11
-38.9523
 21
-36.5638
  0
LINE
  8
0
 10
-38.9523
 20
-36.5638
 11
-39.0014
 21
-36.57
  0
LINE
  8
0
 10
-39.0014
 20
-36.57
 11
-39.0506
 21
-36.5737
  0
LINE
  8
0
 10
-39.0506
 20
-36.5737
 11
-39.1
 21
-36.575
  0
LINE
  8
0
 10
-39.1
 20
-36.575
 11
-39.1494
 21
-36.5737
  0
LINE
  8
0
 10
66.75
 20
-40.6
 11
74.25
 21
-40.6
  0
LINE
  8
0
 10
74.25
 20
-40.6
 11
74.25
 21
-42.5
  0
LINE
  8
0
 10
74.25
 20
-42.5
 11
81.75
 21
-42.5
  0
LINE
  8
0
 10
81.75
 20
-42.5
 11
81.75
 21
-40.6
  0
LINE
  8
0
 10
81.75
 20
-40.6
 11
89.25
 21
-40.6
  0
LINE
  8
0
 10
89.25
 20
-40.6
 11
89.25
 21
-42.5
  0
LINE
  8
0
 10
89.25
 20
-42.5
 11
96.75
 21
-42.5
  0
LINE
  8
0
 10
96.75
 20
-42.5
 11
96.75
 21
-40.6
  0
LINE
  8
0
 10
96.75
 20
-40.6
 11
104.25
 21
-40.6
  0
LINE
  8
0
 10
104.25
 20
-40.6
 11
104.25
 21
-42.5
  0
LINE
  8
0
 10
104.25
 20
-42.5
 11
111.75
 21
-42.5
  0
LINE
  8
0
 10
111.75
 20
-42.5
 11
111.75
 21
-40.6
  0
LINE
  8
0
 10
111.75
 20
-40.6
 11
119.25
 21
-40.6
  0
LINE
  8
0
 10
119.25
 20
-40.6
 11
119.25
 21
-42.5
  0
LINE
  8
0
 10
119.25
 20
-42.5
 11
126.75
 21
-42.5
  0
LINE
  8
0
 10
126.75
 20
-42.5
 11
126.75
 21
-40.6
  0
LINE
  8
0
 10
126.75
 20
-40.6
 11
139
 21
-40.6
  0
LINE
  8
0
 10
139
 20
-40.6
 11
139
 21
-33.75
  0
LINE
  8
0
 10
139
 20
-33.75
 11
137.1
 21
-33.75
  0
LINE
  8
0
 10
137.1
 20
-33.75
 11
137.1
 21
-26.25
  0
LINE
  8
0
 10
137.1
 20
-26.25
 11
139
 21
-26.25
  0
LINE
  8
0
 10
139
 20
-26.25
 11
139
 21
-18.75
  0
LINE
  8
0
 10
139
 20
-18.75
 11
137.1
 21
-18.75
  0
LINE
  8
0
 10
137.1
 20
-18.75
 11
137.1
 21
-11.25
  0
LINE
  8
0
 10
137.1
 20
-11.25
 11
139
 21
-11.25
  0
LINE
  8
0
 10
139
 20
-11.25
 11
139
 21
-3.75
  0
LINE
  8
0
 10
139
 20
-3.75
 11
137.1
 21
-3.75
  0
LINE
  8
0
 10
137.1
 20
-3.75
 11
137.1
 21
3.75
  0
LINE
  8
0
 10
137.1
 20
3.75
 11
139
 21
3.75
  0
LINE
  8
0
 10
139
 20
3.75
 11
139
 21
11.25
  0
LINE
  8
0
 10
139
 20
11.25
 11
137.1
 21
11.25
  0
LINE
  8
0
 10
137.1
 20
11.25
 11
137.1
 21
18.75
  0
LINE
  8
0
 10
137.1
 20
18.75
 11
139
 21
18.75
  0
LINE
  8
0
 10
139
 20
18.75
 11
139
 21
26.25
  0
LINE
  8
0
 10
139
 20
26.25
 11
137.1
 21
26.25
  0
LINE
  8
0
 10
137.1
 20
26.25
 11
137.1
 21
33.75
  0
LINE
  8
0
 10
137.1
 20
33.75
 11
139
 21
33.75
  0
LINE
  8
0
 10
139
 20
33.75
 11
139
 21
40.5999
  0
LINE
  8
0
 10
139
 20
40.5999
 11
126.75
 21
40.5999
  0
LINE
  8
0
 10
126.75
 20
40.5999
 11
126.75
 21
42.5
  0
LINE
  8
0
 10
126.75
 20
42.5
 11
119.25
 21
42.5
  0
LINE
  8
0
 10
119.25
 20
42.5
 11
119.25
 21
40.5999
  0
LINE
  8
0
 10
119.25
 20
40.5999
 11
111.75
 21
40.5999
  0
LINE
  8
0
 10
111.75
 20
40.5999
 11
111.75
 21
42.5
  0
LINE
  8
0
 10
111.75
 20
42.5
 11
104.25
 21
42.5
  0
LINE
  8
0
 10
104.25
 20
42.5
 11
104.25
 21
40.5999
  0
LINE
  8
0
 10
104.25
 20
40.5999
 11
96.75
 21
40.5999
  0
LINE
  8
0
 10
96.75
 20
40.5999
 11
96.75
 21
42.5
  0
LINE
  8
0
 10
96.75
 20
42.5
 11
89.25
 21
42.5
  0
LINE
  8
0
 10
89.25
 20
42.5
 11
89.25
 21
40.5999
  0
LINE
  8
0
 10
89.25
 20
40.5999
 11
81.75
 21
40.5999
  0
LINE
  8
0
 10
81.75
 20
40.5999
 11
81.75
 21
42.5
  0
LINE
  8
0
 10
81.75
 20
42.5
 11
74.25
 21
42.5
  0
LINE
  8
0
 10
74.25
 20
42.5
 11
74.25
 21
40.5999
  0
LINE
  8
0
 10
74.25
 20
40.5999
 11
66.75
 21
40.5999
  0
LINE
  8
0
 10
66.75
 20
40.5999
 11
66.75
 21
42.5
  0
LINE
  8
0
 10
66.75
 20
42.5
 11
59.25
 21
42.5
  0
LINE
  8
0
 10
59.25
 20
42.5
 11
59.25
 21
40.6
  0
LINE
  8
0
 10
59.25
 20
40.6
 11
47
 21
40.6
  0
LINE
  8
0
 10
47
 20
40.6
 11
47
 21
33.75
  0
LINE
  8
0
 10
47
 20
33.75
 11
48.9001
 21
33.75
  0
LINE
  8
0
 10
48.9001
 20
33.75
 11
48.9001
 21
26.25
  0
LINE
  8
0
 10
48.9001
 20
26.25
 11
47
 21
26.25
  0
LINE
  8
0
 10
47
 20
26.25
 11
47
 21
18.75
  0
LINE
  8
0
 10
47
 20
18.75
 11
48.9001
 21
18.75
  0
LINE
  8
0
 10
48.9001
 20
18.75
 11
48.9001
 21
11.25
  0
LINE
  8
0
 10
48.9001
 20
11.25
 11
47
 21
11.25
  0
LINE
  8
0
 10
47
 20
11.25
 11
47
 21
3.75
  0
LINE
  8
0
 10
47
 20
3.75
 11
48.9001
 21
3.75
  0
LINE
  8
0
 10
48.9001
 20
3.75
 11
48.9001
 21
-3.75
  0
LINE
  8
0
 10
48.9001
 20
-3.75
 11
47
 21
-3.75
  0
LINE
  8
0
 10
47
 20
-3.75
 11
47
 21
-11.25
  0
LINE
  8
0
 10
47
 20
-11.25
 11
48.9001
 21
-11.25
  0
LINE
  8
0
 10
48.9001
 20
-11.25
 11
48.9001
 21
-18.75
  0
LINE
  8
0
 10
48.9001
 20
-18.75
 11
47
 21
-18.75
  0
LINE
  8
0
 10
47
 20
-18.75
 11
47
 21
-26.25
  0
LINE
  8
0
 10
47
 20
-26.25
 11
48.9001
 21
-26.25
  0
LINE
  8
0
 10
48.9001
 20
-26.25
 11
48.9001
 21
-33.75
  0
LINE
  8
0
 10
48.9001
 20
-33.75
 11
47
 21
-33.75
  0
LINE
  8
0
 10
47
 20
-33.75
 11
47
 21
-40.6
  0
LINE
  8
0
 10
47
 20
-40.6
 11
59.25
 21
-40.6
  0
LINE
  8
0
 10
59.25
 20
-40.6
 11
59.25
 21
-42.5
  0
LINE
  8
0
 10
59.25
 20
-42.5
 11
66.75
 21
-42.5
  0
LINE
  8
0
 10
66.75
 20
-42.5
 11
66.75
 21
-40.6
  0
LINE
  8
0
 10
53.8506
 20
34.6263
 11
53.8014
 21
34.63
  0
LINE
  8
0
 10
53.8014
 20
34.63
 11
53.7524
 21
34.6362
  0
LINE
  8
0
 10
53.7524
 20
34.6362
 11
53.7037
 21
34.6449
  0
LINE
  8
0
 10
53.7037
 20
34.6449
 11
53.6556
 21
34.6561
  0
LINE
  8
0
 10
53.6556
 20
34.6561
 11
53.6081
 21
34.6697
  0
LINE
  8
0
 10
53.6081
 20
34.6697
 11
53.5614
 21
34.6857
  0
LINE
  8
0
 10
53.5614
 20
34.6857
 11
53.5155
 21
34.704
  0
LINE
  8
0
 10
53.5155
 20
34.704
 11
53.4706
 21
34.7246
  0
LINE
  8
0
 10
53.4706
 20
34.7246
 11
53.4268
 21
34.7475
  0
LINE
  8
0
 10
53.4268
 20
34.7475
 11
53.3843
 21
34.7726
  0
LINE
  8
0
 10
53.3843
 20
34.7726
 11
53.343
 21
34.7997
  0
LINE
  8
0
 10
53.343
 20
34.7997
 11
53.3032
 21
34.829
  0
LINE
  8
0
 10
53.3032
 20
34.829
 11
53.2649
 21
34.8602
  0
LINE
  8
0
 10
53.2649
 20
34.8602
 11
53.2283
 21
34.8933
  0
LINE
  8
0
 10
53.2283
 20
34.8933
 11
53.1933
 21
34.9283
  0
LINE
  8
0
 10
53.1933
 20
34.9283
 11
53.1602
 21
34.9649
  0
LINE
  8
0
 10
53.1602
 20
34.9649
 11
53.129
 21
35.0032
  0
LINE
  8
0
 10
53.129
 20
35.0032
 11
53.0998
 21
35.043
  0
LINE
  8
0
 10
53.0998
 20
35.043
 11
53.0726
 21
35.0843
  0
LINE
  8
0
 10
53.0726
 20
35.0843
 11
53.0475
 21
35.1268
  0
LINE
  8
0
 10
53.0475
 20
35.1268
 11
53.0246
 21
35.1706
  0
LINE
  8
0
 10
53.0246
 20
35.1706
 11
53.004
 21
35.2155
  0
LINE
  8
0
 10
53.004
 20
35.2155
 11
52.9857
 21
35.2614
  0
LINE
  8
0
 10
52.9857
 20
35.2614
 11
52.9697
 21
35.3081
  0
LINE
  8
0
 10
52.9697
 20
35.3081
 11
52.9561
 21
35.3556
  0
LINE
  8
0
 10
52.9561
 20
35.3556
 11
52.945
 21
35.4037
  0
LINE
  8
0
 10
52.945
 20
35.4037
 11
52.9362
 21
35.4523
  0
LINE
  8
0
 10
52.9362
 20
35.4523
 11
52.93
 21
35.5014
  0
LINE
  8
0
 10
52.93
 20
35.5014
 11
52.9263
 21
35.5506
  0
LINE
  8
0
 10
52.9263
 20
35.5506
 11
52.925
 21
35.6
  0
LINE
  8
0
 10
52.925
 20
35.6
 11
52.9263
 21
35.6494
  0
LINE
  8
0
 10
52.9263
 20
35.6494
 11
52.93
 21
35.6986
  0
LINE
  8
0
 10
52.93
 20
35.6986
 11
52.9362
 21
35.7476
  0
LINE
  8
0
 10
52.9362
 20
35.7476
 11
52.945
 21
35.7963
  0
LINE
  8
0
 10
52.945
 20
35.7963
 11
52.9561
 21
35.8444
  0
LINE
  8
0
 10
52.9561
 20
35.8444
 11
52.9697
 21
35.8919
  0
LINE
  8
0
 10
52.9697
 20
35.8919
 11
52.9857
 21
35.9386
  0
LINE
  8
0
 10
52.9857
 20
35.9386
 11
53.004
 21
35.9845
  0
LINE
  8
0
 10
53.004
 20
35.9845
 11
53.0246
 21
36.0294
  0
LINE
  8
0
 10
53.0246
 20
36.0294
 11
53.0475
 21
36.0732
  0
LINE
  8
0
 10
53.0475
 20
36.0732
 11
53.0726
 21
36.1157
  0
LINE
  8
0
 10
53.0726
 20
36.1157
 11
53.0998
 21
36.157
  0
LINE
  8
0
 10
53.0998
 20
36.157
 11
53.129
 21
36.1968
  0
LINE
  8
0
 10
53.129
 20
36.1968
 11
53.1602
 21
36.2351
  0
LINE
  8
0
 10
53.1602
 20
36.2351
 11
53.1933
 21
36.2717
  0
LINE
  8
0
 10
53.1933
 20
36.2717
 11
53.2283
 21
36.3067
  0
LINE
  8
0
 10
53.2283
 20
36.3067
 11
53.2649
 21
36.3398
  0
LINE
  8
0
 10
53.2649
 20
36.3398
 11
53.3032
 21
36.371
  0
LINE
  8
0
 10
53.3032
 20
36.371
 11
53.343
 21
36.4002
  0
LINE
  8
0
 10
53.343
 20
36.4002
 11
53.3843
 21
36.4274
  0
LINE
  8
0
 10
53.3843
 20
36.4274
 11
53.4268
 21
36.4525
  0
LINE
  8
0
 10
53.4268
 20
36.4525
 11
53.4706
 21
36.4754
  0
LINE
  8
0
 10
53.4706
 20
36.4754
 11
53.5155
 21
36.496
  0
LINE
  8
0
 10
53.5155
 20
36.496
 11
53.5614
 21
36.5143
  0
LINE
  8
0
 10
53.5614
 20
36.5143
 11
53.6081
 21
36.5303
  0
LINE
  8
0
 10
53.6081
 20
36.5303
 11
53.6556
 21
36.5439
  0
LINE
  8
0
 10
53.6556
 20
36.5439
 11
53.7037
 21
36.555
  0
LINE
  8
0
 10
53.7037
 20
36.555
 11
53.7524
 21
36.5638
  0
LINE
  8
0
 10
53.7524
 20
36.5638
 11
53.8014
 21
36.57
  0
LINE
  8
0
 10
53.8014
 20
36.57
 11
53.8506
 21
36.5737
  0
LINE
  8
0
 10
53.8506
 20
36.5737
 11
53.9
 21
36.575
  0
LINE
  8
0
 10
53.9
 20
36.575
 11
53.9494
 21
36.5737
  0
LINE
  8
0
 10
53.9494
 20
36.5737
 11
53.9986
 21
36.57
  0
LINE
  8
0
 10
53.9986
 20
36.57
 11
54.0477
 21
36.5638
  0
LINE
  8
0
 10
54.0477
 20
36.5638
 11
54.0963
 21
36.555
  0
LINE
  8
0
 10
54.0963
 20
36.555
 11
54.1444
 21
36.5439
  0
LINE
  8
0
 10
54.1444
 20
36.5439
 11
54.1919
 21
36.5303
  0
LINE
  8
0
 10
54.1919
 20
36.5303
 11
54.2386
 21
36.5143
  0
LINE
  8
0
 10
54.2386
 20
36.5143
 11
54.2845
 21
36.496
  0
LINE
  8
0
 10
54.2845
 20
36.496
 11
54.3294
 21
36.4754
  0
LINE
  8
0
 10
54.3294
 20
36.4754
 11
54.3732
 21
36.4525
  0
LINE
  8
0
 10
54.3732
 20
36.4525
 11
54.4157
 21
36.4274
  0
LINE
  8
0
 10
54.4157
 20
36.4274
 11
54.457
 21
36.4002
  0
LINE
  8
0
 10
54.457
 20
36.4002
 11
54.4968
 21
36.371
  0
LINE
  8
0
 10
54.4968
 20
36.371
 11
54.5351
 21
36.3398
  0
LINE
  8
0
 10
54.5351
 20
36.3398
 11
54.5717
 21
36.3067
  0
LINE
  8
0
 10
54.5717
 20
36.3067
 11
54.6067
 21
36.2717
  0
LINE
  8
0
 10
54.6067
 20
36.2717
 11
54.6398
 21
36.2351
  0
LINE
  8
0
 10
54.6398
 20
36.2351
 11
54.671
 21
36.1968
  0
LINE
  8
0
 10
54.671
 20
36.1968
 11
54.7003
 21
36.157
  0
LINE
  8
0
 10
54.7003
 20
36.157
 11
54.7274
 21
36.1157
  0
LINE
  8
0
 10
54.7274
 20
36.1157
 11
54.7525
 21
36.0732
  0
LINE
  8
0
 10
54.7525
 20
36.0732
 11
54.7754
 21
36.0294
  0
LINE
  8
0
 10
54.7754
 20
36.0294
 11
54.796
 21
35.9845
  0
LINE
  8
0
 10
54.796
 20
35.9845
 11
54.8143
 21
35.9386
  0
LINE
  8
0
 10
54.8143
 20
35.9386
 11
54.8303
 21
35.8919
  0
LINE
  8
0
 10
54.8303
 20
35.8919
 11
54.8439
 21
35.8444
  0
LINE
  8
0
 10
54.8439
 20
35.8444
 11
54.8551
 21
35.7963
  0
LINE
  8
0
 10
54.8551
 20
35.7963
 11
54.8638
 21
35.7476
  0
LINE
  8
0
 10
54.8638
 20
35.7476
 11
54.87
 21
35.6986
  0
LINE
  8
0
 10
54.87
 20
35.6986
 11
54.8737
 21
35.6494
  0
LINE
  8
0
 10
54.8737
 20
35.6494
 11
54.875
 21
35.6
  0
LINE
  8
0
 10
54.875
 20
35.6
 11
54.8737
 21
35.5506
  0
LINE
  8
0
 10
54.8737
 20
35.5506
 11
54.87
 21
35.5014
  0
LINE
  8
0
 10
54.87
 20
35.5014
 11
54.8638
 21
35.4523
  0
LINE
  8
0
 10
54.8638
 20
35.4523
 11
54.8551
 21
35.4037
  0
LINE
  8
0
 10
54.8551
 20
35.4037
 11
54.8439
 21
35.3556
  0
LINE
  8
0
 10
54.8439
 20
35.3556
 11
54.8303
 21
35.3081
  0
LINE
  8
0
 10
54.8303
 20
35.3081
 11
54.8143
 21
35.2614
  0
LINE
  8
0
 10
54.8143
 20
35.2614
 11
54.796
 21
35.2155
  0
LINE
  8
0
 10
54.796
 20
35.2155
 11
54.7754
 21
35.1706
  0
LINE
  8
0
 10
54.7754
 20
35.1706
 11
54.7525
 21
35.1268
  0
LINE
  8
0
 10
54.7525
 20
35.1268
 11
54.7274
 21
35.0843
  0
LINE
  8
0
 10
54.7274
 20
35.0843
 11
54.7003
 21
35.043
  0
LINE
  8
0
 10
54.7003
 20
35.043
 11
54.671
 21
35.0032
  0
LINE
  8
0
 10
54.671
 20
35.0032
 11
54.6398
 21
34.9649
  0
LINE
  8
0
 10
54.6398
 20
34.9649
 11
54.6067
 21
34.9283
  0
LINE
  8
0
 10
54.6067
 20
34.9283
 11
54.5717
 21
34.8933
  0
LINE
  8
0
 10
54.5717
 20
34.8933
 11
54.5351
 21
34.8602
  0
LINE
  8
0
 10
54.5351
 20
34.8602
 11
54.4968
 21
34.829
  0
LINE
  8
0
 10
54.4968
 20
34.829
 11
54.457
 21
34.7997
  0
LINE
  8
0
 10
54.457
 20
34.7997
 11
54.4157
 21
34.7726
  0
LINE
  8
0
 10
54.4157
 20
34.7726
 11
54.3732
 21
34.7475
  0
LINE
  8
0
 10
54.3732
 20
34.7475
 11
54.3294
 21
34.7246
  0
LINE
  8
0
 10
54.3294
 20
34.7246
 11
54.2845
 21
34.704
  0
LINE
  8
0
 10
54.2845
 20
34.704
 11
54.2386
 21
34.6857
  0
LINE
  8
0
 10
54.2386
 20
34.6857
 11
54.1919
 21
34.6697
  0
LINE
  8
0
 10
54.1919
 20
34.6697
 11
54.1444
 21
34.6561
  0
LINE
  8
0
 10
54.1444
 20
34.6561
 11
54.0963
 21
34.6449
  0
LINE
  8
0
 10
54.0963
 20
34.6449
 11
54.0477
 21
34.6362
  0
LINE
  8
0
 10
54.0477
 20
34.6362
 11
53.9986
 21
34.63
  0
LINE
  8
0
 10
53.9986
 20
34.63
 11
53.9494
 21
34.6263
  0
LINE
  8
0
 10
53.9494
 20
34.6263
 11
53.9
 21
34.625
  0
LINE
  8
0
 10
53.9
 20
34.625
 11
53.8506
 21
34.6263
  0
LINE
  8
0
 10
132.051
 20
34.6263
 11
132.001
 21
34.63
  0
LINE
  8
0
 10
132.001
 20
34.63
 11
131.952
 21
34.6362
  0
LINE
  8
0
 10
131.952
 20
34.6362
 11
131.904
 21
34.6449
  0
LINE
  8
0
 10
131.904
 20
34.6449
 11
131.856
 21
34.6561
  0
LINE
  8
0
 10
131.856
 20
34.6561
 11
131.808
 21
34.6697
  0
LINE
  8
0
 10
131.808
 20
34.6697
 11
131.761
 21
34.6857
  0
LINE
  8
0
 10
131.761
 20
34.6857
 11
131.715
 21
34.704
  0
LINE
  8
0
 10
131.715
 20
34.704
 11
131.671
 21
34.7246
  0
LINE
  8
0
 10
131.671
 20
34.7246
 11
131.627
 21
34.7475
  0
LINE
  8
0
 10
131.627
 20
34.7475
 11
131.584
 21
34.7726
  0
LINE
  8
0
 10
131.584
 20
34.7726
 11
131.543
 21
34.7997
  0
LINE
  8
0
 10
131.543
 20
34.7997
 11
131.503
 21
34.829
  0
LINE
  8
0
 10
131.503
 20
34.829
 11
131.465
 21
34.8602
  0
LINE
  8
0
 10
131.465
 20
34.8602
 11
131.428
 21
34.8933
  0
LINE
  8
0
 10
131.428
 20
34.8933
 11
131.393
 21
34.9283
  0
LINE
  8
0
 10
131.393
 20
34.9283
 11
131.36
 21
34.9649
  0
LINE
  8
0
 10
131.36
 20
34.9649
 11
131.329
 21
35.0032
  0
LINE
  8
0
 10
131.329
 20
35.0032
 11
131.3
 21
35.043
  0
LINE
  8
0
 10
131.3
 20
35.043
 11
131.273
 21
35.0843
  0
LINE
  8
0
 10
131.273
 20
35.0843
 11
131.247
 21
35.1268
  0
LINE
  8
0
 10
131.247
 20
35.1268
 11
131.225
 21
35.1706
  0
LINE
  8
0
 10
131.225
 20
35.1706
 11
131.204
 21
35.2155
  0
LINE
  8
0
 10
131.204
 20
35.2155
 11
131.186
 21
35.2614
  0
LINE
  8
0
 10
131.186
 20
35.2614
 11
131.17
 21
35.3081
  0
LINE
  8
0
 10
131.17
 20
35.3081
 11
131.156
 21
35.3556
  0
LINE
  8
0
 10
131.156
 20
35.3556
 11
131.145
 21
35.4037
  0
LINE
  8
0
 10
131.145
 20
35.4037
 11
131.136
 21
35.4523
  0
LINE
  8
0
 10
131.136
 20
35.4523
 11
131.13
 21
35.5014
  0
LINE
  8
0
 10
131.13
 20
35.5014
 11
131.126
 21
35.5506
  0
LINE
  8
0
 10
131.126
 20
35.5506
 11
131.125
 21
35.6
  0
LINE
  8
0
 10
131.125
 20
35.6
 11
131.126
 21
35.6494
  0
LINE
  8
0
 10
131.126
 20
35.6494
 11
131.13
 21
35.6986
  0
LINE
  8
0
 10
131.13
 20
35.6986
 11
131.136
 21
35.7476
  0
LINE
  8
0
 10
131.136
 20
35.7476
 11
131.145
 21
35.7963
  0
LINE
  8
0
 10
131.145
 20
35.7963
 11
131.156
 21
35.8444
  0
LINE
  8
0
 10
131.156
 20
35.8444
 11
131.17
 21
35.8919
  0
LINE
  8
0
 10
131.17
 20
35.8919
 11
131.186
 21
35.9386
  0
LINE
  8
0
 10
131.186
 20
35.9386
 11
131.204
 21
35.9845
  0
LINE
  8
0
 10
131.204
 20
35.9845
 11
131.225
 21
36.0294
  0
LINE
  8
0
 10
131.225
 20
36.0294
 11
131.247
 21
36.0732
  0
LINE
  8
0
 10
131.247
 20
36.0732
 11
131.273
 21
36.1157
  0
LINE
  8
0
 10
131.273
 20
36.1157
 11
131.3
 21
36.157
  0
LINE
  8
0
 10
131.3
 20
36.157
 11
131.329
 21
36.1968
  0
LINE
  8
0
 10
131.329
 20
36.1968
 11
131.36
 21
36.2351
  0
LINE
  8
0
 10
131.36
 20
36.2351
 11
131.393
 21
36.2717
  0
LINE
  8
0
 10
131.393
 20
36.2717
 11
131.428
 21
36.3067
  0
LINE
  8
0
 10
131.428
 20
36.3067
 11
131.465
 21
36.3398
  0
LINE
  8
0
 10
131.465
 20
36.3398
 11
131.503
 21
36.371
  0
LINE
  8
0
 10
131.503
 20
36.371
 11
131.543
 21
36.4002
  0
LINE
  8
0
 10
131.543
 20
36.4002
 11
131.584
 21
36.4274
  0
LINE
  8
0
 10
131.584
 20
36.4274
 11
131.627
 21
36.4525
  0
LINE
  8
0
 10
131.627
 20
36.4525
 11
131.671
 21
36.4754
  0
LINE
  8
0
 10
131.671
 20
36.4754
 11
131.715
 21
36.496
  0
LINE
  8
0
 10
131.715
 20
36.496
 11
131.761
 21
36.5143
  0
LINE
  8
0
 10
131.761
 20
36.5143
 11
131.808
 21
36.5303
  0
LINE
  8
0
 10
131.808
 20
36.5303
 11
131.856
 21
36.5439
  0
LINE
  8
0
 10
131.856
 20
36.5439
 11
131.904
 21
36.555
  0
LINE
  8
0
 10
131.904
 20
36.555
 11
131.952
 21
36.5638
  0
LINE
  8
0
 10
131.952
 20
36.5638
 11
132.001
 21
36.57
  0
LINE
  8
0
 10
132.001
 20
36.57
 11
132.051
 21
36.5737
  0
LINE
  8
0
 10
132.051
 20
36.5737
 11
132.1
 21
36.575
  0
LINE
  8
0
 10
132.1
 20
36.575
 11
132.149
 21
36.5737
  0
LINE
  8
0
 10
132.149
 20
36.5737
 11
132.199
 21
36.57
  0
LINE
  8
0
 10
132.199
 20
36.57
 11
132.248
 21
36.5638
  0
LINE
  8
0
 10
132.248
 20
36.5638
 11
132.296
 21
36.555
  0
LINE
  8
0
 10
132.296
 20
36.555
 11
132.344
 21
36.5439
  0
LINE
  8
0
 10
132.344
 20
36.5439
 11
132.392
 21
36.5303
  0
LINE
  8
0
 10
132.392
 20
36.5303
 11
132.439
 21
36.5143
  0
LINE
  8
0
 10
132.439
 20
36.5143
 11
132.484
 21
36.496
  0
LINE
  8
0
 10
132.484
 20
36.496
 11
132.529
 21
36.4754
  0
LINE
  8
0
 10
132.529
 20
36.4754
 11
132.573
 21
36.4525
  0
LINE
  8
0
 10
132.573
 20
36.4525
 11
132.616
 21
36.4274
  0
LINE
  8
0
 10
132.616
 20
36.4274
 11
132.657
 21
36.4002
  0
LINE
  8
0
 10
132.657
 20
36.4002
 11
132.697
 21
36.371
  0
LINE
  8
0
 10
132.697
 20
36.371
 11
132.735
 21
36.3398
  0
LINE
  8
0
 10
132.735
 20
36.3398
 11
132.772
 21
36.3067
  0
LINE
  8
0
 10
132.772
 20
36.3067
 11
132.807
 21
36.2717
  0
LINE
  8
0
 10
132.807
 20
36.2717
 11
132.84
 21
36.2351
  0
LINE
  8
0
 10
132.84
 20
36.2351
 11
132.871
 21
36.1968
  0
LINE
  8
0
 10
132.871
 20
36.1968
 11
132.9
 21
36.157
  0
LINE
  8
0
 10
132.9
 20
36.157
 11
132.927
 21
36.1157
  0
LINE
  8
0
 10
132.927
 20
36.1157
 11
132.952
 21
36.0732
  0
LINE
  8
0
 10
132.952
 20
36.0732
 11
132.975
 21
36.0294
  0
LINE
  8
0
 10
132.975
 20
36.0294
 11
132.996
 21
35.9845
  0
LINE
  8
0
 10
132.996
 20
35.9845
 11
133.014
 21
35.9386
  0
LINE
  8
0
 10
133.014
 20
35.9386
 11
133.03
 21
35.8919
  0
LINE
  8
0
 10
133.03
 20
35.8919
 11
133.044
 21
35.8444
  0
LINE
  8
0
 10
133.044
 20
35.8444
 11
133.055
 21
35.7963
  0
LINE
  8
0
 10
133.055
 20
35.7963
 11
133.064
 21
35.7476
  0
LINE
  8
0
 10
133.064
 20
35.7476
 11
133.07
 21
35.6986
  0
LINE
  8
0
 10
133.07
 20
35.6986
 11
133.074
 21
35.6494
  0
LINE
  8
0
 10
133.074
 20
35.6494
 11
133.075
 21
35.6
  0
LINE
  8
0
 10
133.075
 20
35.6
 11
133.074
 21
35.5506
  0
LINE
  8
0
 10
133.074
 20
35.5506
 11
133.07
 21
35.5014
  0
LINE
  8
0
 10
133.07
 20
35.5014
 11
133.064
 21
35.4523
  0
LINE
  8
0
 10
133.064
 20
35.4523
 11
133.055
 21
35.4037
  0
LINE
  8
0
 10
133.055
 20
35.4037
 11
133.044
 21
35.3556
  0
LINE
  8
0
 10
133.044
 20
35.3556
 11
133.03
 21
35.3081
  0
LINE
  8
0
 10
133.03
 20
35.3081
 11
133.014
 21
35.2614
  0
LINE
  8
0
 10
133.014
 20
35.2614
 11
132.996
 21
35.2155
  0
LINE
  8
0
 10
132.996
 20
35.2155
 11
132.975
 21
35.1706
  0
LINE
  8
0
 10
132.975
 20
35.1706
 11
132.952
 21
35.1268
  0
LINE
  8
0
 10
132.952
 20
35.1268
 11
132.927
 21
35.0843
  0
LINE
  8
0
 10
132.927
 20
35.0843
 11
132.9
 21
35.043
  0
LINE
  8
0
 10
132.9
 20
35.043
 11
132.871
 21
35.0032
  0
LINE
  8
0
 10
132.871
 20
35.0032
 11
132.84
 21
34.9649
  0
LINE
  8
0
 10
132.84
 20
34.9649
 11
132.807
 21
34.9283
  0
LINE
  8
0
 10
132.807
 20
34.9283
 11
132.772
 21
34.8933
  0
LINE
  8
0
 10
132.772
 20
34.8933
 11
132.735
 21
34.8602
  0
LINE
  8
0
 10
132.735
 20
34.8602
 11
132.697
 21
34.829
  0
LINE
  8
0
 10
132.697
 20
34.829
 11
132.657
 21
34.7997
  0
LINE
  8
0
 10
132.657
 20
34.7997
 11
132.616
 21
34.7726
  0
LINE
  8
0
 10
132.616
 20
34.7726
 11
132.573
 21
34.7475
  0
LINE
  8
0
 10
132.573
 20
34.7475
 11
132.529
 21
34.7246
  0
LINE
  8
0
 10
132.529
 20
34.7246
 11
132.484
 21
34.704
  0
LINE
  8
0
 10
132.484
 20
34.704
 11
132.439
 21
34.6857
  0
LINE
  8
0
 10
132.439
 20
34.6857
 11
132.392
 21
34.6697
  0
LINE
  8
0
 10
132.392
 20
34.6697
 11
132.344
 21
34.6561
  0
LINE
  8
0
 10
132.344
 20
34.6561
 11
132.296
 21
34.6449
  0
LINE
  8
0
 10
132.296
 20
34.6449
 11
132.248
 21
34.6362
  0
LINE
  8
0
 10
132.248
 20
34.6362
 11
132.199
 21
34.63
  0
LINE
  8
0
 10
132.199
 20
34.63
 11
132.149
 21
34.6263
  0
LINE
  8
0
 10
132.149
 20
34.6263
 11
132.1
 21
34.625
  0
LINE
  8
0
 10
132.1
 20
34.625
 11
132.051
 21
34.6263
  0
LINE
  8
0
 10
53.8506
 20
-36.5737
 11
53.8014
 21
-36.57
  0
LINE
  8
0
 10
53.8014
 20
-36.57
 11
53.7524
 21
-36.5638
  0
LINE
  8
0
 10
53.7524
 20
-36.5638
 11
53.7037
 21
-36.555
  0
LINE
  8
0
 10
53.7037
 20
-36.555
 11
53.6556
 21
-36.5439
  0
LINE
  8
0
 10
53.6556
 20
-36.5439
 11
53.6081
 21
-36.5303
  0
LINE
  8
0
 10
53.6081
 20
-36.5303
 11
53.5614
 21
-36.5143
  0
LINE
  8
0
 10
53.5614
 20
-36.5143
 11
53.5155
 21
-36.496
  0
LINE
  8
0
 10
53.5155
 20
-36.496
 11
53.4706
 21
-36.4754
  0
LINE
  8
0
 10
53.4706
 20
-36.4754
 11
53.4268
 21
-36.4525
  0
LINE
  8
0
 10
53.4268
 20
-36.4525
 11
53.3843
 21
-36.4274
  0
LINE
  8
0
 10
53.3843
 20
-36.4274
 11
53.343
 21
-36.4002
  0
LINE
  8
0
 10
53.343
 20
-36.4002
 11
53.3032
 21
-36.371
  0
LINE
  8
0
 10
53.3032
 20
-36.371
 11
53.2649
 21
-36.3398
  0
LINE
  8
0
 10
53.2649
 20
-36.3398
 11
53.2283
 21
-36.3067
  0
LINE
  8
0
 10
53.2283
 20
-36.3067
 11
53.1933
 21
-36.2717
  0
LINE
  8
0
 10
53.1933
 20
-36.2717
 11
53.1602
 21
-36.2351
  0
LINE
  8
0
 10
53.1602
 20
-36.2351
 11
53.129
 21
-36.1968
  0
LINE
  8
0
 10
53.129
 20
-36.1968
 11
53.0998
 21
-36.157
  0
LINE
  8
0
 10
53.0998
 20
-36.157
 11
53.0726
 21
-36.1157
  0
LINE
  8
0
 10
53.0726
 20
-36.1157
 11
53.0475
 21
-36.0732
  0
LINE
  8
0
 10
53.0475
 20
-36.0732
 11
53.0246
 21
-36.0294
  0
LINE
  8
0
 10
53.0246
 20
-36.0294
 11
53.004
 21
-35.9845
  0
LINE
  8
0
 10
53.004
 20
-35.9845
 11
52.9857
 21
-35.9386
  0
LINE
  8
0
 10
52.9857
 20
-35.9386
 11
52.9697
 21
-35.8919
  0
LINE
  8
0
 10
52.9697
 20
-35.8919
 11
52.9561
 21
-35.8444
  0
LINE
  8
0
 10
52.9561
 20
-35.8444
 11
52.945
 21
-35.7963
  0
LINE
  8
0
 10
52.945
 20
-35.7963
 11
52.9362
 21
-35.7476
  0
LINE
  8
0
 10
52.9362
 20
-35.7476
 11
52.93
 21
-35.6986
  0
LINE
  8
0
 10
52.93
 20
-35.6986
 11
52.9263
 21
-35.6494
  0
LINE
  8
0
 10
52.9263
 20
-35.6494
 11
52.925
 21
-35.6
  0
LINE
  8
0
 10
52.925
 20
-35.6
 11
52.9263
 21
-35.5506
  0
LINE
  8
0
 10
52.9263
 20
-35.5506
 11
52.93
 21
-35.5014
  0
LINE
  8
0
 10
52.93
 20
-35.5014
 11
52.9362
 21
-35.4523
  0
LINE
  8
0
 10
52.9362
 20
-35.4523
 11
52.945
 21
-35.4037
  0
LINE
  8
0
 10
52.945
 20
-35.4037
 11
52.9561
 21
-35.3556
  0
LINE
  8
0
 10
52.9561
 20
-35.3556
 11
52.9697
 21
-35.3081
  0
LINE
  8
0
 10
52.9697
 20
-35.3081
 11
52.9857
 21
-35.2614
  0
LINE
  8
0
 10
52.9857
 20
-35.2614
 11
53.004
 21
-35.2155
  0
LINE
  8
0
 10
53.004
 20
-35.2155
 11
53.0246
 21
-35.1706
  0
LINE
  8
0
 10
53.0246
 20
-35.1706
 11
53.0475
 21
-35.1268
  0
LINE
  8
0
 10
53.0475
 20
-35.1268
 11
53.0726
 21
-35.0843
  0
LINE
  8
0
 10
53.0726
 20
-35.0843
 11
53.0998
 21
-35.043
  0
LINE
  8
0
 10
53.0998
 20
-35.043
 11
53.129
 21
-35.0032
  0
LINE
  8
0
 10
53.129
 20
-35.0032
 11
53.1602
 21
-34.9649
  0
LINE
  8
0
 10
53.1602
 20
-34.9649
 11
53.1933
 21
-34.9283
  0
LINE
  8
0
 10
53.1933
 20
-34.9283
 11
53.2283
 21
-34.8933
  0
LINE
  8
0
 10
53.2283
 20
-34.8933
 11
53.2649
 21
-34.8602
  0
LINE
  8
0
 10
53.2649
 20
-34.8602
 11
53.3032
 21
-34.829
  0
LINE
  8
0
 10
53.3032
 20
-34.829
 11
53.343
 21
-34.7997
  0
LINE
  8
0
 10
53.343
 20
-34.7997
 11
53.3843
 21
-34.7726
  0
LINE
  8
0
 10
53.3843
 20
-34.7726
 11
53.4268
 21
-34.7475
  0
LINE
  8
0
 10
53.4268
 20
-34.7475
 11
53.4706
 21
-34.7246
  0
LINE
  8
0
 10
53.4706
 20
-34.7246
 11
53.5155
 21
-34.704
  0
LINE
  8
0
 10
53.5155
 20
-34.704
 11
53.5614
 21
-34.6857
  0
LINE
  8
0
 10
53.5614
 20
-34.6857
 11
53.6081
 21
-34.6697
  0
LINE
  8
0
 10
53.6081
 20
-34.6697
 11
53.6556
 21
-34.6561
  0
LINE
  8
0
 10
53.6556
 20
-34.6561
 11
53.7037
 21
-34.6449
  0
LINE
  8
0
 10
53.7037
 20
-34.6449
 11
53.7524
 21
-34.6362
  0
LINE
  8
0
 10
53.7524
 20
-34.6362
 11
53.8014
 21
-34.63
  0
LINE
  8
0
 10
53.8014
 20
-34.63
 11
53.8506
 21
-34.6263
  0
LINE
  8
0
 10
53.8506
 20
-34.6263
 11
53.9
 21
-34.625
  0
LINE
  8
0
 10
53.9
 20
-34.625
 11
53.9494
 21
-34.6263
  0
LINE
  8
0
 10
53.9494
 20
-34.6263
 11
53.9986
 21
-34.63
  0
LINE
  8
0
 10
53.9986
 20
-34.63
 11
54.0477
 21
-34.6362
  0
LINE
  8
0
 10
54.0477
 20
-34.6362
 11
54.0963
 21
-34.6449
  0
LINE
  8
0
 10
54.0963
 20
-34.6449
 11
54.1444
 21
-34.6561
  0
LINE
  8
0
 10
54.1444
 20
-34.6561
 11
54.1919
 21
-34.6697
  0
LINE
  8
0
 10
54.1919
 20
-34.6697
 11
54.2386
 21
-34.6857
  0
LINE
  8
0
 10
54.2386
 20
-34.6857
 11
54.2845
 21
-34.704
  0
LINE
  8
0
 10
54.2845
 20
-34.704
 11
54.3294
 21
-34.7246
  0
LINE
  8
0
 10
54.3294
 20
-34.7246
 11
54.3732
 21
-34.7475
  0
LINE
  8
0
 10
54.3732
 20
-34.7475
 11
54.4157
 21
-34.7726
  0
LINE
  8
0
 10
54.4157
 20
-34.7726
 11
54.457
 21
-34.7997
  0
LINE
  8
0
 10
54.457
 20
-34.7997
 11
54.4968
 21
-34.829
  0
LINE
  8
0
 10
54.4968
 20
-34.829
 11
54.5351
 21
-34.8602
  0
LINE
  8
0
 10
54.5351
 20
-34.8602
 11
54.5717
 21
-34.8933
  0
LINE
  8
0
 10
54.5717
 20
-34.8933
 11
54.6067
 21
-34.9283
  0
LINE
  8
0
 10
54.6067
 20
-34.9283
 11
54.6398
 21
-34.9649
  0
LINE
  8
0
 10
54.6398
 20
-34.9649
 11
54.671
 21
-35.0032
  0
LINE
  8
0
 10
54.671
 20
-35.0032
 11
54.7003
 21
-35.043
  0
LINE
  8
0
 10
54.7003
 20
-35.043
 11
54.7274
 21
-35.0843
  0
LINE
  8
0
 10
54.7274
 20
-35.0843
 11
54.7525
 21
-35.1268
  0
LINE
  8
0
 10
54.7525
 20
-35.1268
 11
54.7754
 21
-35.1706
  0
LINE
  8
0
 10
54.7754
 20
-35.1706
 11
54.796
 21
-35.2155
  0
LINE
  8
0
 10
54.796
 20
-35.2155
 11
54.8143
 21
-35.2614
  0
LINE
  8
0
 10
54.8143
 20
-35.2614
 11
54.8303
 21
-35.3081
  0
LINE
  8
0
 10
54.8303
 20
-35.3081
 11
54.8439
 21
-35.3556
  0
LINE
  8
0
 10
54.8439
 20
-35.3556
 11
54.8551
 21
-35.4037
  0
LINE
  8
0
 10
54.8551
 20
-35.4037
 11
54.8638
 21
-35.4523
  0
LINE
  8
0
 10
54.8638
 20
-35.4523
 11
54.87
 21
-35.5014
  0
LINE
  8
0
 10
54.87
 20
-35.5014
 11
54.8737
 21
-35.5506
  0
LINE
  8
0
 10
54.8737
 20
-35.5506
 11
54.875
 21
-35.6
  0
LINE
  8
0
 10
54.875
 20
-35.6
 11
54.8737
 21
-35.6494
  0
LINE
  8
0
 10
54.8737
 20
-35.6494
 11
54.87
 21
-35.6986
  0
LINE
  8
0
 10
54.87
 20
-35.6986
 11
54.8638
 21
-35.7476
  0
LINE
  8
0
 10
54.8638
 20
-35.7476
 11
54.8551
 21
-35.7963
  0
LINE
  8
0
 10
54.8551
 20
-35.7963
 11
54.8439
 21
-35.8444
  0
LINE
  8
0
 10
54.8439
 20
-35.8444
 11
54.8303
 21
-35.8919
  0
LINE
  8
0
 10
54.8303
 20
-35.8919
 11
54.8143
 21
-35.9386
  0
LINE
  8
0
 10
54.8143
 20
-35.9386
 11
54.796
 21
-35.9845
  0
LINE
  8
0
 10
54.796
 20
-35.9845
 11
54.7754
 21
-36.0294
  0
LINE
  8
0
 10
54.7754
 20
-36.0294
 11
54.7525
 21
-36.0732
  0
LINE
  8
0
 10
54.7525
 20
-36.0732
 11
54.7274
 21
-36.1157
  0
LINE
  8
0
 10
54.7274
 20
-36.1157
 11
54.7003
 21
-36.157
  0
LINE
  8
0
 10
54.7003
 20
-36.157
 11
54.671
 21
-36.1968
  0
LINE
  8
0
 10
54.671
 20
-36.1968
 11
54.6398
 21
-36.2351
  0
LINE
  8
0
 10
54.6398
 20
-36.2351
 11
54.6067
 21
-36.2717
  0
LINE
  8
0
 10
54.6067
 20
-36.2717
 11
54.5717
 21
-36.3067
  0
LINE
  8
0
 10
54.5717
 20
-36.3067
 11
54.5351
 21
-36.3398
  0
LINE
  8
0
 10
54.5351
 20
-36.3398
 11
54.4968
 21
-36.371
  0
LINE
  8
0
 10
54.4968
 20
-36.371
 11
54.457
 21
-36.4002
  0
LINE
  8
0
 10
54.457
 20
-36.4002
 11
54.4157
 21
-36.4274
  0
LINE
  8
0
 10
54.4157
 20
-36.4274
 11
54.3732
 21
-36.4525
  0
LINE
  8
0
 10
54.3732
 20
-36.4525
 11
54.3294
 21
-36.4754
  0
LINE
  8
0
 10
54.3294
 20
-36.4754
 11
54.2845
 21
-36.496
  0
LINE
  8
0
 10
54.2845
 20
-36.496
 11
54.2386
 21
-36.5143
  0
LINE
  8
0
 10
54.2386
 20
-36.5143
 11
54.1919
 21
-36.5303
  0
LINE
  8
0
 10
54.1919
 20
-36.5303
 11
54.1444
 21
-36.5439
  0
LINE
  8
0
 10
54.1444
 20
-36.5439
 11
54.0963
 21
-36.555
  0
LINE
  8
0
 10
54.0963
 20
-36.555
 11
54.0477
 21
-36.5638
  0
LINE
  8
0
 10
54.0477
 20
-36.5638
 11
53.9986
 21
-36.57
  0
LINE
  8
0
 10
53.9986
 20
-36.57
 11
53.9494
 21
-36.5737
  0
LINE
  8
0
 10
53.9494
 20
-36.5737
 11
53.9
 21
-36.575
  0
LINE
  8
0
 10
53.9
 20
-36.575
 11
53.8506
 21
-36.5737
  0
LINE
  8
0
 10
132.051
 20
-36.5737
 11
132.001
 21
-36.57
  0
LINE
  8
0
 10
132.001
 20
-36.57
 11
131.952
 21
-36.5638
  0
LINE
  8
0
 10
131.952
 20
-36.5638
 11
131.904
 21
-36.555
  0
LINE
  8
0
 10
131.904
 20
-36.555
 11
131.856
 21
-36.5439
  0
LINE
  8
0
 10
131.856
 20
-36.5439
 11
131.808
 21
-36.5303
  0
LINE
  8
0
 10
131.808
 20
-36.5303
 11
131.761
 21
-36.5143
  0
LINE
  8
0
 10
131.761
 20
-36.5143
 11
131.715
 21
-36.496
  0
LINE
  8
0
 10
131.715
 20
-36.496
 11
131.671
 21
-36.4754
  0
LINE
  8
0
 10
131.671
 20
-36.4754
 11
131.627
 21
-36.4525
  0
LINE
  8
0
 10
131.627
 20
-36.4525
 11
131.584
 21
-36.4274
  0
LINE
  8
0
 10
131.584
 20
-36.4274
 11
131.543
 21
-36.4002
  0
LINE
  8
0
 10
131.543
 20
-36.4002
 11
131.503
 21
-36.371
  0
LINE
  8
0
 10
131.503
 20
-36.371
 11
131.465
 21
-36.3398
  0
LINE
  8
0
 10
131.465
 20
-36.3398
 11
131.428
 21
-36.3067
  0
LINE
  8
0
 10
131.428
 20
-36.3067
 11
131.393
 21
-36.2717
  0
LINE
  8
0
 10
131.393
 20
-36.2717
 11
131.36
 21
-36.2351
  0
LINE
  8
0
 10
131.36
 20
-36.2351
 11
131.329
 21
-36.1968
  0
LINE
  8
0
 10
131.329
 20
-36.1968
 11
131.3
 21
-36.157
  0
LINE
  8
0
 10
131.3
 20
-36.157
 11
131.273
 21
-36.1157
  0
LINE
  8
0
 10
131.273
 20
-36.1157
 11
131.247
 21
-36.0732
  0
LINE
  8
0
 10
131.247
 20
-36.0732
 11
131.225
 21
-36.0294
  0
LINE
  8
0
 10
131.225
 20
-36.0294
 11
131.204
 21
-35.9845
  0
LINE
  8
0
 10
131.204
 20
-35.9845
 11
131.186
 21
-35.9386
  0
LINE
  8
0
 10
131.186
 20
-35.9386
 11
131.17
 21
-35.8919
  0
LINE
  8
0
 10
131.17
 20
-35.8919
 11
131.156
 21
-35.8444
  0
LINE
  8
0
 10
131.156
 20
-35.8444
 11
131.145
 21
-35.7963
  0
LINE
  8
0
 10
131.145
 20
-35.7963
 11
131.136
 21
-35.7476
  0
LINE
  8
0
 10
131.136
 20
-35.7476
 11
131.13
 21
-35.6986
  0
LINE
  8
0
 10
131.13
 20
-35.6986
 11
131.126
 21
-35.6494
  0
LINE
  8
0
 10
131.126
 20
-35.6494
 11
131.125
 21
-35.6
  0
LINE
  8
0
 10
131.125
 20
-35.6
 11
131.126
 21
-35.5506
  0
LINE
  8
0
 10
131.126
 20
-35.5506
 11
131.13
 21
-35.5014
  0
LINE
  8
0
 10
131.13
 20
-35.5014
 11
131.136
 21
-35.4523
  0
LINE
  8
0
 10
131.136
 20
-35.4523
 11
131.145
 21
-35.4037
  0
LINE
  8
0
 10
131.145
 20
-35.4037
 11
131.156
 21
-35.3556
  0
LINE
  8
0
 10
131.156
 20
-35.3556
 11
131.17
 21
-35.3081
  0
LINE
  8
0
 10
131.17
 20
-35.3081
 11
131.186
 21
-35.2614
  0
LINE
  8
0
 10
131.186
 20
-35.2614
 11
131.204
 21
-35.2155
  0
LINE
  8
0
 10
131.204
 20
-35.2155
 11
131.225
 21
-35.1706
  0
LINE
  8
0
 10
131.225
 20
-35.1706
 11
131.247
 21
-35.1268
  0
LINE
  8
0
 10
131.247
 20
-35.1268
 11
131.273
 21
-35.0843
  0
LINE
  8
0
 10
131.273
 20
-35.0843
 11
131.3
 21
-35.043
  0
LINE
  8
0
 10
131.3
 20
-35.043
 11
131.329
 21
-35.0032
  0
LINE
  8
0
 10
131.329
 20
-35.0032
 11
131.36
 21
-34.9649
  0
LINE
  8
0
 10
131.36
 20
-34.9649
 11
131.393
 21
-34.9283
  0
LINE
  8
0
 10
131.393
 20
-34.9283
 11
131.428
 21
-34.8933
  0
LINE
  8
0
 10
131.428
 20
-34.8933
 11
131.465
 21
-34.8602
  0
LINE
  8
0
 10
131.465
 20
-34.8602
 11
131.503
 21
-34.829
  0
LINE
  8
0
 10
131.503
 20
-34.829
 11
131.543
 21
-34.7997
  0
LINE
  8
0
 10
131.543
 20
-34.7997
 11
131.584
 21
-34.7726
  0
LINE
  8
0
 10
131.584
 20
-34.7726
 11
131.627
 21
-34.7475
  0
LINE
  8
0
 10
131.627
 20
-34.7475
 11
131.671
 21
-34.7246
  0
LINE
  8
0
 10
131.671
 20
-34.7246
 11
131.715
 21
-34.704
  0
LINE
  8
0
 10
131.715
 20
-34.704
 11
131.761
 21
-34.6857
  0
LINE
  8
0
 10
131.761
 20
-34.6857
 11
131.808
 21
-34.6697
  0
LINE
  8
0
 10
131.808
 20
-34.6697
 11
131.856
 21
-34.6561
  0
LINE
  8
0
 10
131.856
 20
-34.6561
 11
131.904
 21
-34.6449
  0
LINE
  8
0
 10
131.904
 20
-34.6449
 11
131.952
 21
-34.6362
  0
LINE
  8
0
 10
131.952
 20
-34.6362
 11
132.001
 21
-34.63
  0
LINE
  8
0
 10
132.001
 20
-34.63
 11
132.051
 21
-34.6263
  0
LINE
  8
0
 10
132.051
 20
-34.6263
 11
132.1
 21
-34.625
  0
LINE
  8
0
 10
132.1
 20
-34.625
 11
132.149
 21
-34.6263
  0
LINE
  8
0
 10
132.149
 20
-34.6263
 11
132.199
 21
-34.63
  0
LINE
  8
0
 10
132.199
 20
-34.63
 11
132.248
 21
-34.6362
  0
LINE
  8
0
 10
132.248
 20
-34.6362
 11
132.296
 21
-34.6449
  0
LINE
  8
0
 10
132.296
 20
-34.6449
 11
132.344
 21
-34.6561
  0
LINE
  8
0
 10
132.344
 20
-34.6561
 11
132.392
 21
-34.6697
  0
LINE
  8
0
 10
132.392
 20
-34.6697
 11
132.439
 21
-34.6857
  0
LINE
  8
0
 10
132.439
 20
-34.6857
 11
132.484
 21
-34.704
  0
LINE
  8
0
 10
132.484
 20
-34.704
 11
132.529
 21
-34.7246
  0
LINE
  8
0
 10
132.529
 20
-34.7246
 11
132.573
 21
-34.7475
  0
LINE
  8
0
 10
132.573
 20
-34.7475
 11
132.616
 21
-34.7726
  0
LINE
  8
0
 10
132.616
 20
-34.7726
 11
132.657
 21
-34.7997
  0
LINE
  8
0
 10
132.657
 20
-34.7997
 11
132.697
 21
-34.829
  0
LINE
  8
0
 10
132.697
 20
-34.829
 11
132.735
 21
-34.8602
  0
LINE
  8
0
 10
132.735
 20
-34.8602
 11
132.772
 21
-34.8933
  0
LINE
  8
0
 10
132.772
 20
-34.8933
 11
132.807
 21
-34.9283
  0
LINE
  8
0
 10
132.807
 20
-34.9283
 11
132.84
 21
-34.9649
  0
LINE
  8
0
 10
132.84
 20
-34.9649
 11
132.871
 21
-35.0032
  0
LINE
  8
0
 10
132.871
 20
-35.0032
 11
132.9
 21
-35.043
  0
LINE
  8
0
 10
132.9
 20
-35.043
 11
132.927
 21
-35.0843
  0
LINE
  8
0
 10
132.927
 20
-35.0843
 11
132.952
 21
-35.1268
  0
LINE
  8
0
 10
132.952
 20
-35.1268
 11
132.975
 21
-35.1706
  0
LINE
  8
0
 10
132.975
 20
-35.1706
 11
132.996
 21
-35.2155
  0
LINE
  8
0
 10
132.996
 20
-35.2155
 11
133.014
 21
-35.2614
  0
LINE
  8
0
 10
133.014
 20
-35.2614
 11
133.03
 21
-35.3081
  0
LINE
  8
0
 10
133.03
 20
-35.3081
 11
133.044
 21
-35.3556
  0
LINE
  8
0
 10
133.044
 20
-35.3556
 11
133.055
 21
-35.4037
  0
LINE
  8
0
 10
133.055
 20
-35.4037
 11
133.064
 21
-35.4523
  0
LINE
  8
0
 10
133.064
 20
-35.4523
 11
133.07
 21
-35.5014
  0
LINE
  8
0
 10
133.07
 20
-35.5014
 11
133.074
 21
-35.5506
  0
LINE
  8
0
 10
133.074
 20
-35.5506
 11
133.075
 21
-35.6
  0
LINE
  8
0
 10
133.075
 20
-35.6
 11
133.074
 21
-35.6494
  0
LINE
  8
0
 10
133.074
 20
-35.6494
 11
133.07
 21
-35.6986
  0
LINE
  8
0
 10
133.07
 20
-35.6986
 11
133.064
 21
-35.7476
  0
LINE
  8
0
 10
133.064
 20
-35.7476
 11
133.055
 21
-35.7963
  0
LINE
  8
0
 10
133.055
 20
-35.7963
 11
133.044
 21
-35.8444
  0
LINE
  8
0
 10
133.044
 20
-35.8444
 11
133.03
 21
-35.8919
  0
LINE
  8
0
 10
133.03
 20
-35.8919
 11
133.014
 21
-35.9386
  0
LINE
  8
0
 10
133.014
 20
-35.9386
 11
132.996
 21
-35.9845
  0
LINE
  8
0
 10
132.996
 20
-35.9845
 11
132.975
 21
-36.0294
  0
LINE
  8
0
 10
132.975
 20
-36.0294
 11
132.952
 21
-36.0732
  0
LINE
  8
0
 10
132.952
 20
-36.0732
 11
132.927
 21
-36.1157
  0
LINE
  8
0
 10
132.927
 20
-36.1157
 11
132.9
 21
-36.157
  0
LINE
  8
0
 10
132.9
 20
-36.157
 11
132.871
 21
-36.1968
  0
LINE
  8
0
 10
132.871
 20
-36.1968
 11
132.84
 21
-36.2351
  0
LINE
  8
0
 10
132.84
 20
-36.2351
 11
132.807
 21
-36.2717
  0
LINE
  8
0
 10
132.807
 20
-36.2717
 11
132.772
 21
-36.3067
  0
LINE
  8
0
 10
132.772
 20
-36.3067
 11
132.735
 21
-36.3398
  0
LINE
  8
0
 10
132.735
 20
-36.3398
 11
132.697
 21
-36.371
  0
LINE
  8
0
 10
132.697
 20
-36.371
 11
132.657
 21
-36.4002
  0
LINE
  8
0
 10
132.657
 20
-36.4002
 11
132.616
 21
-36.4274
  0
LINE
  8
0
 10
132.616
 20
-36.4274
 11
132.573
 21
-36.4525
  0
LINE
  8
0
 10
132.573
 20
-36.4525
 11
132.529
 21
-36.4754
  0
LINE
  8
0
 10
132.529
 20
-36.4754
 11
132.484
 21
-36.496
  0
LINE
  8
0
 10
132.484
 20
-36.496
 11
132.439
 21
-36.5143
  0
LINE
  8
0
 10
132.439
 20
-36.5143
 11
132.392
 21
-36.5303
  0
LINE
  8
0
 10
132.392
 20
-36.5303
 11
132.344
 21
-36.5439
  0
LINE
  8
0
 10
132.344
 20
-36.5439
 11
132.296
 21
-36.555
  0
LINE
  8
0
 10
132.296
 20
-36.555
 11
132.248
 21
-36.5638
  0
LINE
  8
0
 10
132.248
 20
-36.5638
 11
132.199
 21
-36.57
  0
LINE
  8
0
 10
132.199
 20
-36.57
 11
132.149
 21
-36.5737
  0
LINE
  8
0
 10
132.149
 20
-36.5737
 11
132.1
 21
-36.575
  0
LINE
  8
0
 10
132.1
 20
-36.575
 11
132.051
 21
-36.5737
  0
ENDSEC
  0
SECTION
  2
OBJECTS
  0
DICTIONARY
  0
ENDSEC
  0
EOF
