999
dxfrw 0.6.3
  0
SECTION
  2
HEADER
  9
$ACADVER
  1
AC1021
  9
$DWGCODEPAGE
  3
ANSI_1252
  9
$INSBASE
 10
0
 20
0
 30
0
  9
$EXTMIN
 10
-3.464101615137753
 20
-183
 30
0
  9
$EXTMAX
 10
141.7320508075689
 20
46.0000000000001
 30
0
  9
$LIMMIN
 10
0
 20
0
  9
$LIMMAX
 10
420
 20
297
  9
$ORTHOMODE
 70
    0
  9
$REGENMODE
 70
    1
  9
$FILLMODE
 70
    1
  9
$QTEXTMODE
 70
    0
  9
$MIRRTEXT
 70
    0
  9
$LTSCALE
 40
1
  9
$ATTMODE
 70
    0
  9
$TEXTSIZE
 40
2.5
  9
$TRACEWID
 40
15.68
  9
$TEXTSTYLE
  7
STANDARD
  9
$CLAYER
  8
0
  9
$CELTYPE
  6
BYLAYER
  9
$CECOLOR
 62
  256
  9
$CELTSCALE
 40
1
  9
$DISPSILH
 70
    0
  9
$DIMSCALE
 40
2.5
  9
$DIMASZ
 40
2.5
  9
$DIMEXO
 40
0.625
  9
$DIMDLI
 40
3.75
  9
$DIMRND
 40
0
  9
$DIMDLE
 40
0
  9
$DIMEXE
 40
1.25
  9
$DIMTP
 40
0
  9
$DIMTM
 40
0
  9
$DIMTXT
 40
2.5
  9
$DIMCEN
 40
2.5
  9
$DIMTSZ
 40
0
  9
$DIMTOL
 70
    0
  9
$DIMLIM
 70
    0
  9
$DIMTIH
 70
    0
  9
$DIMTOH
 70
    0
  9
$DIMSE1
 70
    0
  9
$DIMSE2
 70
    0
  9
$DIMTAD
 70
    1
  9
$DIMZIN
 70
    8
  9
$DIMBLK
  1

  9
$DIMASO
 70
    1
  9
$DIMSHO
 70
    1
  9
$DIMPOST
  1

  9
$DIMAPOST
  1

  9
$DIMALT
 70
    0
  9
$DIMALTD
 70
    3
  9
$DIMALTF
 40
0.03937
  9
$DIMLFAC
 40
1
  9
$DIMTOFL
 70
    1
  9
$DIMTVP
 40
0
  9
$DIMTIX
 70
    0
  9
$DIMSOXD
 70
    0
  9
$DIMSAH
 70
    0
  9
$DIMBLK1
  1

  9
$DIMBLK2
  1

  9
$DIMSTYLE
  2
STANDARD
  9
$DIMCLRD
 70
    0
  9
$DIMCLRE
 70
    0
  9
$DIMCLRT
 70
    0
  9
$DIMTFAC
 40
1
  9
$DIMGAP
 40
0.625
  9
$DIMJUST
 70
    0
  9
$DIMSD1
 70
    0
  9
$DIMSD2
 70
    0
  9
$DIMTOLJ
 70
    0
  9
$DIMTZIN
 70
    8
  9
$DIMALTZ
 70
    0
  9
$DIMALTTZ
 70
    0
  9
$DIMUPT
 70
    0
  9
$DIMDEC
 70
    2
  9
$DIMTDEC
 70
    2
  9
$DIMALTU
 70
    2
  9
$DIMALTTD
 70
    3
  9
$DIMTXSTY
  7
STANDARD
  9
$DIMAUNIT
 70
    0
  9
$DIMADEC
 70
    0
  9
$DIMALTRND
 40
0
  9
$DIMAZIN
 70
    0
  9
$DIMDSEP
 70
   44
  9
$DIMATFIT
 70
    3
  9
$DIMFRAC
 70
    0
  9
$DIMLDRBLK
  1
STANDARD
  9
$DIMLUNIT
 70
    2
  9
$DIMLWD
 70
   -2
  9
$DIMLWE
 70
   -2
  9
$DIMTMOVE
 70
    0
  9
$DIMFXL
 40
1
  9
$DIMFXLON
 70
    0
  9
$DIMJOGANG
 40
0.7854
  9
$DIMTFILL
 70
    0
  9
$DIMTFILLCLR
 70
    0
  9
$DIMARCSYM
 70
    0
  9
$DIMLTYPE
  6

  9
$DIMLTEX1
  6

  9
$DIMLTEX2
  6

  9
$LUNITS
 70
    2
  9
$LUPREC
 70
    4
  9
$SKETCHINC
 40
1
  9
$FILLETRAD
 40
0
  9
$AUNITS
 70
    0
  9
$AUPREC
 70
    2
  9
$MENU
  1
.
  9
$ELEVATION
 40
0
  9
$PELEVATION
 40
0
  9
$THICKNESS
 40
0
  9
$LIMCHECK
 70
    0
  9
$CHAMFERA
 40
0
  9
$CHAMFERB
 40
0
  9
$CHAMFERC
 40
0
  9
$CHAMFERD
 40
0
  9
$SKPOLY
 70
    0
  9
$USRTIMER
 70
    1
  9
$ANGBASE
 50
0
  9
$ANGDIR
 70
    0
  9
$PDMODE
 70
   34
  9
$PDSIZE
 40
0
  9
$PLINEWID
 40
0
  9
$SPLFRAME
 70
    0
  9
$SPLINETYPE
 70
    2
  9
$SPLINESEGS
 70
    8
  9
$HANDSEED
  5
20000
  9
$SURFTAB1
 70
    6
  9
$SURFTAB2
 70
    6
  9
$SURFTYPE
 70
    6
  9
$SURFU
 70
    6
  9
$SURFV
 70
    6
  9
$UCSBASE
  2

  9
$UCSNAME
  2

  9
$UCSORG
 10
0
 20
0
 30
0
  9
$UCSXDIR
 10
1
 20
0
 30
0
  9
$UCSYDIR
 10
0
 20
1
 30
0
  9
$UCSORTHOREF
  2

  9
$UCSORTHOVIEW
 70
    0
  9
$UCSORGTOP
 10
0
 20
0
 30
0
  9
$UCSORGBOTTOM
 10
0
 20
0
 30
0
  9
$UCSORGLEFT
 10
0
 20
0
 30
0
  9
$UCSORGRIGHT
 10
0
 20
0
 30
0
  9
$UCSORGFRONT
 10
0
 20
0
 30
0
  9
$UCSORGBACK
 10
0
 20
0
 30
0
  9
$PUCSBASE
  2

  9
$PUCSNAME
  2

  9
$PUCSORG
 10
0
 20
0
 30
0
  9
$PUCSXDIR
 10
1
 20
0
 30
0
  9
$PUCSYDIR
 10
0
 20
1
 30
0
  9
$PUCSORTHOREF
  2

  9
$PUCSORTHOVIEW
 70
    0
  9
$PUCSORGTOP
 10
0
 20
0
 30
0
  9
$PUCSORGBOTTOM
 10
0
 20
0
 30
0
  9
$PUCSORGLEFT
 10
0
 20
0
 30
0
  9
$PUCSORGRIGHT
 10
0
 20
0
 30
0
  9
$PUCSORGFRONT
 10
0
 20
0
 30
0
  9
$PUCSORGBACK
 10
0
 20
0
 30
0
  9
$USERI1
 70
    0
  9
$USERI2
 70
    0
  9
$USERI3
 70
    0
  9
$USERI4
 70
    0
  9
$USERI5
 70
    0
  9
$USERR1
 40
0
  9
$USERR2
 40
0
  9
$USERR3
 40
0
  9
$USERR4
 40
0
  9
$USERR5
 40
0
  9
$WORLDVIEW
 70
    1
  9
$SHADEDGE
 70
    3
  9
$SHADEDIF
 70
   70
  9
$TILEMODE
 70
    1
  9
$MAXACTVP
 70
   64
  9
$PINSBASE
 10
0
 20
0
 30
0
  9
$PLIMCHECK
 70
    0
  9
$PEXTMIN
 10
0
 20
0
 30
0
  9
$PEXTMAX
 10
0
 20
0
 30
0
  9
$GRIDMODE
 70
    1
  9
$SNAPSTYLE
 70
    0
  9
$PLIMMIN
 10
0
 20
0
  9
$PLIMMAX
 10
210
 20
297
  9
$UNITMODE
 70
    0
  9
$VISRETAIN
 70
    1
  9
$PLINEGEN
 70
    0
  9
$PSLTSCALE
 70
    1
  9
$TREEDEPTH
 70
 3020
  9
$CMLSTYLE
  2
Standard
  9
$CMLJUST
 70
    0
  9
$CMLSCALE
 40
20
  9
$PROXYGRAPHICS
 70
    1
  9
$MEASUREMENT
 70
    1
  9
$CELWEIGHT
370
   -1
  9
$ENDCAPS
280
    0
  9
$JOINSTYLE
280
    0
  9
$LWDISPLAY
290
    0
  9
$INSUNITS
 70
    4
  9
$HYPERLINKBASE
  1

  9
$STYLESHEET
  1

  9
$XEDIT
290
    1
  9
$CEPSNTYPE
380
    0
  9
$PSTYLEMODE
290
    1
  9
$EXTNAMES
290
    1
  9
$PSVPSCALE
 40
1
  9
$OLESTARTUP
290
    0
  9
$SORTENTS
280
  127
  9
$INDEXCTL
280
    0
  9
$HIDETEXT
280
    1
  9
$XCLIPFRAME
290
    0
  9
$HALOGAP
280
    0
  9
$OBSCOLOR
 70
  257
  9
$OBSLTYPE
280
    0
  9
$INTERSECTIONDISPLAY
280
    0
  9
$INTERSECTIONCOLOR
 70
  257
  9
$DIMASSOC
280
    1
  9
$PROJECTNAME
  1

  9
$CAMERADISPLAY
290
    0
  9
$LENSLENGTH
 40
50
  9
$CAMERAHEIGHT
 40
0
  9
$STEPSPERSEC
 40
2
  9
$STEPSIZE
 40
50
  9
$3DDWFPREC
 40
2
  9
$PSOLWIDTH
 40
5
  9
$PSOLHEIGHT
 40
80
  9
$LOFTANG1
 40
1.570796326794897
  9
$LOFTANG2
 40
1.570796326794897
  9
$LOFTMAG1
 40
0
  9
$LOFTMAG2
 40
0
  9
$LOFTPARAM
 70
    7
  9
$LOFTNORMALS
280
    1
  9
$LATITUDE
 40
1
  9
$LONGITUDE
 40
1
  9
$NORTHDIRECTION
 40
0
  9
$TIMEZONE
 70
-8000
  9
$LIGHTGLYPHDISPLAY
280
    1
  9
$TILEMODELIGHTSYNCH
280
    1
  9
$SOLIDHIST
280
    1
  9
$SHOWHIST
280
    1
  9
$DWFFRAME
280
    2
  9
$DGNFRAME
280
    0
  9
$REALWORLDSCALE
290
    1
  9
$INTERFERECOLOR
 62
    1
  9
$CSHADOW
280
    0
  9
$SHADOWPLANELOCATION
 40
0
  0
ENDSEC
  0
SECTION
  2
CLASSES
  0
ENDSEC
  0
SECTION
  2
TABLES
  0
TABLE
  2
VPORT
  5
8
330
0
100
AcDbSymbolTable
 70
    1
  0
VPORT
  5
31
330
2
100
AcDbSymbolTableRecord
100
AcDbViewportTableRecord
  2
*ACTIVE
 70
    0
 10
0
 20
0
 11
1
 21
1
 12
135.9535579347497
 22
34.20686397990948
 13
0
 23
0
 14
10
 24
10
 15
10
 25
10
 16
0
 26
0
 36
1
 17
0
 27
0
 37
0
 40
204.7418136023779
 41
1.936585365853658
 42
50
 43
0
 44
0
 50
0
 51
0
 71
    0
 72
  100
 73
    1
 74
    3
 75
    0
 76
    1
 77
    0
 78
    0
281
    0
 65
    1
110
0
120
0
130
0
111
1
121
0
131
0
112
0
122
1
132
0
 79
    0
146
0
348
10020
 60
    7
 61
    5
292
1
282
    1
141
0
142
0
 63
  250
421
3358443
  0
ENDTAB
  0
TABLE
  2
LTYPE
  5
5
330
0
100
AcDbSymbolTable
 70
    4
  0
LTYPE
  5
14
330
5
100
AcDbSymbolTableRecord
100
AcDbLinetypeTableRecord
  2
ByBlock
 70
    0
  3

 72
   65
 73
    0
 40
0
  0
LTYPE
  5
15
330
5
100
AcDbSymbolTableRecord
100
AcDbLinetypeTableRecord
  2
ByLayer
 70
    0
  3

 72
   65
 73
    0
 40
0
  0
LTYPE
  5
16
330
5
100
AcDbSymbolTableRecord
100
AcDbLinetypeTableRecord
  2
Continuous
 70
    0
  3
Solid line
 72
   65
 73
    0
 40
0
  0
LTYPE
  5
32
330
5
100
AcDbSymbolTableRecord
100
AcDbLinetypeTableRecord
  2
DOT
 70
    0
  3
Dot . . . . . . . . . . . . . . . . . . . . . .
 72
   65
 73
    2
 40
6.35
 49
0
 74
    0
 49
-6.35
 74
    0
  0
LTYPE
  5
33
330
5
100
AcDbSymbolTableRecord
100
AcDbLinetypeTableRecord
  2
DOTTINY
 70
    0
  3
Dot (.15x) .....................................
 72
   65
 73
    2
 40
0.9525
 49
0
 74
    0
 49
-0.9525
 74
    0
  0
LTYPE
  5
34
330
5
100
AcDbSymbolTableRecord
100
AcDbLinetypeTableRecord
  2
DOT2
 70
    0
  3
Dot (.5x) .....................................
 72
   65
 73
    2
 40
3.175
 49
0
 74
    0
 49
-3.175
 74
    0
  0
LTYPE
  5
35
330
5
100
AcDbSymbolTableRecord
100
AcDbLinetypeTableRecord
  2
DOTX2
 70
    0
  3
Dot (2x) .  .  .  .  .  .  .  .  .  .  .  .  .
 72
   65
 73
    2
 40
12.7
 49
0
 74
    0
 49
-12.7
 74
    0
  0
LTYPE
  5
36
330
5
100
AcDbSymbolTableRecord
100
AcDbLinetypeTableRecord
  2
DASHED
 70
    0
  3
Dashed _ _ _ _ _ _ _ _ _ _ _ _ _ _ _ _ _
 72
   65
 73
    2
 40
19.05
 49
12.7
 74
    0
 49
-6.35
 74
    0
  0
LTYPE
  5
37
330
5
100
AcDbSymbolTableRecord
100
AcDbLinetypeTableRecord
  2
DASHEDTINY
 70
    0
  3
Dashed (.15x) _ _ _ _ _ _ _ _ _ _ _ _ _ _ _ _ _
 72
   65
 73
    2
 40
2.8575
 49
1.905
 74
    0
 49
-0.9525
 74
    0
  0
LTYPE
  5
38
330
5
100
AcDbSymbolTableRecord
100
AcDbLinetypeTableRecord
  2
DASHED2
 70
    0
  3
Dashed (.5x) _ _ _ _ _ _ _ _ _ _ _ _ _ _ _ _ _
 72
   65
 73
    2
 40
9.524999999999999
 49
6.35
 74
    0
 49
-3.175
 74
    0
  0
LTYPE
  5
39
330
5
100
AcDbSymbolTableRecord
100
AcDbLinetypeTableRecord
  2
DASHEDX2
 70
    0
  3
Dashed (2x) ____  ____  ____  ____  ____  ___
 72
   65
 73
    2
 40
38.09999999999999
 49
25.4
 74
    0
 49
-12.7
 74
    0
  0
LTYPE
  5
3A
330
5
100
AcDbSymbolTableRecord
100
AcDbLinetypeTableRecord
  2
DASHDOT
 70
    0
  3
Dash dot __ . __ . __ . __ . __ . __ . __ . __
 72
   65
 73
    4
 40
25.4
 49
12.7
 74
    0
 49
-6.35
 74
    0
 49
0
 74
    0
 49
-6.35
 74
    0
  0
LTYPE
  5
3B
330
5
100
AcDbSymbolTableRecord
100
AcDbLinetypeTableRecord
  2
DASHDOTTINY
 70
    0
  3
Dash dot (.15x) _._._._._._._._._._._._._._._.
 72
   65
 73
    4
 40
3.81
 49
1.905
 74
    0
 49
-0.9525
 74
    0
 49
0
 74
    0
 49
-0.9525
 74
    0
  0
LTYPE
  5
3C
330
5
100
AcDbSymbolTableRecord
100
AcDbLinetypeTableRecord
  2
DASHDOT2
 70
    0
  3
Dash dot (.5x) _._._._._._._._._._._._._._._.
 72
   65
 73
    4
 40
12.7
 49
6.35
 74
    0
 49
-3.175
 74
    0
 49
0
 74
    0
 49
-3.175
 74
    0
  0
LTYPE
  5
3D
330
5
100
AcDbSymbolTableRecord
100
AcDbLinetypeTableRecord
  2
DASHDOTX2
 70
    0
  3
Dash dot (2x) ____  .  ____  .  ____  .  ___
 72
   65
 73
    4
 40
50.8
 49
25.4
 74
    0
 49
-12.7
 74
    0
 49
0
 74
    0
 49
-12.7
 74
    0
  0
LTYPE
  5
3E
330
5
100
AcDbSymbolTableRecord
100
AcDbLinetypeTableRecord
  2
DIVIDE
 70
    0
  3
Divide ____ . . ____ . . ____ . . ____ . . ____
 72
   65
 73
    6
 40
31.75
 49
12.7
 74
    0
 49
-6.35
 74
    0
 49
0
 74
    0
 49
-6.35
 74
    0
 49
0
 74
    0
 49
-6.35
 74
    0
  0
LTYPE
  5
3F
330
5
100
AcDbSymbolTableRecord
100
AcDbLinetypeTableRecord
  2
DIVIDETINY
 70
    0
  3
Divide (.15x) __..__..__..__..__..__..__..__.._
 72
   65
 73
    6
 40
4.7625
 49
1.905
 74
    0
 49
-0.9525
 74
    0
 49
0
 74
    0
 49
-0.9525
 74
    0
 49
0
 74
    0
 49
-0.9525
 74
    0
  0
LTYPE
  5
40
330
5
100
AcDbSymbolTableRecord
100
AcDbLinetypeTableRecord
  2
DIVIDE2
 70
    0
  3
Divide (.5x) __..__..__..__..__..__..__..__.._
 72
   65
 73
    6
 40
15.875
 49
6.35
 74
    0
 49
-3.175
 74
    0
 49
0
 74
    0
 49
-3.175
 74
    0
 49
0
 74
    0
 49
-3.175
 74
    0
  0
LTYPE
  5
41
330
5
100
AcDbSymbolTableRecord
100
AcDbLinetypeTableRecord
  2
DIVIDEX2
 70
    0
  3
Divide (2x) ________  .  .  ________  .  .  _
 72
   65
 73
    6
 40
63.5
 49
25.4
 74
    0
 49
-12.7
 74
    0
 49
0
 74
    0
 49
-12.7
 74
    0
 49
0
 74
    0
 49
-12.7
 74
    0
  0
LTYPE
  5
42
330
5
100
AcDbSymbolTableRecord
100
AcDbLinetypeTableRecord
  2
BORDER
 70
    0
  3
Border __ __ . __ __ . __ __ . __ __ . __ __ .
 72
   65
 73
    6
 40
44.45
 49
12.7
 74
    0
 49
-6.35
 74
    0
 49
12.7
 74
    0
 49
-6.35
 74
    0
 49
0
 74
    0
 49
-6.35
 74
    0
  0
LTYPE
  5
43
330
5
100
AcDbSymbolTableRecord
100
AcDbLinetypeTableRecord
  2
BORDERTINY
 70
    0
  3
Border (.15x) __.__.__.__.__.__.__.__.__.__.__.
 72
   65
 73
    6
 40
6.6675
 49
1.905
 74
    0
 49
-0.9525
 74
    0
 49
1.905
 74
    0
 49
-0.9525
 74
    0
 49
0
 74
    0
 49
-0.9525
 74
    0
  0
LTYPE
  5
44
330
5
100
AcDbSymbolTableRecord
100
AcDbLinetypeTableRecord
  2
BORDER2
 70
    0
  3
Border (.5x) __.__.__.__.__.__.__.__.__.__.__.
 72
   65
 73
    6
 40
22.225
 49
6.35
 74
    0
 49
-3.175
 74
    0
 49
6.35
 74
    0
 49
-3.175
 74
    0
 49
0
 74
    0
 49
-3.175
 74
    0
  0
LTYPE
  5
45
330
5
100
AcDbSymbolTableRecord
100
AcDbLinetypeTableRecord
  2
BORDERX2
 70
    0
  3
Border (2x) ____  ____  .  ____  ____  .  ___
 72
   65
 73
    6
 40
88.89999999999999
 49
25.4
 74
    0
 49
-12.7
 74
    0
 49
25.4
 74
    0
 49
-12.7
 74
    0
 49
0
 74
    0
 49
-12.7
 74
    0
  0
LTYPE
  5
46
330
5
100
AcDbSymbolTableRecord
100
AcDbLinetypeTableRecord
  2
CENTER
 70
    0
  3
Center ____ _ ____ _ ____ _ ____ _ ____ _ ____
 72
   65
 73
    4
 40
50.8
 49
31.75
 74
    0
 49
-6.35
 74
    0
 49
6.35
 74
    0
 49
-6.35
 74
    0
  0
LTYPE
  5
47
330
5
100
AcDbSymbolTableRecord
100
AcDbLinetypeTableRecord
  2
CENTERTINY
 70
    0
  3
Center (.15x) ___ _ ___ _ ___ _ ___ _ ___ _ ___
 72
   65
 73
    4
 40
7.62
 49
4.7625
 74
    0
 49
-0.9525
 74
    0
 49
0.9525
 74
    0
 49
-0.9525
 74
    0
  0
LTYPE
  5
48
330
5
100
AcDbSymbolTableRecord
100
AcDbLinetypeTableRecord
  2
CENTER2
 70
    0
  3
Center (.5x) ___ _ ___ _ ___ _ ___ _ ___ _ ___
 72
   65
 73
    4
 40
28.575
 49
19.05
 74
    0
 49
-3.175
 74
    0
 49
3.175
 74
    0
 49
-3.175
 74
    0
  0
LTYPE
  5
49
330
5
100
AcDbSymbolTableRecord
100
AcDbLinetypeTableRecord
  2
CENTERX2
 70
    0
  3
Center (2x) ________  __  ________  __  _____
 72
   65
 73
    4
 40
101.6
 49
63.5
 74
    0
 49
-12.7
 74
    0
 49
12.7
 74
    0
 49
-12.7
 74
    0
  0
ENDTAB
  0
TABLE
  2
LAYER
  5
2
330
0
100
AcDbSymbolTable
 70
    1
  0
LAYER
  5
10
330
2
100
AcDbSymbolTableRecord
100
AcDbLayerTableRecord
  2
0
 70
    0
 62
    7
  6
CONTINUOUS
370
    0
390
F
  0
LAYER
  5
4A
330
2
100
AcDbSymbolTableRecord
100
AcDbLayerTableRecord
  2
number
 70
    0
 62
    5
  6
CONTINUOUS
370
    0
390
F
  0
ENDTAB
  0
TABLE
  2
STYLE
  5
3
330
0
100
AcDbSymbolTable
 70
    3
  0
STYLE
  5
4B
330
2
100
AcDbSymbolTableRecord
100
AcDbTextStyleTableRecord
  2
Standard
 70
    0
 40
0
 41
1
 50
0
 71
    0
 42
1
  3
txt
  4

  0
ENDTAB
  0
TABLE
  2
VIEW
  5
6
330
0
100
AcDbSymbolTable
 70
    0
  0
ENDTAB
  0
TABLE
  2
UCS
  5
7
330
0
100
AcDbSymbolTable
 70
    0
  0
ENDTAB
  0
TABLE
  2
APPID
  5
9
330
0
100
AcDbSymbolTable
 70
    1
  0
APPID
  5
12
330
9
100
AcDbSymbolTableRecord
100
AcDbRegAppTableRecord
  2
ACAD
 70
    0
  0
APPID
  5
4C
330
9
100
AcDbSymbolTableRecord
100
AcDbRegAppTableRecord
  2
LibreCad
 70
    0
  0
ENDTAB
  0
TABLE
  2
DIMSTYLE
  5
A
330
0
100
AcDbSymbolTable
 70
    1
100
AcDbDimStyleTable
 71
    1
  0
DIMSTYLE
105
4D
330
A
100
AcDbSymbolTableRecord
100
AcDbDimStyleTableRecord
  2
Standard
 70
    0
 40
2.5
 41
2.5
 42
0.625
 43
0.38
 44
1.25
 45
0
 46
0
 47
0
 48
0
 49
1
140
2.5
141
0.09
142
0
143
25.4
144
1
145
0
146
1
147
0.625
148
0
 71
    0
 72
    0
 73
    0
 74
    1
 75
    0
 76
    0
 77
    0
 78
    8
 79
    0
170
    0
171
    2
172
    0
173
    0
174
    0
175
    0
176
    0
177
    0
178
    0
179
    0
271
    2
272
    4
273
    2
274
    2
275
    0
276
    0
277
    2
278
   44
279
    0
280
    0
281
    0
282
    0
283
    1
284
    0
285
    0
286
    0
288
    0
289
    3
340
STANDARD
341

371
   -2
372
   -2
  0
ENDTAB
  0
TABLE
  2
BLOCK_RECORD
  5
1
330
0
100
AcDbSymbolTable
 70
    2
  0
BLOCK_RECORD
  5
1F
330
1
100
AcDbSymbolTableRecord
100
AcDbBlockTableRecord
  2
*Model_Space
 70
    0
280
    1
281
    0
  0
BLOCK_RECORD
  5
1E
330
1
100
AcDbSymbolTableRecord
100
AcDbBlockTableRecord
  2
*Paper_Space
 70
    0
280
    1
281
    0
  0
ENDTAB
  0
ENDSEC
  0
SECTION
  2
BLOCKS
  0
BLOCK
  5
20
330
1F
100
AcDbEntity
  8
0
100
AcDbBlockBegin
  2
*Model_Space
 70
    0
 10
0
 20
0
 30
0
  3
*Model_Space
  1

  0
ENDBLK
  5
21
330
1F
100
AcDbEntity
  8
0
100
AcDbBlockEnd
  0
BLOCK
  5
1C
330
1B
100
AcDbEntity
  8
0
100
AcDbBlockBegin
  2
*Paper_Space
 70
    0
 10
0
 20
0
 30
0
  3
*Paper_Space
  1

  0
ENDBLK
  5
1D
330
1F
100
AcDbEntity
  8
0
100
AcDbBlockEnd
  0
ENDSEC
  0
SECTION
  2
ENTITIES
  0
LWPOLYLINE
  5
4E
100
AcDbEntity
  8
0
  6
ByLayer
 62
  256
370
   -1
100
AcDbPolyline
 90
   45
 70
    1
 43
0
 10
4.900000000000016
 20
-3
 10
10.1
 20
-3
 10
10.1
 20
2.498001805406602e-016
 10
14.89999999999999
 20
-3.05311331771918e-016
 10
14.89999999999999
 20
-3
 10
20.1
 20
-3
 10
20.1
 20
-5.551115123125783e-017
 10
24.90000000000002
 20
-5.551115123125783e-017
 10
24.90000000000002
 20
-3
 10
30.1
 20
-3
 10
30.1
 20
-1.110223024625157e-016
 10
34.90000000000002
 20
-1.110223024625157e-016
 10
34.90000000000002
 20
-3
 10
41.73205080756891
 20
-2.999999999999915
 10
37.55000000000003
 20
4.243524478543847
 10
40.14807621135334
 20
5.743524478543847
 10
37.54807621135335
 20
10.24685657822292
 10
34.95000000000003
 20
8.746856578222918
 10
32.55000000000005
 20
12.90377851638822
 10
35.14807621135337
 20
14.40377851638822
 10
32.54807621135335
 20
18.90711061606731
 10
29.95000000000003
 20
17.40711061606731
 10
27.55000000000002
 20
21.56403255423262
 10
30.14807621135334
 20
23.06403255423262
 10
27.54807621135334
 20
27.56736465391169
 10
24.95000000000003
 20
26.06736465391169
 10
22.55000000000002
 20
30.22428659207701
 10
25.14807621135334
 20
31.72428659207701
 10
21.73205080756879
 20
37.64101615137761
 10
17.54999999999994
 20
30.39749167283385
 10
14.95192378864662
 20
31.89749167283385
 10
12.35192378864663
 20
27.39415957315478
 10
14.94999999999994
 20
25.89415957315478
 10
12.54999999999994
 20
21.7372376349895
 10
9.951923788646621
 20
23.2372376349895
 10
7.351923788646626
 20
18.73390553531039
 10
9.949999999999942
 20
17.23390553531039
 10
7.549999999999937
 20
13.07698359714508
 10
4.951923788646621
 20
14.57698359714508
 10
2.351923788646627
 20
10.07365149746601
 10
4.949999999999942
 20
8.573651497466006
 10
2.549999999999937
 20
4.416729559300691
 10
-0.04807621135337881
 20
5.916729559300688
 10
-3.464101615137753
 20
0
 10
4.900000000000016
 20
-1.110223024625157e-016
  0
LWPOLYLINE
  5
4F
100
AcDbEntity
  8
0
  6
ByLayer
 62
  256
370
   -1
100
AcDbPolyline
 90
   45
 70
    1
 43
0
 10
54.90000000000002
 20
-3
 10
60.10000000000001
 20
-3
 10
60.10000000000001
 20
2.498001805406602e-016
 10
64.89999999999999
 20
-3.05311331771918e-016
 10
64.89999999999999
 20
-3
 10
70.10000000000001
 20
-3
 10
70.10000000000001
 20
-5.551115123125783e-017
 10
74.90000000000002
 20
-5.551115123125783e-017
 10
74.90000000000002
 20
-3
 10
80.10000000000001
 20
-3
 10
80.10000000000001
 20
-1.110223024625157e-016
 10
84.90000000000002
 20
-1.110223024625157e-016
 10
84.90000000000002
 20
-3
 10
91.73205080756891
 20
-2.999999999999915
 10
87.55000000000003
 20
4.243524478543847
 10
90.14807621135334
 20
5.743524478543847
 10
87.54807621135335
 20
10.24685657822292
 10
84.95000000000003
 20
8.746856578222918
 10
82.55000000000005
 20
12.90377851638822
 10
85.14807621135337
 20
14.40377851638822
 10
82.54807621135335
 20
18.90711061606731
 10
79.95000000000003
 20
17.40711061606731
 10
77.55000000000003
 20
21.56403255423262
 10
80.14807621135334
 20
23.06403255423262
 10
77.54807621135335
 20
27.56736465391169
 10
74.95000000000003
 20
26.06736465391169
 10
72.55000000000003
 20
30.22428659207701
 10
75.14807621135334
 20
31.72428659207701
 10
71.7320508075688
 20
37.64101615137761
 10
67.54999999999994
 20
30.39749167283385
 10
64.95192378864662
 20
31.89749167283385
 10
62.35192378864663
 20
27.39415957315478
 10
64.94999999999995
 20
25.89415957315478
 10
62.54999999999994
 20
21.7372376349895
 10
59.95192378864662
 20
23.2372376349895
 10
57.35192378864663
 20
18.73390553531039
 10
59.94999999999995
 20
17.23390553531039
 10
57.54999999999994
 20
13.07698359714508
 10
54.95192378864662
 20
14.57698359714508
 10
52.35192378864663
 20
10.07365149746601
 10
54.94999999999995
 20
8.573651497466006
 10
52.54999999999994
 20
4.416729559300691
 10
49.95192378864662
 20
5.916729559300688
 10
46.53589838486225
 20
0
 10
54.90000000000002
 20
-1.110223024625157e-016
  0
LWPOLYLINE
  5
50
100
AcDbEntity
  8
0
  6
ByLayer
 62
  256
370
   -1
100
AcDbPolyline
 90
   45
 70
    1
 43
0
 10
104.9
 20
-3
 10
110.1
 20
-3
 10
110.1
 20
2.498001805406602e-016
 10
114.9
 20
-3.05311331771918e-016
 10
114.9
 20
-3
 10
120.1
 20
-3
 10
120.1
 20
-5.551115123125783e-017
 10
124.9
 20
-5.551115123125783e-017
 10
124.9
 20
-3
 10
130.1
 20
-3
 10
130.1
 20
-1.110223024625157e-016
 10
134.9
 20
-1.110223024625157e-016
 10
134.9
 20
-3
 10
141.7320508075689
 20
-2.999999999999915
 10
137.55
 20
4.243524478543847
 10
140.1480762113533
 20
5.743524478543847
 10
137.5480762113534
 20
10.24685657822292
 10
134.95
 20
8.746856578222918
 10
132.5500000000001
 20
12.90377851638822
 10
135.1480762113534
 20
14.40377851638822
 10
132.5480762113534
 20
18.90711061606731
 10
129.95
 20
17.40711061606731
 10
127.55
 20
21.56403255423262
 10
130.1480762113533
 20
23.06403255423262
 10
127.5480762113533
 20
27.56736465391169
 10
124.95
 20
26.06736465391169
 10
122.55
 20
30.22428659207701
 10
125.1480762113533
 20
31.72428659207701
 10
121.7320508075688
 20
37.64101615137761
 10
117.5499999999999
 20
30.39749167283385
 10
114.9519237886466
 20
31.89749167283385
 10
112.3519237886466
 20
27.39415957315478
 10
114.9499999999999
 20
25.89415957315478
 10
112.5499999999999
 20
21.7372376349895
 10
109.9519237886466
 20
23.2372376349895
 10
107.3519237886466
 20
18.73390553531039
 10
109.9499999999999
 20
17.23390553531039
 10
107.5499999999999
 20
13.07698359714508
 10
104.9519237886466
 20
14.57698359714508
 10
102.3519237886466
 20
10.07365149746601
 10
104.9499999999999
 20
8.573651497466006
 10
102.5499999999999
 20
4.416729559300691
 10
99.95192378864662
 20
5.916729559300688
 10
96.53589838486225
 20
0
 10
104.9
 20
-1.110223024625157e-016
  0
LWPOLYLINE
  5
51
100
AcDbEntity
  8
0
  6
ByLayer
 62
  256
370
   -1
100
AcDbPolyline
 90
   45
 70
    1
 43
0
 10
4.900000000000016
 20
-63
 10
10.1
 20
-63
 10
10.1
 20
-60
 10
14.89999999999999
 20
-60
 10
14.89999999999999
 20
-63
 10
20.1
 20
-63
 10
20.1
 20
-60
 10
24.90000000000002
 20
-60
 10
24.90000000000002
 20
-63
 10
30.1
 20
-63
 10
30.1
 20
-60
 10
34.90000000000002
 20
-60
 10
34.90000000000002
 20
-63
 10
41.73205080756891
 20
-62.99999999999991
 10
37.55000000000003
 20
-55.75647552145615
 10
40.14807621135334
 20
-54.25647552145615
 10
37.54807621135335
 20
-49.75314342177708
 10
34.95000000000003
 20
-51.25314342177708
 10
32.55000000000005
 20
-47.09622148361178
 10
35.14807621135337
 20
-45.59622148361178
 10
32.54807621135335
 20
-41.09288938393269
 10
29.95000000000003
 20
-42.59288938393269
 10
27.55000000000002
 20
-38.43596744576737
 10
30.14807621135334
 20
-36.93596744576737
 10
27.54807621135334
 20
-32.4326353460883
 10
24.95000000000003
 20
-33.9326353460883
 10
22.55000000000002
 20
-29.77571340792299
 10
25.14807621135334
 20
-28.27571340792299
 10
21.73205080756879
 20
-22.35898384862239
 10
17.54999999999994
 20
-29.60250832716615
 10
14.95192378864662
 20
-28.10250832716615
 10
12.35192378864663
 20
-32.60584042684522
 10
14.94999999999994
 20
-34.10584042684522
 10
12.54999999999994
 20
-38.2627623650105
 10
9.951923788646621
 20
-36.7627623650105
 10
7.351923788646626
 20
-41.26609446468961
 10
9.949999999999942
 20
-42.76609446468961
 10
7.549999999999937
 20
-46.92301640285493
 10
4.951923788646621
 20
-45.42301640285493
 10
2.351923788646627
 20
-49.926348502534
 10
4.949999999999942
 20
-51.426348502534
 10
2.549999999999937
 20
-55.58327044069931
 10
-0.04807621135337881
 20
-54.08327044069931
 10
-3.464101615137753
 20
-60
 10
4.900000000000016
 20
-60
  0
LWPOLYLINE
  5
52
100
AcDbEntity
  8
0
  6
ByLayer
 62
  256
370
   -1
100
AcDbPolyline
 90
   45
 70
    1
 43
0
 10
54.90000000000002
 20
-63
 10
60.10000000000001
 20
-63
 10
60.10000000000001
 20
-60
 10
64.89999999999999
 20
-60
 10
64.89999999999999
 20
-63
 10
70.10000000000001
 20
-63
 10
70.10000000000001
 20
-60
 10
74.90000000000002
 20
-60
 10
74.90000000000002
 20
-63
 10
80.10000000000001
 20
-63
 10
80.10000000000001
 20
-60
 10
84.90000000000002
 20
-60
 10
84.90000000000002
 20
-63
 10
91.73205080756891
 20
-62.99999999999991
 10
87.55000000000003
 20
-55.75647552145615
 10
90.14807621135334
 20
-54.25647552145615
 10
87.54807621135335
 20
-49.75314342177708
 10
84.95000000000003
 20
-51.25314342177708
 10
82.55000000000005
 20
-47.09622148361178
 10
85.14807621135337
 20
-45.59622148361178
 10
82.54807621135335
 20
-41.09288938393269
 10
79.95000000000003
 20
-42.59288938393269
 10
77.55000000000003
 20
-38.43596744576737
 10
80.14807621135334
 20
-36.93596744576737
 10
77.54807621135335
 20
-32.4326353460883
 10
74.95000000000003
 20
-33.9326353460883
 10
72.55000000000003
 20
-29.77571340792299
 10
75.14807621135334
 20
-28.27571340792299
 10
71.7320508075688
 20
-22.35898384862239
 10
67.54999999999994
 20
-29.60250832716615
 10
64.95192378864662
 20
-28.10250832716615
 10
62.35192378864663
 20
-32.60584042684522
 10
64.94999999999995
 20
-34.10584042684522
 10
62.54999999999994
 20
-38.2627623650105
 10
59.95192378864662
 20
-36.7627623650105
 10
57.35192378864663
 20
-41.26609446468961
 10
59.94999999999995
 20
-42.76609446468961
 10
57.54999999999994
 20
-46.92301640285493
 10
54.95192378864662
 20
-45.42301640285493
 10
52.35192378864663
 20
-49.926348502534
 10
54.94999999999995
 20
-51.426348502534
 10
52.54999999999994
 20
-55.58327044069931
 10
49.95192378864662
 20
-54.08327044069931
 10
46.53589838486225
 20
-60
 10
54.90000000000002
 20
-60
  0
LWPOLYLINE
  5
53
100
AcDbEntity
  8
0
  6
ByLayer
 62
  256
370
   -1
100
AcDbPolyline
 90
   45
 70
    1
 43
0
 10
104.9
 20
-63
 10
110.1
 20
-63
 10
110.1
 20
-60
 10
114.9
 20
-60
 10
114.9
 20
-63
 10
120.1
 20
-63
 10
120.1
 20
-60
 10
124.9
 20
-60
 10
124.9
 20
-63
 10
130.1
 20
-63
 10
130.1
 20
-60
 10
134.9
 20
-60
 10
134.9
 20
-63
 10
141.7320508075689
 20
-62.99999999999991
 10
137.55
 20
-55.75647552145615
 10
140.1480762113533
 20
-54.25647552145615
 10
137.5480762113534
 20
-49.75314342177708
 10
134.95
 20
-51.25314342177708
 10
132.5500000000001
 20
-47.09622148361178
 10
135.1480762113534
 20
-45.59622148361178
 10
132.5480762113534
 20
-41.09288938393269
 10
129.95
 20
-42.59288938393269
 10
127.55
 20
-38.43596744576737
 10
130.1480762113533
 20
-36.93596744576737
 10
127.5480762113533
 20
-32.4326353460883
 10
124.95
 20
-33.9326353460883
 10
122.55
 20
-29.77571340792299
 10
125.1480762113533
 20
-28.27571340792299
 10
121.7320508075688
 20
-22.35898384862239
 10
117.5499999999999
 20
-29.60250832716615
 10
114.9519237886466
 20
-28.10250832716615
 10
112.3519237886466
 20
-32.60584042684522
 10
114.9499999999999
 20
-34.10584042684522
 10
112.5499999999999
 20
-38.2627623650105
 10
109.9519237886466
 20
-36.7627623650105
 10
107.3519237886466
 20
-41.26609446468961
 10
109.9499999999999
 20
-42.76609446468961
 10
107.5499999999999
 20
-46.92301640285493
 10
104.9519237886466
 20
-45.42301640285493
 10
102.3519237886466
 20
-49.926348502534
 10
104.9499999999999
 20
-51.426348502534
 10
102.5499999999999
 20
-55.58327044069931
 10
99.95192378864662
 20
-54.08327044069931
 10
96.53589838486225
 20
-60
 10
104.9
 20
-60
  0
LWPOLYLINE
  5
54
100
AcDbEntity
  8
0
  6
ByLayer
 62
  256
370
   -1
100
AcDbPolyline
 90
   45
 70
    1
 43
0
 10
4.900000000000016
 20
-123
 10
10.1
 20
-123
 10
10.1
 20
-120
 10
14.89999999999999
 20
-120
 10
14.89999999999999
 20
-123
 10
20.1
 20
-123
 10
20.1
 20
-120
 10
24.90000000000002
 20
-120
 10
24.90000000000002
 20
-123
 10
30.1
 20
-123
 10
30.1
 20
-120
 10
34.90000000000002
 20
-120
 10
34.90000000000002
 20
-123
 10
41.73205080756891
 20
-122.9999999999999
 10
37.55000000000003
 20
-115.7564755214562
 10
40.14807621135334
 20
-114.2564755214562
 10
37.54807621135335
 20
-109.7531434217771
 10
34.95000000000003
 20
-111.2531434217771
 10
32.55000000000005
 20
-107.0962214836118
 10
35.14807621135337
 20
-105.5962214836118
 10
32.54807621135335
 20
-101.0928893839327
 10
29.95000000000003
 20
-102.5928893839327
 10
27.55000000000002
 20
-98.43596744576737
 10
30.14807621135334
 20
-96.93596744576737
 10
27.54807621135334
 20
-92.4326353460883
 10
24.95000000000003
 20
-93.9326353460883
 10
22.55000000000002
 20
-89.77571340792299
 10
25.14807621135334
 20
-88.27571340792299
 10
21.73205080756879
 20
-82.35898384862239
 10
17.54999999999994
 20
-89.60250832716615
 10
14.95192378864662
 20
-88.10250832716615
 10
12.35192378864663
 20
-92.60584042684522
 10
14.94999999999994
 20
-94.10584042684522
 10
12.54999999999994
 20
-98.2627623650105
 10
9.951923788646621
 20
-96.7627623650105
 10
7.351923788646626
 20
-101.2660944646896
 10
9.949999999999942
 20
-102.7660944646896
 10
7.549999999999937
 20
-106.9230164028549
 10
4.951923788646621
 20
-105.4230164028549
 10
2.351923788646627
 20
-109.926348502534
 10
4.949999999999942
 20
-111.426348502534
 10
2.549999999999937
 20
-115.5832704406993
 10
-0.04807621135337881
 20
-114.0832704406993
 10
-3.464101615137753
 20
-120
 10
4.900000000000016
 20
-120
  0
LWPOLYLINE
  5
55
100
AcDbEntity
  8
0
  6
ByLayer
 62
  256
370
   -1
100
AcDbPolyline
 90
   45
 70
    1
 43
0
 10
54.90000000000002
 20
-123
 10
60.10000000000001
 20
-123
 10
60.10000000000001
 20
-120
 10
64.89999999999999
 20
-120
 10
64.89999999999999
 20
-123
 10
70.10000000000001
 20
-123
 10
70.10000000000001
 20
-120
 10
74.90000000000002
 20
-120
 10
74.90000000000002
 20
-123
 10
80.10000000000001
 20
-123
 10
80.10000000000001
 20
-120
 10
84.90000000000002
 20
-120
 10
84.90000000000002
 20
-123
 10
91.73205080756891
 20
-122.9999999999999
 10
87.55000000000003
 20
-115.7564755214562
 10
90.14807621135334
 20
-114.2564755214562
 10
87.54807621135335
 20
-109.7531434217771
 10
84.95000000000003
 20
-111.2531434217771
 10
82.55000000000005
 20
-107.0962214836118
 10
85.14807621135337
 20
-105.5962214836118
 10
82.54807621135335
 20
-101.0928893839327
 10
79.95000000000003
 20
-102.5928893839327
 10
77.55000000000003
 20
-98.43596744576737
 10
80.14807621135334
 20
-96.93596744576737
 10
77.54807621135335
 20
-92.4326353460883
 10
74.95000000000003
 20
-93.9326353460883
 10
72.55000000000003
 20
-89.77571340792299
 10
75.14807621135334
 20
-88.27571340792299
 10
71.7320508075688
 20
-82.35898384862239
 10
67.54999999999994
 20
-89.60250832716615
 10
64.95192378864662
 20
-88.10250832716615
 10
62.35192378864663
 20
-92.60584042684522
 10
64.94999999999995
 20
-94.10584042684522
 10
62.54999999999994
 20
-98.2627623650105
 10
59.95192378864662
 20
-96.7627623650105
 10
57.35192378864663
 20
-101.2660944646896
 10
59.94999999999995
 20
-102.7660944646896
 10
57.54999999999994
 20
-106.9230164028549
 10
54.95192378864662
 20
-105.4230164028549
 10
52.35192378864663
 20
-109.926348502534
 10
54.94999999999995
 20
-111.426348502534
 10
52.54999999999994
 20
-115.5832704406993
 10
49.95192378864662
 20
-114.0832704406993
 10
46.53589838486225
 20
-120
 10
54.90000000000002
 20
-120
  0
LWPOLYLINE
  5
56
100
AcDbEntity
  8
0
  6
ByLayer
 62
  256
370
   -1
100
AcDbPolyline
 90
   45
 70
    1
 43
0
 10
104.9
 20
-123
 10
110.1
 20
-123
 10
110.1
 20
-120
 10
114.9
 20
-120
 10
114.9
 20
-123
 10
120.1
 20
-123
 10
120.1
 20
-120
 10
124.9
 20
-120
 10
124.9
 20
-123
 10
130.1
 20
-123
 10
130.1
 20
-120
 10
134.9
 20
-120
 10
134.9
 20
-123
 10
141.7320508075689
 20
-122.9999999999999
 10
137.55
 20
-115.7564755214562
 10
140.1480762113533
 20
-114.2564755214562
 10
137.5480762113534
 20
-109.7531434217771
 10
134.95
 20
-111.2531434217771
 10
132.5500000000001
 20
-107.0962214836118
 10
135.1480762113534
 20
-105.5962214836118
 10
132.5480762113534
 20
-101.0928893839327
 10
129.95
 20
-102.5928893839327
 10
127.55
 20
-98.43596744576737
 10
130.1480762113533
 20
-96.93596744576737
 10
127.5480762113533
 20
-92.4326353460883
 10
124.95
 20
-93.9326353460883
 10
122.55
 20
-89.77571340792299
 10
125.1480762113533
 20
-88.27571340792299
 10
121.7320508075688
 20
-82.35898384862239
 10
117.5499999999999
 20
-89.60250832716615
 10
114.9519237886466
 20
-88.10250832716615
 10
112.3519237886466
 20
-92.60584042684522
 10
114.9499999999999
 20
-94.10584042684522
 10
112.5499999999999
 20
-98.2627623650105
 10
109.9519237886466
 20
-96.7627623650105
 10
107.3519237886466
 20
-101.2660944646896
 10
109.9499999999999
 20
-102.7660944646896
 10
107.5499999999999
 20
-106.9230164028549
 10
104.9519237886466
 20
-105.4230164028549
 10
102.3519237886466
 20
-109.926348502534
 10
104.9499999999999
 20
-111.426348502534
 10
102.5499999999999
 20
-115.5832704406993
 10
99.95192378864662
 20
-114.0832704406993
 10
96.53589838486225
 20
-120
 10
104.9
 20
-120
  0
LWPOLYLINE
  5
57
100
AcDbEntity
  8
0
  6
ByLayer
 62
  256
370
   -1
100
AcDbPolyline
 90
   45
 70
    1
 43
0
 10
4.900000000000016
 20
-183
 10
10.1
 20
-183
 10
10.1
 20
-180
 10
14.89999999999999
 20
-180
 10
14.89999999999999
 20
-183
 10
20.1
 20
-183
 10
20.1
 20
-180
 10
24.90000000000002
 20
-180
 10
24.90000000000002
 20
-183
 10
30.1
 20
-183
 10
30.1
 20
-180
 10
34.90000000000002
 20
-180
 10
34.90000000000002
 20
-183
 10
41.73205080756891
 20
-182.9999999999999
 10
37.55000000000003
 20
-175.7564755214561
 10
40.14807621135334
 20
-174.2564755214561
 10
37.54807621135335
 20
-169.7531434217771
 10
34.95000000000003
 20
-171.2531434217771
 10
32.55000000000005
 20
-167.0962214836118
 10
35.14807621135337
 20
-165.5962214836118
 10
32.54807621135335
 20
-161.0928893839327
 10
29.95000000000003
 20
-162.5928893839327
 10
27.55000000000002
 20
-158.4359674457674
 10
30.14807621135334
 20
-156.9359674457674
 10
27.54807621135334
 20
-152.4326353460883
 10
24.95000000000003
 20
-153.9326353460883
 10
22.55000000000002
 20
-149.775713407923
 10
25.14807621135334
 20
-148.275713407923
 10
21.73205080756879
 20
-142.3589838486224
 10
17.54999999999994
 20
-149.6025083271662
 10
14.95192378864662
 20
-148.1025083271662
 10
12.35192378864663
 20
-152.6058404268452
 10
14.94999999999994
 20
-154.1058404268452
 10
12.54999999999994
 20
-158.2627623650105
 10
9.951923788646621
 20
-156.7627623650105
 10
7.351923788646626
 20
-161.2660944646896
 10
9.949999999999942
 20
-162.7660944646896
 10
7.549999999999937
 20
-166.9230164028549
 10
4.951923788646621
 20
-165.4230164028549
 10
2.351923788646627
 20
-169.926348502534
 10
4.949999999999942
 20
-171.426348502534
 10
2.549999999999937
 20
-175.5832704406993
 10
-0.04807621135337881
 20
-174.0832704406993
 10
-3.464101615137753
 20
-180
 10
4.900000000000016
 20
-180
  0
LWPOLYLINE
  5
58
100
AcDbEntity
  8
0
  6
ByLayer
 62
  256
370
   -1
100
AcDbPolyline
 90
   45
 70
    1
 43
0
 10
54.90000000000002
 20
-183
 10
60.10000000000001
 20
-183
 10
60.10000000000001
 20
-180
 10
64.89999999999999
 20
-180
 10
64.89999999999999
 20
-183
 10
70.10000000000001
 20
-183
 10
70.10000000000001
 20
-180
 10
74.90000000000002
 20
-180
 10
74.90000000000002
 20
-183
 10
80.10000000000001
 20
-183
 10
80.10000000000001
 20
-180
 10
84.90000000000002
 20
-180
 10
84.90000000000002
 20
-183
 10
91.73205080756891
 20
-182.9999999999999
 10
87.55000000000003
 20
-175.7564755214561
 10
90.14807621135334
 20
-174.2564755214561
 10
87.54807621135335
 20
-169.7531434217771
 10
84.95000000000003
 20
-171.2531434217771
 10
82.55000000000005
 20
-167.0962214836118
 10
85.14807621135337
 20
-165.5962214836118
 10
82.54807621135335
 20
-161.0928893839327
 10
79.95000000000003
 20
-162.5928893839327
 10
77.55000000000003
 20
-158.4359674457674
 10
80.14807621135334
 20
-156.9359674457674
 10
77.54807621135335
 20
-152.4326353460883
 10
74.95000000000003
 20
-153.9326353460883
 10
72.55000000000003
 20
-149.775713407923
 10
75.14807621135334
 20
-148.275713407923
 10
71.7320508075688
 20
-142.3589838486224
 10
67.54999999999994
 20
-149.6025083271662
 10
64.95192378864662
 20
-148.1025083271662
 10
62.35192378864663
 20
-152.6058404268452
 10
64.94999999999995
 20
-154.1058404268452
 10
62.54999999999994
 20
-158.2627623650105
 10
59.95192378864662
 20
-156.7627623650105
 10
57.35192378864663
 20
-161.2660944646896
 10
59.94999999999995
 20
-162.7660944646896
 10
57.54999999999994
 20
-166.9230164028549
 10
54.95192378864662
 20
-165.4230164028549
 10
52.35192378864663
 20
-169.926348502534
 10
54.94999999999995
 20
-171.426348502534
 10
52.54999999999994
 20
-175.5832704406993
 10
49.95192378864662
 20
-174.0832704406993
 10
46.53589838486225
 20
-180
 10
54.90000000000002
 20
-180
  0
LWPOLYLINE
  5
59
100
AcDbEntity
  8
0
  6
ByLayer
 62
  256
370
   -1
100
AcDbPolyline
 90
   45
 70
    1
 43
0
 10
104.9
 20
-183
 10
110.1
 20
-183
 10
110.1
 20
-180
 10
114.9
 20
-180
 10
114.9
 20
-183
 10
120.1
 20
-183
 10
120.1
 20
-180
 10
124.9
 20
-180
 10
124.9
 20
-183
 10
130.1
 20
-183
 10
130.1
 20
-180
 10
134.9
 20
-180
 10
134.9
 20
-183
 10
141.7320508075689
 20
-182.9999999999999
 10
137.55
 20
-175.7564755214561
 10
140.1480762113533
 20
-174.2564755214561
 10
137.5480762113534
 20
-169.7531434217771
 10
134.95
 20
-171.2531434217771
 10
132.5500000000001
 20
-167.0962214836118
 10
135.1480762113534
 20
-165.5962214836118
 10
132.5480762113534
 20
-161.0928893839327
 10
129.95
 20
-162.5928893839327
 10
127.55
 20
-158.4359674457674
 10
130.1480762113533
 20
-156.9359674457674
 10
127.5480762113533
 20
-152.4326353460883
 10
124.95
 20
-153.9326353460883
 10
122.55
 20
-149.775713407923
 10
125.1480762113533
 20
-148.275713407923
 10
121.7320508075688
 20
-142.3589838486224
 10
117.5499999999999
 20
-149.6025083271662
 10
114.9519237886466
 20
-148.1025083271662
 10
112.3519237886466
 20
-152.6058404268452
 10
114.9499999999999
 20
-154.1058404268452
 10
112.5499999999999
 20
-158.2627623650105
 10
109.9519237886466
 20
-156.7627623650105
 10
107.3519237886466
 20
-161.2660944646896
 10
109.9499999999999
 20
-162.7660944646896
 10
107.5499999999999
 20
-166.9230164028549
 10
104.9519237886466
 20
-165.4230164028549
 10
102.3519237886466
 20
-169.926348502534
 10
104.9499999999999
 20
-171.426348502534
 10
102.5499999999999
 20
-175.5832704406993
 10
99.95192378864662
 20
-174.0832704406993
 10
96.53589838486225
 20
-180
 10
104.9
 20
-180
  0
LWPOLYLINE
  5
5A
100
AcDbEntity
  8
0
  6
ByLayer
 62
  256
370
   -1
100
AcDbPolyline
 90
   45
 70
    1
 43
0
 10
50.0480762113534
 20
11.10250832716623
 10
52.6480762113534
 20
15.6058404268453
 10
50.05000000000008
 20
17.1058404268453
 10
52.45000000000009
 20
21.26276236501059
 10
55.0480762113534
 20
19.76276236501059
 10
57.6480762113534
 20
24.26609446468968
 10
55.05000000000008
 20
25.76609446468968
 10
57.45000000000009
 20
29.923016402855
 10
60.0480762113534
 20
28.423016402855
 10
62.6480762113534
 20
32.92634850253408
 10
60.05000000000008
 20
34.42634850253408
 10
62.45000000000009
 20
38.58327044069939
 10
65.0480762113534
 20
37.08327044069939
 10
68.46410161513778
 20
43.00000000000008
 10
60.10000000000001
 20
43.00000000000008
 10
60.10000000000001
 20
46.00000000000008
 10
54.90000000000002
 20
46.00000000000008
 10
54.90000000000002
 20
43.00000000000008
 10
50.10000000000004
 20
43.0000000000001
 10
50.10000000000004
 20
46.0000000000001
 10
44.90000000000002
 20
46.00000000000009
 10
44.90000000000002
 20
43.00000000000009
 10
40.10000000000001
 20
43.00000000000008
 10
40.10000000000001
 20
46.00000000000008
 10
34.90000000000002
 20
46.00000000000009
 10
34.90000000000002
 20
43.00000000000009
 10
30.10000000000001
 20
43.00000000000008
 10
30.10000000000001
 20
46.00000000000008
 10
23.26794919243112
 20
45.99999999999997
 10
27.45000000000001
 20
38.75647552145623
 10
24.85192378864669
 20
37.25647552145623
 10
27.45192378864668
 20
32.75314342177716
 10
30.05
 20
34.25314342177716
 10
32.44999999999997
 20
30.09622148361186
 10
29.85192378864666
 20
28.59622148361186
 10
32.45192378864668
 20
24.09288938393278
 10
35.05
 20
25.59288938393278
 10
37.45
 20
21.43596744576745
 10
34.85192378864669
 20
19.93596744576745
 10
37.45192378864668
 20
15.43263534608838
 10
40.05
 20
16.93263534608838
 10
42.45
 20
12.77571340792307
 10
39.85192378864669
 20
11.27571340792307
 10
43.2679491924312
 20
5.358983848622465
 10
47.45000000000009
 20
12.60250832716623
  0
LWPOLYLINE
  5
5B
100
AcDbEntity
  8
0
  6
ByLayer
 62
  256
370
   -1
100
AcDbPolyline
 90
   45
 70
    1
 43
0
 10
100.0480762113534
 20
11.10250832716623
 10
102.6480762113534
 20
15.6058404268453
 10
100.0500000000001
 20
17.1058404268453
 10
102.4500000000001
 20
21.26276236501059
 10
105.0480762113534
 20
19.76276236501059
 10
107.6480762113534
 20
24.26609446468968
 10
105.0500000000001
 20
25.76609446468968
 10
107.4500000000001
 20
29.923016402855
 10
110.0480762113534
 20
28.423016402855
 10
112.6480762113534
 20
32.92634850253408
 10
110.0500000000001
 20
34.42634850253408
 10
112.4500000000001
 20
38.58327044069939
 10
115.0480762113534
 20
37.08327044069939
 10
118.4641016151378
 20
43.00000000000008
 10
110.1
 20
43.00000000000008
 10
110.1
 20
46.00000000000008
 10
104.9
 20
46.00000000000008
 10
104.9
 20
43.00000000000008
 10
100.1
 20
43.0000000000001
 10
100.1
 20
46.0000000000001
 10
94.90000000000002
 20
46.00000000000009
 10
94.90000000000002
 20
43.00000000000009
 10
90.10000000000001
 20
43.00000000000008
 10
90.10000000000001
 20
46.00000000000008
 10
84.90000000000002
 20
46.00000000000009
 10
84.90000000000002
 20
43.00000000000009
 10
80.10000000000001
 20
43.00000000000008
 10
80.10000000000001
 20
46.00000000000008
 10
73.26794919243112
 20
45.99999999999997
 10
77.45
 20
38.75647552145623
 10
74.85192378864669
 20
37.25647552145623
 10
77.45192378864668
 20
32.75314342177716
 10
80.05
 20
34.25314342177716
 10
82.44999999999997
 20
30.09622148361186
 10
79.85192378864666
 20
28.59622148361186
 10
82.45192378864668
 20
24.09288938393278
 10
85.05
 20
25.59288938393278
 10
87.45
 20
21.43596744576745
 10
84.85192378864669
 20
19.93596744576745
 10
87.45192378864668
 20
15.43263534608838
 10
90.05
 20
16.93263534608838
 10
92.45
 20
12.77571340792307
 10
89.85192378864669
 20
11.27571340792307
 10
93.2679491924312
 20
5.358983848622465
 10
97.45000000000009
 20
12.60250832716623
  0
LWPOLYLINE
  5
5C
100
AcDbEntity
  8
0
  6
ByLayer
 62
  256
370
   -1
100
AcDbPolyline
 90
   45
 70
    1
 43
0
 10
50.0480762113534
 20
-48.89749167283377
 10
52.6480762113534
 20
-44.3941595731547
 10
50.05000000000008
 20
-42.8941595731547
 10
52.45000000000009
 20
-38.73723763498941
 10
55.0480762113534
 20
-40.23723763498941
 10
57.6480762113534
 20
-35.73390553531032
 10
55.05000000000008
 20
-34.23390553531032
 10
57.45000000000009
 20
-30.076983597145
 10
60.0480762113534
 20
-31.576983597145
 10
62.6480762113534
 20
-27.07365149746592
 10
60.05000000000008
 20
-25.57365149746592
 10
62.45000000000009
 20
-21.41672955930061
 10
65.0480762113534
 20
-22.91672955930061
 10
68.46410161513778
 20
-16.99999999999992
 10
60.10000000000001
 20
-16.99999999999992
 10
60.10000000000001
 20
-13.99999999999992
 10
54.90000000000002
 20
-13.99999999999992
 10
54.90000000000002
 20
-16.99999999999992
 10
50.10000000000004
 20
-16.9999999999999
 10
50.10000000000004
 20
-13.9999999999999
 10
44.90000000000002
 20
-13.99999999999991
 10
44.90000000000002
 20
-16.99999999999991
 10
40.10000000000001
 20
-16.99999999999992
 10
40.10000000000001
 20
-13.99999999999992
 10
34.90000000000002
 20
-13.99999999999991
 10
34.90000000000002
 20
-16.99999999999991
 10
30.10000000000001
 20
-16.99999999999992
 10
30.10000000000001
 20
-13.99999999999992
 10
23.26794919243112
 20
-14.00000000000003
 10
27.45000000000001
 20
-21.24352447854377
 10
24.85192378864669
 20
-22.74352447854377
 10
27.45192378864668
 20
-27.24685657822284
 10
30.05
 20
-25.74685657822284
 10
32.44999999999997
 20
-29.90377851638814
 10
29.85192378864666
 20
-31.40377851638814
 10
32.45192378864668
 20
-35.90711061606722
 10
35.05
 20
-34.40711061606722
 10
37.45
 20
-38.56403255423255
 10
34.85192378864669
 20
-40.06403255423255
 10
37.45192378864668
 20
-44.56736465391162
 10
40.05
 20
-43.06736465391162
 10
42.45
 20
-47.22428659207693
 10
39.85192378864669
 20
-48.72428659207693
 10
43.2679491924312
 20
-54.64101615137753
 10
47.45000000000009
 20
-47.39749167283377
  0
LWPOLYLINE
  5
5D
100
AcDbEntity
  8
0
  6
ByLayer
 62
  256
370
   -1
100
AcDbPolyline
 90
   45
 70
    1
 43
0
 10
100.0480762113534
 20
-48.89749167283377
 10
102.6480762113534
 20
-44.3941595731547
 10
100.0500000000001
 20
-42.8941595731547
 10
102.4500000000001
 20
-38.73723763498941
 10
105.0480762113534
 20
-40.23723763498941
 10
107.6480762113534
 20
-35.73390553531032
 10
105.0500000000001
 20
-34.23390553531032
 10
107.4500000000001
 20
-30.076983597145
 10
110.0480762113534
 20
-31.576983597145
 10
112.6480762113534
 20
-27.07365149746592
 10
110.0500000000001
 20
-25.57365149746592
 10
112.4500000000001
 20
-21.41672955930061
 10
115.0480762113534
 20
-22.91672955930061
 10
118.4641016151378
 20
-16.99999999999992
 10
110.1
 20
-16.99999999999992
 10
110.1
 20
-13.99999999999992
 10
104.9
 20
-13.99999999999992
 10
104.9
 20
-16.99999999999992
 10
100.1
 20
-16.9999999999999
 10
100.1
 20
-13.9999999999999
 10
94.90000000000002
 20
-13.99999999999991
 10
94.90000000000002
 20
-16.99999999999991
 10
90.10000000000001
 20
-16.99999999999992
 10
90.10000000000001
 20
-13.99999999999992
 10
84.90000000000002
 20
-13.99999999999991
 10
84.90000000000002
 20
-16.99999999999991
 10
80.10000000000001
 20
-16.99999999999992
 10
80.10000000000001
 20
-13.99999999999992
 10
73.26794919243112
 20
-14.00000000000003
 10
77.45
 20
-21.24352447854377
 10
74.85192378864669
 20
-22.74352447854377
 10
77.45192378864668
 20
-27.24685657822284
 10
80.05
 20
-25.74685657822284
 10
82.44999999999997
 20
-29.90377851638814
 10
79.85192378864666
 20
-31.40377851638814
 10
82.45192378864668
 20
-35.90711061606722
 10
85.05
 20
-34.40711061606722
 10
87.45
 20
-38.56403255423255
 10
84.85192378864669
 20
-40.06403255423255
 10
87.45192378864668
 20
-44.56736465391162
 10
90.05
 20
-43.06736465391162
 10
92.45
 20
-47.22428659207693
 10
89.85192378864669
 20
-48.72428659207693
 10
93.2679491924312
 20
-54.64101615137753
 10
97.45000000000009
 20
-47.39749167283377
  0
LWPOLYLINE
  5
5E
100
AcDbEntity
  8
0
  6
ByLayer
 62
  256
370
   -1
100
AcDbPolyline
 90
   45
 70
    1
 43
0
 10
50.0480762113534
 20
-108.8974916728338
 10
52.6480762113534
 20
-104.3941595731547
 10
50.05000000000008
 20
-102.8941595731547
 10
52.45000000000009
 20
-98.73723763498941
 10
55.0480762113534
 20
-100.2372376349894
 10
57.6480762113534
 20
-95.73390553531033
 10
55.05000000000008
 20
-94.23390553531033
 10
57.45000000000009
 20
-90.07698359714499
 10
60.0480762113534
 20
-91.57698359714499
 10
62.6480762113534
 20
-87.07365149746593
 10
60.05000000000008
 20
-85.57365149746593
 10
62.45000000000009
 20
-81.41672955930062
 10
65.0480762113534
 20
-82.91672955930062
 10
68.46410161513778
 20
-76.99999999999991
 10
60.10000000000001
 20
-76.99999999999991
 10
60.10000000000001
 20
-73.99999999999991
 10
54.90000000000002
 20
-73.99999999999991
 10
54.90000000000002
 20
-76.99999999999991
 10
50.10000000000004
 20
-76.9999999999999
 10
50.10000000000004
 20
-73.9999999999999
 10
44.90000000000002
 20
-73.99999999999991
 10
44.90000000000002
 20
-76.99999999999991
 10
40.10000000000001
 20
-76.99999999999991
 10
40.10000000000001
 20
-73.99999999999991
 10
34.90000000000002
 20
-73.99999999999991
 10
34.90000000000002
 20
-76.99999999999991
 10
30.10000000000001
 20
-76.99999999999991
 10
30.10000000000001
 20
-73.99999999999991
 10
23.26794919243112
 20
-74.00000000000003
 10
27.45000000000001
 20
-81.24352447854378
 10
24.85192378864669
 20
-82.74352447854378
 10
27.45192378864668
 20
-87.24685657822283
 10
30.05
 20
-85.74685657822283
 10
32.44999999999997
 20
-89.90377851638814
 10
29.85192378864666
 20
-91.40377851638814
 10
32.45192378864668
 20
-95.90711061606723
 10
35.05
 20
-94.40711061606723
 10
37.45
 20
-98.56403255423254
 10
34.85192378864669
 20
-100.0640325542325
 10
37.45192378864668
 20
-104.5673646539116
 10
40.05
 20
-103.0673646539116
 10
42.45
 20
-107.2242865920769
 10
39.85192378864669
 20
-108.7242865920769
 10
43.2679491924312
 20
-114.6410161513775
 10
47.45000000000009
 20
-107.3974916728338
  0
LWPOLYLINE
  5
5F
100
AcDbEntity
  8
0
  6
ByLayer
 62
  256
370
   -1
100
AcDbPolyline
 90
   45
 70
    1
 43
0
 10
100.0480762113534
 20
-108.8974916728338
 10
102.6480762113534
 20
-104.3941595731547
 10
100.0500000000001
 20
-102.8941595731547
 10
102.4500000000001
 20
-98.73723763498941
 10
105.0480762113534
 20
-100.2372376349894
 10
107.6480762113534
 20
-95.73390553531033
 10
105.0500000000001
 20
-94.23390553531033
 10
107.4500000000001
 20
-90.07698359714499
 10
110.0480762113534
 20
-91.57698359714499
 10
112.6480762113534
 20
-87.07365149746593
 10
110.0500000000001
 20
-85.57365149746593
 10
112.4500000000001
 20
-81.41672955930062
 10
115.0480762113534
 20
-82.91672955930062
 10
118.4641016151378
 20
-76.99999999999991
 10
110.1
 20
-76.99999999999991
 10
110.1
 20
-73.99999999999991
 10
104.9
 20
-73.99999999999991
 10
104.9
 20
-76.99999999999991
 10
100.1
 20
-76.9999999999999
 10
100.1
 20
-73.9999999999999
 10
94.90000000000002
 20
-73.99999999999991
 10
94.90000000000002
 20
-76.99999999999991
 10
90.10000000000001
 20
-76.99999999999991
 10
90.10000000000001
 20
-73.99999999999991
 10
84.90000000000002
 20
-73.99999999999991
 10
84.90000000000002
 20
-76.99999999999991
 10
80.10000000000001
 20
-76.99999999999991
 10
80.10000000000001
 20
-73.99999999999991
 10
73.26794919243112
 20
-74.00000000000003
 10
77.45
 20
-81.24352447854378
 10
74.85192378864669
 20
-82.74352447854378
 10
77.45192378864668
 20
-87.24685657822283
 10
80.05
 20
-85.74685657822283
 10
82.44999999999997
 20
-89.90377851638814
 10
79.85192378864666
 20
-91.40377851638814
 10
82.45192378864668
 20
-95.90711061606723
 10
85.05
 20
-94.40711061606723
 10
87.45
 20
-98.56403255423254
 10
84.85192378864669
 20
-100.0640325542325
 10
87.45192378864668
 20
-104.5673646539116
 10
90.05
 20
-103.0673646539116
 10
92.45
 20
-107.2242865920769
 10
89.85192378864669
 20
-108.7242865920769
 10
93.2679491924312
 20
-114.6410161513775
 10
97.45000000000009
 20
-107.3974916728338
  0
LWPOLYLINE
  5
60
100
AcDbEntity
  8
0
  6
ByLayer
 62
  256
370
   -1
100
AcDbPolyline
 90
   45
 70
    1
 43
0
 10
50.0480762113534
 20
-168.8974916728338
 10
52.6480762113534
 20
-164.3941595731547
 10
50.05000000000008
 20
-162.8941595731547
 10
52.45000000000009
 20
-158.7372376349894
 10
55.0480762113534
 20
-160.2372376349894
 10
57.6480762113534
 20
-155.7339055353103
 10
55.05000000000008
 20
-154.2339055353103
 10
57.45000000000009
 20
-150.076983597145
 10
60.0480762113534
 20
-151.576983597145
 10
62.6480762113534
 20
-147.0736514974659
 10
60.05000000000008
 20
-145.5736514974659
 10
62.45000000000009
 20
-141.4167295593006
 10
65.0480762113534
 20
-142.9167295593006
 10
68.46410161513778
 20
-136.9999999999999
 10
60.10000000000001
 20
-136.9999999999999
 10
60.10000000000001
 20
-133.9999999999999
 10
54.90000000000002
 20
-133.9999999999999
 10
54.90000000000002
 20
-136.9999999999999
 10
50.10000000000004
 20
-136.9999999999999
 10
50.10000000000004
 20
-133.9999999999999
 10
44.90000000000002
 20
-133.9999999999999
 10
44.90000000000002
 20
-136.9999999999999
 10
40.10000000000001
 20
-136.9999999999999
 10
40.10000000000001
 20
-133.9999999999999
 10
34.90000000000002
 20
-133.9999999999999
 10
34.90000000000002
 20
-136.9999999999999
 10
30.10000000000001
 20
-136.9999999999999
 10
30.10000000000001
 20
-133.9999999999999
 10
23.26794919243112
 20
-134
 10
27.45000000000001
 20
-141.2435244785438
 10
24.85192378864669
 20
-142.7435244785438
 10
27.45192378864668
 20
-147.2468565782228
 10
30.05
 20
-145.7468565782228
 10
32.44999999999997
 20
-149.9037785163881
 10
29.85192378864666
 20
-151.4037785163881
 10
32.45192378864668
 20
-155.9071106160672
 10
35.05
 20
-154.4071106160672
 10
37.45
 20
-158.5640325542325
 10
34.85192378864669
 20
-160.0640325542325
 10
37.45192378864668
 20
-164.5673646539116
 10
40.05
 20
-163.0673646539116
 10
42.45
 20
-167.2242865920769
 10
39.85192378864669
 20
-168.7242865920769
 10
43.2679491924312
 20
-174.6410161513775
 10
47.45000000000009
 20
-167.3974916728338
  0
LWPOLYLINE
  5
61
100
AcDbEntity
  8
0
  6
ByLayer
 62
  256
370
   -1
100
AcDbPolyline
 90
   45
 70
    1
 43
0
 10
100.0480762113534
 20
-168.8974916728338
 10
102.6480762113534
 20
-164.3941595731547
 10
100.0500000000001
 20
-162.8941595731547
 10
102.4500000000001
 20
-158.7372376349894
 10
105.0480762113534
 20
-160.2372376349894
 10
107.6480762113534
 20
-155.7339055353103
 10
105.0500000000001
 20
-154.2339055353103
 10
107.4500000000001
 20
-150.076983597145
 10
110.0480762113534
 20
-151.576983597145
 10
112.6480762113534
 20
-147.0736514974659
 10
110.0500000000001
 20
-145.5736514974659
 10
112.4500000000001
 20
-141.4167295593006
 10
115.0480762113534
 20
-142.9167295593006
 10
118.4641016151378
 20
-136.9999999999999
 10
110.1
 20
-136.9999999999999
 10
110.1
 20
-133.9999999999999
 10
104.9
 20
-133.9999999999999
 10
104.9
 20
-136.9999999999999
 10
100.1
 20
-136.9999999999999
 10
100.1
 20
-133.9999999999999
 10
94.90000000000002
 20
-133.9999999999999
 10
94.90000000000002
 20
-136.9999999999999
 10
90.10000000000001
 20
-136.9999999999999
 10
90.10000000000001
 20
-133.9999999999999
 10
84.90000000000002
 20
-133.9999999999999
 10
84.90000000000002
 20
-136.9999999999999
 10
80.10000000000001
 20
-136.9999999999999
 10
80.10000000000001
 20
-133.9999999999999
 10
73.26794919243112
 20
-134
 10
77.45
 20
-141.2435244785438
 10
74.85192378864669
 20
-142.7435244785438
 10
77.45192378864668
 20
-147.2468565782228
 10
80.05
 20
-145.7468565782228
 10
82.44999999999997
 20
-149.9037785163881
 10
79.85192378864666
 20
-151.4037785163881
 10
82.45192378864668
 20
-155.9071106160672
 10
85.05
 20
-154.4071106160672
 10
87.45
 20
-158.5640325542325
 10
84.85192378864669
 20
-160.0640325542325
 10
87.45192378864668
 20
-164.5673646539116
 10
90.05
 20
-163.0673646539116
 10
92.45
 20
-167.2242865920769
 10
89.85192378864669
 20
-168.7242865920769
 10
93.2679491924312
 20
-174.6410161513775
 10
97.45000000000009
 20
-167.3974916728338
  0
LWPOLYLINE
  5
62
100
AcDbEntity
  8
number
  6
ByLayer
 62
    5
370
   -1
100
AcDbPolyline
 90
    3
 70
    0
 43
0
 10
18.88888888888889
 20
14.32478316157029
 10
21.11111111111111
 20
16.54700538379252
 10
21.11111111111111
 20
6.547005383792516
  0
LWPOLYLINE
  5
63
100
AcDbEntity
  8
number
  6
ByLayer
 62
    5
370
   -1
100
AcDbPolyline
 90
    2
 70
    0
 43
0
 10
68.88888888888889
 20
12.10256093934807
 10
70
 20
12.10256093934807
  0
LWPOLYLINE
  5
64
100
AcDbEntity
  8
number
  6
ByLayer
 62
    5
370
   -1
100
AcDbPolyline
 90
    8
 70
    0
 43
0
 10
122.2222222222222
 20
16.54700538379252
 10
117.7777777777778
 20
16.54700538379252
 10
117.7777777777778
 20
12.10256093934807
 10
120
 20
12.10256093934807
 42
-0.4100000000000008
 10
122.2222222222222
 20
9.88033871712585
 10
122.2222222222222
 20
8.769227606014738
 42
-0.4099999999999996
 10
120
 20
6.547005383792516
 10
117.7777777777778
 20
6.547005383792516
  0
LWPOLYLINE
  5
65
100
AcDbEntity
  8
number
  6
ByLayer
 62
    5
370
   -1
100
AcDbPolyline
 90
    7
 70
    0
 43
0
 10
21.11111111111111
 20
-43.45299461620748
 42
0.3300000000000005
 10
17.77777777777778
 20
-47.89743906065193
 10
19.99999999999999
 20
-47.89743906065193
 42
-0.41
 10
22.22222222222222
 20
-50.11966128287415
 10
22.22222222222222
 20
-51.23077239398526
 42
-0.9999999999999999
 10
17.77777777777778
 20
-51.23077239398526
 10
17.77777777777778
 20
-47.89743906065193
  0
LWPOLYLINE
  5
66
100
AcDbEntity
  8
number
  6
ByLayer
 62
    5
370
   -1
100
AcDbPolyline
 90
    4
 70
    1
 43
0
 10
72.22222222222224
 20
-50.11966128287416
 42
0.9999999999999999
 10
67.77777777777779
 20
-50.11966128287416
 10
67.77777777777777
 20
-51.23077239398527
 42
0.9999999999999999
 10
72.22222222222223
 20
-51.23077239398527
  0
LWPOLYLINE
  5
67
100
AcDbEntity
  8
number
  6
ByLayer
 62
    5
370
   -1
100
AcDbPolyline
 90
    2
 70
    1
 43
0
 10
70.00000000000001
 20
-43.45299461620749
 42
0.9999999999999999
 10
70.00000000000001
 20
-47.89743906065193
 42
0.9999999999999999
  0
LWPOLYLINE
  5
68
100
AcDbEntity
  8
number
  6
ByLayer
 62
    5
370
   -1
100
AcDbPolyline
 90
    3
 70
    0
 43
0
 10
115
 20
-45.67521683842971
 10
117.2222222222222
 20
-43.45299461620749
 10
117.2222222222222
 20
-53.45299461620749
  0
LWPOLYLINE
  5
69
100
AcDbEntity
  8
number
  6
ByLayer
 62
    5
370
   -1
100
AcDbPolyline
 90
    4
 70
    1
 43
0
 10
121.6666666666667
 20
-44.00855017176304
 42
0.2500000000000003
 10
121.6666666666667
 20
-52.89743906065194
 42
0.4999999999999995
 10
123.8888888888889
 20
-52.89743906065195
 42
0.2500000000000001
 10
123.8888888888889
 20
-44.00855017176305
 42
0.4999999999999979
  0
LWPOLYLINE
  5
6A
100
AcDbEntity
  8
number
  6
ByLayer
 62
    5
370
   -1
100
AcDbPolyline
 90
    3
 70
    0
 43
0
 10
16.11111111111109
 20
-105.6752168384297
 10
18.33333333333331
 20
-103.4529946162075
 10
18.33333333333331
 20
-113.4529946162075
  0
LWPOLYLINE
  5
6B
100
AcDbEntity
  8
number
  6
ByLayer
 62
    5
370
   -1
100
AcDbPolyline
 90
    3
 70
    0
 43
0
 10
21.66666666666665
 20
-105.6752168384297
 10
23.88888888888887
 20
-103.4529946162075
 10
23.88888888888887
 20
-113.4529946162075
  0
LWPOLYLINE
  5
6C
100
AcDbEntity
  8
number
  6
ByLayer
 62
    5
370
   -1
100
AcDbPolyline
 90
    3
 70
    0
 43
0
 10
64.99999999999999
 20
-105.6752168384297
 10
67.22222222222221
 20
-103.4529946162075
 10
67.22222222222221
 20
-113.4529946162075
  0
LWPOLYLINE
  5
6D
100
AcDbEntity
  8
number
  6
ByLayer
 62
    5
370
   -1
100
AcDbPolyline
 90
    7
 70
    0
 43
0
 10
70.55555555555554
 20
-103.4529946162075
 10
72.77777777777777
 20
-103.4529946162075
 42
-1.000000000000003
 10
72.77777777777776
 20
-107.897439060652
 42
-0.4100000000000013
 10
74.99999999999999
 20
-110.1196612828741
 10
75
 20
-111.2307723939852
 42
-0.4100000000000014
 10
72.77777777777777
 20
-113.4529946162075
 10
70.55555555555554
 20
-113.4529946162075
  0
LWPOLYLINE
  5
6E
100
AcDbEntity
  8
number
  6
ByLayer
 62
    5
370
   -1
100
AcDbPolyline
 90
    2
 70
    0
 43
0
 10
71.66666666666666
 20
-107.8974390606519
 10
72.77777777777777
 20
-107.8974390606519
  0
LWPOLYLINE
  5
6F
100
AcDbEntity
  8
number
  6
ByLayer
 62
    5
370
   -1
100
AcDbPolyline
 90
    3
 70
    0
 43
0
 10
115
 20
-105.6752168384297
 10
117.2222222222223
 20
-103.4529946162075
 10
117.2222222222223
 20
-113.4529946162075
  0
LWPOLYLINE
  5
70
100
AcDbEntity
  8
number
  6
ByLayer
 62
    5
370
   -1
100
AcDbPolyline
 90
    8
 70
    0
 43
0
 10
125
 20
-103.4529946162075
 10
120.5555555555556
 20
-103.4529946162075
 10
120.5555555555556
 20
-107.8974390606519
 10
122.7777777777778
 20
-107.897439060652
 42
-0.4099999999999995
 10
125
 20
-110.1196612828742
 10
125
 20
-111.2307723939853
 42
-0.4099999999999978
 10
122.7777777777778
 20
-113.4529946162075
 10
120.5555555555556
 20
-113.4529946162075
  0
LWPOLYLINE
  5
71
100
AcDbEntity
  8
number
  6
ByLayer
 62
    5
370
   -1
100
AcDbPolyline
 90
    3
 70
    0
 43
0
 10
14.99999999999998
 20
-165.6752168384297
 10
17.2222222222222
 20
-163.4529946162075
 10
17.2222222222222
 20
-173.4529946162075
  0
LWPOLYLINE
  5
72
100
AcDbEntity
  8
number
  6
ByLayer
 62
    5
370
   -1
100
AcDbPolyline
 90
    7
 70
    0
 43
0
 10
23.88888888888888
 20
-163.4529946162075
 42
0.3300000000000008
 10
20.55555555555554
 20
-167.8974390606519
 10
22.77777777777775
 20
-167.8974390606519
 42
-0.41
 10
24.99999999999998
 20
-170.1196612828741
 10
24.99999999999998
 20
-171.2307723939852
 42
-0.9999999999999999
 10
20.55555555555554
 20
-171.2307723939852
 10
20.55555555555554
 20
-167.8974390606519
  0
LWPOLYLINE
  5
73
100
AcDbEntity
  8
number
  6
ByLayer
 62
    5
370
   -1
100
AcDbPolyline
 90
    3
 70
    0
 43
0
 10
65
 20
-165.6752168384297
 10
67.22222222222223
 20
-163.4529946162075
 10
67.22222222222223
 20
-173.4529946162075
  0
LWPOLYLINE
  5
74
100
AcDbEntity
  8
number
  6
ByLayer
 62
    5
370
   -1
100
AcDbPolyline
 90
    4
 70
    1
 43
0
 10
75.00000000000001
 20
-170.1196612828741
 42
0.9999999999999999
 10
70.55555555555556
 20
-170.1196612828741
 10
70.55555555555554
 20
-171.2307723939852
 42
0.9999999999999999
 10
75
 20
-171.2307723939852
  0
LWPOLYLINE
  5
75
100
AcDbEntity
  8
number
  6
ByLayer
 62
    5
370
   -1
100
AcDbPolyline
 90
    2
 70
    1
 43
0
 10
72.77777777777779
 20
-163.4529946162075
 42
0.9999999999999999
 10
72.77777777777779
 20
-167.8974390606519
 42
0.9999999999999999
  0
LWPOLYLINE
  5
76
100
AcDbEntity
  8
number
  6
ByLayer
 62
    5
370
   -1
100
AcDbPolyline
 90
    5
 70
    0
 43
0
 10
113.8888888888889
 20
-165.1196612828741
 10
114.1888888888889
 20
-164.5641057273186
 42
-0.9999999999999999
 10
118.0333333333334
 20
-166.7863279495408
 10
113.8888888888889
 20
-173.4529946162075
 10
118.3333333333334
 20
-173.4529946162075
  0
LWPOLYLINE
  5
77
100
AcDbEntity
  8
number
  6
ByLayer
 62
    5
370
   -1
100
AcDbPolyline
 90
    4
 70
    1
 43
0
 10
122.7777777777778
 20
-164.008550171763
 42
0.2500000000000002
 10
122.7777777777778
 20
-172.8974390606519
 42
0.4999999999999992
 10
125
 20
-172.8974390606519
 42
0.2500000000000001
 10
125
 20
-164.0085501717631
 42
0.5000000000000064
  0
LWPOLYLINE
  5
78
100
AcDbEntity
  8
number
  6
ByLayer
 62
    5
370
   -1
100
AcDbPolyline
 90
    5
 70
    0
 43
0
 10
47.22222222222222
 20
28.11966128287416
 10
46.92222222222222
 20
27.5641057273186
 42
-1.000000000000001
 10
43.07777777777778
 20
29.78632794954083
 10
47.22222222222222
 20
36.45299461620749
 10
42.77777777777778
 20
36.45299461620749
  0
LWPOLYLINE
  5
79
100
AcDbEntity
  8
number
  6
ByLayer
 62
    5
370
   -1
100
AcDbPolyline
 90
    3
 70
    0
 43
0
 10
95.55555555555554
 20
26.45299461620749
 10
97.77777777777777
 20
34.23077239398527
 10
92.22222222222221
 20
34.23077239398527
  0
LWPOLYLINE
  5
7A
100
AcDbEntity
  8
number
  6
ByLayer
 62
    5
370
   -1
100
AcDbPolyline
 90
    2
 70
    0
 43
0
 10
93.88888888888889
 20
32.00855017176305
 10
93.88888888888889
 20
36.45299461620749
  0
LWPOLYLINE
  5
7B
100
AcDbEntity
  8
number
  6
ByLayer
 62
    5
370
   -1
100
AcDbPolyline
 90
    4
 70
    0
 43
0
 10
47.22222222222222
 20
-32.4358942726814
 10
47.22222222222222
 20
-33.54700538379251
 10
42.77777777777778
 20
-33.54700538379251
 10
45
 20
-23.54700538379251
  0
LWPOLYLINE
  5
7C
100
AcDbEntity
  8
number
  6
ByLayer
 62
    5
370
   -1
100
AcDbPolyline
 90
    7
 70
    0
 43
0
 10
96.11111111111111
 20
-23.54700538379251
 42
0.329999999999999
 10
92.77777777777779
 20
-27.99144982823695
 10
95
 20
-27.99144982823695
 42
-0.4100000000000009
 10
97.22222222222223
 20
-30.21367205045918
 10
97.22222222222223
 20
-31.32478316157029
 42
-0.9999999999999999
 10
92.77777777777779
 20
-31.32478316157029
 10
92.77777777777779
 20
-27.99144982823695
  0
LWPOLYLINE
  5
7D
100
AcDbEntity
  8
number
  6
ByLayer
 62
    5
370
   -1
100
AcDbPolyline
 90
    3
 70
    0
 43
0
 10
50
 20
-91.32478316157028
 10
47.77777777777778
 20
-93.54700538379251
 10
47.77777777777778
 20
-83.54700538379251
  0
LWPOLYLINE
  5
7E
100
AcDbEntity
  8
number
  6
ByLayer
 62
    5
370
   -1
100
AcDbPolyline
 90
    5
 70
    0
 43
0
 10
44.44444444444444
 20
-91.88033871712584
 10
44.14444444444445
 20
-92.4358942726814
 42
-0.999999999999997
 10
40.3
 20
-90.21367205045918
 10
44.44444444444444
 20
-83.54700538379251
 10
40
 20
-83.54700538379251
  0
LWPOLYLINE
  5
7F
100
AcDbEntity
  8
number
  6
ByLayer
 62
    5
370
   -1
100
AcDbPolyline
 90
    3
 70
    0
 43
0
 10
100.5555555555556
 20
-91.32478316157028
 10
98.33333333333333
 20
-93.54700538379251
 10
98.33333333333333
 20
-83.54700538379251
  0
LWPOLYLINE
  5
80
100
AcDbEntity
  8
number
  6
ByLayer
 62
    5
370
   -1
100
AcDbPolyline
 90
    3
 70
    0
 43
0
 10
92.77777777777777
 20
-93.54700538379251
 10
95
 20
-85.76922760601474
 10
89.44444444444444
 20
-85.76922760601474
  0
LWPOLYLINE
  5
81
100
AcDbEntity
  8
number
  6
ByLayer
 62
    5
370
   -1
100
AcDbPolyline
 90
    2
 70
    0
 43
0
 10
91.11111111111111
 20
-87.99144982823695
 10
91.11111111111111
 20
-83.54700538379251
  0
LWPOLYLINE
  5
82
100
AcDbEntity
  8
number
  6
ByLayer
 62
    5
370
   -1
100
AcDbPolyline
 90
    3
 70
    0
 43
0
 10
50
 20
-151.3247831615703
 10
47.77777777777778
 20
-153.5470053837925
 10
47.77777777777778
 20
-143.5470053837925
  0
LWPOLYLINE
  5
83
100
AcDbEntity
  8
number
  6
ByLayer
 62
    5
370
   -1
100
AcDbPolyline
 90
    4
 70
    0
 43
0
 10
44.44444444444444
 20
-152.4358942726814
 10
44.44444444444444
 20
-153.5470053837925
 10
40
 20
-153.5470053837925
 10
42.22222222222222
 20
-143.5470053837925
  0
LWPOLYLINE
  5
84
100
AcDbEntity
  8
number
  6
ByLayer
 62
    5
370
   -1
100
AcDbPolyline
 90
    3
 70
    0
 43
0
 10
100
 20
-151.3247831615703
 10
97.77777777777777
 20
-153.5470053837925
 10
97.77777777777777
 20
-143.5470053837925
  0
LWPOLYLINE
  5
85
100
AcDbEntity
  8
number
  6
ByLayer
 62
    5
370
   -1
100
AcDbPolyline
 90
    7
 70
    0
 43
0
 10
93.33333333333333
 20
-143.5470053837926
 42
0.3299999999999993
 10
90
 20
-147.991449828237
 10
92.22222222222221
 20
-147.991449828237
 42
-0.4100000000000014
 10
94.44444444444444
 20
-150.2136720504592
 10
94.44444444444446
 20
-151.3247831615703
 42
-0.9999999999999999
 10
90
 20
-151.3247831615703
 10
90
 20
-147.991449828237
  0
LWPOLYLINE
  5
86
100
AcDbEntity
  8
number
  6
ByLayer
 62
    5
370
   -1
100
AcDbPolyline
 90
    2
 70
    0
 43
0
 10
18
 20
-55
 10
22
 20
-55
  0
LWPOLYLINE
  5
87
100
AcDbEntity
  8
number
  6
ByLayer
 62
    5
370
   -1
100
AcDbPolyline
 90
    2
 70
    0
 43
0
 10
97
 20
-22
 10
93
 20
-22
  0
LWPOLYLINE
  5
88
100
AcDbEntity
  8
number
  6
ByLayer
 62
    5
370
   -1
100
AcDbPolyline
 90
    7
 70
    0
 43
0
 10
67.77777777777777
 20
16.54700538379252
 10
70
 20
16.54700538379252
 42
-1.000000000000003
 10
69.99999999999999
 20
12.10256093934807
 42
-0.4100000000000005
 10
72.22222222222221
 20
9.880338717125852
 10
72.22222222222223
 20
8.769227606014736
 42
-0.4100000000000006
 10
70
 20
6.547005383792518
 10
67.77777777777777
 20
6.547005383792518
  0
ENDSEC
  0
SECTION
  2
OBJECTS
  0
DICTIONARY
  5
C
330
0
100
AcDbDictionary
281
    1
  3
ACAD_GROUP
350
D
  0
DICTIONARY
  5
D
330
C
100
AcDbDictionary
281
    1
  0
PLOTSETTINGS
  5
89
100
AcDbPlotSettings
  6
1x1
 40
0
 41
0
 42
0
 43
0
  0
ENDSEC
  0
EOF
