0
SECTION
2
HEADER
9
$INSUNITS
70
1
9
$ACADVER
1
AC1014
9
$HANDSEED
5
FFFF
0
ENDSEC
0
SECTION
2
TABLES
0
TABLE
2
VPORT
5
8
100
AcDbSymbolTable
0
ENDTAB
0
TABLE
2
LTYPE
5
5
100
AcDbSymbolTable
0
LTYPE
5
14
100
AcDbSymbolTableRecord
100
AcDbLinetypeTableRecord
2
BYBLOCK
70
0
0
LTYPE
5
15
100
AcDbSymbolTableRecord
100
AcDbLinetypeTableRecord
2
BYLAYER
70
0
0
ENDTAB
0
TABLE
2
LAYER
5
2
100
AcDbSymbolTable
70
2
0
LAYER
5
50
100
AcDbSymbolTableRecord
100
AcDbLayerTableRecord
2
0
70
0
6
CONTINUOUS
0
ENDTAB
0
TABLE
2
STYLE
5
3
100
AcDbSymbolTable
70
1
0
STYLE
5
11
100
AcDbSymbolTableRecord
100
AcDbTextStyleTableRecord
2
STANDARD
70
0
0
ENDTAB
0
TABLE
2
VIEW
5
6
100
AcDbSymbolTable
70
0
0
ENDTAB
0
TABLE
2
UCS
5
7
100
AcDbSymbolTable
70
0
0
ENDTAB
0
TABLE
2
APPID
5
9
100
AcDbSymbolTable
70
2
0
APPID
5
12
100
AcDbSymbolTableRecord
100
AcDbRegAppTableRecord
2
ACAD
70
0
0
ENDTAB
0
TABLE
2
DIMSTYLE
5
A
100
AcDbSymbolTable
70
1
0
ENDTAB
0
TABLE
2
BLOCK_RECORD
5
1
100
AcDbSymbolTable
70
1
0
BLOCK_RECORD
5
1F
100
AcDbSymbolTableRecord
100
AcDbBlockTableRecord
2
*MODEL_SPACE
0
BLOCK_RECORD
5
1B
100
AcDbSymbolTableRecord
100
AcDbBlockTableRecord
2
*PAPER_SPACE
0
ENDTAB
0
ENDSEC
0
SECTION
2
BLOCKS
0
BLOCK
5
20
100
AcDbEntity
100
AcDbBlockBegin
2
*MODEL_SPACE
0
ENDBLK
5
21
100
AcDbEntity
100
AcDbBlockEnd
0
BLOCK
5
1C
100
AcDbEntity
100
AcDbBlockBegin
2
*PAPER_SPACE
0
ENDBLK
5
1D
100
AcDbEntity
100
AcDbBlockEnd
0
ENDSEC
0
SECTION
2
ENTITIES
0
CIRCLE
5
100
100
AcDbEntity
8
0
100
AcDbCircle
10
2.1250000000000018
20
-5.6249999999999991
30
0
40
0.18750000000000008
210
0
220
0
230
1
0
CIRCLE
5
101
100
AcDbEntity
8
0
100
AcDbCircle
10
-4.9999999999999982
20
4.9999999999999982
30
0
40
0.62500000000000011
210
0
220
0
230
1
0
CIRCLE
5
102
100
AcDbEntity
8
0
100
AcDbCircle
10
-4.9999999999999982
20
-4.9999999999999982
30
0
40
0.62500000000000011
210
0
220
0
230
1
0
CIRCLE
5
103
100
AcDbEntity
8
0
100
AcDbCircle
10
4.9999999999999982
20
4.9999999999999982
30
0
40
0.62500000000000011
210
0
220
0
230
1
0
CIRCLE
5
104
100
AcDbEntity
8
0
100
AcDbCircle
10
4.9999999999999982
20
-4.9999999999999982
30
0
40
0.62500000000000011
210
0
220
0
230
1
0
LWPOLYLINE
5
105
100
AcDbEntity
8
0
100
AcDbPolyline
90
4
70
1
43
0.0
10
-6.1249999999999982
20
6.1250000000000009
10
6.1250000000000009
20
6.1250000000000009
10
6.1250000000000009
20
-6.1249999999999991
10
-6.1249999999999982
20
-6.1249999999999991
0
CIRCLE
5
106
100
AcDbEntity
8
0
100
AcDbCircle
10
-1.9999999999999996
20
-0.99999999999999989
30
0
40
0.34374999999999994
210
0
220
0
230
1
0
CIRCLE
5
107
100
AcDbEntity
8
0
100
AcDbCircle
10
1.9999999999999996
20
-0.99999999999999989
30
0
40
0.34374999999999994
210
0
220
0
230
1
0
CIRCLE
5
108
100
AcDbEntity
8
0
100
AcDbCircle
10
-1.9999999999999996
20
0.99999999999999989
30
0
40
0.34374999999999994
210
0
220
0
230
1
0
CIRCLE
5
109
100
AcDbEntity
8
0
100
AcDbCircle
10
1.9999999999999996
20
0.99999999999999989
30
0
40
0.34374999999999994
210
0
220
0
230
1
0
CIRCLE
5
110
100
AcDbEntity
8
0
100
AcDbCircle
10
3.6955181300451252
20
1.5307337294603514
30
0
40
0.15624999999999983
210
0
220
0
230
1
0
CIRCLE
5
111
100
AcDbEntity
8
0
100
AcDbCircle
10
-3.6955181300451252
20
-1.530733729460352
30
0
40
0.15624999999999983
210
0
220
-0
230
1
0
CIRCLE
5
112
100
AcDbEntity
8
0
100
AcDbCircle
10
-1.5307337294603485
20
-3.6955181300451265
30
0
40
0.15624999999999989
210
0
220
-0
230
1
0
CIRCLE
5
113
100
AcDbEntity
8
0
100
AcDbCircle
10
1.5307337294603516
20
-3.6955181300451252
30
0
40
0.15624999999999983
210
0
220
-0
230
1
0
CIRCLE
5
114
100
AcDbEntity
8
0
100
AcDbCircle
10
3.6955181300451265
20
-1.5307337294603487
30
0
40
0.15624999999999983
210
0
220
-0
230
1
0
CIRCLE
5
115
100
AcDbEntity
8
0
100
AcDbCircle
10
1.5307337294603489
20
3.6955181300451265
30
0
40
0.15624999999999989
210
-0
220
0
230
1
0
CIRCLE
5
116
100
AcDbEntity
8
0
100
AcDbCircle
10
-1.5307337294603514
20
3.6955181300451252
30
0
40
0.15624999999999983
210
-0
220
0
230
1
0
CIRCLE
5
117
100
AcDbEntity
8
0
100
AcDbCircle
10
-3.6955181300451256
20
1.5307337294603491
30
0
40
0.15624999999999983
210
0
220
-0
230
1
0
SPLINE
5
118
100
AcDbEntity
8
0
100
AcDbSpline
70
0
71
3
72
16
73
12
74
0
42
0.000000001
43
0.0000000001
44
0.0000000001
40
0
40
0
40
0
40
0
40
0.1573419028792814
40
0.1573419028792814
40
0.32115817117669598
40
0.32115817117669598
40
0.4914460090004768
40
0.4914460090004768
40
0.64108482699408853
40
0.64108482699408853
40
0.79532540260926177
40
0.79532540260926177
40
0.79532540260926177
40
0.79532540260926177
10
0.11989662492506553
20
0.10027207652970063
30
0
10
0.13479912376537656
20
0.085979495075547127
30
0
10
0.14670713676868052
20
0.068862440877369258
30
0
10
0.16379475836088034
20
0.030293703846956135
30
0
10
0.16850969575647293
20
0.0090827438762982951
30
0
10
0.16973060486294067
20
-0.034823046315028451
30
0
10
0.16589738375635393
20
-0.057101710400353473
30
0
10
0.1510109087628467
20
-0.096475252584591067
30
0
10
0.14099856626300294
20
-0.1135887058225694
30
0
10
0.11546766743653551
20
-0.14438382315574622
30
0
10
0.099973308536902089
20
-0.15772507512734069
30
0
10
0.082634559477273287
20
-0.16830858439187521
30
0
0
ARC
5
119
100
AcDbEntity
8
0
100
AcDbCircle
10
-2.7318479936642629e-17
20
8.7419135797256413e-17
30
0
40
0.1875
210
0
220
0
230
1
100
AcDbArc
50
243.85032097020795
51
296.1496790297864
0
SPLINE
5
120
100
AcDbEntity
8
0
100
AcDbSpline
70
0
71
3
72
16
73
12
74
0
42
0.000000001
43
0.0000000001
44
0.0000000001
40
0
40
0
40
0
40
0
40
0.18209746042323166
40
0.18209746042323166
40
0.35770723315850106
40
0.35770723315850106
40
0.52682680940973992
40
0.52682680940973992
40
0.66489353129403272
40
0.66489353129403272
40
0.79836974143845607
40
0.79836974143845607
40
0.79836974143845607
40
0.79836974143845607
10
-0.082634559477292271
20
-0.16830858439186591
30
0
10
-0.10303217949225836
20
-0.15585795143902217
30
0
10
-0.12084706779343024
20
-0.13960912906693956
30
0
10
-0.14860423228915273
20
-0.10179671399007029
30
0
10
-0.15854122920337047
20
-0.080794102975198803
30
0
10
-0.16943933498640273
20
-0.03696012880990434
30
0
10
-0.17061258388126449
20
-0.014633179548130181
30
0
10
-0.16476658928036506
20
0.025155207958298162
30
0
10
-0.15924798536460996
20
0.042490906125513053
30
0
10
-0.14296830067647057
20
0.074072176189494882
30
0
10
-0.13249440632371515
20
0.08818988691096151
30
0
10
-0.11989662492504569
20
0.10027207652972439
30
0
0
ARC
5
121
100
AcDbEntity
8
0
100
AcDbCircle
10
-2.7318479936642629e-17
20
8.7419135797256413e-17
30
0
40
0.15629999999999991
210
0
220
-0
230
1
100
AcDbArc
50
39.906450606373674
51
140.09354939361498
0
ENDSEC
0
SECTION
2
OBJECTS
0
DICTIONARY
5
C
100
AcDbDictionary
3
ACAD_GROUP
350
D
3
ACAD_MLINESTYLE
350
17
0
DICTIONARY
5
D
100
AcDbDictionary
0
DICTIONARY
5
1A
330
C
100
AcDbDictionary
0
DICTIONARY
5
17
100
AcDbDictionary
0
ENDSEC
0
EOF
