  0
SECTION
  2
HEADER
  9
$ACADVER
  1
AC1014
  9
$HANDSEED
  5
FFFF
  9
$MEASUREMENT
 70
     1
  0
ENDSEC
  0
SECTION
  2
TABLES
  0
TABLE
  2
VPORT
  5
8
330
0
100
AcDbSymbolTable
 70
     4
  0
VPORT
  5
2E
330
8
100
AcDbSymbolTableRecord
100
AcDbViewportTableRecord
  2
*ACTIVE
 70
     0
 10
0.0
 20
0.0
 11
1.0
 21
1.0
 12
210.0
 22
148.5
 13
0.0
 23
0.0
 14
10.0
 24
10.0
 15
10.0
 25
10.0
 16
0.0
 26
0.0
 36
1.0
 17
0.0
 27
0.0
 37
0.0
 40
341.0
 41
1.24
 42
50.0
 43
0.0
 44
0.0
 50
0.0
 51
0.0
 71
     0
 72
   100
 73
     1
 74
     3
 75
     0
 76
     0
 77
     0
 78
     0
  0
ENDTAB
  0
TABLE
  2
LTYPE
  5
5
330
0
100
AcDbSymbolTable
 70
     1
  0
LTYPE
  5
14
330
5
100
AcDbSymbolTableRecord
100
AcDbLinetypeTableRecord
  2
BYBLOCK
 70
     0
  3

 72
    65
 73
     0
 40
0.0
  0
LTYPE
  5
15
330
5
100
AcDbSymbolTableRecord
100
AcDbLinetypeTableRecord
  2
BYLAYER
 70
     0
  3

 72
    65
 73
     0
 40
0.0
  0
LTYPE
  5
16
330
5
100
AcDbSymbolTableRecord
100
AcDbLinetypeTableRecord
  2
CONTINUOUS
 70
     0
  3
Solid line
 72
    65
 73
     0
 40
0.0
  0
ENDTAB
  0
TABLE
  2
LAYER
  5
2
100
AcDbSymbolTable
 70
1
  0
LAYER
  5
50
100
AcDbSymbolTableRecord
100
AcDbLayerTableRecord
  2
0
 70
0
  6
CONTINUOUS
  0
ENDTAB
  0
TABLE
  2
STYLE
  5
3
330
0
100
AcDbSymbolTable
 70
     1
  0
STYLE
  5
11
330
3
100
AcDbSymbolTableRecord
100
AcDbTextStyleTableRecord
  2
STANDARD
 70
     0
 40
0.0
 41
1.0
 50
0.0
 71
     0
 42
2.5
  3
txt
  4

  0
ENDTAB
  0
TABLE
  2
VIEW
  5
6
330
0
100
AcDbSymbolTable
 70
     0
  0
ENDTAB
  0
TABLE
  2
UCS
  5
7
330
0
100
AcDbSymbolTable
 70
     0
  0
ENDTAB
  0
TABLE
  2
APPID
  5
9
330
0
100
AcDbSymbolTable
 70
     2
  0
APPID
  5
12
330
9
100
AcDbSymbolTableRecord
100
AcDbRegAppTableRecord
  2
ACAD
 70
     0
  0
ENDTAB
  0
TABLE
  2
DIMSTYLE
  5
A
330
0
100
AcDbSymbolTable
 70
     1
  0
DIMSTYLE
105
27
330
A
100
AcDbSymbolTableRecord
100
AcDbDimStyleTableRecord
  2
ISO-25
 70
     0
  3

  4

  5

  6

  7

 40
1.0
 41
2.5
 42
0.625
 43
3.75
 44
1.25
 45
0.0
 46
0.0
 47
0.0
 48
0.0
140
2.5
141
2.5
142
0.0
143
0.03937007874016
144
1.0
145
0.0
146
1.0
147
0.625
 71
     0
 72
     0
 73
     0
 74
     0
 75
     0
 76
     0
 77
     1
 78
     8
170
     0
171
     3
172
     1
173
     0
174
     0
175
     0
176
     0
177
     0
178
     0
270
     2
271
     2
272
     2
273
     2
274
     3
340
11
275
     0
280
     0
281
     0
282
     0
283
     0
284
     8
285
     0
286
     0
287
     3
288
     0
  0
ENDTAB
  0
TABLE
  2
BLOCK_RECORD
  5
1
330
0
100
AcDbSymbolTable
 70
     1
  0
BLOCK_RECORD
  5
1F
330
1
100
AcDbSymbolTableRecord
100
AcDbBlockTableRecord
  2
*MODEL_SPACE
  0
BLOCK_RECORD
  5
1B
330
1
100
AcDbSymbolTableRecord
100
AcDbBlockTableRecord
  2
*PAPER_SPACE
  0
ENDTAB
  0
ENDSEC
  0
SECTION
  2
BLOCKS
  0
BLOCK
  5
20
330
1F
100
AcDbEntity
  8
0
100
AcDbBlockBegin
  2
*MODEL_SPACE
 70
     0
 10
0.0
 20
0.0
 30
0.0
  3
*MODEL_SPACE
  1

  0
ENDBLK
  5
21
330
1F
100
AcDbEntity
  8
0
100
AcDbBlockEnd
  0
BLOCK
  5
1C
330
1B
100
AcDbEntity
 67
     1
  8
0
100
AcDbBlockBegin
  2
*PAPER_SPACE
  1

  0
ENDBLK
  5
1D
330
1B
100
AcDbEntity
 67
     1
  8
0
100
AcDbBlockEnd
  0
ENDSEC
  0
SECTION
  2
ENTITIES
  0
SPLINE
  5
100
100
AcDbEntity
  8
0
 62
7
100
AcDbSpline
 70
8
 71
3
 72
8
 73
4
 74
0
 40
0
 40
0
 40
0
 40
0
 40
1
 40
1
 40
1
 40
1
 10
13.777211
 20
105.121345
 30
0.0
 10
13.777443
 20
105.655016
 30
0.0
 10
13.492866
 20
106.148248
 30
0.0
 10
13.030731
 20
106.415150
 30
0.0
  0
SPLINE
  5
101
100
AcDbEntity
  8
0
 62
7
100
AcDbSpline
 70
8
 71
3
 72
8
 73
4
 74
0
 40
0
 40
0
 40
0
 40
0
 40
1
 40
1
 40
1
 40
1
 10
13.030731
 20
106.415150
 30
0.0
 10
12.568597
 20
106.682053
 30
0.0
 10
11.999157
 20
106.682053
 30
0.0
 10
11.537023
 20
106.415150
 30
0.0
  0
SPLINE
  5
102
100
AcDbEntity
  8
0
 62
7
100
AcDbSpline
 70
8
 71
3
 72
8
 73
4
 74
0
 40
0
 40
0
 40
0
 40
0
 40
1
 40
1
 40
1
 40
1
 10
11.537023
 20
106.415150
 30
0.0
 10
11.074889
 20
106.148248
 30
0.0
 10
10.790312
 20
105.655016
 30
0.0
 10
10.790544
 20
105.121345
 30
0.0
  0
SPLINE
  5
103
100
AcDbEntity
  8
0
 62
7
100
AcDbSpline
 70
8
 71
3
 72
8
 73
4
 74
0
 40
0
 40
0
 40
0
 40
0
 40
1
 40
1
 40
1
 40
1
 10
10.790544
 20
105.121345
 30
0.0
 10
10.790312
 20
104.587673
 30
0.0
 10
11.074889
 20
104.094441
 30
0.0
 10
11.537023
 20
103.827539
 30
0.0
  0
SPLINE
  5
104
100
AcDbEntity
  8
0
 62
7
100
AcDbSpline
 70
8
 71
3
 72
8
 73
4
 74
0
 40
0
 40
0
 40
0
 40
0
 40
1
 40
1
 40
1
 40
1
 10
11.537023
 20
103.827539
 30
0.0
 10
11.999157
 20
103.560636
 30
0.0
 10
12.568597
 20
103.560636
 30
0.0
 10
13.030731
 20
103.827539
 30
0.0
  0
SPLINE
  5
105
100
AcDbEntity
  8
0
 62
7
100
AcDbSpline
 70
8
 71
3
 72
8
 73
4
 74
0
 40
0
 40
0
 40
0
 40
0
 40
1
 40
1
 40
1
 40
1
 10
13.030731
 20
103.827539
 30
0.0
 10
13.492866
 20
104.094441
 30
0.0
 10
13.777443
 20
104.587673
 30
0.0
 10
13.777211
 20
105.121345
 30
0.0
  0
SPLINE
  5
106
100
AcDbEntity
  8
0
 62
7
100
AcDbSpline
 70
8
 71
3
 72
8
 73
4
 74
0
 40
0
 40
0
 40
0
 40
0
 40
1
 40
1
 40
1
 40
1
 10
13.350544
 20
142.454679
 30
0.0
 10
13.350740
 20
142.835893
 30
0.0
 10
13.147477
 20
143.188234
 30
0.0
 10
12.817369
 20
143.378897
 30
0.0
  0
SPLINE
  5
107
100
AcDbEntity
  8
0
 62
7
100
AcDbSpline
 70
8
 71
3
 72
8
 73
4
 74
0
 40
0
 40
0
 40
0
 40
0
 40
1
 40
1
 40
1
 40
1
 10
12.817369
 20
143.378897
 30
0.0
 10
12.487261
 20
143.569561
 30
0.0
 10
12.080494
 20
143.569561
 30
0.0
 10
11.750386
 20
143.378897
 30
0.0
  0
SPLINE
  5
108
100
AcDbEntity
  8
0
 62
7
100
AcDbSpline
 70
8
 71
3
 72
8
 73
4
 74
0
 40
0
 40
0
 40
0
 40
0
 40
1
 40
1
 40
1
 40
1
 10
11.750386
 20
143.378897
 30
0.0
 10
11.420277
 20
143.188234
 30
0.0
 10
11.217015
 20
142.835893
 30
0.0
 10
11.217211
 20
142.454679
 30
0.0
  0
SPLINE
  5
109
100
AcDbEntity
  8
0
 62
7
100
AcDbSpline
 70
8
 71
3
 72
8
 73
4
 74
0
 40
0
 40
0
 40
0
 40
0
 40
1
 40
1
 40
1
 40
1
 10
11.217211
 20
142.454679
 30
0.0
 10
11.217015
 20
142.073465
 30
0.0
 10
11.420277
 20
141.721125
 30
0.0
 10
11.750386
 20
141.530462
 30
0.0
  0
SPLINE
  5
10a
100
AcDbEntity
  8
0
 62
7
100
AcDbSpline
 70
8
 71
3
 72
8
 73
4
 74
0
 40
0
 40
0
 40
0
 40
0
 40
1
 40
1
 40
1
 40
1
 10
11.750386
 20
141.530462
 30
0.0
 10
12.080494
 20
141.339798
 30
0.0
 10
12.487261
 20
141.339798
 30
0.0
 10
12.817369
 20
141.530462
 30
0.0
  0
SPLINE
  5
10b
100
AcDbEntity
  8
0
 62
7
100
AcDbSpline
 70
8
 71
3
 72
8
 73
4
 74
0
 40
0
 40
0
 40
0
 40
0
 40
1
 40
1
 40
1
 40
1
 10
12.817369
 20
141.530462
 30
0.0
 10
13.147477
 20
141.721125
 30
0.0
 10
13.350740
 20
142.073465
 30
0.0
 10
13.350544
 20
142.454679
 30
0.0
  0
LWPOLYLINE
  5
10c
100
AcDbEntity
  8
0
 62
7
100
AcDbPolyline
 90
1
 70
1
 10
13.777211
 20
105.121345
 30
0.0
  0
SPLINE
  5
10d
100
AcDbEntity
  8
0
 62
7
100
AcDbSpline
 70
8
 71
3
 72
8
 73
4
 74
0
 40
0
 40
0
 40
0
 40
0
 40
1
 40
1
 40
1
 40
1
 10
8.325290
 20
94.802499
 30
0.0
 10
8.325290
 20
95.355069
 30
0.0
 10
8.030497
 20
95.865666
 30
0.0
 10
7.551957
 20
96.141951
 30
0.0
  0
SPLINE
  5
10e
100
AcDbEntity
  8
0
 62
7
100
AcDbSpline
 70
8
 71
3
 72
8
 73
4
 74
0
 40
0
 40
0
 40
0
 40
0
 40
1
 40
1
 40
1
 40
1
 10
7.551957
 20
96.141951
 30
0.0
 10
7.073417
 20
96.418237
 30
0.0
 10
6.483831
 20
96.418237
 30
0.0
 10
6.005290
 20
96.141951
 30
0.0
  0
SPLINE
  5
10f
100
AcDbEntity
  8
0
 62
7
100
AcDbSpline
 70
8
 71
3
 72
8
 73
4
 74
0
 40
0
 40
0
 40
0
 40
0
 40
1
 40
1
 40
1
 40
1
 10
6.005290
 20
96.141951
 30
0.0
 10
5.526750
 20
95.865666
 30
0.0
 10
5.231957
 20
95.355069
 30
0.0
 10
5.231957
 20
94.802499
 30
0.0
  0
SPLINE
  5
110
100
AcDbEntity
  8
0
 62
7
100
AcDbSpline
 70
8
 71
3
 72
8
 73
4
 74
0
 40
0
 40
0
 40
0
 40
0
 40
1
 40
1
 40
1
 40
1
 10
5.231957
 20
94.802499
 30
0.0
 10
5.231957
 20
94.249928
 30
0.0
 10
5.526750
 20
93.739331
 30
0.0
 10
6.005290
 20
93.463046
 30
0.0
  0
SPLINE
  5
111
100
AcDbEntity
  8
0
 62
7
100
AcDbSpline
 70
8
 71
3
 72
8
 73
4
 74
0
 40
0
 40
0
 40
0
 40
0
 40
1
 40
1
 40
1
 40
1
 10
6.005290
 20
93.463046
 30
0.0
 10
6.483831
 20
93.186761
 30
0.0
 10
7.073417
 20
93.186761
 30
0.0
 10
7.551957
 20
93.463046
 30
0.0
  0
SPLINE
  5
112
100
AcDbEntity
  8
0
 62
7
100
AcDbSpline
 70
8
 71
3
 72
8
 73
4
 74
0
 40
0
 40
0
 40
0
 40
0
 40
1
 40
1
 40
1
 40
1
 10
7.551957
 20
93.463046
 30
0.0
 10
8.030497
 20
93.739331
 30
0.0
 10
8.325290
 20
94.249928
 30
0.0
 10
8.325290
 20
94.802499
 30
0.0
  0
LWPOLYLINE
  5
113
100
AcDbEntity
  8
0
 62
7
100
AcDbPolyline
 90
1
 70
1
 10
13.350544
 20
142.454679
 30
0.0
  0
SPLINE
  5
114
100
AcDbEntity
  8
0
 62
7
100
AcDbSpline
 70
8
 71
3
 72
8
 73
4
 74
0
 40
0
 40
0
 40
0
 40
0
 40
1
 40
1
 40
1
 40
1
 10
7.574772
 20
60.295831
 30
0.0
 10
7.574772
 20
60.581643
 30
0.0
 10
7.422293
 20
60.845745
 30
0.0
 10
7.174772
 20
60.988651
 30
0.0
  0
SPLINE
  5
115
100
AcDbEntity
  8
0
 62
7
100
AcDbSpline
 70
8
 71
3
 72
8
 73
4
 74
0
 40
0
 40
0
 40
0
 40
0
 40
1
 40
1
 40
1
 40
1
 10
7.174772
 20
60.988651
 30
0.0
 10
6.927251
 20
61.131558
 30
0.0
 10
6.622293
 20
61.131558
 30
0.0
 10
6.374772
 20
60.988651
 30
0.0
  0
SPLINE
  5
116
100
AcDbEntity
  8
0
 62
7
100
AcDbSpline
 70
8
 71
3
 72
8
 73
4
 74
0
 40
0
 40
0
 40
0
 40
0
 40
1
 40
1
 40
1
 40
1
 10
6.374772
 20
60.988651
 30
0.0
 10
6.127251
 20
60.845745
 30
0.0
 10
5.974772
 20
60.581643
 30
0.0
 10
5.974772
 20
60.295831
 30
0.0
  0
SPLINE
  5
117
100
AcDbEntity
  8
0
 62
7
100
AcDbSpline
 70
8
 71
3
 72
8
 73
4
 74
0
 40
0
 40
0
 40
0
 40
0
 40
1
 40
1
 40
1
 40
1
 10
5.974772
 20
60.295831
 30
0.0
 10
5.974772
 20
60.010018
 30
0.0
 10
6.127251
 20
59.745917
 30
0.0
 10
6.374772
 20
59.603010
 30
0.0
  0
SPLINE
  5
118
100
AcDbEntity
  8
0
 62
7
100
AcDbSpline
 70
8
 71
3
 72
8
 73
4
 74
0
 40
0
 40
0
 40
0
 40
0
 40
1
 40
1
 40
1
 40
1
 10
6.374772
 20
59.603010
 30
0.0
 10
6.622293
 20
59.460104
 30
0.0
 10
6.927251
 20
59.460104
 30
0.0
 10
7.174772
 20
59.603010
 30
0.0
  0
SPLINE
  5
119
100
AcDbEntity
  8
0
 62
7
100
AcDbSpline
 70
8
 71
3
 72
8
 73
4
 74
0
 40
0
 40
0
 40
0
 40
0
 40
1
 40
1
 40
1
 40
1
 10
7.174772
 20
59.603010
 30
0.0
 10
7.422293
 20
59.745917
 30
0.0
 10
7.574772
 20
60.010018
 30
0.0
 10
7.574772
 20
60.295831
 30
0.0
  0
LWPOLYLINE
  5
11a
100
AcDbEntity
  8
0
 62
7
100
AcDbPolyline
 90
1
 70
1
 10
8.325290
 20
94.802499
 30
0.0
  0
SPLINE
  5
11b
100
AcDbEntity
  8
0
 62
7
100
AcDbSpline
 70
8
 71
3
 72
8
 73
4
 74
0
 40
0
 40
0
 40
0
 40
0
 40
1
 40
1
 40
1
 40
1
 10
7.578070
 20
89.842499
 30
0.0
 10
7.578240
 20
90.128425
 30
0.0
 10
7.425798
 20
90.392704
 30
0.0
 10
7.178207
 20
90.535716
 30
0.0
  0
SPLINE
  5
11c
100
AcDbEntity
  8
0
 62
7
100
AcDbSpline
 70
8
 71
3
 72
8
 73
4
 74
0
 40
0
 40
0
 40
0
 40
0
 40
1
 40
1
 40
1
 40
1
 10
7.178207
 20
90.535716
 30
0.0
 10
6.930617
 20
90.678728
 30
0.0
 10
6.625523
 20
90.678728
 30
0.0
 10
6.377933
 20
90.535716
 30
0.0
  0
SPLINE
  5
11d
100
AcDbEntity
  8
0
 62
7
100
AcDbSpline
 70
8
 71
3
 72
8
 73
4
 74
0
 40
0
 40
0
 40
0
 40
0
 40
1
 40
1
 40
1
 40
1
 10
6.377933
 20
90.535716
 30
0.0
 10
6.130342
 20
90.392704
 30
0.0
 10
5.977900
 20
90.128425
 30
0.0
 10
5.978070
 20
89.842499
 30
0.0
  0
SPLINE
  5
11e
100
AcDbEntity
  8
0
 62
7
100
AcDbSpline
 70
8
 71
3
 72
8
 73
4
 74
0
 40
0
 40
0
 40
0
 40
0
 40
1
 40
1
 40
1
 40
1
 10
5.978070
 20
89.842499
 30
0.0
 10
5.977900
 20
89.556574
 30
0.0
 10
6.130342
 20
89.292295
 30
0.0
 10
6.377933
 20
89.149283
 30
0.0
  0
SPLINE
  5
11f
100
AcDbEntity
  8
0
 62
7
100
AcDbSpline
 70
8
 71
3
 72
8
 73
4
 74
0
 40
0
 40
0
 40
0
 40
0
 40
1
 40
1
 40
1
 40
1
 10
6.377933
 20
89.149283
 30
0.0
 10
6.625523
 20
89.006271
 30
0.0
 10
6.930617
 20
89.006271
 30
0.0
 10
7.178207
 20
89.149283
 30
0.0
  0
SPLINE
  5
120
100
AcDbEntity
  8
0
 62
7
100
AcDbSpline
 70
8
 71
3
 72
8
 73
4
 74
0
 40
0
 40
0
 40
0
 40
0
 40
1
 40
1
 40
1
 40
1
 10
7.178207
 20
89.149283
 30
0.0
 10
7.425798
 20
89.292295
 30
0.0
 10
7.578240
 20
89.556574
 30
0.0
 10
7.578070
 20
89.842499
 30
0.0
  0
LWPOLYLINE
  5
121
100
AcDbEntity
  8
0
 62
7
100
AcDbPolyline
 90
1
 70
1
 10
7.574772
 20
60.295831
 30
0.0
  0
SPLINE
  5
122
100
AcDbEntity
  8
0
 62
7
100
AcDbSpline
 70
8
 71
3
 72
8
 73
4
 74
0
 40
0
 40
0
 40
0
 40
0
 40
1
 40
1
 40
1
 40
1
 10
-6.979848
 20
160.412756
 30
0.0
 10
-6.979616
 20
160.946427
 30
0.0
 10
-7.264193
 20
161.439659
 30
0.0
 10
-7.726327
 20
161.706562
 30
0.0
  0
SPLINE
  5
123
100
AcDbEntity
  8
0
 62
7
100
AcDbSpline
 70
8
 71
3
 72
8
 73
4
 74
0
 40
0
 40
0
 40
0
 40
0
 40
1
 40
1
 40
1
 40
1
 10
-7.726327
 20
161.706562
 30
0.0
 10
-8.188461
 20
161.973464
 30
0.0
 10
-8.757901
 20
161.973464
 30
0.0
 10
-9.220035
 20
161.706562
 30
0.0
  0
SPLINE
  5
124
100
AcDbEntity
  8
0
 62
7
100
AcDbSpline
 70
8
 71
3
 72
8
 73
4
 74
0
 40
0
 40
0
 40
0
 40
0
 40
1
 40
1
 40
1
 40
1
 10
-9.220035
 20
161.706562
 30
0.0
 10
-9.682169
 20
161.439659
 30
0.0
 10
-9.966746
 20
160.946427
 30
0.0
 10
-9.966514
 20
160.412756
 30
0.0
  0
SPLINE
  5
125
100
AcDbEntity
  8
0
 62
7
100
AcDbSpline
 70
8
 71
3
 72
8
 73
4
 74
0
 40
0
 40
0
 40
0
 40
0
 40
1
 40
1
 40
1
 40
1
 10
-9.966514
 20
160.412756
 30
0.0
 10
-9.966746
 20
159.879085
 30
0.0
 10
-9.682169
 20
159.385853
 30
0.0
 10
-9.220035
 20
159.118950
 30
0.0
  0
SPLINE
  5
126
100
AcDbEntity
  8
0
 62
7
100
AcDbSpline
 70
8
 71
3
 72
8
 73
4
 74
0
 40
0
 40
0
 40
0
 40
0
 40
1
 40
1
 40
1
 40
1
 10
-9.220035
 20
159.118950
 30
0.0
 10
-8.757901
 20
158.852048
 30
0.0
 10
-8.188461
 20
158.852048
 30
0.0
 10
-7.726327
 20
159.118950
 30
0.0
  0
SPLINE
  5
127
100
AcDbEntity
  8
0
 62
7
100
AcDbSpline
 70
8
 71
3
 72
8
 73
4
 74
0
 40
0
 40
0
 40
0
 40
0
 40
1
 40
1
 40
1
 40
1
 10
-7.726327
 20
159.118950
 30
0.0
 10
-7.264193
 20
159.385853
 30
0.0
 10
-6.979616
 20
159.879085
 30
0.0
 10
-6.979848
 20
160.412756
 30
0.0
  0
LWPOLYLINE
  5
128
100
AcDbEntity
  8
0
 62
7
100
AcDbPolyline
 90
1
 70
1
 10
7.578070
 20
89.842499
 30
0.0
  0
SPLINE
  5
129
100
AcDbEntity
  8
0
 62
7
100
AcDbSpline
 70
8
 71
3
 72
8
 73
4
 74
0
 40
0
 40
0
 40
0
 40
0
 40
1
 40
1
 40
1
 40
1
 10
-7.406514
 20
208.412756
 30
0.0
 10
-7.406318
 20
208.793970
 30
0.0
 10
-7.609581
 20
209.146310
 30
0.0
 10
-7.939689
 20
209.336974
 30
0.0
  0
SPLINE
  5
12a
100
AcDbEntity
  8
0
 62
7
100
AcDbSpline
 70
8
 71
3
 72
8
 73
4
 74
0
 40
0
 40
0
 40
0
 40
0
 40
1
 40
1
 40
1
 40
1
 10
-7.939689
 20
209.336974
 30
0.0
 10
-8.269798
 20
209.527637
 30
0.0
 10
-8.676564
 20
209.527637
 30
0.0
 10
-9.006673
 20
209.336974
 30
0.0
  0
SPLINE
  5
12b
100
AcDbEntity
  8
0
 62
7
100
AcDbSpline
 70
8
 71
3
 72
8
 73
4
 74
0
 40
0
 40
0
 40
0
 40
0
 40
1
 40
1
 40
1
 40
1
 10
-9.006673
 20
209.336974
 30
0.0
 10
-9.336781
 20
209.146310
 30
0.0
 10
-9.540044
 20
208.793970
 30
0.0
 10
-9.539848
 20
208.412756
 30
0.0
  0
SPLINE
  5
12c
100
AcDbEntity
  8
0
 62
7
100
AcDbSpline
 70
8
 71
3
 72
8
 73
4
 74
0
 40
0
 40
0
 40
0
 40
0
 40
1
 40
1
 40
1
 40
1
 10
-9.539848
 20
208.412756
 30
0.0
 10
-9.540044
 20
208.031542
 30
0.0
 10
-9.336781
 20
207.679202
 30
0.0
 10
-9.006673
 20
207.488538
 30
0.0
  0
SPLINE
  5
12d
100
AcDbEntity
  8
0
 62
7
100
AcDbSpline
 70
8
 71
3
 72
8
 73
4
 74
0
 40
0
 40
0
 40
0
 40
0
 40
1
 40
1
 40
1
 40
1
 10
-9.006673
 20
207.488538
 30
0.0
 10
-8.676564
 20
207.297875
 30
0.0
 10
-8.269798
 20
207.297875
 30
0.0
 10
-7.939689
 20
207.488538
 30
0.0
  0
SPLINE
  5
12e
100
AcDbEntity
  8
0
 62
7
100
AcDbSpline
 70
8
 71
3
 72
8
 73
4
 74
0
 40
0
 40
0
 40
0
 40
0
 40
1
 40
1
 40
1
 40
1
 10
-7.939689
 20
207.488538
 30
0.0
 10
-7.609581
 20
207.679202
 30
0.0
 10
-7.406318
 20
208.031542
 30
0.0
 10
-7.406514
 20
208.412756
 30
0.0
  0
LWPOLYLINE
  5
12f
100
AcDbEntity
  8
0
 62
7
100
AcDbPolyline
 90
1
 70
1
 10
-6.979848
 20
160.412756
 30
0.0
  0
SPLINE
  5
130
100
AcDbEntity
  8
0
 62
7
100
AcDbSpline
 70
8
 71
3
 72
8
 73
4
 74
0
 40
0
 40
0
 40
0
 40
0
 40
1
 40
1
 40
1
 40
1
 10
23.360448
 20
205.739547
 30
0.0
 10
23.360644
 20
206.120761
 30
0.0
 10
23.157381
 20
206.473101
 30
0.0
 10
22.827273
 20
206.663765
 30
0.0
  0
SPLINE
  5
131
100
AcDbEntity
  8
0
 62
7
100
AcDbSpline
 70
8
 71
3
 72
8
 73
4
 74
0
 40
0
 40
0
 40
0
 40
0
 40
1
 40
1
 40
1
 40
1
 10
22.827273
 20
206.663765
 30
0.0
 10
22.497165
 20
206.854428
 30
0.0
 10
22.090398
 20
206.854428
 30
0.0
 10
21.760289
 20
206.663765
 30
0.0
  0
SPLINE
  5
132
100
AcDbEntity
  8
0
 62
7
100
AcDbSpline
 70
8
 71
3
 72
8
 73
4
 74
0
 40
0
 40
0
 40
0
 40
0
 40
1
 40
1
 40
1
 40
1
 10
21.760289
 20
206.663765
 30
0.0
 10
21.430181
 20
206.473101
 30
0.0
 10
21.226918
 20
206.120761
 30
0.0
 10
21.227114
 20
205.739547
 30
0.0
  0
SPLINE
  5
133
100
AcDbEntity
  8
0
 62
7
100
AcDbSpline
 70
8
 71
3
 72
8
 73
4
 74
0
 40
0
 40
0
 40
0
 40
0
 40
1
 40
1
 40
1
 40
1
 10
21.227114
 20
205.739547
 30
0.0
 10
21.226918
 20
205.358333
 30
0.0
 10
21.430181
 20
205.005993
 30
0.0
 10
21.760289
 20
204.815329
 30
0.0
  0
SPLINE
  5
134
100
AcDbEntity
  8
0
 62
7
100
AcDbSpline
 70
8
 71
3
 72
8
 73
4
 74
0
 40
0
 40
0
 40
0
 40
0
 40
1
 40
1
 40
1
 40
1
 10
21.760289
 20
204.815329
 30
0.0
 10
22.090398
 20
204.624666
 30
0.0
 10
22.497165
 20
204.624666
 30
0.0
 10
22.827273
 20
204.815329
 30
0.0
  0
SPLINE
  5
135
100
AcDbEntity
  8
0
 62
7
100
AcDbSpline
 70
8
 71
3
 72
8
 73
4
 74
0
 40
0
 40
0
 40
0
 40
0
 40
1
 40
1
 40
1
 40
1
 10
22.827273
 20
204.815329
 30
0.0
 10
23.157381
 20
205.005993
 30
0.0
 10
23.360644
 20
205.358333
 30
0.0
 10
23.360448
 20
205.739547
 30
0.0
  0
LWPOLYLINE
  5
136
100
AcDbEntity
  8
0
 62
7
100
AcDbPolyline
 90
1
 70
1
 10
-7.406514
 20
208.412756
 30
0.0
  0
SPLINE
  5
137
100
AcDbEntity
  8
0
 62
7
100
AcDbSpline
 70
8
 71
3
 72
8
 73
4
 74
0
 40
0
 40
0
 40
0
 40
0
 40
1
 40
1
 40
1
 40
1
 10
32.893745
 20
217.212789
 30
0.0
 10
32.894042
 20
218.084143
 30
0.0
 10
32.429350
 20
218.889434
 30
0.0
 10
31.674785
 20
219.325197
 30
0.0
  0
SPLINE
  5
138
100
AcDbEntity
  8
0
 62
7
100
AcDbSpline
 70
8
 71
3
 72
8
 73
4
 74
0
 40
0
 40
0
 40
0
 40
0
 40
1
 40
1
 40
1
 40
1
 10
31.674785
 20
219.325197
 30
0.0
 10
30.920219
 20
219.760959
 30
0.0
 10
29.990471
 20
219.760959
 30
0.0
 10
29.235906
 20
219.325197
 30
0.0
  0
SPLINE
  5
139
100
AcDbEntity
  8
0
 62
7
100
AcDbSpline
 70
8
 71
3
 72
8
 73
4
 74
0
 40
0
 40
0
 40
0
 40
0
 40
1
 40
1
 40
1
 40
1
 10
29.235906
 20
219.325197
 30
0.0
 10
28.481340
 20
218.889434
 30
0.0
 10
28.016649
 20
218.084143
 30
0.0
 10
28.016945
 20
217.212789
 30
0.0
  0
SPLINE
  5
13a
100
AcDbEntity
  8
0
 62
7
100
AcDbSpline
 70
8
 71
3
 72
8
 73
4
 74
0
 40
0
 40
0
 40
0
 40
0
 40
1
 40
1
 40
1
 40
1
 10
28.016945
 20
217.212789
 30
0.0
 10
28.016649
 20
216.341435
 30
0.0
 10
28.481340
 20
215.536144
 30
0.0
 10
29.235906
 20
215.100382
 30
0.0
  0
SPLINE
  5
13b
100
AcDbEntity
  8
0
 62
7
100
AcDbSpline
 70
8
 71
3
 72
8
 73
4
 74
0
 40
0
 40
0
 40
0
 40
0
 40
1
 40
1
 40
1
 40
1
 10
29.235906
 20
215.100382
 30
0.0
 10
29.990471
 20
214.664619
 30
0.0
 10
30.920219
 20
214.664619
 30
0.0
 10
31.674785
 20
215.100382
 30
0.0
  0
SPLINE
  5
13c
100
AcDbEntity
  8
0
 62
7
100
AcDbSpline
 70
8
 71
3
 72
8
 73
4
 74
0
 40
0
 40
0
 40
0
 40
0
 40
1
 40
1
 40
1
 40
1
 10
31.674785
 20
215.100382
 30
0.0
 10
32.429350
 20
215.536144
 30
0.0
 10
32.894042
 20
216.341435
 30
0.0
 10
32.893745
 20
217.212789
 30
0.0
  0
LWPOLYLINE
  5
13d
100
AcDbEntity
  8
0
 62
7
100
AcDbPolyline
 90
1
 70
1
 10
23.360448
 20
205.739547
 30
0.0
  0
SPLINE
  5
13e
100
AcDbEntity
  8
0
 62
7
100
AcDbSpline
 70
8
 71
3
 72
8
 73
4
 74
0
 40
0
 40
0
 40
0
 40
0
 40
1
 40
1
 40
1
 40
1
 10
31.527536
 20
158.439455
 30
0.0
 10
31.528016
 20
158.820859
 30
0.0
 10
31.324816
 20
159.173495
 30
0.0
 10
30.994591
 20
159.364336
 30
0.0
  0
SPLINE
  5
13f
100
AcDbEntity
  8
0
 62
7
100
AcDbSpline
 70
8
 71
3
 72
8
 73
4
 74
0
 40
0
 40
0
 40
0
 40
0
 40
1
 40
1
 40
1
 40
1
 10
30.994591
 20
159.364336
 30
0.0
 10
30.664366
 20
159.555176
 30
0.0
 10
30.257373
 20
159.555176
 30
0.0
 10
29.927148
 20
159.364336
 30
0.0
  0
SPLINE
  5
140
100
AcDbEntity
  8
0
 62
7
100
AcDbSpline
 70
8
 71
3
 72
8
 73
4
 74
0
 40
0
 40
0
 40
0
 40
0
 40
1
 40
1
 40
1
 40
1
 10
29.927148
 20
159.364336
 30
0.0
 10
29.596923
 20
159.173495
 30
0.0
 10
29.393723
 20
158.820859
 30
0.0
 10
29.394204
 20
158.439455
 30
0.0
  0
SPLINE
  5
141
100
AcDbEntity
  8
0
 62
7
100
AcDbSpline
 70
8
 71
3
 72
8
 73
4
 74
0
 40
0
 40
0
 40
0
 40
0
 40
1
 40
1
 40
1
 40
1
 10
29.394204
 20
158.439455
 30
0.0
 10
29.393723
 20
158.058052
 30
0.0
 10
29.596923
 20
157.705415
 30
0.0
 10
29.927148
 20
157.514575
 30
0.0
  0
SPLINE
  5
142
100
AcDbEntity
  8
0
 62
7
100
AcDbSpline
 70
8
 71
3
 72
8
 73
4
 74
0
 40
0
 40
0
 40
0
 40
0
 40
1
 40
1
 40
1
 40
1
 10
29.927148
 20
157.514575
 30
0.0
 10
30.257373
 20
157.323735
 30
0.0
 10
30.664366
 20
157.323735
 30
0.0
 10
30.994591
 20
157.514575
 30
0.0
  0
SPLINE
  5
143
100
AcDbEntity
  8
0
 62
7
100
AcDbSpline
 70
8
 71
3
 72
8
 73
4
 74
0
 40
0
 40
0
 40
0
 40
0
 40
1
 40
1
 40
1
 40
1
 10
30.994591
 20
157.514575
 30
0.0
 10
31.324816
 20
157.705415
 30
0.0
 10
31.528016
 20
158.058052
 30
0.0
 10
31.527536
 20
158.439455
 30
0.0
  0
LWPOLYLINE
  5
144
100
AcDbEntity
  8
0
 62
7
100
AcDbPolyline
 90
1
 70
1
 10
32.893745
 20
217.212789
 30
0.0
  0
SPLINE
  5
145
100
AcDbEntity
  8
0
 62
7
100
AcDbSpline
 70
8
 71
3
 72
8
 73
4
 74
0
 40
0
 40
0
 40
0
 40
0
 40
1
 40
1
 40
1
 40
1
 10
108.422855
 20
58.732879
 30
0.0
 10
108.423366
 20
59.381061
 30
0.0
 10
108.077859
 20
59.980225
 30
0.0
 10
107.516602
 20
60.304464
 30
0.0
  0
SPLINE
  5
146
100
AcDbEntity
  8
0
 62
7
100
AcDbSpline
 70
8
 71
3
 72
8
 73
4
 74
0
 40
0
 40
0
 40
0
 40
0
 40
1
 40
1
 40
1
 40
1
 10
107.516602
 20
60.304464
 30
0.0
 10
106.955345
 20
60.628702
 30
0.0
 10
106.263700
 20
60.628702
 30
0.0
 10
105.702442
 20
60.304464
 30
0.0
  0
SPLINE
  5
147
100
AcDbEntity
  8
0
 62
7
100
AcDbSpline
 70
8
 71
3
 72
8
 73
4
 74
0
 40
0
 40
0
 40
0
 40
0
 40
1
 40
1
 40
1
 40
1
 10
105.702442
 20
60.304464
 30
0.0
 10
105.141185
 20
59.980225
 30
0.0
 10
104.795678
 20
59.381061
 30
0.0
 10
104.796189
 20
58.732879
 30
0.0
  0
SPLINE
  5
148
100
AcDbEntity
  8
0
 62
7
100
AcDbSpline
 70
8
 71
3
 72
8
 73
4
 74
0
 40
0
 40
0
 40
0
 40
0
 40
1
 40
1
 40
1
 40
1
 10
104.796189
 20
58.732879
 30
0.0
 10
104.795678
 20
58.084696
 30
0.0
 10
105.141185
 20
57.485532
 30
0.0
 10
105.702442
 20
57.161294
 30
0.0
  0
SPLINE
  5
149
100
AcDbEntity
  8
0
 62
7
100
AcDbSpline
 70
8
 71
3
 72
8
 73
4
 74
0
 40
0
 40
0
 40
0
 40
0
 40
1
 40
1
 40
1
 40
1
 10
105.702442
 20
57.161294
 30
0.0
 10
106.263700
 20
56.837055
 30
0.0
 10
106.955345
 20
56.837055
 30
0.0
 10
107.516602
 20
57.161294
 30
0.0
  0
SPLINE
  5
14a
100
AcDbEntity
  8
0
 62
7
100
AcDbSpline
 70
8
 71
3
 72
8
 73
4
 74
0
 40
0
 40
0
 40
0
 40
0
 40
1
 40
1
 40
1
 40
1
 10
107.516602
 20
57.161294
 30
0.0
 10
108.077859
 20
57.485532
 30
0.0
 10
108.423366
 20
58.084696
 30
0.0
 10
108.422855
 20
58.732879
 30
0.0
  0
LWPOLYLINE
  5
14b
100
AcDbEntity
  8
0
 62
7
100
AcDbPolyline
 90
1
 70
1
 10
31.527536
 20
158.439455
 30
0.0
  0
SPLINE
  5
14c
100
AcDbEntity
  8
0
 62
7
100
AcDbSpline
 70
8
 71
3
 72
8
 73
4
 74
0
 40
0
 40
0
 40
0
 40
0
 40
1
 40
1
 40
1
 40
1
 10
24.924189
 20
58.732879
 30
0.0
 10
24.924445
 20
59.380891
 30
0.0
 10
24.578881
 20
59.979788
 30
0.0
 10
24.017729
 20
60.303868
 30
0.0
  0
SPLINE
  5
14d
100
AcDbEntity
  8
0
 62
7
100
AcDbSpline
 70
8
 71
3
 72
8
 73
4
 74
0
 40
0
 40
0
 40
0
 40
0
 40
1
 40
1
 40
1
 40
1
 10
24.017729
 20
60.303868
 30
0.0
 10
23.456577
 20
60.627947
 30
0.0
 10
22.765135
 20
60.627947
 30
0.0
 10
22.203982
 20
60.303868
 30
0.0
  0
SPLINE
  5
14e
100
AcDbEntity
  8
0
 62
7
100
AcDbSpline
 70
8
 71
3
 72
8
 73
4
 74
0
 40
0
 40
0
 40
0
 40
0
 40
1
 40
1
 40
1
 40
1
 10
22.203982
 20
60.303868
 30
0.0
 10
21.642830
 20
59.979788
 30
0.0
 10
21.297267
 20
59.380891
 30
0.0
 10
21.297522
 20
58.732879
 30
0.0
  0
SPLINE
  5
14f
100
AcDbEntity
  8
0
 62
7
100
AcDbSpline
 70
8
 71
3
 72
8
 73
4
 74
0
 40
0
 40
0
 40
0
 40
0
 40
1
 40
1
 40
1
 40
1
 10
21.297522
 20
58.732879
 30
0.0
 10
21.297267
 20
58.084867
 30
0.0
 10
21.642830
 20
57.485970
 30
0.0
 10
22.203982
 20
57.161890
 30
0.0
  0
SPLINE
  5
150
100
AcDbEntity
  8
0
 62
7
100
AcDbSpline
 70
8
 71
3
 72
8
 73
4
 74
0
 40
0
 40
0
 40
0
 40
0
 40
1
 40
1
 40
1
 40
1
 10
22.203982
 20
57.161890
 30
0.0
 10
22.765135
 20
56.837810
 30
0.0
 10
23.456577
 20
56.837810
 30
0.0
 10
24.017729
 20
57.161890
 30
0.0
  0
SPLINE
  5
151
100
AcDbEntity
  8
0
 62
7
100
AcDbSpline
 70
8
 71
3
 72
8
 73
4
 74
0
 40
0
 40
0
 40
0
 40
0
 40
1
 40
1
 40
1
 40
1
 10
24.017729
 20
57.161890
 30
0.0
 10
24.578881
 20
57.485970
 30
0.0
 10
24.924445
 20
58.084867
 30
0.0
 10
24.924189
 20
58.732879
 30
0.0
  0
LWPOLYLINE
  5
152
100
AcDbEntity
  8
0
 62
7
100
AcDbPolyline
 90
1
 70
1
 10
108.422855
 20
58.732879
 30
0.0
  0
SPLINE
  5
153
100
AcDbEntity
  8
0
 62
7
100
AcDbSpline
 70
8
 71
3
 72
8
 73
4
 74
0
 40
0
 40
0
 40
0
 40
0
 40
1
 40
1
 40
1
 40
1
 10
24.924189
 20
130.092880
 30
0.0
 10
24.924445
 20
130.740892
 30
0.0
 10
24.578881
 20
131.339790
 30
0.0
 10
24.017729
 20
131.663869
 30
0.0
  0
SPLINE
  5
154
100
AcDbEntity
  8
0
 62
7
100
AcDbSpline
 70
8
 71
3
 72
8
 73
4
 74
0
 40
0
 40
0
 40
0
 40
0
 40
1
 40
1
 40
1
 40
1
 10
24.017729
 20
131.663869
 30
0.0
 10
23.456577
 20
131.987949
 30
0.0
 10
22.765135
 20
131.987949
 30
0.0
 10
22.203982
 20
131.663869
 30
0.0
  0
SPLINE
  5
155
100
AcDbEntity
  8
0
 62
7
100
AcDbSpline
 70
8
 71
3
 72
8
 73
4
 74
0
 40
0
 40
0
 40
0
 40
0
 40
1
 40
1
 40
1
 40
1
 10
22.203982
 20
131.663869
 30
0.0
 10
21.642830
 20
131.339790
 30
0.0
 10
21.297267
 20
130.740892
 30
0.0
 10
21.297522
 20
130.092880
 30
0.0
  0
SPLINE
  5
156
100
AcDbEntity
  8
0
 62
7
100
AcDbSpline
 70
8
 71
3
 72
8
 73
4
 74
0
 40
0
 40
0
 40
0
 40
0
 40
1
 40
1
 40
1
 40
1
 10
21.297522
 20
130.092880
 30
0.0
 10
21.297267
 20
129.444868
 30
0.0
 10
21.642830
 20
128.845971
 30
0.0
 10
22.203982
 20
128.521891
 30
0.0
  0
SPLINE
  5
157
100
AcDbEntity
  8
0
 62
7
100
AcDbSpline
 70
8
 71
3
 72
8
 73
4
 74
0
 40
0
 40
0
 40
0
 40
0
 40
1
 40
1
 40
1
 40
1
 10
22.203982
 20
128.521891
 30
0.0
 10
22.765135
 20
128.197812
 30
0.0
 10
23.456577
 20
128.197812
 30
0.0
 10
24.017729
 20
128.521891
 30
0.0
  0
SPLINE
  5
158
100
AcDbEntity
  8
0
 62
7
100
AcDbSpline
 70
8
 71
3
 72
8
 73
4
 74
0
 40
0
 40
0
 40
0
 40
0
 40
1
 40
1
 40
1
 40
1
 10
24.017729
 20
128.521891
 30
0.0
 10
24.578881
 20
128.845971
 30
0.0
 10
24.924445
 20
129.444868
 30
0.0
 10
24.924189
 20
130.092880
 30
0.0
  0
LWPOLYLINE
  5
159
100
AcDbEntity
  8
0
 62
7
100
AcDbPolyline
 90
1
 70
1
 10
24.924189
 20
58.732879
 30
0.0
  0
SPLINE
  5
15a
100
AcDbEntity
  8
0
 62
7
100
AcDbSpline
 70
8
 71
3
 72
8
 73
4
 74
0
 40
0
 40
0
 40
0
 40
0
 40
1
 40
1
 40
1
 40
1
 10
108.422855
 20
130.092880
 30
0.0
 10
108.423366
 20
130.741063
 30
0.0
 10
108.077859
 20
131.340227
 30
0.0
 10
107.516602
 20
131.664465
 30
0.0
  0
SPLINE
  5
15b
100
AcDbEntity
  8
0
 62
7
100
AcDbSpline
 70
8
 71
3
 72
8
 73
4
 74
0
 40
0
 40
0
 40
0
 40
0
 40
1
 40
1
 40
1
 40
1
 10
107.516602
 20
131.664465
 30
0.0
 10
106.955345
 20
131.988704
 30
0.0
 10
106.263700
 20
131.988704
 30
0.0
 10
105.702442
 20
131.664465
 30
0.0
  0
SPLINE
  5
15c
100
AcDbEntity
  8
0
 62
7
100
AcDbSpline
 70
8
 71
3
 72
8
 73
4
 74
0
 40
0
 40
0
 40
0
 40
0
 40
1
 40
1
 40
1
 40
1
 10
105.702442
 20
131.664465
 30
0.0
 10
105.141185
 20
131.340227
 30
0.0
 10
104.795678
 20
130.741063
 30
0.0
 10
104.796189
 20
130.092880
 30
0.0
  0
SPLINE
  5
15d
100
AcDbEntity
  8
0
 62
7
100
AcDbSpline
 70
8
 71
3
 72
8
 73
4
 74
0
 40
0
 40
0
 40
0
 40
0
 40
1
 40
1
 40
1
 40
1
 10
104.796189
 20
130.092880
 30
0.0
 10
104.795678
 20
129.444698
 30
0.0
 10
105.141185
 20
128.845534
 30
0.0
 10
105.702442
 20
128.521295
 30
0.0
  0
SPLINE
  5
15e
100
AcDbEntity
  8
0
 62
7
100
AcDbSpline
 70
8
 71
3
 72
8
 73
4
 74
0
 40
0
 40
0
 40
0
 40
0
 40
1
 40
1
 40
1
 40
1
 10
105.702442
 20
128.521295
 30
0.0
 10
106.263700
 20
128.197057
 30
0.0
 10
106.955345
 20
128.197057
 30
0.0
 10
107.516602
 20
128.521295
 30
0.0
  0
SPLINE
  5
15f
100
AcDbEntity
  8
0
 62
7
100
AcDbSpline
 70
8
 71
3
 72
8
 73
4
 74
0
 40
0
 40
0
 40
0
 40
0
 40
1
 40
1
 40
1
 40
1
 10
107.516602
 20
128.521295
 30
0.0
 10
108.077859
 20
128.845534
 30
0.0
 10
108.423366
 20
129.444698
 30
0.0
 10
108.422855
 20
130.092880
 30
0.0
  0
LWPOLYLINE
  5
160
100
AcDbEntity
  8
0
 62
7
100
AcDbPolyline
 90
1
 70
1
 10
24.924189
 20
130.092880
 30
0.0
  0
SPLINE
  5
161
100
AcDbEntity
  8
0
 62
7
100
AcDbSpline
 70
8
 71
3
 72
8
 73
4
 74
0
 40
0
 40
0
 40
0
 40
0
 40
1
 40
1
 40
1
 40
1
 10
32.278856
 20
58.732879
 30
0.0
 10
32.279096
 20
59.018851
 30
0.0
 10
32.126670
 20
59.283203
 30
0.0
 10
31.879050
 20
59.426259
 30
0.0
  0
SPLINE
  5
162
100
AcDbEntity
  8
0
 62
7
100
AcDbSpline
 70
8
 71
3
 72
8
 73
4
 74
0
 40
0
 40
0
 40
0
 40
0
 40
1
 40
1
 40
1
 40
1
 10
31.879050
 20
59.426259
 30
0.0
 10
31.631431
 20
59.569315
 30
0.0
 10
31.326282
 20
59.569315
 30
0.0
 10
31.078662
 20
59.426259
 30
0.0
  0
SPLINE
  5
163
100
AcDbEntity
  8
0
 62
7
100
AcDbSpline
 70
8
 71
3
 72
8
 73
4
 74
0
 40
0
 40
0
 40
0
 40
0
 40
1
 40
1
 40
1
 40
1
 10
31.078662
 20
59.426259
 30
0.0
 10
30.831043
 20
59.283203
 30
0.0
 10
30.678616
 20
59.018851
 30
0.0
 10
30.678857
 20
58.732879
 30
0.0
  0
SPLINE
  5
164
100
AcDbEntity
  8
0
 62
7
100
AcDbSpline
 70
8
 71
3
 72
8
 73
4
 74
0
 40
0
 40
0
 40
0
 40
0
 40
1
 40
1
 40
1
 40
1
 10
30.678857
 20
58.732879
 30
0.0
 10
30.678616
 20
58.446906
 30
0.0
 10
30.831043
 20
58.182554
 30
0.0
 10
31.078662
 20
58.039498
 30
0.0
  0
SPLINE
  5
165
100
AcDbEntity
  8
0
 62
7
100
AcDbSpline
 70
8
 71
3
 72
8
 73
4
 74
0
 40
0
 40
0
 40
0
 40
0
 40
1
 40
1
 40
1
 40
1
 10
31.078662
 20
58.039498
 30
0.0
 10
31.326282
 20
57.896443
 30
0.0
 10
31.631431
 20
57.896443
 30
0.0
 10
31.879050
 20
58.039498
 30
0.0
  0
SPLINE
  5
166
100
AcDbEntity
  8
0
 62
7
100
AcDbSpline
 70
8
 71
3
 72
8
 73
4
 74
0
 40
0
 40
0
 40
0
 40
0
 40
1
 40
1
 40
1
 40
1
 10
31.879050
 20
58.039498
 30
0.0
 10
32.126670
 20
58.182554
 30
0.0
 10
32.279096
 20
58.446906
 30
0.0
 10
32.278856
 20
58.732879
 30
0.0
  0
LWPOLYLINE
  5
167
100
AcDbEntity
  8
0
 62
7
100
AcDbPolyline
 90
1
 70
1
 10
108.422855
 20
130.092880
 30
0.0
  0
SPLINE
  5
168
100
AcDbEntity
  8
0
 62
7
100
AcDbSpline
 70
8
 71
3
 72
8
 73
4
 74
0
 40
0
 40
0
 40
0
 40
0
 40
1
 40
1
 40
1
 40
1
 10
61.825522
 20
58.732879
 30
0.0
 10
61.825762
 20
59.018851
 30
0.0
 10
61.673336
 20
59.283203
 30
0.0
 10
61.425716
 20
59.426259
 30
0.0
  0
SPLINE
  5
169
100
AcDbEntity
  8
0
 62
7
100
AcDbSpline
 70
8
 71
3
 72
8
 73
4
 74
0
 40
0
 40
0
 40
0
 40
0
 40
1
 40
1
 40
1
 40
1
 10
61.425716
 20
59.426259
 30
0.0
 10
61.178097
 20
59.569315
 30
0.0
 10
60.872948
 20
59.569315
 30
0.0
 10
60.625328
 20
59.426259
 30
0.0
  0
SPLINE
  5
16a
100
AcDbEntity
  8
0
 62
7
100
AcDbSpline
 70
8
 71
3
 72
8
 73
4
 74
0
 40
0
 40
0
 40
0
 40
0
 40
1
 40
1
 40
1
 40
1
 10
60.625328
 20
59.426259
 30
0.0
 10
60.377709
 20
59.283203
 30
0.0
 10
60.225282
 20
59.018851
 30
0.0
 10
60.225522
 20
58.732879
 30
0.0
  0
SPLINE
  5
16b
100
AcDbEntity
  8
0
 62
7
100
AcDbSpline
 70
8
 71
3
 72
8
 73
4
 74
0
 40
0
 40
0
 40
0
 40
0
 40
1
 40
1
 40
1
 40
1
 10
60.225522
 20
58.732879
 30
0.0
 10
60.225282
 20
58.446906
 30
0.0
 10
60.377709
 20
58.182554
 30
0.0
 10
60.625328
 20
58.039498
 30
0.0
  0
SPLINE
  5
16c
100
AcDbEntity
  8
0
 62
7
100
AcDbSpline
 70
8
 71
3
 72
8
 73
4
 74
0
 40
0
 40
0
 40
0
 40
0
 40
1
 40
1
 40
1
 40
1
 10
60.625328
 20
58.039498
 30
0.0
 10
60.872948
 20
57.896443
 30
0.0
 10
61.178097
 20
57.896443
 30
0.0
 10
61.425716
 20
58.039498
 30
0.0
  0
SPLINE
  5
16d
100
AcDbEntity
  8
0
 62
7
100
AcDbSpline
 70
8
 71
3
 72
8
 73
4
 74
0
 40
0
 40
0
 40
0
 40
0
 40
1
 40
1
 40
1
 40
1
 10
61.425716
 20
58.039498
 30
0.0
 10
61.673336
 20
58.182554
 30
0.0
 10
61.825762
 20
58.446906
 30
0.0
 10
61.825522
 20
58.732879
 30
0.0
  0
LWPOLYLINE
  5
16e
100
AcDbEntity
  8
0
 62
7
100
AcDbPolyline
 90
1
 70
1
 10
32.278856
 20
58.732879
 30
0.0
  0
SPLINE
  5
16f
100
AcDbEntity
  8
0
 62
7
100
AcDbSpline
 70
8
 71
3
 72
8
 73
4
 74
0
 40
0
 40
0
 40
0
 40
0
 40
1
 40
1
 40
1
 40
1
 10
70.678856
 20
58.732879
 30
0.0
 10
70.679096
 20
59.018851
 30
0.0
 10
70.526669
 20
59.283203
 30
0.0
 10
70.279050
 20
59.426259
 30
0.0
  0
SPLINE
  5
170
100
AcDbEntity
  8
0
 62
7
100
AcDbSpline
 70
8
 71
3
 72
8
 73
4
 74
0
 40
0
 40
0
 40
0
 40
0
 40
1
 40
1
 40
1
 40
1
 10
70.279050
 20
59.426259
 30
0.0
 10
70.031430
 20
59.569315
 30
0.0
 10
69.726281
 20
59.569315
 30
0.0
 10
69.478662
 20
59.426259
 30
0.0
  0
SPLINE
  5
171
100
AcDbEntity
  8
0
 62
7
100
AcDbSpline
 70
8
 71
3
 72
8
 73
4
 74
0
 40
0
 40
0
 40
0
 40
0
 40
1
 40
1
 40
1
 40
1
 10
69.478662
 20
59.426259
 30
0.0
 10
69.231042
 20
59.283203
 30
0.0
 10
69.078616
 20
59.018851
 30
0.0
 10
69.078856
 20
58.732879
 30
0.0
  0
SPLINE
  5
172
100
AcDbEntity
  8
0
 62
7
100
AcDbSpline
 70
8
 71
3
 72
8
 73
4
 74
0
 40
0
 40
0
 40
0
 40
0
 40
1
 40
1
 40
1
 40
1
 10
69.078856
 20
58.732879
 30
0.0
 10
69.078616
 20
58.446906
 30
0.0
 10
69.231042
 20
58.182554
 30
0.0
 10
69.478662
 20
58.039498
 30
0.0
  0
SPLINE
  5
173
100
AcDbEntity
  8
0
 62
7
100
AcDbSpline
 70
8
 71
3
 72
8
 73
4
 74
0
 40
0
 40
0
 40
0
 40
0
 40
1
 40
1
 40
1
 40
1
 10
69.478662
 20
58.039498
 30
0.0
 10
69.726281
 20
57.896443
 30
0.0
 10
70.031430
 20
57.896443
 30
0.0
 10
70.279050
 20
58.039498
 30
0.0
  0
SPLINE
  5
174
100
AcDbEntity
  8
0
 62
7
100
AcDbSpline
 70
8
 71
3
 72
8
 73
4
 74
0
 40
0
 40
0
 40
0
 40
0
 40
1
 40
1
 40
1
 40
1
 10
70.279050
 20
58.039498
 30
0.0
 10
70.526669
 20
58.182554
 30
0.0
 10
70.679096
 20
58.446906
 30
0.0
 10
70.678856
 20
58.732879
 30
0.0
  0
LWPOLYLINE
  5
175
100
AcDbEntity
  8
0
 62
7
100
AcDbPolyline
 90
1
 70
1
 10
61.825522
 20
58.732879
 30
0.0
  0
SPLINE
  5
176
100
AcDbEntity
  8
0
 62
7
100
AcDbSpline
 70
8
 71
3
 72
8
 73
4
 74
0
 40
0
 40
0
 40
0
 40
0
 40
1
 40
1
 40
1
 40
1
 10
100.225521
 20
58.732879
 30
0.0
 10
100.225762
 20
59.018851
 30
0.0
 10
100.073335
 20
59.283203
 30
0.0
 10
99.825716
 20
59.426259
 30
0.0
  0
SPLINE
  5
177
100
AcDbEntity
  8
0
 62
7
100
AcDbSpline
 70
8
 71
3
 72
8
 73
4
 74
0
 40
0
 40
0
 40
0
 40
0
 40
1
 40
1
 40
1
 40
1
 10
99.825716
 20
59.426259
 30
0.0
 10
99.578096
 20
59.569315
 30
0.0
 10
99.272947
 20
59.569315
 30
0.0
 10
99.025328
 20
59.426259
 30
0.0
  0
SPLINE
  5
178
100
AcDbEntity
  8
0
 62
7
100
AcDbSpline
 70
8
 71
3
 72
8
 73
4
 74
0
 40
0
 40
0
 40
0
 40
0
 40
1
 40
1
 40
1
 40
1
 10
99.025328
 20
59.426259
 30
0.0
 10
98.777708
 20
59.283203
 30
0.0
 10
98.625282
 20
59.018851
 30
0.0
 10
98.625522
 20
58.732879
 30
0.0
  0
SPLINE
  5
179
100
AcDbEntity
  8
0
 62
7
100
AcDbSpline
 70
8
 71
3
 72
8
 73
4
 74
0
 40
0
 40
0
 40
0
 40
0
 40
1
 40
1
 40
1
 40
1
 10
98.625522
 20
58.732879
 30
0.0
 10
98.625282
 20
58.446906
 30
0.0
 10
98.777708
 20
58.182554
 30
0.0
 10
99.025328
 20
58.039498
 30
0.0
  0
SPLINE
  5
17a
100
AcDbEntity
  8
0
 62
7
100
AcDbSpline
 70
8
 71
3
 72
8
 73
4
 74
0
 40
0
 40
0
 40
0
 40
0
 40
1
 40
1
 40
1
 40
1
 10
99.025328
 20
58.039498
 30
0.0
 10
99.272947
 20
57.896443
 30
0.0
 10
99.578096
 20
57.896443
 30
0.0
 10
99.825716
 20
58.039498
 30
0.0
  0
SPLINE
  5
17b
100
AcDbEntity
  8
0
 62
7
100
AcDbSpline
 70
8
 71
3
 72
8
 73
4
 74
0
 40
0
 40
0
 40
0
 40
0
 40
1
 40
1
 40
1
 40
1
 10
99.825716
 20
58.039498
 30
0.0
 10
100.073335
 20
58.182554
 30
0.0
 10
100.225762
 20
58.446906
 30
0.0
 10
100.225521
 20
58.732879
 30
0.0
  0
LWPOLYLINE
  5
17c
100
AcDbEntity
  8
0
 62
7
100
AcDbPolyline
 90
1
 70
1
 10
70.678856
 20
58.732879
 30
0.0
  0
SPLINE
  5
17d
100
AcDbEntity
  8
0
 62
7
100
AcDbSpline
 70
8
 71
3
 72
8
 73
4
 74
0
 40
0
 40
0
 40
0
 40
0
 40
1
 40
1
 40
1
 40
1
 10
-4.889156
 20
145.950752
 30
0.0
 10
-4.888960
 20
146.331966
 30
0.0
 10
-5.092222
 20
146.684306
 30
0.0
 10
-5.422331
 20
146.874970
 30
0.0
  0
SPLINE
  5
17e
100
AcDbEntity
  8
0
 62
7
100
AcDbSpline
 70
8
 71
3
 72
8
 73
4
 74
0
 40
0
 40
0
 40
0
 40
0
 40
1
 40
1
 40
1
 40
1
 10
-5.422331
 20
146.874970
 30
0.0
 10
-5.752439
 20
147.065634
 30
0.0
 10
-6.159206
 20
147.065634
 30
0.0
 10
-6.489314
 20
146.874970
 30
0.0
  0
SPLINE
  5
17f
100
AcDbEntity
  8
0
 62
7
100
AcDbSpline
 70
8
 71
3
 72
8
 73
4
 74
0
 40
0
 40
0
 40
0
 40
0
 40
1
 40
1
 40
1
 40
1
 10
-6.489314
 20
146.874970
 30
0.0
 10
-6.819422
 20
146.684306
 30
0.0
 10
-7.022685
 20
146.331966
 30
0.0
 10
-7.022489
 20
145.950752
 30
0.0
  0
SPLINE
  5
180
100
AcDbEntity
  8
0
 62
7
100
AcDbSpline
 70
8
 71
3
 72
8
 73
4
 74
0
 40
0
 40
0
 40
0
 40
0
 40
1
 40
1
 40
1
 40
1
 10
-7.022489
 20
145.950752
 30
0.0
 10
-7.022685
 20
145.569538
 30
0.0
 10
-6.819422
 20
145.217198
 30
0.0
 10
-6.489314
 20
145.026535
 30
0.0
  0
SPLINE
  5
181
100
AcDbEntity
  8
0
 62
7
100
AcDbSpline
 70
8
 71
3
 72
8
 73
4
 74
0
 40
0
 40
0
 40
0
 40
0
 40
1
 40
1
 40
1
 40
1
 10
-6.489314
 20
145.026535
 30
0.0
 10
-6.159206
 20
144.835871
 30
0.0
 10
-5.752439
 20
144.835871
 30
0.0
 10
-5.422331
 20
145.026535
 30
0.0
  0
SPLINE
  5
182
100
AcDbEntity
  8
0
 62
7
100
AcDbSpline
 70
8
 71
3
 72
8
 73
4
 74
0
 40
0
 40
0
 40
0
 40
0
 40
1
 40
1
 40
1
 40
1
 10
-5.422331
 20
145.026535
 30
0.0
 10
-5.092222
 20
145.217198
 30
0.0
 10
-4.888960
 20
145.569538
 30
0.0
 10
-4.889156
 20
145.950752
 30
0.0
  0
LWPOLYLINE
  5
183
100
AcDbEntity
  8
0
 62
7
100
AcDbPolyline
 90
1
 70
1
 10
100.225521
 20
58.732879
 30
0.0
  0
SPLINE
  5
184
100
AcDbEntity
  8
0
 62
7
100
AcDbSpline
 70
8
 71
3
 72
8
 73
4
 74
0
 40
0
 40
0
 40
0
 40
0
 40
1
 40
1
 40
1
 40
1
 10
-4.462489
 20
108.617420
 30
0.0
 10
-4.462257
 20
109.151092
 30
0.0
 10
-4.746834
 20
109.644323
 30
0.0
 10
-5.208968
 20
109.911226
 30
0.0
  0
SPLINE
  5
185
100
AcDbEntity
  8
0
 62
7
100
AcDbSpline
 70
8
 71
3
 72
8
 73
4
 74
0
 40
0
 40
0
 40
0
 40
0
 40
1
 40
1
 40
1
 40
1
 10
-5.208968
 20
109.911226
 30
0.0
 10
-5.671102
 20
110.178129
 30
0.0
 10
-6.240542
 20
110.178129
 30
0.0
 10
-6.702676
 20
109.911226
 30
0.0
  0
SPLINE
  5
186
100
AcDbEntity
  8
0
 62
7
100
AcDbSpline
 70
8
 71
3
 72
8
 73
4
 74
0
 40
0
 40
0
 40
0
 40
0
 40
1
 40
1
 40
1
 40
1
 10
-6.702676
 20
109.911226
 30
0.0
 10
-7.164811
 20
109.644323
 30
0.0
 10
-7.449388
 20
109.151092
 30
0.0
 10
-7.449156
 20
108.617420
 30
0.0
  0
SPLINE
  5
187
100
AcDbEntity
  8
0
 62
7
100
AcDbSpline
 70
8
 71
3
 72
8
 73
4
 74
0
 40
0
 40
0
 40
0
 40
0
 40
1
 40
1
 40
1
 40
1
 10
-7.449156
 20
108.617420
 30
0.0
 10
-7.449388
 20
108.083749
 30
0.0
 10
-7.164811
 20
107.590517
 30
0.0
 10
-6.702676
 20
107.323615
 30
0.0
  0
SPLINE
  5
188
100
AcDbEntity
  8
0
 62
7
100
AcDbSpline
 70
8
 71
3
 72
8
 73
4
 74
0
 40
0
 40
0
 40
0
 40
0
 40
1
 40
1
 40
1
 40
1
 10
-6.702676
 20
107.323615
 30
0.0
 10
-6.240542
 20
107.056712
 30
0.0
 10
-5.671102
 20
107.056712
 30
0.0
 10
-5.208968
 20
107.323615
 30
0.0
  0
SPLINE
  5
189
100
AcDbEntity
  8
0
 62
7
100
AcDbSpline
 70
8
 71
3
 72
8
 73
4
 74
0
 40
0
 40
0
 40
0
 40
0
 40
1
 40
1
 40
1
 40
1
 10
-5.208968
 20
107.323615
 30
0.0
 10
-4.746834
 20
107.590517
 30
0.0
 10
-4.462257
 20
108.083749
 30
0.0
 10
-4.462489
 20
108.617420
 30
0.0
  0
LWPOLYLINE
  5
18a
100
AcDbEntity
  8
0
 62
7
100
AcDbPolyline
 90
1
 70
1
 10
-4.889156
 20
145.950752
 30
0.0
  0
SPLINE
  5
18b
100
AcDbEntity
  8
0
 62
7
100
AcDbSpline
 70
8
 71
3
 72
8
 73
4
 74
0
 40
0
 40
0
 40
0
 40
0
 40
1
 40
1
 40
1
 40
1
 10
133.559434
 20
45.150423
 30
0.0
 10
133.559946
 20
45.798606
 30
0.0
 10
133.214438
 20
46.397770
 30
0.0
 10
132.653181
 20
46.722008
 30
0.0
  0
SPLINE
  5
18c
100
AcDbEntity
  8
0
 62
7
100
AcDbSpline
 70
8
 71
3
 72
8
 73
4
 74
0
 40
0
 40
0
 40
0
 40
0
 40
1
 40
1
 40
1
 40
1
 10
132.653181
 20
46.722008
 30
0.0
 10
132.091924
 20
47.046247
 30
0.0
 10
131.400279
 20
47.046247
 30
0.0
 10
130.839022
 20
46.722008
 30
0.0
  0
SPLINE
  5
18d
100
AcDbEntity
  8
0
 62
7
100
AcDbSpline
 70
8
 71
3
 72
8
 73
4
 74
0
 40
0
 40
0
 40
0
 40
0
 40
1
 40
1
 40
1
 40
1
 10
130.839022
 20
46.722008
 30
0.0
 10
130.277765
 20
46.397770
 30
0.0
 10
129.932257
 20
45.798606
 30
0.0
 10
129.932769
 20
45.150423
 30
0.0
  0
SPLINE
  5
18e
100
AcDbEntity
  8
0
 62
7
100
AcDbSpline
 70
8
 71
3
 72
8
 73
4
 74
0
 40
0
 40
0
 40
0
 40
0
 40
1
 40
1
 40
1
 40
1
 10
129.932769
 20
45.150423
 30
0.0
 10
129.932257
 20
44.502241
 30
0.0
 10
130.277765
 20
43.903077
 30
0.0
 10
130.839022
 20
43.578838
 30
0.0
  0
SPLINE
  5
18f
100
AcDbEntity
  8
0
 62
7
100
AcDbSpline
 70
8
 71
3
 72
8
 73
4
 74
0
 40
0
 40
0
 40
0
 40
0
 40
1
 40
1
 40
1
 40
1
 10
130.839022
 20
43.578838
 30
0.0
 10
131.400279
 20
43.254600
 30
0.0
 10
132.091924
 20
43.254600
 30
0.0
 10
132.653181
 20
43.578838
 30
0.0
  0
SPLINE
  5
190
100
AcDbEntity
  8
0
 62
7
100
AcDbSpline
 70
8
 71
3
 72
8
 73
4
 74
0
 40
0
 40
0
 40
0
 40
0
 40
1
 40
1
 40
1
 40
1
 10
132.653181
 20
43.578838
 30
0.0
 10
133.214438
 20
43.903077
 30
0.0
 10
133.559946
 20
44.502241
 30
0.0
 10
133.559434
 20
45.150423
 30
0.0
  0
LWPOLYLINE
  5
191
100
AcDbEntity
  8
0
 62
7
100
AcDbPolyline
 90
1
 70
1
 10
-4.462489
 20
108.617420
 30
0.0
  0
SPLINE
  5
192
100
AcDbEntity
  8
0
 62
7
100
AcDbSpline
 70
8
 71
3
 72
8
 73
4
 74
0
 40
0
 40
0
 40
0
 40
0
 40
1
 40
1
 40
1
 40
1
 10
149.021859
 20
140.838173
 30
0.0
 10
149.022546
 20
141.505525
 30
0.0
 10
148.666912
 20
142.122479
 30
0.0
 10
148.089081
 20
142.456354
 30
0.0
  0
SPLINE
  5
193
100
AcDbEntity
  8
0
 62
7
100
AcDbSpline
 70
8
 71
3
 72
8
 73
4
 74
0
 40
0
 40
0
 40
0
 40
0
 40
1
 40
1
 40
1
 40
1
 10
148.089081
 20
142.456354
 30
0.0
 10
147.511251
 20
142.790228
 30
0.0
 10
146.799136
 20
142.790228
 30
0.0
 10
146.221306
 20
142.456354
 30
0.0
  0
SPLINE
  5
194
100
AcDbEntity
  8
0
 62
7
100
AcDbSpline
 70
8
 71
3
 72
8
 73
4
 74
0
 40
0
 40
0
 40
0
 40
0
 40
1
 40
1
 40
1
 40
1
 10
146.221306
 20
142.456354
 30
0.0
 10
145.643475
 20
142.122479
 30
0.0
 10
145.287841
 20
141.505525
 30
0.0
 10
145.288528
 20
140.838173
 30
0.0
  0
SPLINE
  5
195
100
AcDbEntity
  8
0
 62
7
100
AcDbSpline
 70
8
 71
3
 72
8
 73
4
 74
0
 40
0
 40
0
 40
0
 40
0
 40
1
 40
1
 40
1
 40
1
 10
145.288528
 20
140.838173
 30
0.0
 10
145.287841
 20
140.170820
 30
0.0
 10
145.643475
 20
139.553866
 30
0.0
 10
146.221306
 20
139.219992
 30
0.0
  0
SPLINE
  5
196
100
AcDbEntity
  8
0
 62
7
100
AcDbSpline
 70
8
 71
3
 72
8
 73
4
 74
0
 40
0
 40
0
 40
0
 40
0
 40
1
 40
1
 40
1
 40
1
 10
146.221306
 20
139.219992
 30
0.0
 10
146.799136
 20
138.886117
 30
0.0
 10
147.511251
 20
138.886117
 30
0.0
 10
148.089081
 20
139.219992
 30
0.0
  0
SPLINE
  5
197
100
AcDbEntity
  8
0
 62
7
100
AcDbSpline
 70
8
 71
3
 72
8
 73
4
 74
0
 40
0
 40
0
 40
0
 40
0
 40
1
 40
1
 40
1
 40
1
 10
148.089081
 20
139.219992
 30
0.0
 10
148.666912
 20
139.553866
 30
0.0
 10
149.022546
 20
140.170820
 30
0.0
 10
149.021859
 20
140.838173
 30
0.0
  0
LWPOLYLINE
  5
198
100
AcDbEntity
  8
0
 62
7
100
AcDbPolyline
 90
1
 70
1
 10
133.559434
 20
45.150423
 30
0.0
  0
SPLINE
  5
199
100
AcDbEntity
  8
0
 62
7
100
AcDbSpline
 70
8
 71
3
 72
8
 73
4
 74
0
 40
0
 40
0
 40
0
 40
0
 40
1
 40
1
 40
1
 40
1
 10
8.772858
 20
159.164052
 30
0.0
 10
8.773090
 20
159.697724
 30
0.0
 10
8.488513
 20
160.190956
 30
0.0
 10
8.026379
 20
160.457858
 30
0.0
  0
SPLINE
  5
19a
100
AcDbEntity
  8
0
 62
7
100
AcDbSpline
 70
8
 71
3
 72
8
 73
4
 74
0
 40
0
 40
0
 40
0
 40
0
 40
1
 40
1
 40
1
 40
1
 10
8.026379
 20
160.457858
 30
0.0
 10
7.564244
 20
160.724761
 30
0.0
 10
6.994805
 20
160.724761
 30
0.0
 10
6.532670
 20
160.457858
 30
0.0
  0
SPLINE
  5
19b
100
AcDbEntity
  8
0
 62
7
100
AcDbSpline
 70
8
 71
3
 72
8
 73
4
 74
0
 40
0
 40
0
 40
0
 40
0
 40
1
 40
1
 40
1
 40
1
 10
6.532670
 20
160.457858
 30
0.0
 10
6.070536
 20
160.190956
 30
0.0
 10
5.785959
 20
159.697724
 30
0.0
 10
5.786191
 20
159.164052
 30
0.0
  0
SPLINE
  5
19c
100
AcDbEntity
  8
0
 62
7
100
AcDbSpline
 70
8
 71
3
 72
8
 73
4
 74
0
 40
0
 40
0
 40
0
 40
0
 40
1
 40
1
 40
1
 40
1
 10
5.786191
 20
159.164052
 30
0.0
 10
5.785959
 20
158.630381
 30
0.0
 10
6.070536
 20
158.137149
 30
0.0
 10
6.532670
 20
157.870247
 30
0.0
  0
SPLINE
  5
19d
100
AcDbEntity
  8
0
 62
7
100
AcDbSpline
 70
8
 71
3
 72
8
 73
4
 74
0
 40
0
 40
0
 40
0
 40
0
 40
1
 40
1
 40
1
 40
1
 10
6.532670
 20
157.870247
 30
0.0
 10
6.994805
 20
157.603344
 30
0.0
 10
7.564244
 20
157.603344
 30
0.0
 10
8.026379
 20
157.870247
 30
0.0
  0
SPLINE
  5
19e
100
AcDbEntity
  8
0
 62
7
100
AcDbSpline
 70
8
 71
3
 72
8
 73
4
 74
0
 40
0
 40
0
 40
0
 40
0
 40
1
 40
1
 40
1
 40
1
 10
8.026379
 20
157.870247
 30
0.0
 10
8.488513
 20
158.137149
 30
0.0
 10
8.773090
 20
158.630381
 30
0.0
 10
8.772858
 20
159.164052
 30
0.0
  0
LWPOLYLINE
  5
19f
100
AcDbEntity
  8
0
 62
7
100
AcDbPolyline
 90
1
 70
1
 10
149.021859
 20
140.838173
 30
0.0
  0
SPLINE
  5
1a0
100
AcDbEntity
  8
0
 62
7
100
AcDbSpline
 70
8
 71
3
 72
8
 73
4
 74
0
 40
0
 40
0
 40
0
 40
0
 40
1
 40
1
 40
1
 40
1
 10
8.346191
 20
207.164052
 30
0.0
 10
8.346387
 20
207.545266
 30
0.0
 10
8.143125
 20
207.897607
 30
0.0
 10
7.813016
 20
208.088270
 30
0.0
  0
SPLINE
  5
1a1
100
AcDbEntity
  8
0
 62
7
100
AcDbSpline
 70
8
 71
3
 72
8
 73
4
 74
0
 40
0
 40
0
 40
0
 40
0
 40
1
 40
1
 40
1
 40
1
 10
7.813016
 20
208.088270
 30
0.0
 10
7.482908
 20
208.278934
 30
0.0
 10
7.076141
 20
208.278934
 30
0.0
 10
6.746033
 20
208.088270
 30
0.0
  0
SPLINE
  5
1a2
100
AcDbEntity
  8
0
 62
7
100
AcDbSpline
 70
8
 71
3
 72
8
 73
4
 74
0
 40
0
 40
0
 40
0
 40
0
 40
1
 40
1
 40
1
 40
1
 10
6.746033
 20
208.088270
 30
0.0
 10
6.415924
 20
207.897607
 30
0.0
 10
6.212662
 20
207.545266
 30
0.0
 10
6.212858
 20
207.164052
 30
0.0
  0
SPLINE
  5
1a3
100
AcDbEntity
  8
0
 62
7
100
AcDbSpline
 70
8
 71
3
 72
8
 73
4
 74
0
 40
0
 40
0
 40
0
 40
0
 40
1
 40
1
 40
1
 40
1
 10
6.212858
 20
207.164052
 30
0.0
 10
6.212662
 20
206.782838
 30
0.0
 10
6.415924
 20
206.430498
 30
0.0
 10
6.746033
 20
206.239835
 30
0.0
  0
SPLINE
  5
1a4
100
AcDbEntity
  8
0
 62
7
100
AcDbSpline
 70
8
 71
3
 72
8
 73
4
 74
0
 40
0
 40
0
 40
0
 40
0
 40
1
 40
1
 40
1
 40
1
 10
6.746033
 20
206.239835
 30
0.0
 10
7.076141
 20
206.049171
 30
0.0
 10
7.482908
 20
206.049171
 30
0.0
 10
7.813016
 20
206.239835
 30
0.0
  0
SPLINE
  5
1a5
100
AcDbEntity
  8
0
 62
7
100
AcDbSpline
 70
8
 71
3
 72
8
 73
4
 74
0
 40
0
 40
0
 40
0
 40
0
 40
1
 40
1
 40
1
 40
1
 10
7.813016
 20
206.239835
 30
0.0
 10
8.143125
 20
206.430498
 30
0.0
 10
8.346387
 20
206.782838
 30
0.0
 10
8.346191
 20
207.164052
 30
0.0
  0
LWPOLYLINE
  5
1a6
100
AcDbEntity
  8
0
 62
7
100
AcDbPolyline
 90
1
 70
1
 10
8.772858
 20
159.164052
 30
0.0
  0
SPLINE
  5
1a7
100
AcDbEntity
  8
0
 62
7
100
AcDbSpline
 70
8
 71
3
 72
8
 73
4
 74
0
 40
0
 40
0
 40
0
 40
0
 40
1
 40
1
 40
1
 40
1
 10
107.575573
 20
224.009287
 30
0.0
 10
107.575573
 20
224.614257
 30
0.0
 10
107.252825
 20
225.173272
 30
0.0
 10
106.728906
 20
225.475757
 30
0.0
  0
SPLINE
  5
1a8
100
AcDbEntity
  8
0
 62
7
100
AcDbSpline
 70
8
 71
3
 72
8
 73
4
 74
0
 40
0
 40
0
 40
0
 40
0
 40
1
 40
1
 40
1
 40
1
 10
106.728906
 20
225.475757
 30
0.0
 10
106.204987
 20
225.778242
 30
0.0
 10
105.559492
 20
225.778242
 30
0.0
 10
105.035573
 20
225.475757
 30
0.0
  0
SPLINE
  5
1a9
100
AcDbEntity
  8
0
 62
7
100
AcDbSpline
 70
8
 71
3
 72
8
 73
4
 74
0
 40
0
 40
0
 40
0
 40
0
 40
1
 40
1
 40
1
 40
1
 10
105.035573
 20
225.475757
 30
0.0
 10
104.511654
 20
225.173272
 30
0.0
 10
104.188906
 20
224.614257
 30
0.0
 10
104.188906
 20
224.009287
 30
0.0
  0
SPLINE
  5
1aa
100
AcDbEntity
  8
0
 62
7
100
AcDbSpline
 70
8
 71
3
 72
8
 73
4
 74
0
 40
0
 40
0
 40
0
 40
0
 40
1
 40
1
 40
1
 40
1
 10
104.188906
 20
224.009287
 30
0.0
 10
104.188906
 20
223.404318
 30
0.0
 10
104.511654
 20
222.845302
 30
0.0
 10
105.035573
 20
222.542818
 30
0.0
  0
SPLINE
  5
1ab
100
AcDbEntity
  8
0
 62
7
100
AcDbSpline
 70
8
 71
3
 72
8
 73
4
 74
0
 40
0
 40
0
 40
0
 40
0
 40
1
 40
1
 40
1
 40
1
 10
105.035573
 20
222.542818
 30
0.0
 10
105.559492
 20
222.240333
 30
0.0
 10
106.204987
 20
222.240333
 30
0.0
 10
106.728906
 20
222.542818
 30
0.0
  0
SPLINE
  5
1ac
100
AcDbEntity
  8
0
 62
7
100
AcDbSpline
 70
8
 71
3
 72
8
 73
4
 74
0
 40
0
 40
0
 40
0
 40
0
 40
1
 40
1
 40
1
 40
1
 10
106.728906
 20
222.542818
 30
0.0
 10
107.252825
 20
222.845302
 30
0.0
 10
107.575573
 20
223.404318
 30
0.0
 10
107.575573
 20
224.009287
 30
0.0
  0
LWPOLYLINE
  5
1ad
100
AcDbEntity
  8
0
 62
7
100
AcDbPolyline
 90
1
 70
1
 10
8.346191
 20
207.164052
 30
0.0
  0
SPLINE
  5
1ae
100
AcDbEntity
  8
0
 62
7
100
AcDbSpline
 70
8
 71
3
 72
8
 73
4
 74
0
 40
0
 40
0
 40
0
 40
0
 40
1
 40
1
 40
1
 40
1
 10
92.503069
 20
225.157491
 30
0.0
 10
92.503069
 20
225.762461
 30
0.0
 10
92.180322
 20
226.321476
 30
0.0
 10
91.656402
 20
226.623961
 30
0.0
  0
SPLINE
  5
1af
100
AcDbEntity
  8
0
 62
7
100
AcDbSpline
 70
8
 71
3
 72
8
 73
4
 74
0
 40
0
 40
0
 40
0
 40
0
 40
1
 40
1
 40
1
 40
1
 10
91.656402
 20
226.623961
 30
0.0
 10
91.132483
 20
226.926446
 30
0.0
 10
90.486988
 20
226.926446
 30
0.0
 10
89.963069
 20
226.623961
 30
0.0
  0
SPLINE
  5
1b0
100
AcDbEntity
  8
0
 62
7
100
AcDbSpline
 70
8
 71
3
 72
8
 73
4
 74
0
 40
0
 40
0
 40
0
 40
0
 40
1
 40
1
 40
1
 40
1
 10
89.963069
 20
226.623961
 30
0.0
 10
89.439150
 20
226.321476
 30
0.0
 10
89.116402
 20
225.762461
 30
0.0
 10
89.116402
 20
225.157491
 30
0.0
  0
SPLINE
  5
1b1
100
AcDbEntity
  8
0
 62
7
100
AcDbSpline
 70
8
 71
3
 72
8
 73
4
 74
0
 40
0
 40
0
 40
0
 40
0
 40
1
 40
1
 40
1
 40
1
 10
89.116402
 20
225.157491
 30
0.0
 10
89.116402
 20
224.552522
 30
0.0
 10
89.439150
 20
223.993507
 30
0.0
 10
89.963069
 20
223.691022
 30
0.0
  0
SPLINE
  5
1b2
100
AcDbEntity
  8
0
 62
7
100
AcDbSpline
 70
8
 71
3
 72
8
 73
4
 74
0
 40
0
 40
0
 40
0
 40
0
 40
1
 40
1
 40
1
 40
1
 10
89.963069
 20
223.691022
 30
0.0
 10
90.486988
 20
223.388537
 30
0.0
 10
91.132483
 20
223.388537
 30
0.0
 10
91.656402
 20
223.691022
 30
0.0
  0
SPLINE
  5
1b3
100
AcDbEntity
  8
0
 62
7
100
AcDbSpline
 70
8
 71
3
 72
8
 73
4
 74
0
 40
0
 40
0
 40
0
 40
0
 40
1
 40
1
 40
1
 40
1
 10
91.656402
 20
223.691022
 30
0.0
 10
92.180322
 20
223.993507
 30
0.0
 10
92.503069
 20
224.552522
 30
0.0
 10
92.503069
 20
225.157491
 30
0.0
  0
LWPOLYLINE
  5
1b4
100
AcDbEntity
  8
0
 62
7
100
AcDbPolyline
 90
1
 70
1
 10
107.575573
 20
224.009287
 30
0.0
  0
SPLINE
  5
1b5
100
AcDbEntity
  8
0
 62
7
100
AcDbSpline
 70
8
 71
3
 72
8
 73
4
 74
0
 40
0
 40
0
 40
0
 40
0
 40
1
 40
1
 40
1
 40
1
 10
46.423069
 20
170.970825
 30
0.0
 10
46.423069
 20
171.575795
 30
0.0
 10
46.100322
 20
172.134810
 30
0.0
 10
45.576403
 20
172.437294
 30
0.0
  0
SPLINE
  5
1b6
100
AcDbEntity
  8
0
 62
7
100
AcDbSpline
 70
8
 71
3
 72
8
 73
4
 74
0
 40
0
 40
0
 40
0
 40
0
 40
1
 40
1
 40
1
 40
1
 10
45.576403
 20
172.437294
 30
0.0
 10
45.052483
 20
172.739779
 30
0.0
 10
44.406988
 20
172.739779
 30
0.0
 10
43.883069
 20
172.437294
 30
0.0
  0
SPLINE
  5
1b7
100
AcDbEntity
  8
0
 62
7
100
AcDbSpline
 70
8
 71
3
 72
8
 73
4
 74
0
 40
0
 40
0
 40
0
 40
0
 40
1
 40
1
 40
1
 40
1
 10
43.883069
 20
172.437294
 30
0.0
 10
43.359150
 20
172.134810
 30
0.0
 10
43.036403
 20
171.575795
 30
0.0
 10
43.036403
 20
170.970825
 30
0.0
  0
SPLINE
  5
1b8
100
AcDbEntity
  8
0
 62
7
100
AcDbSpline
 70
8
 71
3
 72
8
 73
4
 74
0
 40
0
 40
0
 40
0
 40
0
 40
1
 40
1
 40
1
 40
1
 10
43.036403
 20
170.970825
 30
0.0
 10
43.036403
 20
170.365855
 30
0.0
 10
43.359150
 20
169.806840
 30
0.0
 10
43.883069
 20
169.504355
 30
0.0
  0
SPLINE
  5
1b9
100
AcDbEntity
  8
0
 62
7
100
AcDbSpline
 70
8
 71
3
 72
8
 73
4
 74
0
 40
0
 40
0
 40
0
 40
0
 40
1
 40
1
 40
1
 40
1
 10
43.883069
 20
169.504355
 30
0.0
 10
44.406988
 20
169.201870
 30
0.0
 10
45.052483
 20
169.201870
 30
0.0
 10
45.576403
 20
169.504355
 30
0.0
  0
SPLINE
  5
1ba
100
AcDbEntity
  8
0
 62
7
100
AcDbSpline
 70
8
 71
3
 72
8
 73
4
 74
0
 40
0
 40
0
 40
0
 40
0
 40
1
 40
1
 40
1
 40
1
 10
45.576403
 20
169.504355
 30
0.0
 10
46.100322
 20
169.806840
 30
0.0
 10
46.423069
 20
170.365855
 30
0.0
 10
46.423069
 20
170.970825
 30
0.0
  0
LWPOLYLINE
  5
1bb
100
AcDbEntity
  8
0
 62
7
100
AcDbPolyline
 90
1
 70
1
 10
92.503069
 20
225.157491
 30
0.0
  0
SPLINE
  5
1bc
100
AcDbEntity
  8
0
 62
7
100
AcDbSpline
 70
8
 71
3
 72
8
 73
4
 74
0
 40
0
 40
0
 40
0
 40
0
 40
1
 40
1
 40
1
 40
1
 10
87.986802
 20
149.078302
 30
0.0
 10
87.987314
 20
149.726485
 30
0.0
 10
87.641806
 20
150.325648
 30
0.0
 10
87.080549
 20
150.649887
 30
0.0
  0
SPLINE
  5
1bd
100
AcDbEntity
  8
0
 62
7
100
AcDbSpline
 70
8
 71
3
 72
8
 73
4
 74
0
 40
0
 40
0
 40
0
 40
0
 40
1
 40
1
 40
1
 40
1
 10
87.080549
 20
150.649887
 30
0.0
 10
86.519292
 20
150.974126
 30
0.0
 10
85.827647
 20
150.974126
 30
0.0
 10
85.266390
 20
150.649887
 30
0.0
  0
SPLINE
  5
1be
100
AcDbEntity
  8
0
 62
7
100
AcDbSpline
 70
8
 71
3
 72
8
 73
4
 74
0
 40
0
 40
0
 40
0
 40
0
 40
1
 40
1
 40
1
 40
1
 10
85.266390
 20
150.649887
 30
0.0
 10
84.705133
 20
150.325648
 30
0.0
 10
84.359625
 20
149.726485
 30
0.0
 10
84.360137
 20
149.078302
 30
0.0
  0
SPLINE
  5
1bf
100
AcDbEntity
  8
0
 62
7
100
AcDbSpline
 70
8
 71
3
 72
8
 73
4
 74
0
 40
0
 40
0
 40
0
 40
0
 40
1
 40
1
 40
1
 40
1
 10
84.360137
 20
149.078302
 30
0.0
 10
84.359625
 20
148.430120
 30
0.0
 10
84.705133
 20
147.830956
 30
0.0
 10
85.266390
 20
147.506717
 30
0.0
  0
SPLINE
  5
1c0
100
AcDbEntity
  8
0
 62
7
100
AcDbSpline
 70
8
 71
3
 72
8
 73
4
 74
0
 40
0
 40
0
 40
0
 40
0
 40
1
 40
1
 40
1
 40
1
 10
85.266390
 20
147.506717
 30
0.0
 10
85.827647
 20
147.182478
 30
0.0
 10
86.519292
 20
147.182478
 30
0.0
 10
87.080549
 20
147.506717
 30
0.0
  0
SPLINE
  5
1c1
100
AcDbEntity
  8
0
 62
7
100
AcDbSpline
 70
8
 71
3
 72
8
 73
4
 74
0
 40
0
 40
0
 40
0
 40
0
 40
1
 40
1
 40
1
 40
1
 10
87.080549
 20
147.506717
 30
0.0
 10
87.641806
 20
147.830956
 30
0.0
 10
87.987314
 20
148.430120
 30
0.0
 10
87.986802
 20
149.078302
 30
0.0
  0
LWPOLYLINE
  5
1c2
100
AcDbEntity
  8
0
 62
7
100
AcDbPolyline
 90
1
 70
1
 10
46.423069
 20
170.970825
 30
0.0
  0
SPLINE
  5
1c3
100
AcDbEntity
  8
0
 62
7
100
AcDbSpline
 70
8
 71
3
 72
8
 73
4
 74
0
 40
0
 40
0
 40
0
 40
0
 40
1
 40
1
 40
1
 40
1
 10
87.986799
 20
232.576967
 30
0.0
 10
87.986799
 20
233.224807
 30
0.0
 10
87.641180
 20
233.823436
 30
0.0
 10
87.080134
 20
234.147357
 30
0.0
  0
SPLINE
  5
1c4
100
AcDbEntity
  8
0
 62
7
100
AcDbSpline
 70
8
 71
3
 72
8
 73
4
 74
0
 40
0
 40
0
 40
0
 40
0
 40
1
 40
1
 40
1
 40
1
 10
87.080134
 20
234.147357
 30
0.0
 10
86.519088
 20
234.471277
 30
0.0
 10
85.827851
 20
234.471277
 30
0.0
 10
85.266805
 20
234.147357
 30
0.0
  0
SPLINE
  5
1c5
100
AcDbEntity
  8
0
 62
7
100
AcDbSpline
 70
8
 71
3
 72
8
 73
4
 74
0
 40
0
 40
0
 40
0
 40
0
 40
1
 40
1
 40
1
 40
1
 10
85.266805
 20
234.147357
 30
0.0
 10
84.705758
 20
233.823436
 30
0.0
 10
84.360140
 20
233.224807
 30
0.0
 10
84.360140
 20
232.576967
 30
0.0
  0
SPLINE
  5
1c6
100
AcDbEntity
  8
0
 62
7
100
AcDbSpline
 70
8
 71
3
 72
8
 73
4
 74
0
 40
0
 40
0
 40
0
 40
0
 40
1
 40
1
 40
1
 40
1
 10
84.360140
 20
232.576967
 30
0.0
 10
84.360140
 20
231.929127
 30
0.0
 10
84.705759
 20
231.330497
 30
0.0
 10
85.266805
 20
231.006577
 30
0.0
  0
SPLINE
  5
1c7
100
AcDbEntity
  8
0
 62
7
100
AcDbSpline
 70
8
 71
3
 72
8
 73
4
 74
0
 40
0
 40
0
 40
0
 40
0
 40
1
 40
1
 40
1
 40
1
 10
85.266805
 20
231.006577
 30
0.0
 10
85.827851
 20
230.682657
 30
0.0
 10
86.519088
 20
230.682657
 30
0.0
 10
87.080134
 20
231.006577
 30
0.0
  0
SPLINE
  5
1c8
100
AcDbEntity
  8
0
 62
7
100
AcDbSpline
 70
8
 71
3
 72
8
 73
4
 74
0
 40
0
 40
0
 40
0
 40
0
 40
1
 40
1
 40
1
 40
1
 10
87.080134
 20
231.006577
 30
0.0
 10
87.641181
 20
231.330497
 30
0.0
 10
87.986799
 20
231.929127
 30
0.0
 10
87.986799
 20
232.576967
 30
0.0
  0
LWPOLYLINE
  5
1c9
100
AcDbEntity
  8
0
 62
7
100
AcDbPolyline
 90
1
 70
1
 10
87.986802
 20
149.078302
 30
0.0
  0
SPLINE
  5
1ca
100
AcDbEntity
  8
0
 62
7
100
AcDbSpline
 70
8
 71
3
 72
8
 73
4
 74
0
 40
0
 40
0
 40
0
 40
0
 40
1
 40
1
 40
1
 40
1
 10
130.508908
 20
224.009287
 30
0.0
 10
130.508908
 20
224.614257
 30
0.0
 10
130.186161
 20
225.173272
 30
0.0
 10
129.662242
 20
225.475757
 30
0.0
  0
SPLINE
  5
1cb
100
AcDbEntity
  8
0
 62
7
100
AcDbSpline
 70
8
 71
3
 72
8
 73
4
 74
0
 40
0
 40
0
 40
0
 40
0
 40
1
 40
1
 40
1
 40
1
 10
129.662242
 20
225.475757
 30
0.0
 10
129.138323
 20
225.778242
 30
0.0
 10
128.492828
 20
225.778242
 30
0.0
 10
127.968908
 20
225.475757
 30
0.0
  0
SPLINE
  5
1cc
100
AcDbEntity
  8
0
 62
7
100
AcDbSpline
 70
8
 71
3
 72
8
 73
4
 74
0
 40
0
 40
0
 40
0
 40
0
 40
1
 40
1
 40
1
 40
1
 10
127.968908
 20
225.475757
 30
0.0
 10
127.444989
 20
225.173272
 30
0.0
 10
127.122242
 20
224.614257
 30
0.0
 10
127.122242
 20
224.009287
 30
0.0
  0
SPLINE
  5
1cd
100
AcDbEntity
  8
0
 62
7
100
AcDbSpline
 70
8
 71
3
 72
8
 73
4
 74
0
 40
0
 40
0
 40
0
 40
0
 40
1
 40
1
 40
1
 40
1
 10
127.122242
 20
224.009287
 30
0.0
 10
127.122242
 20
223.404318
 30
0.0
 10
127.444989
 20
222.845302
 30
0.0
 10
127.968908
 20
222.542818
 30
0.0
  0
SPLINE
  5
1ce
100
AcDbEntity
  8
0
 62
7
100
AcDbSpline
 70
8
 71
3
 72
8
 73
4
 74
0
 40
0
 40
0
 40
0
 40
0
 40
1
 40
1
 40
1
 40
1
 10
127.968908
 20
222.542818
 30
0.0
 10
128.492828
 20
222.240333
 30
0.0
 10
129.138323
 20
222.240333
 30
0.0
 10
129.662242
 20
222.542818
 30
0.0
  0
SPLINE
  5
1cf
100
AcDbEntity
  8
0
 62
7
100
AcDbSpline
 70
8
 71
3
 72
8
 73
4
 74
0
 40
0
 40
0
 40
0
 40
0
 40
1
 40
1
 40
1
 40
1
 10
129.662242
 20
222.542818
 30
0.0
 10
130.186161
 20
222.845302
 30
0.0
 10
130.508908
 20
223.404318
 30
0.0
 10
130.508908
 20
224.009287
 30
0.0
  0
LWPOLYLINE
  5
1d0
100
AcDbEntity
  8
0
 62
7
100
AcDbPolyline
 90
1
 70
1
 10
87.986799
 20
232.576967
 30
0.0
  0
SPLINE
  5
1d1
100
AcDbEntity
  8
0
 62
7
100
AcDbSpline
 70
8
 71
3
 72
8
 73
4
 74
0
 40
0
 40
0
 40
0
 40
0
 40
1
 40
1
 40
1
 40
1
 10
97.943069
 20
169.264156
 30
0.0
 10
97.943069
 20
169.869126
 30
0.0
 10
97.620321
 20
170.428141
 30
0.0
 10
97.096402
 20
170.730626
 30
0.0
  0
SPLINE
  5
1d2
100
AcDbEntity
  8
0
 62
7
100
AcDbSpline
 70
8
 71
3
 72
8
 73
4
 74
0
 40
0
 40
0
 40
0
 40
0
 40
1
 40
1
 40
1
 40
1
 10
97.096402
 20
170.730626
 30
0.0
 10
96.572483
 20
171.033111
 30
0.0
 10
95.926988
 20
171.033111
 30
0.0
 10
95.403069
 20
170.730626
 30
0.0
  0
SPLINE
  5
1d3
100
AcDbEntity
  8
0
 62
7
100
AcDbSpline
 70
8
 71
3
 72
8
 73
4
 74
0
 40
0
 40
0
 40
0
 40
0
 40
1
 40
1
 40
1
 40
1
 10
95.403069
 20
170.730626
 30
0.0
 10
94.879150
 20
170.428141
 30
0.0
 10
94.556402
 20
169.869126
 30
0.0
 10
94.556402
 20
169.264156
 30
0.0
  0
SPLINE
  5
1d4
100
AcDbEntity
  8
0
 62
7
100
AcDbSpline
 70
8
 71
3
 72
8
 73
4
 74
0
 40
0
 40
0
 40
0
 40
0
 40
1
 40
1
 40
1
 40
1
 10
94.556402
 20
169.264156
 30
0.0
 10
94.556402
 20
168.659187
 30
0.0
 10
94.879150
 20
168.100172
 30
0.0
 10
95.403069
 20
167.797687
 30
0.0
  0
SPLINE
  5
1d5
100
AcDbEntity
  8
0
 62
7
100
AcDbSpline
 70
8
 71
3
 72
8
 73
4
 74
0
 40
0
 40
0
 40
0
 40
0
 40
1
 40
1
 40
1
 40
1
 10
95.403069
 20
167.797687
 30
0.0
 10
95.926988
 20
167.495202
 30
0.0
 10
96.572483
 20
167.495202
 30
0.0
 10
97.096402
 20
167.797687
 30
0.0
  0
SPLINE
  5
1d6
100
AcDbEntity
  8
0
 62
7
100
AcDbSpline
 70
8
 71
3
 72
8
 73
4
 74
0
 40
0
 40
0
 40
0
 40
0
 40
1
 40
1
 40
1
 40
1
 10
97.096402
 20
167.797687
 30
0.0
 10
97.620321
 20
168.100172
 30
0.0
 10
97.943069
 20
168.659187
 30
0.0
 10
97.943069
 20
169.264156
 30
0.0
  0
LWPOLYLINE
  5
1d7
100
AcDbEntity
  8
0
 62
7
100
AcDbPolyline
 90
1
 70
1
 10
130.508908
 20
224.009287
 30
0.0
  0
SPLINE
  5
1d8
100
AcDbEntity
  8
0
 62
7
100
AcDbSpline
 70
8
 71
3
 72
8
 73
4
 74
0
 40
0
 40
0
 40
0
 40
0
 40
1
 40
1
 40
1
 40
1
 10
202.632175
 20
141.682020
 30
0.0
 10
202.632686
 20
142.330202
 30
0.0
 10
202.287179
 20
142.929366
 30
0.0
 10
201.725921
 20
143.253605
 30
0.0
  0
SPLINE
  5
1d9
100
AcDbEntity
  8
0
 62
7
100
AcDbSpline
 70
8
 71
3
 72
8
 73
4
 74
0
 40
0
 40
0
 40
0
 40
0
 40
1
 40
1
 40
1
 40
1
 10
201.725921
 20
143.253605
 30
0.0
 10
201.164664
 20
143.577844
 30
0.0
 10
200.473019
 20
143.577844
 30
0.0
 10
199.911762
 20
143.253605
 30
0.0
  0
SPLINE
  5
1da
100
AcDbEntity
  8
0
 62
7
100
AcDbSpline
 70
8
 71
3
 72
8
 73
4
 74
0
 40
0
 40
0
 40
0
 40
0
 40
1
 40
1
 40
1
 40
1
 10
199.911762
 20
143.253605
 30
0.0
 10
199.350505
 20
142.929366
 30
0.0
 10
199.004997
 20
142.330202
 30
0.0
 10
199.005509
 20
141.682020
 30
0.0
  0
SPLINE
  5
1db
100
AcDbEntity
  8
0
 62
7
100
AcDbSpline
 70
8
 71
3
 72
8
 73
4
 74
0
 40
0
 40
0
 40
0
 40
0
 40
1
 40
1
 40
1
 40
1
 10
199.005509
 20
141.682020
 30
0.0
 10
199.004997
 20
141.033838
 30
0.0
 10
199.350505
 20
140.434674
 30
0.0
 10
199.911762
 20
140.110435
 30
0.0
  0
SPLINE
  5
1dc
100
AcDbEntity
  8
0
 62
7
100
AcDbSpline
 70
8
 71
3
 72
8
 73
4
 74
0
 40
0
 40
0
 40
0
 40
0
 40
1
 40
1
 40
1
 40
1
 10
199.911762
 20
140.110435
 30
0.0
 10
200.473019
 20
139.786196
 30
0.0
 10
201.164664
 20
139.786196
 30
0.0
 10
201.725921
 20
140.110435
 30
0.0
  0
SPLINE
  5
1dd
100
AcDbEntity
  8
0
 62
7
100
AcDbSpline
 70
8
 71
3
 72
8
 73
4
 74
0
 40
0
 40
0
 40
0
 40
0
 40
1
 40
1
 40
1
 40
1
 10
201.725921
 20
140.110435
 30
0.0
 10
202.287179
 20
140.434674
 30
0.0
 10
202.632686
 20
141.033838
 30
0.0
 10
202.632175
 20
141.682020
 30
0.0
  0
LWPOLYLINE
  5
1de
100
AcDbEntity
  8
0
 62
7
100
AcDbPolyline
 90
1
 70
1
 10
97.943069
 20
169.264156
 30
0.0
  0
SPLINE
  5
1df
100
AcDbEntity
  8
0
 62
7
100
AcDbSpline
 70
8
 71
3
 72
8
 73
4
 74
0
 40
0
 40
0
 40
0
 40
0
 40
1
 40
1
 40
1
 40
1
 10
187.276418
 20
45.994271
 30
0.0
 10
187.276418
 20
46.661166
 30
0.0
 10
186.920633
 20
47.277404
 30
0.0
 10
186.343084
 20
47.610851
 30
0.0
  0
SPLINE
  5
1e0
100
AcDbEntity
  8
0
 62
7
100
AcDbSpline
 70
8
 71
3
 72
8
 73
4
 74
0
 40
0
 40
0
 40
0
 40
0
 40
1
 40
1
 40
1
 40
1
 10
186.343084
 20
47.610851
 30
0.0
 10
185.765536
 20
47.944299
 30
0.0
 10
185.053966
 20
47.944299
 30
0.0
 10
184.476418
 20
47.610851
 30
0.0
  0
SPLINE
  5
1e1
100
AcDbEntity
  8
0
 62
7
100
AcDbSpline
 70
8
 71
3
 72
8
 73
4
 74
0
 40
0
 40
0
 40
0
 40
0
 40
1
 40
1
 40
1
 40
1
 10
184.476418
 20
47.610851
 30
0.0
 10
183.898869
 20
47.277404
 30
0.0
 10
183.543084
 20
46.661166
 30
0.0
 10
183.543085
 20
45.994271
 30
0.0
  0
SPLINE
  5
1e2
100
AcDbEntity
  8
0
 62
7
100
AcDbSpline
 70
8
 71
3
 72
8
 73
4
 74
0
 40
0
 40
0
 40
0
 40
0
 40
1
 40
1
 40
1
 40
1
 10
183.543085
 20
45.994271
 30
0.0
 10
183.543085
 20
45.327375
 30
0.0
 10
183.898869
 20
44.711138
 30
0.0
 10
184.476418
 20
44.377690
 30
0.0
  0
SPLINE
  5
1e3
100
AcDbEntity
  8
0
 62
7
100
AcDbSpline
 70
8
 71
3
 72
8
 73
4
 74
0
 40
0
 40
0
 40
0
 40
0
 40
1
 40
1
 40
1
 40
1
 10
184.476418
 20
44.377690
 30
0.0
 10
185.053967
 20
44.044242
 30
0.0
 10
185.765536
 20
44.044242
 30
0.0
 10
186.343085
 20
44.377690
 30
0.0
  0
SPLINE
  5
1e4
100
AcDbEntity
  8
0
 62
7
100
AcDbSpline
 70
8
 71
3
 72
8
 73
4
 74
0
 40
0
 40
0
 40
0
 40
0
 40
1
 40
1
 40
1
 40
1
 10
186.343085
 20
44.377690
 30
0.0
 10
186.920633
 20
44.711138
 30
0.0
 10
187.276418
 20
45.327375
 30
0.0
 10
187.276418
 20
45.994271
 30
0.0
  0
LWPOLYLINE
  5
1e5
100
AcDbEntity
  8
0
 62
7
100
AcDbPolyline
 90
1
 70
1
 10
202.632175
 20
141.682020
 30
0.0
  0
SPLINE
  5
1e6
100
AcDbEntity
  8
0
 62
7
100
AcDbSpline
 70
8
 71
3
 72
8
 73
4
 74
0
 40
0
 40
0
 40
0
 40
0
 40
1
 40
1
 40
1
 40
1
 10
176.482598
 20
260.727239
 30
0.0
 10
176.482598
 20
262.179167
 30
0.0
 10
175.708004
 20
263.520803
 30
0.0
 10
174.450598
 20
264.246767
 30
0.0
  0
SPLINE
  5
1e7
100
AcDbEntity
  8
0
 62
7
100
AcDbSpline
 70
8
 71
3
 72
8
 73
4
 74
0
 40
0
 40
0
 40
0
 40
0
 40
1
 40
1
 40
1
 40
1
 10
174.450598
 20
264.246767
 30
0.0
 10
173.193192
 20
264.972731
 30
0.0
 10
171.644004
 20
264.972731
 30
0.0
 10
170.386598
 20
264.246767
 30
0.0
  0
SPLINE
  5
1e8
100
AcDbEntity
  8
0
 62
7
100
AcDbSpline
 70
8
 71
3
 72
8
 73
4
 74
0
 40
0
 40
0
 40
0
 40
0
 40
1
 40
1
 40
1
 40
1
 10
170.386598
 20
264.246767
 30
0.0
 10
169.129192
 20
263.520803
 30
0.0
 10
168.354598
 20
262.179167
 30
0.0
 10
168.354598
 20
260.727239
 30
0.0
  0
SPLINE
  5
1e9
100
AcDbEntity
  8
0
 62
7
100
AcDbSpline
 70
8
 71
3
 72
8
 73
4
 74
0
 40
0
 40
0
 40
0
 40
0
 40
1
 40
1
 40
1
 40
1
 10
168.354598
 20
260.727239
 30
0.0
 10
168.354598
 20
259.275312
 30
0.0
 10
169.129192
 20
257.933676
 30
0.0
 10
170.386598
 20
257.207712
 30
0.0
  0
SPLINE
  5
1ea
100
AcDbEntity
  8
0
 62
7
100
AcDbSpline
 70
8
 71
3
 72
8
 73
4
 74
0
 40
0
 40
0
 40
0
 40
0
 40
1
 40
1
 40
1
 40
1
 10
170.386598
 20
257.207712
 30
0.0
 10
171.644004
 20
256.481748
 30
0.0
 10
173.193192
 20
256.481748
 30
0.0
 10
174.450598
 20
257.207712
 30
0.0
  0
SPLINE
  5
1eb
100
AcDbEntity
  8
0
 62
7
100
AcDbSpline
 70
8
 71
3
 72
8
 73
4
 74
0
 40
0
 40
0
 40
0
 40
0
 40
1
 40
1
 40
1
 40
1
 10
174.450598
 20
257.207712
 30
0.0
 10
175.708004
 20
257.933676
 30
0.0
 10
176.482598
 20
259.275312
 30
0.0
 10
176.482598
 20
260.727239
 30
0.0
  0
LWPOLYLINE
  5
1ec
100
AcDbEntity
  8
0
 62
7
100
AcDbPolyline
 90
1
 70
1
 10
187.276418
 20
45.994271
 30
0.0
  0
SPLINE
  5
1ed
100
AcDbEntity
  8
0
 62
7
100
AcDbSpline
 70
8
 71
3
 72
8
 73
4
 74
0
 40
0
 40
0
 40
0
 40
0
 40
1
 40
1
 40
1
 40
1
 10
174.231931
 20
260.727239
 30
0.0
 10
174.231931
 20
261.375081
 30
0.0
 10
173.886312
 20
261.973711
 30
0.0
 10
173.325265
 20
262.297632
 30
0.0
  0
SPLINE
  5
1ee
100
AcDbEntity
  8
0
 62
7
100
AcDbSpline
 70
8
 71
3
 72
8
 73
4
 74
0
 40
0
 40
0
 40
0
 40
0
 40
1
 40
1
 40
1
 40
1
 10
173.325265
 20
262.297632
 30
0.0
 10
172.764217
 20
262.621553
 30
0.0
 10
172.072979
 20
262.621553
 30
0.0
 10
171.511931
 20
262.297632
 30
0.0
  0
SPLINE
  5
1ef
100
AcDbEntity
  8
0
 62
7
100
AcDbSpline
 70
8
 71
3
 72
8
 73
4
 74
0
 40
0
 40
0
 40
0
 40
0
 40
1
 40
1
 40
1
 40
1
 10
171.511931
 20
262.297632
 30
0.0
 10
170.950884
 20
261.973711
 30
0.0
 10
170.605265
 20
261.375081
 30
0.0
 10
170.605265
 20
260.727239
 30
0.0
  0
SPLINE
  5
1f0
100
AcDbEntity
  8
0
 62
7
100
AcDbSpline
 70
8
 71
3
 72
8
 73
4
 74
0
 40
0
 40
0
 40
0
 40
0
 40
1
 40
1
 40
1
 40
1
 10
170.605265
 20
260.727239
 30
0.0
 10
170.605265
 20
260.079398
 30
0.0
 10
170.950884
 20
259.480767
 30
0.0
 10
171.511932
 20
259.156847
 30
0.0
  0
SPLINE
  5
1f1
100
AcDbEntity
  8
0
 62
7
100
AcDbSpline
 70
8
 71
3
 72
8
 73
4
 74
0
 40
0
 40
0
 40
0
 40
0
 40
1
 40
1
 40
1
 40
1
 10
171.511932
 20
259.156847
 30
0.0
 10
172.072979
 20
258.832926
 30
0.0
 10
172.764218
 20
258.832926
 30
0.0
 10
173.325265
 20
259.156847
 30
0.0
  0
SPLINE
  5
1f2
100
AcDbEntity
  8
0
 62
7
100
AcDbSpline
 70
8
 71
3
 72
8
 73
4
 74
0
 40
0
 40
0
 40
0
 40
0
 40
1
 40
1
 40
1
 40
1
 10
173.325265
 20
259.156847
 30
0.0
 10
173.886312
 20
259.480767
 30
0.0
 10
174.231932
 20
260.079398
 30
0.0
 10
174.231932
 20
260.727239
 30
0.0
  0
LWPOLYLINE
  5
1f3
100
AcDbEntity
  8
0
 62
7
100
AcDbPolyline
 90
1
 70
1
 10
176.482598
 20
260.727239
 30
0.0
  0
SPLINE
  5
1f4
100
AcDbEntity
  8
0
 62
7
100
AcDbSpline
 70
8
 71
3
 72
8
 73
4
 74
0
 40
0
 40
0
 40
0
 40
0
 40
1
 40
1
 40
1
 40
1
 10
193.317983
 20
260.727239
 30
0.0
 10
193.317983
 20
262.179167
 30
0.0
 10
192.543389
 20
263.520803
 30
0.0
 10
191.285983
 20
264.246767
 30
0.0
  0
SPLINE
  5
1f5
100
AcDbEntity
  8
0
 62
7
100
AcDbSpline
 70
8
 71
3
 72
8
 73
4
 74
0
 40
0
 40
0
 40
0
 40
0
 40
1
 40
1
 40
1
 40
1
 10
191.285983
 20
264.246767
 30
0.0
 10
190.028577
 20
264.972731
 30
0.0
 10
188.479389
 20
264.972731
 30
0.0
 10
187.221983
 20
264.246767
 30
0.0
  0
SPLINE
  5
1f6
100
AcDbEntity
  8
0
 62
7
100
AcDbSpline
 70
8
 71
3
 72
8
 73
4
 74
0
 40
0
 40
0
 40
0
 40
0
 40
1
 40
1
 40
1
 40
1
 10
187.221983
 20
264.246767
 30
0.0
 10
185.964577
 20
263.520803
 30
0.0
 10
185.189983
 20
262.179167
 30
0.0
 10
185.189983
 20
260.727239
 30
0.0
  0
SPLINE
  5
1f7
100
AcDbEntity
  8
0
 62
7
100
AcDbSpline
 70
8
 71
3
 72
8
 73
4
 74
0
 40
0
 40
0
 40
0
 40
0
 40
1
 40
1
 40
1
 40
1
 10
185.189983
 20
260.727239
 30
0.0
 10
185.189983
 20
259.275312
 30
0.0
 10
185.964577
 20
257.933676
 30
0.0
 10
187.221983
 20
257.207712
 30
0.0
  0
SPLINE
  5
1f8
100
AcDbEntity
  8
0
 62
7
100
AcDbSpline
 70
8
 71
3
 72
8
 73
4
 74
0
 40
0
 40
0
 40
0
 40
0
 40
1
 40
1
 40
1
 40
1
 10
187.221983
 20
257.207712
 30
0.0
 10
188.479389
 20
256.481748
 30
0.0
 10
190.028577
 20
256.481748
 30
0.0
 10
191.285983
 20
257.207712
 30
0.0
  0
SPLINE
  5
1f9
100
AcDbEntity
  8
0
 62
7
100
AcDbSpline
 70
8
 71
3
 72
8
 73
4
 74
0
 40
0
 40
0
 40
0
 40
0
 40
1
 40
1
 40
1
 40
1
 10
191.285983
 20
257.207712
 30
0.0
 10
192.543389
 20
257.933676
 30
0.0
 10
193.317983
 20
259.275312
 30
0.0
 10
193.317983
 20
260.727239
 30
0.0
  0
LWPOLYLINE
  5
1fa
100
AcDbEntity
  8
0
 62
7
100
AcDbPolyline
 90
1
 70
1
 10
174.231932
 20
260.727239
 30
0.0
  0
SPLINE
  5
1fb
100
AcDbEntity
  8
0
 62
7
100
AcDbSpline
 70
8
 71
3
 72
8
 73
4
 74
0
 40
0
 40
0
 40
0
 40
0
 40
1
 40
1
 40
1
 40
1
 10
191.067317
 20
260.727239
 30
0.0
 10
191.067317
 20
261.375081
 30
0.0
 10
190.721697
 20
261.973711
 30
0.0
 10
190.160650
 20
262.297632
 30
0.0
  0
SPLINE
  5
1fc
100
AcDbEntity
  8
0
 62
7
100
AcDbSpline
 70
8
 71
3
 72
8
 73
4
 74
0
 40
0
 40
0
 40
0
 40
0
 40
1
 40
1
 40
1
 40
1
 10
190.160650
 20
262.297632
 30
0.0
 10
189.599603
 20
262.621553
 30
0.0
 10
188.908364
 20
262.621553
 30
0.0
 10
188.347317
 20
262.297632
 30
0.0
  0
SPLINE
  5
1fd
100
AcDbEntity
  8
0
 62
7
100
AcDbSpline
 70
8
 71
3
 72
8
 73
4
 74
0
 40
0
 40
0
 40
0
 40
0
 40
1
 40
1
 40
1
 40
1
 10
188.347317
 20
262.297632
 30
0.0
 10
187.786269
 20
261.973711
 30
0.0
 10
187.440650
 20
261.375081
 30
0.0
 10
187.440650
 20
260.727239
 30
0.0
  0
SPLINE
  5
1fe
100
AcDbEntity
  8
0
 62
7
100
AcDbSpline
 70
8
 71
3
 72
8
 73
4
 74
0
 40
0
 40
0
 40
0
 40
0
 40
1
 40
1
 40
1
 40
1
 10
187.440650
 20
260.727239
 30
0.0
 10
187.440650
 20
260.079398
 30
0.0
 10
187.786270
 20
259.480767
 30
0.0
 10
188.347317
 20
259.156847
 30
0.0
  0
SPLINE
  5
1ff
100
AcDbEntity
  8
0
 62
7
100
AcDbSpline
 70
8
 71
3
 72
8
 73
4
 74
0
 40
0
 40
0
 40
0
 40
0
 40
1
 40
1
 40
1
 40
1
 10
188.347317
 20
259.156847
 30
0.0
 10
188.908364
 20
258.832926
 30
0.0
 10
189.599603
 20
258.832926
 30
0.0
 10
190.160650
 20
259.156847
 30
0.0
  0
SPLINE
  5
200
100
AcDbEntity
  8
0
 62
7
100
AcDbSpline
 70
8
 71
3
 72
8
 73
4
 74
0
 40
0
 40
0
 40
0
 40
0
 40
1
 40
1
 40
1
 40
1
 10
190.160650
 20
259.156847
 30
0.0
 10
190.721698
 20
259.480767
 30
0.0
 10
191.067317
 20
260.079398
 30
0.0
 10
191.067317
 20
260.727239
 30
0.0
  0
LWPOLYLINE
  5
201
100
AcDbEntity
  8
0
 62
7
100
AcDbPolyline
 90
1
 70
1
 10
193.317983
 20
260.727239
 30
0.0
  0
SPLINE
  5
202
100
AcDbEntity
  8
0
 62
7
100
AcDbSpline
 70
8
 71
3
 72
8
 73
4
 74
0
 40
0
 40
0
 40
0
 40
0
 40
1
 40
1
 40
1
 40
1
 10
182.375762
 20
260.727239
 30
0.0
 10
182.376273
 20
261.375422
 30
0.0
 10
182.030766
 20
261.974586
 30
0.0
 10
181.469509
 20
262.298824
 30
0.0
  0
SPLINE
  5
203
100
AcDbEntity
  8
0
 62
7
100
AcDbSpline
 70
8
 71
3
 72
8
 73
4
 74
0
 40
0
 40
0
 40
0
 40
0
 40
1
 40
1
 40
1
 40
1
 10
181.469509
 20
262.298824
 30
0.0
 10
180.908252
 20
262.623063
 30
0.0
 10
180.216607
 20
262.623063
 30
0.0
 10
179.655350
 20
262.298824
 30
0.0
  0
SPLINE
  5
204
100
AcDbEntity
  8
0
 62
7
100
AcDbSpline
 70
8
 71
3
 72
8
 73
4
 74
0
 40
0
 40
0
 40
0
 40
0
 40
1
 40
1
 40
1
 40
1
 10
179.655350
 20
262.298824
 30
0.0
 10
179.094092
 20
261.974586
 30
0.0
 10
178.748585
 20
261.375422
 30
0.0
 10
178.749096
 20
260.727239
 30
0.0
  0
SPLINE
  5
205
100
AcDbEntity
  8
0
 62
7
100
AcDbSpline
 70
8
 71
3
 72
8
 73
4
 74
0
 40
0
 40
0
 40
0
 40
0
 40
1
 40
1
 40
1
 40
1
 10
178.749096
 20
260.727239
 30
0.0
 10
178.748585
 20
260.079057
 30
0.0
 10
179.094092
 20
259.479893
 30
0.0
 10
179.655350
 20
259.155654
 30
0.0
  0
SPLINE
  5
206
100
AcDbEntity
  8
0
 62
7
100
AcDbSpline
 70
8
 71
3
 72
8
 73
4
 74
0
 40
0
 40
0
 40
0
 40
0
 40
1
 40
1
 40
1
 40
1
 10
179.655350
 20
259.155654
 30
0.0
 10
180.216607
 20
258.831416
 30
0.0
 10
180.908252
 20
258.831416
 30
0.0
 10
181.469509
 20
259.155654
 30
0.0
  0
SPLINE
  5
207
100
AcDbEntity
  8
0
 62
7
100
AcDbSpline
 70
8
 71
3
 72
8
 73
4
 74
0
 40
0
 40
0
 40
0
 40
0
 40
1
 40
1
 40
1
 40
1
 10
181.469509
 20
259.155654
 30
0.0
 10
182.030766
 20
259.479893
 30
0.0
 10
182.376273
 20
260.079057
 30
0.0
 10
182.375762
 20
260.727239
 30
0.0
  0
LWPOLYLINE
  5
208
100
AcDbEntity
  8
0
 62
7
100
AcDbPolyline
 90
1
 70
1
 10
191.067317
 20
260.727239
 30
0.0
  0
SPLINE
  5
209
100
AcDbEntity
  8
0
 62
7
100
AcDbSpline
 70
8
 71
3
 72
8
 73
4
 74
0
 40
0
 40
0
 40
0
 40
0
 40
1
 40
1
 40
1
 40
1
 10
184.626431
 20
260.727239
 30
0.0
 10
184.626431
 20
262.179167
 30
0.0
 10
183.851837
 20
263.520803
 30
0.0
 10
182.594431
 20
264.246767
 30
0.0
  0
SPLINE
  5
20a
100
AcDbEntity
  8
0
 62
7
100
AcDbSpline
 70
8
 71
3
 72
8
 73
4
 74
0
 40
0
 40
0
 40
0
 40
0
 40
1
 40
1
 40
1
 40
1
 10
182.594431
 20
264.246767
 30
0.0
 10
181.337025
 20
264.972730
 30
0.0
 10
179.787837
 20
264.972730
 30
0.0
 10
178.530431
 20
264.246767
 30
0.0
  0
SPLINE
  5
20b
100
AcDbEntity
  8
0
 62
7
100
AcDbSpline
 70
8
 71
3
 72
8
 73
4
 74
0
 40
0
 40
0
 40
0
 40
0
 40
1
 40
1
 40
1
 40
1
 10
178.530431
 20
264.246767
 30
0.0
 10
177.273025
 20
263.520803
 30
0.0
 10
176.498431
 20
262.179167
 30
0.0
 10
176.498431
 20
260.727239
 30
0.0
  0
SPLINE
  5
20c
100
AcDbEntity
  8
0
 62
7
100
AcDbSpline
 70
8
 71
3
 72
8
 73
4
 74
0
 40
0
 40
0
 40
0
 40
0
 40
1
 40
1
 40
1
 40
1
 10
176.498431
 20
260.727239
 30
0.0
 10
176.498431
 20
259.275312
 30
0.0
 10
177.273025
 20
257.933676
 30
0.0
 10
178.530431
 20
257.207712
 30
0.0
  0
SPLINE
  5
20d
100
AcDbEntity
  8
0
 62
7
100
AcDbSpline
 70
8
 71
3
 72
8
 73
4
 74
0
 40
0
 40
0
 40
0
 40
0
 40
1
 40
1
 40
1
 40
1
 10
178.530431
 20
257.207712
 30
0.0
 10
179.787837
 20
256.481748
 30
0.0
 10
181.337025
 20
256.481748
 30
0.0
 10
182.594431
 20
257.207712
 30
0.0
  0
SPLINE
  5
20e
100
AcDbEntity
  8
0
 62
7
100
AcDbSpline
 70
8
 71
3
 72
8
 73
4
 74
0
 40
0
 40
0
 40
0
 40
0
 40
1
 40
1
 40
1
 40
1
 10
182.594431
 20
257.207712
 30
0.0
 10
183.851837
 20
257.933676
 30
0.0
 10
184.626431
 20
259.275312
 30
0.0
 10
184.626431
 20
260.727239
 30
0.0
  0
LWPOLYLINE
  5
20f
100
AcDbEntity
  8
0
 62
7
100
AcDbPolyline
 90
1
 70
1
 10
182.375762
 20
260.727239
 30
0.0
  0
SPLINE
  5
210
100
AcDbEntity
  8
0
 62
7
100
AcDbSpline
 70
8
 71
3
 72
8
 73
4
 74
0
 40
0
 40
0
 40
0
 40
0
 40
1
 40
1
 40
1
 40
1
 10
149.247069
 20
260.727239
 30
0.0
 10
149.247069
 20
261.375081
 30
0.0
 10
148.901450
 20
261.973711
 30
0.0
 10
148.340402
 20
262.297632
 30
0.0
  0
SPLINE
  5
211
100
AcDbEntity
  8
0
 62
7
100
AcDbSpline
 70
8
 71
3
 72
8
 73
4
 74
0
 40
0
 40
0
 40
0
 40
0
 40
1
 40
1
 40
1
 40
1
 10
148.340402
 20
262.297632
 30
0.0
 10
147.779355
 20
262.621553
 30
0.0
 10
147.088116
 20
262.621553
 30
0.0
 10
146.527069
 20
262.297632
 30
0.0
  0
SPLINE
  5
212
100
AcDbEntity
  8
0
 62
7
100
AcDbSpline
 70
8
 71
3
 72
8
 73
4
 74
0
 40
0
 40
0
 40
0
 40
0
 40
1
 40
1
 40
1
 40
1
 10
146.527069
 20
262.297632
 30
0.0
 10
145.966022
 20
261.973711
 30
0.0
 10
145.620402
 20
261.375081
 30
0.0
 10
145.620403
 20
260.727239
 30
0.0
  0
SPLINE
  5
213
100
AcDbEntity
  8
0
 62
7
100
AcDbSpline
 70
8
 71
3
 72
8
 73
4
 74
0
 40
0
 40
0
 40
0
 40
0
 40
1
 40
1
 40
1
 40
1
 10
145.620403
 20
260.727239
 30
0.0
 10
145.620403
 20
260.079398
 30
0.0
 10
145.966022
 20
259.480767
 30
0.0
 10
146.527069
 20
259.156847
 30
0.0
  0
SPLINE
  5
214
100
AcDbEntity
  8
0
 62
7
100
AcDbSpline
 70
8
 71
3
 72
8
 73
4
 74
0
 40
0
 40
0
 40
0
 40
0
 40
1
 40
1
 40
1
 40
1
 10
146.527069
 20
259.156847
 30
0.0
 10
147.088117
 20
258.832926
 30
0.0
 10
147.779355
 20
258.832926
 30
0.0
 10
148.340403
 20
259.156847
 30
0.0
  0
SPLINE
  5
215
100
AcDbEntity
  8
0
 62
7
100
AcDbSpline
 70
8
 71
3
 72
8
 73
4
 74
0
 40
0
 40
0
 40
0
 40
0
 40
1
 40
1
 40
1
 40
1
 10
148.340403
 20
259.156847
 30
0.0
 10
148.901450
 20
259.480767
 30
0.0
 10
149.247069
 20
260.079398
 30
0.0
 10
149.247069
 20
260.727239
 30
0.0
  0
LWPOLYLINE
  5
216
100
AcDbEntity
  8
0
 62
7
100
AcDbPolyline
 90
1
 70
1
 10
184.626431
 20
260.727239
 30
0.0
  0
SPLINE
  5
217
100
AcDbEntity
  8
0
 62
7
100
AcDbSpline
 70
8
 71
3
 72
8
 73
4
 74
0
 40
0
 40
0
 40
0
 40
0
 40
1
 40
1
 40
1
 40
1
 10
151.497736
 20
260.727239
 30
0.0
 10
151.497736
 20
262.179167
 30
0.0
 10
150.723142
 20
263.520803
 30
0.0
 10
149.465736
 20
264.246767
 30
0.0
  0
SPLINE
  5
218
100
AcDbEntity
  8
0
 62
7
100
AcDbSpline
 70
8
 71
3
 72
8
 73
4
 74
0
 40
0
 40
0
 40
0
 40
0
 40
1
 40
1
 40
1
 40
1
 10
149.465736
 20
264.246767
 30
0.0
 10
148.208330
 20
264.972730
 30
0.0
 10
146.659142
 20
264.972730
 30
0.0
 10
145.401736
 20
264.246767
 30
0.0
  0
SPLINE
  5
219
100
AcDbEntity
  8
0
 62
7
100
AcDbSpline
 70
8
 71
3
 72
8
 73
4
 74
0
 40
0
 40
0
 40
0
 40
0
 40
1
 40
1
 40
1
 40
1
 10
145.401736
 20
264.246767
 30
0.0
 10
144.144330
 20
263.520803
 30
0.0
 10
143.369736
 20
262.179167
 30
0.0
 10
143.369736
 20
260.727239
 30
0.0
  0
SPLINE
  5
21a
100
AcDbEntity
  8
0
 62
7
100
AcDbSpline
 70
8
 71
3
 72
8
 73
4
 74
0
 40
0
 40
0
 40
0
 40
0
 40
1
 40
1
 40
1
 40
1
 10
143.369736
 20
260.727239
 30
0.0
 10
143.369735
 20
259.275312
 30
0.0
 10
144.144329
 20
257.933676
 30
0.0
 10
145.401735
 20
257.207712
 30
0.0
  0
SPLINE
  5
21b
100
AcDbEntity
  8
0
 62
7
100
AcDbSpline
 70
8
 71
3
 72
8
 73
4
 74
0
 40
0
 40
0
 40
0
 40
0
 40
1
 40
1
 40
1
 40
1
 10
145.401735
 20
257.207712
 30
0.0
 10
146.659141
 20
256.481748
 30
0.0
 10
148.208330
 20
256.481748
 30
0.0
 10
149.465736
 20
257.207712
 30
0.0
  0
SPLINE
  5
21c
100
AcDbEntity
  8
0
 62
7
100
AcDbSpline
 70
8
 71
3
 72
8
 73
4
 74
0
 40
0
 40
0
 40
0
 40
0
 40
1
 40
1
 40
1
 40
1
 10
149.465736
 20
257.207712
 30
0.0
 10
150.723142
 20
257.933676
 30
0.0
 10
151.497736
 20
259.275312
 30
0.0
 10
151.497736
 20
260.727239
 30
0.0
  0
LWPOLYLINE
  5
21d
100
AcDbEntity
  8
0
 62
7
100
AcDbPolyline
 90
1
 70
1
 10
149.247069
 20
260.727239
 30
0.0
  0
SPLINE
  5
21e
100
AcDbEntity
  8
0
 62
7
100
AcDbSpline
 70
8
 71
3
 72
8
 73
4
 74
0
 40
0
 40
0
 40
0
 40
0
 40
1
 40
1
 40
1
 40
1
 10
165.976331
 20
260.727239
 30
0.0
 10
165.976842
 20
261.375422
 30
0.0
 10
165.631335
 20
261.974586
 30
0.0
 10
165.070078
 20
262.298824
 30
0.0
  0
SPLINE
  5
21f
100
AcDbEntity
  8
0
 62
7
100
AcDbSpline
 70
8
 71
3
 72
8
 73
4
 74
0
 40
0
 40
0
 40
0
 40
0
 40
1
 40
1
 40
1
 40
1
 10
165.070078
 20
262.298824
 30
0.0
 10
164.508821
 20
262.623063
 30
0.0
 10
163.817176
 20
262.623063
 30
0.0
 10
163.255919
 20
262.298824
 30
0.0
  0
SPLINE
  5
220
100
AcDbEntity
  8
0
 62
7
100
AcDbSpline
 70
8
 71
3
 72
8
 73
4
 74
0
 40
0
 40
0
 40
0
 40
0
 40
1
 40
1
 40
1
 40
1
 10
163.255919
 20
262.298824
 30
0.0
 10
162.694661
 20
261.974586
 30
0.0
 10
162.349154
 20
261.375422
 30
0.0
 10
162.349665
 20
260.727239
 30
0.0
  0
SPLINE
  5
221
100
AcDbEntity
  8
0
 62
7
100
AcDbSpline
 70
8
 71
3
 72
8
 73
4
 74
0
 40
0
 40
0
 40
0
 40
0
 40
1
 40
1
 40
1
 40
1
 10
162.349665
 20
260.727239
 30
0.0
 10
162.349154
 20
260.079057
 30
0.0
 10
162.694661
 20
259.479893
 30
0.0
 10
163.255919
 20
259.155654
 30
0.0
  0
SPLINE
  5
222
100
AcDbEntity
  8
0
 62
7
100
AcDbSpline
 70
8
 71
3
 72
8
 73
4
 74
0
 40
0
 40
0
 40
0
 40
0
 40
1
 40
1
 40
1
 40
1
 10
163.255919
 20
259.155654
 30
0.0
 10
163.817176
 20
258.831416
 30
0.0
 10
164.508821
 20
258.831416
 30
0.0
 10
165.070078
 20
259.155654
 30
0.0
  0
SPLINE
  5
223
100
AcDbEntity
  8
0
 62
7
100
AcDbSpline
 70
8
 71
3
 72
8
 73
4
 74
0
 40
0
 40
0
 40
0
 40
0
 40
1
 40
1
 40
1
 40
1
 10
165.070078
 20
259.155654
 30
0.0
 10
165.631335
 20
259.479893
 30
0.0
 10
165.976842
 20
260.079057
 30
0.0
 10
165.976331
 20
260.727239
 30
0.0
  0
LWPOLYLINE
  5
224
100
AcDbEntity
  8
0
 62
7
100
AcDbPolyline
 90
1
 70
1
 10
151.497736
 20
260.727239
 30
0.0
  0
SPLINE
  5
225
100
AcDbEntity
  8
0
 62
7
100
AcDbSpline
 70
8
 71
3
 72
8
 73
4
 74
0
 40
0
 40
0
 40
0
 40
0
 40
1
 40
1
 40
1
 40
1
 10
168.227000
 20
260.727239
 30
0.0
 10
168.227000
 20
262.179167
 30
0.0
 10
167.452406
 20
263.520803
 30
0.0
 10
166.195000
 20
264.246767
 30
0.0
  0
SPLINE
  5
226
100
AcDbEntity
  8
0
 62
7
100
AcDbSpline
 70
8
 71
3
 72
8
 73
4
 74
0
 40
0
 40
0
 40
0
 40
0
 40
1
 40
1
 40
1
 40
1
 10
166.195000
 20
264.246767
 30
0.0
 10
164.937594
 20
264.972730
 30
0.0
 10
163.388406
 20
264.972730
 30
0.0
 10
162.131000
 20
264.246767
 30
0.0
  0
SPLINE
  5
227
100
AcDbEntity
  8
0
 62
7
100
AcDbSpline
 70
8
 71
3
 72
8
 73
4
 74
0
 40
0
 40
0
 40
0
 40
0
 40
1
 40
1
 40
1
 40
1
 10
162.131000
 20
264.246767
 30
0.0
 10
160.873594
 20
263.520803
 30
0.0
 10
160.099000
 20
262.179167
 30
0.0
 10
160.099000
 20
260.727239
 30
0.0
  0
SPLINE
  5
228
100
AcDbEntity
  8
0
 62
7
100
AcDbSpline
 70
8
 71
3
 72
8
 73
4
 74
0
 40
0
 40
0
 40
0
 40
0
 40
1
 40
1
 40
1
 40
1
 10
160.099000
 20
260.727239
 30
0.0
 10
160.099000
 20
259.275312
 30
0.0
 10
160.873594
 20
257.933676
 30
0.0
 10
162.131000
 20
257.207712
 30
0.0
  0
SPLINE
  5
229
100
AcDbEntity
  8
0
 62
7
100
AcDbSpline
 70
8
 71
3
 72
8
 73
4
 74
0
 40
0
 40
0
 40
0
 40
0
 40
1
 40
1
 40
1
 40
1
 10
162.131000
 20
257.207712
 30
0.0
 10
163.388406
 20
256.481748
 30
0.0
 10
164.937594
 20
256.481748
 30
0.0
 10
166.195000
 20
257.207712
 30
0.0
  0
SPLINE
  5
22a
100
AcDbEntity
  8
0
 62
7
100
AcDbSpline
 70
8
 71
3
 72
8
 73
4
 74
0
 40
0
 40
0
 40
0
 40
0
 40
1
 40
1
 40
1
 40
1
 10
166.195000
 20
257.207712
 30
0.0
 10
167.452406
 20
257.933676
 30
0.0
 10
168.227000
 20
259.275312
 30
0.0
 10
168.227000
 20
260.727239
 30
0.0
  0
LWPOLYLINE
  5
22b
100
AcDbEntity
  8
0
 62
7
100
AcDbPolyline
 90
1
 70
1
 10
165.976331
 20
260.727239
 30
0.0
  0
SPLINE
  5
22c
100
AcDbEntity
  8
0
 62
7
100
AcDbSpline
 70
8
 71
3
 72
8
 73
4
 74
0
 40
0
 40
0
 40
0
 40
0
 40
1
 40
1
 40
1
 40
1
 10
160.005895
 20
260.727239
 30
0.0
 10
160.005895
 20
262.179167
 30
0.0
 10
159.231301
 20
263.520803
 30
0.0
 10
157.973895
 20
264.246767
 30
0.0
  0
SPLINE
  5
22d
100
AcDbEntity
  8
0
 62
7
100
AcDbSpline
 70
8
 71
3
 72
8
 73
4
 74
0
 40
0
 40
0
 40
0
 40
0
 40
1
 40
1
 40
1
 40
1
 10
157.973895
 20
264.246767
 30
0.0
 10
156.716489
 20
264.972730
 30
0.0
 10
155.167301
 20
264.972730
 30
0.0
 10
153.909895
 20
264.246767
 30
0.0
  0
SPLINE
  5
22e
100
AcDbEntity
  8
0
 62
7
100
AcDbSpline
 70
8
 71
3
 72
8
 73
4
 74
0
 40
0
 40
0
 40
0
 40
0
 40
1
 40
1
 40
1
 40
1
 10
153.909895
 20
264.246767
 30
0.0
 10
152.652489
 20
263.520803
 30
0.0
 10
151.877895
 20
262.179167
 30
0.0
 10
151.877895
 20
260.727239
 30
0.0
  0
SPLINE
  5
22f
100
AcDbEntity
  8
0
 62
7
100
AcDbSpline
 70
8
 71
3
 72
8
 73
4
 74
0
 40
0
 40
0
 40
0
 40
0
 40
1
 40
1
 40
1
 40
1
 10
151.877895
 20
260.727239
 30
0.0
 10
151.877895
 20
259.275312
 30
0.0
 10
152.652489
 20
257.933676
 30
0.0
 10
153.909895
 20
257.207712
 30
0.0
  0
SPLINE
  5
230
100
AcDbEntity
  8
0
 62
7
100
AcDbSpline
 70
8
 71
3
 72
8
 73
4
 74
0
 40
0
 40
0
 40
0
 40
0
 40
1
 40
1
 40
1
 40
1
 10
153.909895
 20
257.207712
 30
0.0
 10
155.167301
 20
256.481748
 30
0.0
 10
156.716489
 20
256.481748
 30
0.0
 10
157.973895
 20
257.207712
 30
0.0
  0
SPLINE
  5
231
100
AcDbEntity
  8
0
 62
7
100
AcDbSpline
 70
8
 71
3
 72
8
 73
4
 74
0
 40
0
 40
0
 40
0
 40
0
 40
1
 40
1
 40
1
 40
1
 10
157.973895
 20
257.207712
 30
0.0
 10
159.231301
 20
257.933676
 30
0.0
 10
160.005895
 20
259.275312
 30
0.0
 10
160.005895
 20
260.727239
 30
0.0
  0
LWPOLYLINE
  5
232
100
AcDbEntity
  8
0
 62
7
100
AcDbPolyline
 90
1
 70
1
 10
168.227000
 20
260.727239
 30
0.0
  0
SPLINE
  5
233
100
AcDbEntity
  8
0
 62
7
100
AcDbSpline
 70
8
 71
3
 72
8
 73
4
 74
0
 40
0
 40
0
 40
0
 40
0
 40
1
 40
1
 40
1
 40
1
 10
157.755226
 20
260.727239
 30
0.0
 10
157.755737
 20
261.375422
 30
0.0
 10
157.410230
 20
261.974586
 30
0.0
 10
156.848973
 20
262.298824
 30
0.0
  0
SPLINE
  5
234
100
AcDbEntity
  8
0
 62
7
100
AcDbSpline
 70
8
 71
3
 72
8
 73
4
 74
0
 40
0
 40
0
 40
0
 40
0
 40
1
 40
1
 40
1
 40
1
 10
156.848973
 20
262.298824
 30
0.0
 10
156.287716
 20
262.623063
 30
0.0
 10
155.596071
 20
262.623063
 30
0.0
 10
155.034813
 20
262.298824
 30
0.0
  0
SPLINE
  5
235
100
AcDbEntity
  8
0
 62
7
100
AcDbSpline
 70
8
 71
3
 72
8
 73
4
 74
0
 40
0
 40
0
 40
0
 40
0
 40
1
 40
1
 40
1
 40
1
 10
155.034813
 20
262.298824
 30
0.0
 10
154.473556
 20
261.974586
 30
0.0
 10
154.128049
 20
261.375422
 30
0.0
 10
154.128560
 20
260.727239
 30
0.0
  0
SPLINE
  5
236
100
AcDbEntity
  8
0
 62
7
100
AcDbSpline
 70
8
 71
3
 72
8
 73
4
 74
0
 40
0
 40
0
 40
0
 40
0
 40
1
 40
1
 40
1
 40
1
 10
154.128560
 20
260.727239
 30
0.0
 10
154.128049
 20
260.079057
 30
0.0
 10
154.473556
 20
259.479893
 30
0.0
 10
155.034813
 20
259.155654
 30
0.0
  0
SPLINE
  5
237
100
AcDbEntity
  8
0
 62
7
100
AcDbSpline
 70
8
 71
3
 72
8
 73
4
 74
0
 40
0
 40
0
 40
0
 40
0
 40
1
 40
1
 40
1
 40
1
 10
155.034813
 20
259.155654
 30
0.0
 10
155.596071
 20
258.831416
 30
0.0
 10
156.287716
 20
258.831416
 30
0.0
 10
156.848973
 20
259.155654
 30
0.0
  0
SPLINE
  5
238
100
AcDbEntity
  8
0
 62
7
100
AcDbSpline
 70
8
 71
3
 72
8
 73
4
 74
0
 40
0
 40
0
 40
0
 40
0
 40
1
 40
1
 40
1
 40
1
 10
156.848973
 20
259.155654
 30
0.0
 10
157.410230
 20
259.479893
 30
0.0
 10
157.755737
 20
260.079057
 30
0.0
 10
157.755226
 20
260.727239
 30
0.0
  0
LWPOLYLINE
  5
239
100
AcDbEntity
  8
0
 62
7
100
AcDbPolyline
 90
1
 70
1
 10
160.005895
 20
260.727239
 30
0.0
  0
SPLINE
  5
23a
100
AcDbEntity
  8
0
 62
7
100
AcDbSpline
 70
8
 71
3
 72
8
 73
4
 74
0
 40
0
 40
0
 40
0
 40
0
 40
1
 40
1
 40
1
 40
1
 10
140.963550
 20
260.727239
 30
0.0
 10
140.963550
 20
261.375081
 30
0.0
 10
140.617931
 20
261.973711
 30
0.0
 10
140.056884
 20
262.297632
 30
0.0
  0
SPLINE
  5
23b
100
AcDbEntity
  8
0
 62
7
100
AcDbSpline
 70
8
 71
3
 72
8
 73
4
 74
0
 40
0
 40
0
 40
0
 40
0
 40
1
 40
1
 40
1
 40
1
 10
140.056884
 20
262.297632
 30
0.0
 10
139.495836
 20
262.621553
 30
0.0
 10
138.804598
 20
262.621553
 30
0.0
 10
138.243550
 20
262.297632
 30
0.0
  0
SPLINE
  5
23c
100
AcDbEntity
  8
0
 62
7
100
AcDbSpline
 70
8
 71
3
 72
8
 73
4
 74
0
 40
0
 40
0
 40
0
 40
0
 40
1
 40
1
 40
1
 40
1
 10
138.243550
 20
262.297632
 30
0.0
 10
137.682503
 20
261.973711
 30
0.0
 10
137.336884
 20
261.375081
 30
0.0
 10
137.336884
 20
260.727239
 30
0.0
  0
SPLINE
  5
23d
100
AcDbEntity
  8
0
 62
7
100
AcDbSpline
 70
8
 71
3
 72
8
 73
4
 74
0
 40
0
 40
0
 40
0
 40
0
 40
1
 40
1
 40
1
 40
1
 10
137.336884
 20
260.727239
 30
0.0
 10
137.336884
 20
260.079398
 30
0.0
 10
137.682503
 20
259.480767
 30
0.0
 10
138.243551
 20
259.156847
 30
0.0
  0
SPLINE
  5
23e
100
AcDbEntity
  8
0
 62
7
100
AcDbSpline
 70
8
 71
3
 72
8
 73
4
 74
0
 40
0
 40
0
 40
0
 40
0
 40
1
 40
1
 40
1
 40
1
 10
138.243551
 20
259.156847
 30
0.0
 10
138.804598
 20
258.832926
 30
0.0
 10
139.495837
 20
258.832926
 30
0.0
 10
140.056884
 20
259.156847
 30
0.0
  0
SPLINE
  5
23f
100
AcDbEntity
  8
0
 62
7
100
AcDbSpline
 70
8
 71
3
 72
8
 73
4
 74
0
 40
0
 40
0
 40
0
 40
0
 40
1
 40
1
 40
1
 40
1
 10
140.056884
 20
259.156847
 30
0.0
 10
140.617931
 20
259.480767
 30
0.0
 10
140.963551
 20
260.079398
 30
0.0
 10
140.963551
 20
260.727239
 30
0.0
  0
LWPOLYLINE
  5
240
100
AcDbEntity
  8
0
 62
7
100
AcDbPolyline
 90
1
 70
1
 10
157.755226
 20
260.727239
 30
0.0
  0
SPLINE
  5
241
100
AcDbEntity
  8
0
 62
7
100
AcDbSpline
 70
8
 71
3
 72
8
 73
4
 74
0
 40
0
 40
0
 40
0
 40
0
 40
1
 40
1
 40
1
 40
1
 10
143.214217
 20
260.727239
 30
0.0
 10
143.214217
 20
262.179167
 30
0.0
 10
142.439623
 20
263.520803
 30
0.0
 10
141.182217
 20
264.246767
 30
0.0
  0
SPLINE
  5
242
100
AcDbEntity
  8
0
 62
7
100
AcDbSpline
 70
8
 71
3
 72
8
 73
4
 74
0
 40
0
 40
0
 40
0
 40
0
 40
1
 40
1
 40
1
 40
1
 10
141.182217
 20
264.246767
 30
0.0
 10
139.924811
 20
264.972730
 30
0.0
 10
138.375623
 20
264.972730
 30
0.0
 10
137.118217
 20
264.246767
 30
0.0
  0
SPLINE
  5
243
100
AcDbEntity
  8
0
 62
7
100
AcDbSpline
 70
8
 71
3
 72
8
 73
4
 74
0
 40
0
 40
0
 40
0
 40
0
 40
1
 40
1
 40
1
 40
1
 10
137.118217
 20
264.246767
 30
0.0
 10
135.860811
 20
263.520803
 30
0.0
 10
135.086217
 20
262.179167
 30
0.0
 10
135.086217
 20
260.727239
 30
0.0
  0
SPLINE
  5
244
100
AcDbEntity
  8
0
 62
7
100
AcDbSpline
 70
8
 71
3
 72
8
 73
4
 74
0
 40
0
 40
0
 40
0
 40
0
 40
1
 40
1
 40
1
 40
1
 10
135.086217
 20
260.727239
 30
0.0
 10
135.086217
 20
259.275312
 30
0.0
 10
135.860811
 20
257.933676
 30
0.0
 10
137.118217
 20
257.207712
 30
0.0
  0
SPLINE
  5
245
100
AcDbEntity
  8
0
 62
7
100
AcDbSpline
 70
8
 71
3
 72
8
 73
4
 74
0
 40
0
 40
0
 40
0
 40
0
 40
1
 40
1
 40
1
 40
1
 10
137.118217
 20
257.207712
 30
0.0
 10
138.375623
 20
256.481748
 30
0.0
 10
139.924811
 20
256.481748
 30
0.0
 10
141.182217
 20
257.207712
 30
0.0
  0
SPLINE
  5
246
100
AcDbEntity
  8
0
 62
7
100
AcDbSpline
 70
8
 71
3
 72
8
 73
4
 74
0
 40
0
 40
0
 40
0
 40
0
 40
1
 40
1
 40
1
 40
1
 10
141.182217
 20
257.207712
 30
0.0
 10
142.439623
 20
257.933676
 30
0.0
 10
143.214217
 20
259.275312
 30
0.0
 10
143.214217
 20
260.727239
 30
0.0
  0
LWPOLYLINE
  5
247
100
AcDbEntity
  8
0
 62
7
100
AcDbPolyline
 90
1
 70
1
 10
140.963551
 20
260.727239
 30
0.0
  0
SPLINE
  5
248
100
AcDbEntity
  8
0
 62
7
100
AcDbSpline
 70
8
 71
3
 72
8
 73
4
 74
0
 40
0
 40
0
 40
0
 40
0
 40
1
 40
1
 40
1
 40
1
 10
198.609241
 20
237.210102
 30
0.0
 10
198.609241
 20
239.496602
 30
0.0
 10
197.389408
 20
241.609415
 30
0.0
 10
195.409241
 20
242.752664
 30
0.0
  0
SPLINE
  5
249
100
AcDbEntity
  8
0
 62
7
100
AcDbSpline
 70
8
 71
3
 72
8
 73
4
 74
0
 40
0
 40
0
 40
0
 40
0
 40
1
 40
1
 40
1
 40
1
 10
195.409241
 20
242.752664
 30
0.0
 10
193.429074
 20
243.895914
 30
0.0
 10
190.989408
 20
243.895914
 30
0.0
 10
189.009241
 20
242.752664
 30
0.0
  0
SPLINE
  5
24a
100
AcDbEntity
  8
0
 62
7
100
AcDbSpline
 70
8
 71
3
 72
8
 73
4
 74
0
 40
0
 40
0
 40
0
 40
0
 40
1
 40
1
 40
1
 40
1
 10
189.009241
 20
242.752664
 30
0.0
 10
187.029074
 20
241.609415
 30
0.0
 10
185.809241
 20
239.496602
 30
0.0
 10
185.809241
 20
237.210102
 30
0.0
  0
SPLINE
  5
24b
100
AcDbEntity
  8
0
 62
7
100
AcDbSpline
 70
8
 71
3
 72
8
 73
4
 74
0
 40
0
 40
0
 40
0
 40
0
 40
1
 40
1
 40
1
 40
1
 10
185.809241
 20
237.210102
 30
0.0
 10
185.809241
 20
234.923602
 30
0.0
 10
187.029074
 20
232.810789
 30
0.0
 10
189.009241
 20
231.667539
 30
0.0
  0
SPLINE
  5
24c
100
AcDbEntity
  8
0
 62
7
100
AcDbSpline
 70
8
 71
3
 72
8
 73
4
 74
0
 40
0
 40
0
 40
0
 40
0
 40
1
 40
1
 40
1
 40
1
 10
189.009241
 20
231.667539
 30
0.0
 10
190.989408
 20
230.524290
 30
0.0
 10
193.429074
 20
230.524290
 30
0.0
 10
195.409241
 20
231.667539
 30
0.0
  0
SPLINE
  5
24d
100
AcDbEntity
  8
0
 62
7
100
AcDbSpline
 70
8
 71
3
 72
8
 73
4
 74
0
 40
0
 40
0
 40
0
 40
0
 40
1
 40
1
 40
1
 40
1
 10
195.409241
 20
231.667539
 30
0.0
 10
197.389408
 20
232.810789
 30
0.0
 10
198.609241
 20
234.923602
 30
0.0
 10
198.609241
 20
237.210102
 30
0.0
  0
LWPOLYLINE
  5
24e
100
AcDbEntity
  8
0
 62
7
100
AcDbPolyline
 90
1
 70
1
 10
143.214217
 20
260.727239
 30
0.0
  0
LWPOLYLINE
  5
24f
100
AcDbEntity
  8
0
 62
7
100
AcDbPolyline
 90
1
 70
1
 10
198.609241
 20
237.210102
 30
0.0
  0
LWPOLYLINE
  5
250
100
AcDbEntity
  8
0
 62
7
100
AcDbPolyline
 90
2
 70
0
 10
7.750544
 20
109.638966
 30
0.0
 10
7.750544
 20
137.937058
 30
0.0
  0
LWPOLYLINE
  5
251
100
AcDbEntity
  8
0
 62
7
100
AcDbPolyline
 90
2
 70
0
 10
16.817211
 20
137.937058
 30
0.0
 10
16.817211
 20
109.638966
 30
0.0
  0
LWPOLYLINE
  5
252
100
AcDbEntity
  8
0
 62
7
100
AcDbPolyline
 90
2
 70
0
 10
1.445469
 20
96.403094
 30
0.0
 10
12.112136
 20
96.401965
 30
0.0
  0
LWPOLYLINE
  5
253
100
AcDbEntity
  8
0
 62
7
100
AcDbPolyline
 90
2
 70
0
 10
16.378445
 20
93.201427
 30
0.0
 10
16.374339
 20
56.401427
 30
0.0
  0
LWPOLYLINE
  5
254
100
AcDbEntity
  8
0
 62
7
100
AcDbPolyline
 90
2
 70
0
 10
12.111778
 20
93.201903
 30
0.0
 10
16.378445
 20
93.201339
 30
0.0
  0
LWPOLYLINE
  5
255
100
AcDbEntity
  8
0
 62
7
100
AcDbPolyline
 90
2
 70
0
 10
12.112136
 20
96.401903
 30
0.0
 10
12.111769
 20
93.201903
 30
0.0
  0
LWPOLYLINE
  5
256
100
AcDbEntity
  8
0
 62
7
100
AcDbPolyline
 90
2
 70
0
 10
-2.825663
 20
56.403572
 30
0.0
 10
-2.821555
 20
93.203571
 30
0.0
  0
LWPOLYLINE
  5
257
100
AcDbEntity
  8
0
 62
7
100
AcDbPolyline
 90
2
 70
0
 10
16.374337
 20
56.401427
 30
0.0
 10
-2.825663
 20
56.403685
 30
0.0
  0
LWPOLYLINE
  5
258
100
AcDbEntity
  8
0
 62
7
100
AcDbPolyline
 90
2
 70
0
 10
0.375052
 20
62.803212
 30
0.0
 10
0.377789
 20
87.336547
 30
0.0
  0
LWPOLYLINE
  5
259
100
AcDbEntity
  8
0
 62
7
100
AcDbPolyline
 90
2
 70
0
 10
13.175052
 20
62.801784
 30
0.0
 10
0.375052
 20
62.803195
 30
0.0
  0
LWPOLYLINE
  5
25a
100
AcDbEntity
  8
0
 62
7
100
AcDbPolyline
 90
2
 70
0
 10
13.177790
 20
87.335119
 30
0.0
 10
13.175053
 20
62.801784
 30
0.0
  0
LWPOLYLINE
  5
25b
100
AcDbEntity
  8
0
 62
7
100
AcDbPolyline
 90
2
 70
0
 10
0.377790
 20
87.336547
 30
0.0
 10
13.177790
 20
87.335136
 30
0.0
  0
LWPOLYLINE
  5
25c
100
AcDbEntity
  8
0
 62
7
100
AcDbPolyline
 90
2
 70
0
 10
1.445112
 20
93.203094
 30
0.0
 10
1.445470
 20
96.403094
 30
0.0
  0
LWPOLYLINE
  5
25d
100
AcDbEntity
  8
0
 62
7
100
AcDbPolyline
 90
2
 70
0
 10
-2.821555
 20
93.203571
 30
0.0
 10
1.445112
 20
93.203007
 30
0.0
  0
LWPOLYLINE
  5
25e
100
AcDbEntity
  8
0
 62
7
100
AcDbPolyline
 90
2
 70
0
 10
-13.006514
 20
164.930375
 30
0.0
 10
-13.006514
 20
203.895135
 30
0.0
  0
LWPOLYLINE
  5
25f
100
AcDbEntity
  8
0
 62
7
100
AcDbPolyline
 90
2
 70
0
 10
-3.939848
 20
203.895135
 30
0.0
 10
-3.939848
 20
164.930375
 30
0.0
  0
LWPOLYLINE
  5
260
100
AcDbEntity
  8
0
 62
7
100
AcDbPolyline
 90
2
 70
0
 10
22.899009
 20
212.110866
 30
0.0
 10
23.597678
 20
213.093030
 30
0.0
  0
LWPOLYLINE
  5
261
100
AcDbEntity
  8
0
 62
7
100
AcDbPolyline
 90
2
 70
0
 10
28.812789
 20
209.383228
 30
0.0
 10
28.114119
 20
208.401063
 30
0.0
  0
LWPOLYLINE
  5
262
100
AcDbEntity
  8
0
 62
7
100
AcDbPolyline
 90
2
 70
0
 10
27.529675
 20
202.059135
 30
0.0
 10
34.159438
 20
163.662536
 30
0.0
  0
LWPOLYLINE
  5
263
100
AcDbEntity
  8
0
 62
7
100
AcDbPolyline
 90
2
 70
0
 10
25.224977
 20
162.119865
 30
0.0
 10
18.595213
 20
200.516463
 30
0.0
  0
LWPOLYLINE
  5
264
100
AcDbEntity
  8
0
 62
7
100
AcDbPolyline
 90
2
 70
0
 10
21.510856
 20
53.555820
 30
0.0
 10
21.628189
 20
42.732880
 30
0.0
  0
LWPOLYLINE
  5
265
100
AcDbEntity
  8
0
 62
7
100
AcDbPolyline
 90
2
 70
0
 10
21.510856
 20
124.915819
 30
0.0
 10
21.510856
 20
63.909940
 30
0.0
  0
LWPOLYLINE
  5
266
100
AcDbEntity
  8
0
 62
7
100
AcDbPolyline
 90
2
 70
0
 10
21.510856
 20
140.759545
 30
0.0
 10
21.510856
 20
135.269939
 30
0.0
  0
LWPOLYLINE
  5
267
100
AcDbEntity
  8
0
 62
7
100
AcDbPolyline
 90
2
 70
0
 10
72.385521
 20
52.332880
 30
0.0
 10
96.918856
 20
52.332880
 30
0.0
  0
LWPOLYLINE
  5
268
100
AcDbEntity
  8
0
 62
7
100
AcDbPolyline
 90
2
 70
0
 10
96.918856
 20
65.132880
 30
0.0
 10
72.385521
 20
65.132880
 30
0.0
  0
LWPOLYLINE
  5
269
100
AcDbEntity
  8
0
 62
7
100
AcDbPolyline
 90
4
 70
1
 10
33.985522
 20
52.332880
 30
0.0
 10
58.518857
 20
52.332880
 30
0.0
 10
58.518857
 20
65.132880
 30
0.0
 10
33.985522
 20
65.132880
 30
0.0
  0
LWPOLYLINE
  5
26a
100
AcDbEntity
  8
0
 62
7
100
AcDbPolyline
 90
3
 70
0
 10
21.628189
 20
42.732880
 30
0.0
 10
108.209523
 20
42.732880
 30
0.0
 10
108.209523
 20
53.555820
 30
0.0
  0
LWPOLYLINE
  5
26b
100
AcDbEntity
  8
0
 62
7
100
AcDbPolyline
 90
2
 70
0
 10
72.385521
 20
65.132880
 30
0.0
 10
72.385521
 20
52.332880
 30
0.0
  0
LWPOLYLINE
  5
26c
100
AcDbEntity
  8
0
 62
7
100
AcDbPolyline
 90
2
 70
0
 10
108.209523
 20
140.759545
 30
0.0
 10
21.510856
 20
140.759545
 30
0.0
  0
LWPOLYLINE
  5
26d
100
AcDbEntity
  8
0
 62
7
100
AcDbPolyline
 90
2
 70
0
 10
108.209523
 20
135.269939
 30
0.0
 10
108.209523
 20
140.759545
 30
0.0
  0
LWPOLYLINE
  5
26e
100
AcDbEntity
  8
0
 62
7
100
AcDbPolyline
 90
2
 70
0
 10
108.209523
 20
63.909940
 30
0.0
 10
108.209523
 20
124.915819
 30
0.0
  0
LWPOLYLINE
  5
26f
100
AcDbEntity
  8
0
 62
7
100
AcDbPolyline
 90
2
 70
0
 10
96.918856
 20
52.332880
 30
0.0
 10
96.918856
 20
65.132880
 30
0.0
  0
LWPOLYLINE
  5
270
100
AcDbEntity
  8
0
 62
7
100
AcDbPolyline
 90
2
 70
0
 10
-10.489156
 20
113.135039
 30
0.0
 10
-10.489156
 20
141.433134
 30
0.0
  0
LWPOLYLINE
  5
271
100
AcDbEntity
  8
0
 62
7
100
AcDbPolyline
 90
2
 70
0
 10
-1.422489
 20
141.433134
 30
0.0
 10
-1.422489
 20
113.135039
 30
0.0
  0
LWPOLYLINE
  5
272
100
AcDbEntity
  8
0
 62
7
100
AcDbPolyline
 90
2
 70
0
 10
174.648472
 20
126.916227
 30
0.0
 10
177.675294
 20
125.853112
 30
0.0
  0
LWPOLYLINE
  5
273
100
AcDbEntity
  8
0
 62
7
100
AcDbPolyline
 90
2
 70
0
 10
175.107989
 20
128.224533
 30
0.0
 10
174.648472
 20
126.916227
 30
0.0
  0
LWPOLYLINE
  5
274
100
AcDbEntity
  8
0
 62
7
100
AcDbPolyline
 90
2
 70
0
 10
173.095203
 20
128.931485
 30
0.0
 10
175.107989
 20
128.224533
 30
0.0
  0
LWPOLYLINE
  5
275
100
AcDbEntity
  8
0
 62
7
100
AcDbPolyline
 90
2
 70
0
 10
172.635683
 20
127.623176
 30
0.0
 10
173.095203
 20
128.931485
 30
0.0
  0
LWPOLYLINE
  5
276
100
AcDbEntity
  8
0
 62
7
100
AcDbPolyline
 90
2
 70
0
 10
168.881814
 20
128.941651
 30
0.0
 10
172.635683
 20
127.623176
 30
0.0
  0
LWPOLYLINE
  5
277
100
AcDbEntity
  8
0
 62
7
100
AcDbPolyline
 90
2
 70
0
 10
166.850785
 20
127.246943
 30
0.0
 10
167.154775
 20
128.112445
 30
0.0
  0
LWPOLYLINE
  5
278
100
AcDbEntity
  8
0
 62
7
100
AcDbPolyline
 90
2
 70
0
 10
171.433863
 20
124.201432
 30
0.0
 10
167.679994
 20
125.519907
 30
0.0
  0
LWPOLYLINE
  5
279
100
AcDbEntity
  8
0
 62
7
100
AcDbPolyline
 90
2
 70
0
 10
170.974345
 20
122.893123
 30
0.0
 10
171.433863
 20
124.201432
 30
0.0
  0
LWPOLYLINE
  5
27a
100
AcDbEntity
  8
0
 62
7
100
AcDbPolyline
 90
2
 70
0
 10
172.987132
 20
122.186174
 30
0.0
 10
170.974345
 20
122.893123
 30
0.0
  0
LWPOLYLINE
  5
27b
100
AcDbEntity
  8
0
 62
7
100
AcDbPolyline
 90
2
 70
0
 10
173.446652
 20
123.494480
 30
0.0
 10
172.987132
 20
122.186174
 30
0.0
  0
LWPOLYLINE
  5
27c
100
AcDbEntity
  8
0
 62
7
100
AcDbPolyline
 90
2
 70
0
 10
176.473474
 20
122.431368
 30
0.0
 10
173.446652
 20
123.494480
 30
0.0
  0
LWPOLYLINE
  5
27d
100
AcDbEntity
  8
0
 62
7
100
AcDbPolyline
 90
2
 70
0
 10
151.008515
 20
59.585681
 30
0.0
 10
154.027703
 20
58.525251
 30
0.0
  0
LWPOLYLINE
  5
27e
100
AcDbEntity
  8
0
 62
7
100
AcDbPolyline
 90
2
 70
0
 10
151.468032
 20
60.893990
 30
0.0
 10
151.008515
 20
59.585681
 30
0.0
  0
LWPOLYLINE
  5
27f
100
AcDbEntity
  8
0
 62
7
100
AcDbPolyline
 90
2
 70
0
 10
149.455245
 20
61.600942
 30
0.0
 10
151.468032
 20
60.893990
 30
0.0
  0
LWPOLYLINE
  5
280
100
AcDbEntity
  8
0
 62
7
100
AcDbPolyline
 90
2
 70
0
 10
148.995728
 20
60.292633
 30
0.0
 10
149.455245
 20
61.600942
 30
0.0
  0
LWPOLYLINE
  5
281
100
AcDbEntity
  8
0
 62
7
100
AcDbPolyline
 90
2
 70
0
 10
145.234220
 20
61.613789
 30
0.0
 10
148.995728
 20
60.292633
 30
0.0
  0
LWPOLYLINE
  5
282
100
AcDbEntity
  8
0
 62
7
100
AcDbPolyline
 90
2
 70
0
 10
143.203193
 20
59.919084
 30
0.0
 10
143.507183
 20
60.784583
 30
0.0
  0
LWPOLYLINE
  5
283
100
AcDbEntity
  8
0
 62
7
100
AcDbPolyline
 90
2
 70
0
 10
147.793908
 20
56.870889
 30
0.0
 10
144.032399
 20
58.192045
 30
0.0
  0
LWPOLYLINE
  5
284
100
AcDbEntity
  8
0
 62
7
100
AcDbPolyline
 90
2
 70
0
 10
147.334391
 20
55.562580
 30
0.0
 10
147.793908
 20
56.870889
 30
0.0
  0
LWPOLYLINE
  5
285
100
AcDbEntity
  8
0
 62
7
100
AcDbPolyline
 90
2
 70
0
 10
149.347177
 20
54.855628
 30
0.0
 10
147.334391
 20
55.562580
 30
0.0
  0
LWPOLYLINE
  5
286
100
AcDbEntity
  8
0
 62
7
100
AcDbPolyline
 90
2
 70
0
 10
149.806694
 20
56.163937
 30
0.0
 10
149.347177
 20
54.855628
 30
0.0
  0
LWPOLYLINE
  5
287
100
AcDbEntity
  8
0
 62
7
100
AcDbPolyline
 90
2
 70
0
 10
152.825882
 20
55.103506
 30
0.0
 10
149.806694
 20
56.163937
 30
0.0
  0
LWPOLYLINE
  5
288
100
AcDbEntity
  8
0
 62
7
100
AcDbPolyline
 90
2
 70
0
 10
141.906103
 20
46.750423
 30
0.0
 10
149.892024
 20
46.750423
 30
0.0
  0
LWPOLYLINE
  5
289
100
AcDbEntity
  8
0
 62
7
100
AcDbPolyline
 90
2
 70
0
 10
141.906103
 20
42.483756
 30
0.0
 10
141.906103
 20
46.750423
 30
0.0
  0
LWPOLYLINE
  5
28a
100
AcDbEntity
  8
0
 62
7
100
AcDbPolyline
 90
2
 70
0
 10
121.586103
 20
42.483756
 30
0.0
 10
141.906103
 20
42.483756
 30
0.0
  0
LWPOLYLINE
  5
28b
100
AcDbEntity
  8
0
 62
7
100
AcDbPolyline
 90
2
 70
0
 10
121.586103
 20
46.750423
 30
0.0
 10
121.586103
 20
42.483756
 30
0.0
  0
LWPOLYLINE
  5
28c
100
AcDbEntity
  8
0
 62
7
100
AcDbPolyline
 90
2
 70
0
 10
113.288527
 20
46.750423
 30
0.0
 10
121.586103
 20
46.750423
 30
0.0
  0
LWPOLYLINE
  5
28d
100
AcDbEntity
  8
0
 62
7
100
AcDbPolyline
 90
2
 70
0
 10
113.288527
 20
91.366178
 30
0.0
 10
113.288527
 20
46.750423
 30
0.0
  0
LWPOLYLINE
  5
28e
100
AcDbEntity
  8
0
 62
7
100
AcDbPolyline
 90
2
 70
0
 10
116.496620
 20
91.366178
 30
0.0
 10
113.288527
 20
91.366178
 30
0.0
  0
LWPOLYLINE
  5
28f
100
AcDbEntity
  8
0
 62
7
100
AcDbPolyline
 90
2
 70
0
 10
116.496620
 20
89.979513
 30
0.0
 10
116.496620
 20
91.366178
 30
0.0
  0
LWPOLYLINE
  5
290
100
AcDbEntity
  8
0
 62
7
100
AcDbPolyline
 90
2
 70
0
 10
118.629949
 20
89.979513
 30
0.0
 10
116.496620
 20
89.979513
 30
0.0
  0
LWPOLYLINE
  5
291
100
AcDbEntity
  8
0
 62
7
100
AcDbPolyline
 90
2
 70
0
 10
118.629949
 20
91.366178
 30
0.0
 10
118.629949
 20
89.979513
 30
0.0
  0
LWPOLYLINE
  5
292
100
AcDbEntity
  8
0
 62
7
100
AcDbPolyline
 90
2
 70
0
 10
123.963300
 20
91.366178
 30
0.0
 10
118.629949
 20
91.366178
 30
0.0
  0
LWPOLYLINE
  5
293
100
AcDbEntity
  8
0
 62
7
100
AcDbPolyline
 90
2
 70
0
 10
123.963300
 20
94.992838
 30
0.0
 10
123.963300
 20
91.366178
 30
0.0
  0
LWPOLYLINE
  5
294
100
AcDbEntity
  8
0
 62
7
100
AcDbPolyline
 90
2
 70
0
 10
118.629949
 20
94.992838
 30
0.0
 10
123.963300
 20
94.992838
 30
0.0
  0
LWPOLYLINE
  5
295
100
AcDbEntity
  8
0
 62
7
100
AcDbPolyline
 90
2
 70
0
 10
118.629949
 20
96.379500
 30
0.0
 10
118.629949
 20
94.992838
 30
0.0
  0
LWPOLYLINE
  5
296
100
AcDbEntity
  8
0
 62
7
100
AcDbPolyline
 90
2
 70
0
 10
116.496620
 20
96.379500
 30
0.0
 10
118.629949
 20
96.379500
 30
0.0
  0
LWPOLYLINE
  5
297
100
AcDbEntity
  8
0
 62
7
100
AcDbPolyline
 90
2
 70
0
 10
116.496620
 20
94.992838
 30
0.0
 10
116.496620
 20
96.379500
 30
0.0
  0
LWPOLYLINE
  5
298
100
AcDbEntity
  8
0
 62
7
100
AcDbPolyline
 90
2
 70
0
 10
113.288527
 20
94.992838
 30
0.0
 10
116.496620
 20
94.992838
 30
0.0
  0
LWPOLYLINE
  5
299
100
AcDbEntity
  8
0
 62
7
100
AcDbPolyline
 90
2
 70
0
 10
113.288527
 20
139.238173
 30
0.0
 10
113.288527
 20
94.992838
 30
0.0
  0
LWPOLYLINE
  5
29a
100
AcDbEntity
  8
0
 62
7
100
AcDbPolyline
 90
2
 70
0
 10
133.608527
 20
139.238173
 30
0.0
 10
113.288527
 20
139.238173
 30
0.0
  0
LWPOLYLINE
  5
29b
100
AcDbEntity
  8
0
 62
7
100
AcDbPolyline
 90
2
 70
0
 10
133.608527
 20
144.571507
 30
0.0
 10
133.608527
 20
139.238173
 30
0.0
  0
LWPOLYLINE
  5
29c
100
AcDbEntity
  8
0
 62
7
100
AcDbPolyline
 90
2
 70
0
 10
160.701860
 20
139.238173
 30
0.0
 10
160.701860
 20
144.571507
 30
0.0
  0
LWPOLYLINE
  5
29d
100
AcDbEntity
  8
0
 62
7
100
AcDbPolyline
 90
2
 70
0
 10
149.892024
 20
46.750423
 30
0.0
 10
182.672919
 20
140.082020
 30
0.0
  0
LWPOLYLINE
  5
29e
100
AcDbEntity
  8
0
 62
7
100
AcDbPolyline
 90
2
 70
0
 10
182.376535
 20
139.238173
 30
0.0
 10
160.701860
 20
139.238173
 30
0.0
  0
LWPOLYLINE
  5
29f
100
AcDbEntity
  8
0
 62
7
100
AcDbPolyline
 90
2
 70
0
 10
11.812858
 20
202.646431
 30
0.0
 10
11.812858
 20
163.681671
 30
0.0
  0
LWPOLYLINE
  5
2a0
100
AcDbEntity
  8
0
 62
7
100
AcDbPolyline
 90
2
 70
0
 10
2.746191
 20
163.681671
 30
0.0
 10
2.746191
 20
202.646431
 30
0.0
  0
LWPOLYLINE
  5
2a1
100
AcDbEntity
  8
0
 62
7
100
AcDbPolyline
 90
2
 70
0
 10
39.929734
 20
234.176969
 30
0.0
 10
39.929734
 20
147.478303
 30
0.0
  0
LWPOLYLINE
  5
2a2
100
AcDbEntity
  8
0
 62
7
100
AcDbPolyline
 90
2
 70
0
 10
80.996409
 20
234.176969
 30
0.0
 10
39.929734
 20
234.176969
 30
0.0
  0
LWPOLYLINE
  5
2a3
100
AcDbEntity
  8
0
 62
7
100
AcDbPolyline
 90
2
 70
0
 10
132.417202
 20
234.176969
 30
0.0
 10
91.350530
 20
234.176969
 30
0.0
  0
LWPOLYLINE
  5
2a4
100
AcDbEntity
  8
0
 62
7
100
AcDbPolyline
 90
2
 70
0
 10
132.417202
 20
144.571507
 30
0.0
 10
132.417202
 20
234.176969
 30
0.0
  0
LWPOLYLINE
  5
2a5
100
AcDbEntity
  8
0
 62
7
100
AcDbPolyline
 90
2
 70
0
 10
91.350530
 20
147.478303
 30
0.0
 10
132.417202
 20
147.478303
 30
0.0
  0
LWPOLYLINE
  5
2a6
100
AcDbEntity
  8
0
 62
7
100
AcDbPolyline
 90
2
 70
0
 10
39.929734
 20
147.478303
 30
0.0
 10
80.996409
 20
147.478303
 30
0.0
  0
LWPOLYLINE
  5
2a7
100
AcDbEntity
  8
0
 62
7
100
AcDbPolyline
 90
2
 70
0
 10
215.915869
 20
195.184834
 30
0.0
 10
219.115869
 20
195.184834
 30
0.0
  0
LWPOLYLINE
  5
2a8
100
AcDbEntity
  8
0
 62
7
100
AcDbPolyline
 90
2
 70
0
 10
215.915869
 20
183.451496
 30
0.0
 10
215.915869
 20
195.184834
 30
0.0
  0
LWPOLYLINE
  5
2a9
100
AcDbEntity
  8
0
 62
7
100
AcDbPolyline
 90
2
 70
0
 10
212.715870
 20
183.451496
 30
0.0
 10
215.915869
 20
183.451496
 30
0.0
  0
LWPOLYLINE
  5
2aa
100
AcDbEntity
  8
0
 62
7
100
AcDbPolyline
 90
2
 70
0
 10
212.715870
 20
184.838166
 30
0.0
 10
212.715870
 20
183.451496
 30
0.0
  0
LWPOLYLINE
  5
2ab
100
AcDbEntity
  8
0
 62
7
100
AcDbPolyline
 90
2
 70
0
 10
210.582541
 20
184.838166
 30
0.0
 10
212.715870
 20
184.838166
 30
0.0
  0
LWPOLYLINE
  5
2ac
100
AcDbEntity
  8
0
 62
7
100
AcDbPolyline
 90
2
 70
0
 10
210.582541
 20
183.451496
 30
0.0
 10
210.582541
 20
184.838166
 30
0.0
  0
LWPOLYLINE
  5
2ad
100
AcDbEntity
  8
0
 62
7
100
AcDbPolyline
 90
2
 70
0
 10
205.249201
 20
183.451496
 30
0.0
 10
210.582541
 20
183.451496
 30
0.0
  0
LWPOLYLINE
  5
2ae
100
AcDbEntity
  8
0
 62
7
100
AcDbPolyline
 90
2
 70
0
 10
205.249201
 20
179.824839
 30
0.0
 10
205.249201
 20
183.451496
 30
0.0
  0
LWPOLYLINE
  5
2af
100
AcDbEntity
  8
0
 62
7
100
AcDbPolyline
 90
2
 70
0
 10
210.582541
 20
179.824839
 30
0.0
 10
205.249201
 20
179.824839
 30
0.0
  0
LWPOLYLINE
  5
2b0
100
AcDbEntity
  8
0
 62
7
100
AcDbPolyline
 90
2
 70
0
 10
210.582541
 20
178.438168
 30
0.0
 10
210.582541
 20
179.824839
 30
0.0
  0
LWPOLYLINE
  5
2b1
100
AcDbEntity
  8
0
 62
7
100
AcDbPolyline
 90
2
 70
0
 10
212.715870
 20
178.438168
 30
0.0
 10
210.582541
 20
178.438168
 30
0.0
  0
LWPOLYLINE
  5
2b2
100
AcDbEntity
  8
0
 62
7
100
AcDbPolyline
 90
2
 70
0
 10
212.715870
 20
179.824839
 30
0.0
 10
212.715870
 20
178.438168
 30
0.0
  0
LWPOLYLINE
  5
2b3
100
AcDbEntity
  8
0
 62
7
100
AcDbPolyline
 90
2
 70
0
 10
215.915869
 20
179.824839
 30
0.0
 10
212.715870
 20
179.824839
 30
0.0
  0
LWPOLYLINE
  5
2b4
100
AcDbEntity
  8
0
 62
7
100
AcDbPolyline
 90
2
 70
0
 10
215.915869
 20
168.091501
 30
0.0
 10
215.915869
 20
179.824839
 30
0.0
  0
LWPOLYLINE
  5
2b5
100
AcDbEntity
  8
0
 62
7
100
AcDbPolyline
 90
2
 70
0
 10
219.115869
 20
168.091501
 30
0.0
 10
215.915869
 20
168.091501
 30
0.0
  0
LWPOLYLINE
  5
2b6
100
AcDbEntity
  8
0
 62
7
100
AcDbPolyline
 90
2
 70
0
 10
219.115869
 20
144.571507
 30
0.0
 10
219.115869
 20
168.091501
 30
0.0
  0
LWPOLYLINE
  5
2b7
100
AcDbEntity
  8
0
 62
7
100
AcDbPolyline
 90
2
 70
0
 10
132.417202
 20
144.571507
 30
0.0
 10
219.115869
 20
144.571507
 30
0.0
  0
LWPOLYLINE
  5
2b8
100
AcDbEntity
  8
0
 62
7
100
AcDbPolyline
 90
2
 70
0
 10
135.617201
 20
168.091501
 30
0.0
 10
132.417202
 20
168.091501
 30
0.0
  0
LWPOLYLINE
  5
2b9
100
AcDbEntity
  8
0
 62
7
100
AcDbPolyline
 90
2
 70
0
 10
135.617201
 20
179.824839
 30
0.0
 10
135.617201
 20
168.091501
 30
0.0
  0
LWPOLYLINE
  5
2ba
100
AcDbEntity
  8
0
 62
7
100
AcDbPolyline
 90
2
 70
0
 10
138.817203
 20
179.824839
 30
0.0
 10
135.617201
 20
179.824839
 30
0.0
  0
LWPOLYLINE
  5
2bb
100
AcDbEntity
  8
0
 62
7
100
AcDbPolyline
 90
2
 70
0
 10
138.817203
 20
178.438168
 30
0.0
 10
138.817203
 20
179.824839
 30
0.0
  0
LWPOLYLINE
  5
2bc
100
AcDbEntity
  8
0
 62
7
100
AcDbPolyline
 90
2
 70
0
 10
140.950532
 20
178.438168
 30
0.0
 10
138.817203
 20
178.438168
 30
0.0
  0
LWPOLYLINE
  5
2bd
100
AcDbEntity
  8
0
 62
7
100
AcDbPolyline
 90
2
 70
0
 10
140.950532
 20
179.824839
 30
0.0
 10
140.950532
 20
178.438168
 30
0.0
  0
LWPOLYLINE
  5
2be
100
AcDbEntity
  8
0
 62
7
100
AcDbPolyline
 90
2
 70
0
 10
146.283869
 20
179.824839
 30
0.0
 10
140.950532
 20
179.824839
 30
0.0
  0
LWPOLYLINE
  5
2bf
100
AcDbEntity
  8
0
 62
7
100
AcDbPolyline
 90
2
 70
0
 10
146.283869
 20
183.451496
 30
0.0
 10
146.283869
 20
179.824839
 30
0.0
  0
LWPOLYLINE
  5
2c0
100
AcDbEntity
  8
0
 62
7
100
AcDbPolyline
 90
2
 70
0
 10
140.950532
 20
183.451496
 30
0.0
 10
146.283869
 20
183.451496
 30
0.0
  0
LWPOLYLINE
  5
2c1
100
AcDbEntity
  8
0
 62
7
100
AcDbPolyline
 90
2
 70
0
 10
140.950532
 20
184.838166
 30
0.0
 10
140.950532
 20
183.451496
 30
0.0
  0
LWPOLYLINE
  5
2c2
100
AcDbEntity
  8
0
 62
7
100
AcDbPolyline
 90
2
 70
0
 10
138.817203
 20
184.838166
 30
0.0
 10
140.950532
 20
184.838166
 30
0.0
  0
LWPOLYLINE
  5
2c3
100
AcDbEntity
  8
0
 62
7
100
AcDbPolyline
 90
2
 70
0
 10
138.817203
 20
183.451496
 30
0.0
 10
138.817203
 20
184.838166
 30
0.0
  0
LWPOLYLINE
  5
2c4
100
AcDbEntity
  8
0
 62
7
100
AcDbPolyline
 90
2
 70
0
 10
135.617201
 20
183.451496
 30
0.0
 10
138.817203
 20
183.451496
 30
0.0
  0
LWPOLYLINE
  5
2c5
100
AcDbEntity
  8
0
 62
7
100
AcDbPolyline
 90
2
 70
0
 10
135.617201
 20
195.184834
 30
0.0
 10
135.617201
 20
183.451496
 30
0.0
  0
LWPOLYLINE
  5
2c6
100
AcDbEntity
  8
0
 62
7
100
AcDbPolyline
 90
2
 70
0
 10
132.417202
 20
195.184834
 30
0.0
 10
135.617201
 20
195.184834
 30
0.0
  0
LWPOLYLINE
  5
2c7
100
AcDbEntity
  8
0
 62
7
100
AcDbPolyline
 90
2
 70
0
 10
132.417202
 20
216.859506
 30
0.0
 10
220.049578
 20
216.859506
 30
0.0
  0
LWPOLYLINE
  5
2c8
100
AcDbEntity
  8
0
 62
7
100
AcDbPolyline
 90
2
 70
0
 10
219.115869
 20
195.184834
 30
0.0
 10
219.115869
 20
216.859506
 30
0.0
  0
LWPOLYLINE
  5
2c9
100
AcDbEntity
  8
0
 62
7
100
AcDbPolyline
 90
2
 70
0
 10
157.908823
 20
59.918906
 30
0.0
 10
154.889649
 20
60.979331
 30
0.0
  0
LWPOLYLINE
  5
2ca
100
AcDbEntity
  8
0
 62
7
100
AcDbPolyline
 90
2
 70
0
 10
157.449306
 20
58.610597
 30
0.0
 10
157.908823
 20
59.918906
 30
0.0
  0
LWPOLYLINE
  5
2cb
100
AcDbEntity
  8
0
 62
7
100
AcDbPolyline
 90
2
 70
0
 10
159.462092
 20
57.903645
 30
0.0
 10
157.449306
 20
58.610597
 30
0.0
  0
LWPOLYLINE
  5
2cc
100
AcDbEntity
  8
0
 62
7
100
AcDbPolyline
 90
2
 70
0
 10
159.921612
 20
59.211954
 30
0.0
 10
159.462092
 20
57.903645
 30
0.0
  0
LWPOLYLINE
  5
2cd
100
AcDbEntity
  8
0
 62
7
100
AcDbPolyline
 90
2
 70
0
 10
163.675481
 20
57.893479
 30
0.0
 10
159.921612
 20
59.211954
 30
0.0
  0
LWPOLYLINE
  5
2ce
100
AcDbEntity
  8
0
 62
7
100
AcDbPolyline
 90
2
 70
0
 10
165.706510
 20
59.588187
 30
0.0
 10
165.402520
 20
58.722688
 30
0.0
  0
LWPOLYLINE
  5
2cf
100
AcDbEntity
  8
0
 62
7
100
AcDbPolyline
 90
2
 70
0
 10
161.582949
 20
63.942007
 30
0.0
 10
161.123432
 20
62.633698
 30
0.0
  0
LWPOLYLINE
  5
2d0
100
AcDbEntity
  8
0
 62
7
100
AcDbPolyline
 90
2
 70
0
 10
159.570163
 20
64.648959
 30
0.0
 10
161.582949
 20
63.942007
 30
0.0
  0
LWPOLYLINE
  5
2d1
100
AcDbEntity
  8
0
 62
7
100
AcDbPolyline
 90
2
 70
0
 10
159.110643
 20
63.340650
 30
0.0
 10
159.570163
 20
64.648959
 30
0.0
  0
LWPOLYLINE
  5
2d2
100
AcDbEntity
  8
0
 62
7
100
AcDbPolyline
 90
2
 70
0
 10
156.091469
 20
64.401075
 30
0.0
 10
159.110643
 20
63.340650
 30
0.0
  0
LWPOLYLINE
  5
2d3
100
AcDbEntity
  8
0
 62
7
100
AcDbPolyline
 90
2
 70
0
 10
181.556429
 20
127.246762
 30
0.0
 10
178.537243
 20
128.307193
 30
0.0
  0
LWPOLYLINE
  5
2d4
100
AcDbEntity
  8
0
 62
7
100
AcDbPolyline
 90
2
 70
0
 10
181.096912
 20
125.938454
 30
0.0
 10
181.556429
 20
127.246762
 30
0.0
  0
LWPOLYLINE
  5
2d5
100
AcDbEntity
  8
0
 62
7
100
AcDbPolyline
 90
2
 70
0
 10
183.109698
 20
125.231501
 30
0.0
 10
181.096912
 20
125.938454
 30
0.0
  0
LWPOLYLINE
  5
2d6
100
AcDbEntity
  8
0
 62
7
100
AcDbPolyline
 90
2
 70
0
 10
183.569215
 20
126.539810
 30
0.0
 10
183.109698
 20
125.231501
 30
0.0
  0
LWPOLYLINE
  5
2d7
100
AcDbEntity
  8
0
 62
7
100
AcDbPolyline
 90
2
 70
0
 10
187.330723
 20
125.218654
 30
0.0
 10
183.569215
 20
126.539810
 30
0.0
  0
LWPOLYLINE
  5
2d8
100
AcDbEntity
  8
0
 62
7
100
AcDbPolyline
 90
2
 70
0
 10
189.361753
 20
126.913362
 30
0.0
 10
189.057763
 20
126.047863
 30
0.0
  0
LWPOLYLINE
  5
2d9
100
AcDbEntity
  8
0
 62
7
100
AcDbPolyline
 90
2
 70
0
 10
184.771036
 20
129.961554
 30
0.0
 10
188.532544
 20
128.640398
 30
0.0
  0
LWPOLYLINE
  5
2da
100
AcDbEntity
  8
0
 62
7
100
AcDbPolyline
 90
2
 70
0
 10
185.230556
 20
131.269863
 30
0.0
 10
184.771036
 20
129.961554
 30
0.0
  0
LWPOLYLINE
  5
2db
100
AcDbEntity
  8
0
 62
7
100
AcDbPolyline
 90
2
 70
0
 10
183.217766
 20
131.976815
 30
0.0
 10
185.230556
 20
131.269863
 30
0.0
  0
LWPOLYLINE
  5
2dc
100
AcDbEntity
  8
0
 62
7
100
AcDbPolyline
 90
2
 70
0
 10
182.758249
 20
130.668506
 30
0.0
 10
183.217766
 20
131.976815
 30
0.0
  0
LWPOLYLINE
  5
2dd
100
AcDbEntity
  8
0
 62
7
100
AcDbPolyline
 90
2
 70
0
 10
179.739064
 20
131.728937
 30
0.0
 10
182.758249
 20
130.668506
 30
0.0
  0
LWPOLYLINE
  5
2de
100
AcDbEntity
  8
0
 62
7
100
AcDbPolyline
 90
2
 70
0
 10
190.658843
 20
140.082020
 30
0.0
 10
182.672919
 20
140.082020
 30
0.0
  0
LWPOLYLINE
  5
2df
100
AcDbEntity
  8
0
 62
7
100
AcDbPolyline
 90
2
 70
0
 10
190.658843
 20
144.348687
 30
0.0
 10
190.658843
 20
140.082020
 30
0.0
  0
LWPOLYLINE
  5
2e0
100
AcDbEntity
  8
0
 62
7
100
AcDbPolyline
 90
2
 70
0
 10
210.978843
 20
144.348687
 30
0.0
 10
190.658843
 20
144.348687
 30
0.0
  0
LWPOLYLINE
  5
2e1
100
AcDbEntity
  8
0
 62
7
100
AcDbPolyline
 90
2
 70
0
 10
210.978843
 20
140.082020
 30
0.0
 10
210.978843
 20
144.348687
 30
0.0
  0
LWPOLYLINE
  5
2e2
100
AcDbEntity
  8
0
 62
7
100
AcDbPolyline
 90
2
 70
0
 10
219.276416
 20
140.082020
 30
0.0
 10
210.978843
 20
140.082020
 30
0.0
  0
LWPOLYLINE
  5
2e3
100
AcDbEntity
  8
0
 62
7
100
AcDbPolyline
 90
2
 70
0
 10
219.276416
 20
95.209122
 30
0.0
 10
219.276416
 20
140.082020
 30
0.0
  0
LWPOLYLINE
  5
2e4
100
AcDbEntity
  8
0
 62
7
100
AcDbPolyline
 90
2
 70
0
 10
216.068323
 20
95.209122
 30
0.0
 10
219.276416
 20
95.209122
 30
0.0
  0
LWPOLYLINE
  5
2e5
100
AcDbEntity
  8
0
 62
7
100
AcDbPolyline
 90
2
 70
0
 10
216.068323
 20
96.852931
 30
0.0
 10
216.068323
 20
95.209122
 30
0.0
  0
LWPOLYLINE
  5
2e6
100
AcDbEntity
  8
0
 62
7
100
AcDbPolyline
 90
2
 70
0
 10
213.934994
 20
96.852931
 30
0.0
 10
216.068323
 20
96.852931
 30
0.0
  0
LWPOLYLINE
  5
2e7
100
AcDbEntity
  8
0
 62
7
100
AcDbPolyline
 90
2
 70
0
 10
213.934994
 20
95.209122
 30
0.0
 10
213.934994
 20
96.852931
 30
0.0
  0
LWPOLYLINE
  5
2e8
100
AcDbEntity
  8
0
 62
7
100
AcDbPolyline
 90
2
 70
0
 10
208.601643
 20
95.209122
 30
0.0
 10
213.934994
 20
95.209122
 30
0.0
  0
LWPOLYLINE
  5
2e9
100
AcDbEntity
  8
0
 62
7
100
AcDbPolyline
 90
2
 70
0
 10
208.601643
 20
92.096752
 30
0.0
 10
208.601643
 20
95.209122
 30
0.0
  0
LWPOLYLINE
  5
2ea
100
AcDbEntity
  8
0
 62
7
100
AcDbPolyline
 90
2
 70
0
 10
213.934994
 20
92.096752
 30
0.0
 10
208.601643
 20
92.096752
 30
0.0
  0
LWPOLYLINE
  5
2eb
100
AcDbEntity
  8
0
 62
7
100
AcDbPolyline
 90
2
 70
0
 10
213.934994
 20
90.452943
 30
0.0
 10
213.934994
 20
92.096752
 30
0.0
  0
LWPOLYLINE
  5
2ec
100
AcDbEntity
  8
0
 62
7
100
AcDbPolyline
 90
2
 70
0
 10
216.068323
 20
90.452943
 30
0.0
 10
213.934994
 20
90.452943
 30
0.0
  0
LWPOLYLINE
  5
2ed
100
AcDbEntity
  8
0
 62
7
100
AcDbPolyline
 90
2
 70
0
 10
216.068323
 20
92.096752
 30
0.0
 10
216.068323
 20
90.452943
 30
0.0
  0
LWPOLYLINE
  5
2ee
100
AcDbEntity
  8
0
 62
7
100
AcDbPolyline
 90
2
 70
0
 10
219.276416
 20
92.096752
 30
0.0
 10
216.068323
 20
92.096752
 30
0.0
  0
LWPOLYLINE
  5
2ef
100
AcDbEntity
  8
0
 62
7
100
AcDbPolyline
 90
2
 70
0
 10
219.276416
 20
47.594270
 30
0.0
 10
219.276416
 20
92.096752
 30
0.0
  0
LWPOLYLINE
  5
2f0
100
AcDbEntity
  8
0
 62
7
100
AcDbPolyline
 90
2
 70
0
 10
198.956416
 20
47.594270
 30
0.0
 10
219.276416
 20
47.594270
 30
0.0
  0
LWPOLYLINE
  5
2f1
100
AcDbEntity
  8
0
 62
7
100
AcDbPolyline
 90
2
 70
0
 10
198.956416
 20
42.260936
 30
0.0
 10
198.956416
 20
47.594270
 30
0.0
  0
LWPOLYLINE
  5
2f2
100
AcDbEntity
  8
0
 62
7
100
AcDbPolyline
 90
2
 70
0
 10
171.863083
 20
42.260936
 30
0.0
 10
198.956416
 20
42.260936
 30
0.0
  0
LWPOLYLINE
  5
2f3
100
AcDbEntity
  8
0
 62
7
100
AcDbPolyline
 90
2
 70
0
 10
171.863083
 20
47.594270
 30
0.0
 10
171.863083
 20
42.260936
 30
0.0
  0
LWPOLYLINE
  5
2f4
100
AcDbEntity
  8
0
 62
7
100
AcDbPolyline
 90
2
 70
0
 10
150.188408
 20
47.594270
 30
0.0
 10
171.863083
 20
47.594270
 30
0.0
  0
LWPOLYLINE
  5
2f5
100
AcDbEntity
  8
0
 62
7
100
AcDbPolyline
 90
4
 70
1
 10
214.369986
 20
72.127888
 30
0.0
 10
203.169986
 20
72.127888
 30
0.0
 10
203.169986
 20
59.327888
 30
0.0
 10
214.369986
 20
59.327888
 30
0.0
  0
LWPOLYLINE
  5
2f6
100
AcDbEntity
  8
0
 62
7
100
AcDbPolyline
 90
2
 70
0
 10
161.123432
 20
62.633698
 30
0.0
 10
164.877301
 20
61.315223
 30
0.0
  0
LWPOLYLINE
  5
2f7
100
AcDbEntity
  8
0
 62
7
100
AcDbPolyline
 90
2
 70
0
 10
216.849579
 20
248.677321
 30
0.0
 10
220.049578
 20
248.677321
 30
0.0
  0
LWPOLYLINE
  5
2f8
100
AcDbEntity
  8
0
 62
7
100
AcDbPolyline
 90
2
 70
0
 10
216.849579
 20
240.330650
 30
0.0
 10
216.849579
 20
248.677321
 30
0.0
  0
LWPOLYLINE
  5
2f9
100
AcDbEntity
  8
0
 62
7
100
AcDbPolyline
 90
2
 70
0
 10
213.649585
 20
240.330650
 30
0.0
 10
216.849579
 20
240.330650
 30
0.0
  0
LWPOLYLINE
  5
2fa
100
AcDbEntity
  8
0
 62
7
100
AcDbPolyline
 90
2
 70
0
 10
213.649585
 20
241.717321
 30
0.0
 10
213.649585
 20
240.330650
 30
0.0
  0
LWPOLYLINE
  5
2fb
100
AcDbEntity
  8
0
 62
7
100
AcDbPolyline
 90
2
 70
0
 10
211.516256
 20
241.717321
 30
0.0
 10
213.649585
 20
241.717321
 30
0.0
  0
LWPOLYLINE
  5
2fc
100
AcDbEntity
  8
0
 62
7
100
AcDbPolyline
 90
2
 70
0
 10
211.516256
 20
240.330650
 30
0.0
 10
211.516256
 20
241.717321
 30
0.0
  0
LWPOLYLINE
  5
2fd
100
AcDbEntity
  8
0
 62
7
100
AcDbPolyline
 90
2
 70
0
 10
206.182911
 20
240.330650
 30
0.0
 10
211.516256
 20
240.330650
 30
0.0
  0
LWPOLYLINE
  5
2fe
100
AcDbEntity
  8
0
 62
7
100
AcDbPolyline
 90
2
 70
0
 10
206.182911
 20
236.703990
 30
0.0
 10
206.182911
 20
240.330650
 30
0.0
  0
LWPOLYLINE
  5
2ff
100
AcDbEntity
  8
0
 62
7
100
AcDbPolyline
 90
2
 70
0
 10
211.516256
 20
236.703990
 30
0.0
 10
206.182911
 20
236.703990
 30
0.0
  0
LWPOLYLINE
  5
300
100
AcDbEntity
  8
0
 62
7
100
AcDbPolyline
 90
2
 70
0
 10
211.516256
 20
235.317319
 30
0.0
 10
211.516256
 20
236.703990
 30
0.0
  0
LWPOLYLINE
  5
301
100
AcDbEntity
  8
0
 62
7
100
AcDbPolyline
 90
2
 70
0
 10
213.649585
 20
235.317319
 30
0.0
 10
211.516256
 20
235.317319
 30
0.0
  0
LWPOLYLINE
  5
302
100
AcDbEntity
  8
0
 62
7
100
AcDbPolyline
 90
2
 70
0
 10
213.649585
 20
236.703990
 30
0.0
 10
213.649585
 20
235.317319
 30
0.0
  0
LWPOLYLINE
  5
303
100
AcDbEntity
  8
0
 62
7
100
AcDbPolyline
 90
2
 70
0
 10
216.849579
 20
236.703990
 30
0.0
 10
213.649585
 20
236.703990
 30
0.0
  0
LWPOLYLINE
  5
304
100
AcDbEntity
  8
0
 62
7
100
AcDbPolyline
 90
2
 70
0
 10
216.849579
 20
228.357321
 30
0.0
 10
216.849579
 20
236.703990
 30
0.0
  0
LWPOLYLINE
  5
305
100
AcDbEntity
  8
0
 62
7
100
AcDbPolyline
 90
2
 70
0
 10
220.049578
 20
228.357321
 30
0.0
 10
216.849579
 20
228.357321
 30
0.0
  0
LWPOLYLINE
  5
306
100
AcDbEntity
  8
0
 62
7
100
AcDbPolyline
 90
2
 70
0
 10
220.049578
 20
216.859506
 30
0.0
 10
220.049578
 20
228.357321
 30
0.0
  0
LWPOLYLINE
  5
307
100
AcDbEntity
  8
0
 62
7
100
AcDbPolyline
 90
2
 70
0
 10
133.350912
 20
228.357321
 30
0.0
 10
133.350912
 20
216.859506
 30
0.0
  0
LWPOLYLINE
  5
308
100
AcDbEntity
  8
0
 62
7
100
AcDbPolyline
 90
2
 70
0
 10
136.550911
 20
228.357321
 30
0.0
 10
133.350912
 20
228.357321
 30
0.0
  0
LWPOLYLINE
  5
309
100
AcDbEntity
  8
0
 62
7
100
AcDbPolyline
 90
2
 70
0
 10
136.550911
 20
236.703990
 30
0.0
 10
136.550911
 20
228.357321
 30
0.0
  0
LWPOLYLINE
  5
30a
100
AcDbEntity
  8
0
 62
7
100
AcDbPolyline
 90
2
 70
0
 10
139.750904
 20
236.703990
 30
0.0
 10
136.550911
 20
236.703990
 30
0.0
  0
LWPOLYLINE
  5
30b
100
AcDbEntity
  8
0
 62
7
100
AcDbPolyline
 90
2
 70
0
 10
139.750904
 20
235.317319
 30
0.0
 10
139.750904
 20
236.703990
 30
0.0
  0
LWPOLYLINE
  5
30c
100
AcDbEntity
  8
0
 62
7
100
AcDbPolyline
 90
2
 70
0
 10
141.884233
 20
235.317319
 30
0.0
 10
139.750904
 20
235.317319
 30
0.0
  0
LWPOLYLINE
  5
30d
100
AcDbEntity
  8
0
 62
7
100
AcDbPolyline
 90
2
 70
0
 10
141.884233
 20
236.703990
 30
0.0
 10
141.884233
 20
235.317319
 30
0.0
  0
LWPOLYLINE
  5
30e
100
AcDbEntity
  8
0
 62
7
100
AcDbPolyline
 90
2
 70
0
 10
147.217579
 20
236.703990
 30
0.0
 10
141.884233
 20
236.703990
 30
0.0
  0
LWPOLYLINE
  5
30f
100
AcDbEntity
  8
0
 62
7
100
AcDbPolyline
 90
2
 70
0
 10
147.217579
 20
240.330650
 30
0.0
 10
147.217579
 20
236.703990
 30
0.0
  0
LWPOLYLINE
  5
310
100
AcDbEntity
  8
0
 62
7
100
AcDbPolyline
 90
2
 70
0
 10
141.884233
 20
240.330650
 30
0.0
 10
147.217579
 20
240.330650
 30
0.0
  0
LWPOLYLINE
  5
311
100
AcDbEntity
  8
0
 62
7
100
AcDbPolyline
 90
2
 70
0
 10
141.884233
 20
241.717321
 30
0.0
 10
141.884233
 20
240.330650
 30
0.0
  0
LWPOLYLINE
  5
312
100
AcDbEntity
  8
0
 62
7
100
AcDbPolyline
 90
2
 70
0
 10
139.750904
 20
241.717321
 30
0.0
 10
141.884233
 20
241.717321
 30
0.0
  0
LWPOLYLINE
  5
313
100
AcDbEntity
  8
0
 62
7
100
AcDbPolyline
 90
2
 70
0
 10
139.750904
 20
240.330650
 30
0.0
 10
139.750904
 20
241.717321
 30
0.0
  0
LWPOLYLINE
  5
314
100
AcDbEntity
  8
0
 62
7
100
AcDbPolyline
 90
2
 70
0
 10
136.550911
 20
240.330650
 30
0.0
 10
139.750904
 20
240.330650
 30
0.0
  0
LWPOLYLINE
  5
315
100
AcDbEntity
  8
0
 62
7
100
AcDbPolyline
 90
2
 70
0
 10
136.550911
 20
248.677321
 30
0.0
 10
136.550911
 20
240.330650
 30
0.0
  0
LWPOLYLINE
  5
316
100
AcDbEntity
  8
0
 62
7
100
AcDbPolyline
 90
2
 70
0
 10
133.350912
 20
248.677321
 30
0.0
 10
136.550911
 20
248.677321
 30
0.0
  0
LWPOLYLINE
  5
317
100
AcDbEntity
  8
0
 62
7
100
AcDbPolyline
 90
2
 70
0
 10
133.350912
 20
256.663239
 30
0.0
 10
133.350912
 20
248.677321
 30
0.0
  0
SPLINE
  5
318
100
AcDbEntity
  8
0
 62
7
100
AcDbSpline
 70
8
 71
3
 72
8
 73
4
 74
0
 40
0
 40
0
 40
0
 40
0
 40
1
 40
1
 40
1
 40
1
 10
16.817211
 20
137.937058
 30
0.0
 10
19.310182
 20
140.438700
 30
0.0
 10
19.305496
 20
144.486915
 30
0.0
 10
16.806741
 20
146.982779
 30
0.0
  0
SPLINE
  5
319
100
AcDbEntity
  8
0
 62
7
100
AcDbSpline
 70
8
 71
3
 72
8
 73
4
 74
0
 40
0
 40
0
 40
0
 40
0
 40
1
 40
1
 40
1
 40
1
 10
16.806741
 20
146.982779
 30
0.0
 10
14.307986
 20
149.478644
 30
0.0
 10
10.259769
 20
149.478644
 30
0.0
 10
7.761014
 20
146.982779
 30
0.0
  0
SPLINE
  5
31a
100
AcDbEntity
  8
0
 62
7
100
AcDbSpline
 70
8
 71
3
 72
8
 73
4
 74
0
 40
0
 40
0
 40
0
 40
0
 40
1
 40
1
 40
1
 40
1
 10
7.761014
 20
146.982779
 30
0.0
 10
5.262259
 20
144.486915
 30
0.0
 10
5.257573
 20
140.438700
 30
0.0
 10
7.750544
 20
137.937058
 30
0.0
  0
SPLINE
  5
31b
100
AcDbEntity
  8
0
 62
7
100
AcDbSpline
 70
8
 71
3
 72
8
 73
4
 74
0
 40
0
 40
0
 40
0
 40
0
 40
1
 40
1
 40
1
 40
1
 10
7.750544
 20
109.638966
 30
0.0
 10
5.257573
 20
107.137324
 30
0.0
 10
5.262259
 20
103.089109
 30
0.0
 10
7.761014
 20
100.593245
 30
0.0
  0
SPLINE
  5
31c
100
AcDbEntity
  8
0
 62
7
100
AcDbSpline
 70
8
 71
3
 72
8
 73
4
 74
0
 40
0
 40
0
 40
0
 40
0
 40
1
 40
1
 40
1
 40
1
 10
7.761014
 20
100.593245
 30
0.0
 10
10.259769
 20
98.097380
 30
0.0
 10
14.307986
 20
98.097380
 30
0.0
 10
16.806741
 20
100.593245
 30
0.0
  0
SPLINE
  5
31d
100
AcDbEntity
  8
0
 62
7
100
AcDbSpline
 70
8
 71
3
 72
8
 73
4
 74
0
 40
0
 40
0
 40
0
 40
0
 40
1
 40
1
 40
1
 40
1
 10
16.806741
 20
100.593245
 30
0.0
 10
19.305496
 20
103.089109
 30
0.0
 10
19.310182
 20
107.137324
 30
0.0
 10
16.817211
 20
109.638966
 30
0.0
  0
SPLINE
  5
31e
100
AcDbEntity
  8
0
 62
7
100
AcDbSpline
 70
8
 71
3
 72
8
 73
4
 74
0
 40
0
 40
0
 40
0
 40
0
 40
1
 40
1
 40
1
 40
1
 10
-3.939848
 20
203.895135
 30
0.0
 10
-1.446877
 20
206.396777
 30
0.0
 10
-1.451563
 20
210.444991
 30
0.0
 10
-3.950318
 20
212.940856
 30
0.0
  0
SPLINE
  5
31f
100
AcDbEntity
  8
0
 62
7
100
AcDbSpline
 70
8
 71
3
 72
8
 73
4
 74
0
 40
0
 40
0
 40
0
 40
0
 40
1
 40
1
 40
1
 40
1
 10
-3.950318
 20
212.940856
 30
0.0
 10
-6.449073
 20
215.436720
 30
0.0
 10
-10.497290
 20
215.436720
 30
0.0
 10
-12.996045
 20
212.940856
 30
0.0
  0
SPLINE
  5
320
100
AcDbEntity
  8
0
 62
7
100
AcDbSpline
 70
8
 71
3
 72
8
 73
4
 74
0
 40
0
 40
0
 40
0
 40
0
 40
1
 40
1
 40
1
 40
1
 10
-12.996045
 20
212.940856
 30
0.0
 10
-15.494800
 20
210.444991
 30
0.0
 10
-15.499485
 20
206.396777
 30
0.0
 10
-13.006515
 20
203.895135
 30
0.0
  0
SPLINE
  5
321
100
AcDbEntity
  8
0
 62
7
100
AcDbSpline
 70
8
 71
3
 72
8
 73
4
 74
0
 40
0
 40
0
 40
0
 40
0
 40
1
 40
1
 40
1
 40
1
 10
-13.006515
 20
164.930375
 30
0.0
 10
-15.499485
 20
162.428733
 30
0.0
 10
-15.494800
 20
158.380518
 30
0.0
 10
-12.996045
 20
155.884653
 30
0.0
  0
SPLINE
  5
322
100
AcDbEntity
  8
0
 62
7
100
AcDbSpline
 70
8
 71
3
 72
8
 73
4
 74
0
 40
0
 40
0
 40
0
 40
0
 40
1
 40
1
 40
1
 40
1
 10
-12.996045
 20
155.884653
 30
0.0
 10
-10.497290
 20
153.388789
 30
0.0
 10
-6.449073
 20
153.388789
 30
0.0
 10
-3.950318
 20
155.884653
 30
0.0
  0
SPLINE
  5
323
100
AcDbEntity
  8
0
 62
7
100
AcDbSpline
 70
8
 71
3
 72
8
 73
4
 74
0
 40
0
 40
0
 40
0
 40
0
 40
1
 40
1
 40
1
 40
1
 10
-3.950318
 20
155.884653
 30
0.0
 10
-1.451563
 20
158.380518
 30
0.0
 10
-1.446877
 20
162.428733
 30
0.0
 10
-3.939848
 20
164.930375
 30
0.0
  0
SPLINE
  5
324
100
AcDbEntity
  8
0
 62
7
100
AcDbSpline
 70
8
 71
3
 72
8
 73
4
 74
0
 40
0
 40
0
 40
0
 40
0
 40
1
 40
1
 40
1
 40
1
 10
22.899009
 20
212.110866
 30
0.0
 10
20.012764
 20
212.385039
 30
0.0
 10
17.302721
 20
210.684741
 30
0.0
 10
16.293801
 20
207.966716
 30
0.0
  0
SPLINE
  5
325
100
AcDbEntity
  8
0
 62
7
100
AcDbSpline
 70
8
 71
3
 72
8
 73
4
 74
0
 40
0
 40
0
 40
0
 40
0
 40
1
 40
1
 40
1
 40
1
 10
16.293801
 20
207.966716
 30
0.0
 10
15.284881
 20
205.248690
 30
0.0
 10
16.229124
 20
202.191935
 30
0.0
 10
18.595213
 20
200.516463
 30
0.0
  0
SPLINE
  5
326
100
AcDbEntity
  8
0
 62
7
100
AcDbSpline
 70
8
 71
3
 72
8
 73
4
 74
0
 40
0
 40
0
 40
0
 40
0
 40
1
 40
1
 40
1
 40
1
 10
28.812789
 20
209.383228
 30
0.0
 10
32.520395
 20
208.605413
 30
0.0
 10
36.265253
 20
210.534741
 30
0.0
 10
37.784161
 20
214.005224
 30
0.0
  0
SPLINE
  5
327
100
AcDbEntity
  8
0
 62
7
100
AcDbSpline
 70
8
 71
3
 72
8
 73
4
 74
0
 40
0
 40
0
 40
0
 40
0
 40
1
 40
1
 40
1
 40
1
 10
37.784161
 20
214.005224
 30
0.0
 10
39.303069
 20
217.475707
 30
0.0
 10
38.179548
 20
221.535753
 30
0.0
 10
35.092598
 20
223.731675
 30
0.0
  0
SPLINE
  5
328
100
AcDbEntity
  8
0
 62
7
100
AcDbSpline
 70
8
 71
3
 72
8
 73
4
 74
0
 40
0
 40
0
 40
0
 40
0
 40
1
 40
1
 40
1
 40
1
 10
35.092598
 20
223.731675
 30
0.0
 10
32.005648
 20
225.927597
 30
0.0
 10
27.801697
 20
225.657282
 30
0.0
 10
25.021401
 20
223.084095
 30
0.0
  0
SPLINE
  5
329
100
AcDbEntity
  8
0
 62
7
100
AcDbSpline
 70
8
 71
3
 72
8
 73
4
 74
0
 40
0
 40
0
 40
0
 40
0
 40
1
 40
1
 40
1
 40
1
 10
25.021401
 20
223.084095
 30
0.0
 10
22.241106
 20
220.510908
 30
0.0
 10
21.646811
 20
216.340406
 30
0.0
 10
23.597678
 20
213.093030
 30
0.0
  0
SPLINE
  5
32a
100
AcDbEntity
  8
0
 62
7
100
AcDbSpline
 70
8
 71
3
 72
8
 73
4
 74
0
 40
0
 40
0
 40
0
 40
0
 40
1
 40
1
 40
1
 40
1
 10
27.529675
 20
202.059135
 30
0.0
 10
28.837166
 20
203.919222
 30
0.0
 10
29.059641
 20
206.333348
 30
0.0
 10
28.114119
 20
208.401063
 30
0.0
  0
SPLINE
  5
32b
100
AcDbEntity
  8
0
 62
7
100
AcDbSpline
 70
8
 71
3
 72
8
 73
4
 74
0
 40
0
 40
0
 40
0
 40
0
 40
1
 40
1
 40
1
 40
1
 10
25.224977
 20
162.119865
 30
0.0
 10
23.194005
 20
159.230527
 30
0.0
 10
23.887417
 20
155.242138
 30
0.0
 10
26.774402
 20
153.207824
 30
0.0
  0
SPLINE
  5
32c
100
AcDbEntity
  8
0
 62
7
100
AcDbSpline
 70
8
 71
3
 72
8
 73
4
 74
0
 40
0
 40
0
 40
0
 40
0
 40
1
 40
1
 40
1
 40
1
 10
26.774402
 20
153.207824
 30
0.0
 10
29.661387
 20
151.173510
 30
0.0
 10
33.650575
 20
151.862305
 30
0.0
 10
35.688229
 20
154.746933
 30
0.0
  0
SPLINE
  5
32d
100
AcDbEntity
  8
0
 62
7
100
AcDbSpline
 70
8
 71
3
 72
8
 73
4
 74
0
 40
0
 40
0
 40
0
 40
0
 40
1
 40
1
 40
1
 40
1
 10
35.688229
 20
154.746933
 30
0.0
 10
37.725883
 20
157.631562
 30
0.0
 10
37.041706
 20
161.621545
 30
0.0
 10
34.159438
 20
163.662536
 30
0.0
  0
SPLINE
  5
32e
100
AcDbEntity
  8
0
 62
7
100
AcDbSpline
 70
8
 71
3
 72
8
 73
4
 74
0
 40
0
 40
0
 40
0
 40
0
 40
1
 40
1
 40
1
 40
1
 10
21.510856
 20
63.909940
 30
0.0
 10
19.240481
 20
63.208269
 30
0.0
 10
17.692187
 20
61.109209
 30
0.0
 10
17.692187
 20
58.732880
 30
0.0
  0
SPLINE
  5
32f
100
AcDbEntity
  8
0
 62
7
100
AcDbSpline
 70
8
 71
3
 72
8
 73
4
 74
0
 40
0
 40
0
 40
0
 40
0
 40
1
 40
1
 40
1
 40
1
 10
17.692187
 20
58.732880
 30
0.0
 10
17.692187
 20
56.356551
 30
0.0
 10
19.240481
 20
54.257491
 30
0.0
 10
21.510856
 20
53.555820
 30
0.0
  0
SPLINE
  5
330
100
AcDbEntity
  8
0
 62
7
100
AcDbSpline
 70
8
 71
3
 72
8
 73
4
 74
0
 40
0
 40
0
 40
0
 40
0
 40
1
 40
1
 40
1
 40
1
 10
21.510856
 20
135.269939
 30
0.0
 10
19.240481
 20
134.568268
 30
0.0
 10
17.692187
 20
132.469208
 30
0.0
 10
17.692187
 20
130.092879
 30
0.0
  0
SPLINE
  5
331
100
AcDbEntity
  8
0
 62
7
100
AcDbSpline
 70
8
 71
3
 72
8
 73
4
 74
0
 40
0
 40
0
 40
0
 40
0
 40
1
 40
1
 40
1
 40
1
 10
17.692187
 20
130.092879
 30
0.0
 10
17.692187
 20
127.716550
 30
0.0
 10
19.240481
 20
125.617490
 30
0.0
 10
21.510856
 20
124.915819
 30
0.0
  0
SPLINE
  5
332
100
AcDbEntity
  8
0
 62
7
100
AcDbSpline
 70
8
 71
3
 72
8
 73
4
 74
0
 40
0
 40
0
 40
0
 40
0
 40
1
 40
1
 40
1
 40
1
 10
108.209523
 20
53.555820
 30
0.0
 10
110.479897
 20
54.257491
 30
0.0
 10
112.028192
 20
56.356551
 30
0.0
 10
112.028192
 20
58.732880
 30
0.0
  0
SPLINE
  5
333
100
AcDbEntity
  8
0
 62
7
100
AcDbSpline
 70
8
 71
3
 72
8
 73
4
 74
0
 40
0
 40
0
 40
0
 40
0
 40
1
 40
1
 40
1
 40
1
 10
112.028192
 20
58.732880
 30
0.0
 10
112.028192
 20
61.109209
 30
0.0
 10
110.479897
 20
63.208269
 30
0.0
 10
108.209523
 20
63.909940
 30
0.0
  0
SPLINE
  5
334
100
AcDbEntity
  8
0
 62
7
100
AcDbSpline
 70
8
 71
3
 72
8
 73
4
 74
0
 40
0
 40
0
 40
0
 40
0
 40
1
 40
1
 40
1
 40
1
 10
108.209523
 20
124.915819
 30
0.0
 10
110.479897
 20
125.617490
 30
0.0
 10
112.028192
 20
127.716550
 30
0.0
 10
112.028192
 20
130.092879
 30
0.0
  0
SPLINE
  5
335
100
AcDbEntity
  8
0
 62
7
100
AcDbSpline
 70
8
 71
3
 72
8
 73
4
 74
0
 40
0
 40
0
 40
0
 40
0
 40
1
 40
1
 40
1
 40
1
 10
112.028192
 20
130.092879
 30
0.0
 10
112.028192
 20
132.469208
 30
0.0
 10
110.479897
 20
134.568268
 30
0.0
 10
108.209523
 20
135.269939
 30
0.0
  0
SPLINE
  5
336
100
AcDbEntity
  8
0
 62
7
100
AcDbSpline
 70
8
 71
3
 72
8
 73
4
 74
0
 40
0
 40
0
 40
0
 40
0
 40
1
 40
1
 40
1
 40
1
 10
-1.422489
 20
141.433134
 30
0.0
 10
1.070482
 20
143.934776
 30
0.0
 10
1.065796
 20
147.982990
 30
0.0
 10
-1.432959
 20
150.478855
 30
0.0
  0
SPLINE
  5
337
100
AcDbEntity
  8
0
 62
7
100
AcDbSpline
 70
8
 71
3
 72
8
 73
4
 74
0
 40
0
 40
0
 40
0
 40
0
 40
1
 40
1
 40
1
 40
1
 10
-1.432959
 20
150.478855
 30
0.0
 10
-3.931714
 20
152.974720
 30
0.0
 10
-7.979931
 20
152.974720
 30
0.0
 10
-10.478686
 20
150.478855
 30
0.0
  0
SPLINE
  5
338
100
AcDbEntity
  8
0
 62
7
100
AcDbSpline
 70
8
 71
3
 72
8
 73
4
 74
0
 40
0
 40
0
 40
0
 40
0
 40
1
 40
1
 40
1
 40
1
 10
-10.478686
 20
150.478855
 30
0.0
 10
-12.977441
 20
147.982990
 30
0.0
 10
-12.982127
 20
143.934776
 30
0.0
 10
-10.489156
 20
141.433134
 30
0.0
  0
SPLINE
  5
339
100
AcDbEntity
  8
0
 62
7
100
AcDbSpline
 70
8
 71
3
 72
8
 73
4
 74
0
 40
0
 40
0
 40
0
 40
0
 40
1
 40
1
 40
1
 40
1
 10
-10.489156
 20
113.135039
 30
0.0
 10
-12.982127
 20
110.633397
 30
0.0
 10
-12.977441
 20
106.585182
 30
0.0
 10
-10.478686
 20
104.089318
 30
0.0
  0
SPLINE
  5
33a
100
AcDbEntity
  8
0
 62
7
100
AcDbSpline
 70
8
 71
3
 72
8
 73
4
 74
0
 40
0
 40
0
 40
0
 40
0
 40
1
 40
1
 40
1
 40
1
 10
-10.478686
 20
104.089318
 30
0.0
 10
-7.979931
 20
101.593453
 30
0.0
 10
-3.931714
 20
101.593453
 30
0.0
 10
-1.432959
 20
104.089318
 30
0.0
  0
SPLINE
  5
33b
100
AcDbEntity
  8
0
 62
7
100
AcDbSpline
 70
8
 71
3
 72
8
 73
4
 74
0
 40
0
 40
0
 40
0
 40
0
 40
1
 40
1
 40
1
 40
1
 10
-1.432959
 20
104.089318
 30
0.0
 10
1.065796
 20
106.585182
 30
0.0
 10
1.070482
 20
110.633397
 30
0.0
 10
-1.422489
 20
113.135039
 30
0.0
  0
SPLINE
  5
33c
100
AcDbEntity
  8
0
 62
7
100
AcDbSpline
 70
8
 71
3
 72
8
 73
4
 74
0
 40
0
 40
0
 40
0
 40
0
 40
1
 40
1
 40
1
 40
1
 10
168.881814
 20
128.941651
 30
0.0
 10
168.542835
 20
129.060711
 30
0.0
 10
168.170443
 20
129.040236
 30
0.0
 10
167.846561
 20
128.884730
 30
0.0
  0
SPLINE
  5
33d
100
AcDbEntity
  8
0
 62
7
100
AcDbSpline
 70
8
 71
3
 72
8
 73
4
 74
0
 40
0
 40
0
 40
0
 40
0
 40
1
 40
1
 40
1
 40
1
 10
167.846561
 20
128.884730
 30
0.0
 10
167.522678
 20
128.729223
 30
0.0
 10
167.273835
 20
128.451424
 30
0.0
 10
167.154775
 20
128.112445
 30
0.0
  0
SPLINE
  5
33e
100
AcDbEntity
  8
0
 62
7
100
AcDbSpline
 70
8
 71
3
 72
8
 73
4
 74
0
 40
0
 40
0
 40
0
 40
0
 40
1
 40
1
 40
1
 40
1
 10
166.850785
 20
127.246943
 30
0.0
 10
166.602857
 20
126.541056
 30
0.0
 10
166.974106
 20
125.767835
 30
0.0
 10
167.679994
 20
125.519907
 30
0.0
  0
SPLINE
  5
33f
100
AcDbEntity
  8
0
 62
7
100
AcDbSpline
 70
8
 71
3
 72
8
 73
4
 74
0
 40
0
 40
0
 40
0
 40
0
 40
1
 40
1
 40
1
 40
1
 10
145.234220
 20
61.613789
 30
0.0
 10
144.528333
 20
61.861717
 30
0.0
 10
143.755113
 20
61.490470
 30
0.0
 10
143.507183
 20
60.784583
 30
0.0
  0
SPLINE
  5
340
100
AcDbEntity
  8
0
 62
7
100
AcDbSpline
 70
8
 71
3
 72
8
 73
4
 74
0
 40
0
 40
0
 40
0
 40
0
 40
1
 40
1
 40
1
 40
1
 10
143.203193
 20
59.919084
 30
0.0
 10
143.084133
 20
59.580105
 30
0.0
 10
143.104608
 20
59.207713
 30
0.0
 10
143.260115
 20
58.883830
 30
0.0
  0
SPLINE
  5
341
100
AcDbEntity
  8
0
 62
7
100
AcDbSpline
 70
8
 71
3
 72
8
 73
4
 74
0
 40
0
 40
0
 40
0
 40
0
 40
1
 40
1
 40
1
 40
1
 10
143.260115
 20
58.883830
 30
0.0
 10
143.415621
 20
58.559948
 30
0.0
 10
143.693420
 20
58.311105
 30
0.0
 10
144.032399
 20
58.192045
 30
0.0
  0
SPLINE
  5
342
100
AcDbEntity
  8
0
 62
7
100
AcDbSpline
 70
8
 71
3
 72
8
 73
4
 74
0
 40
0
 40
0
 40
0
 40
0
 40
1
 40
1
 40
1
 40
1
 10
11.812858
 20
202.646431
 30
0.0
 10
14.305828
 20
205.148073
 30
0.0
 10
14.301143
 20
209.196288
 30
0.0
 10
11.802388
 20
211.692152
 30
0.0
  0
SPLINE
  5
343
100
AcDbEntity
  8
0
 62
7
100
AcDbSpline
 70
8
 71
3
 72
8
 73
4
 74
0
 40
0
 40
0
 40
0
 40
0
 40
1
 40
1
 40
1
 40
1
 10
11.802388
 20
211.692152
 30
0.0
 10
9.303633
 20
214.188017
 30
0.0
 10
5.255416
 20
214.188017
 30
0.0
 10
2.756661
 20
211.692152
 30
0.0
  0
SPLINE
  5
344
100
AcDbEntity
  8
0
 62
7
100
AcDbSpline
 70
8
 71
3
 72
8
 73
4
 74
0
 40
0
 40
0
 40
0
 40
0
 40
1
 40
1
 40
1
 40
1
 10
2.756661
 20
211.692152
 30
0.0
 10
0.257906
 20
209.196288
 30
0.0
 10
0.253220
 20
205.148073
 30
0.0
 10
2.746191
 20
202.646431
 30
0.0
  0
SPLINE
  5
345
100
AcDbEntity
  8
0
 62
7
100
AcDbSpline
 70
8
 71
3
 72
8
 73
4
 74
0
 40
0
 40
0
 40
0
 40
0
 40
1
 40
1
 40
1
 40
1
 10
2.746191
 20
163.681671
 30
0.0
 10
0.253220
 20
161.180029
 30
0.0
 10
0.257906
 20
157.131814
 30
0.0
 10
2.756661
 20
154.635950
 30
0.0
  0
SPLINE
  5
346
100
AcDbEntity
  8
0
 62
7
100
AcDbSpline
 70
8
 71
3
 72
8
 73
4
 74
0
 40
0
 40
0
 40
0
 40
0
 40
1
 40
1
 40
1
 40
1
 10
2.756661
 20
154.635950
 30
0.0
 10
5.255416
 20
152.140086
 30
0.0
 10
9.303633
 20
152.140086
 30
0.0
 10
11.802388
 20
154.635950
 30
0.0
  0
SPLINE
  5
347
100
AcDbEntity
  8
0
 62
7
100
AcDbSpline
 70
8
 71
3
 72
8
 73
4
 74
0
 40
0
 40
0
 40
0
 40
0
 40
1
 40
1
 40
1
 40
1
 10
11.802388
 20
154.635950
 30
0.0
 10
14.301143
 20
157.131814
 30
0.0
 10
14.305828
 20
161.180029
 30
0.0
 10
11.812858
 20
163.681671
 30
0.0
  0
SPLINE
  5
348
100
AcDbEntity
  8
0
 62
7
100
AcDbSpline
 70
8
 71
3
 72
8
 73
4
 74
0
 40
0
 40
0
 40
0
 40
0
 40
1
 40
1
 40
1
 40
1
 10
80.996409
 20
147.478303
 30
0.0
 10
81.698080
 20
145.207928
 30
0.0
 10
83.797140
 20
143.659634
 30
0.0
 10
86.173469
 20
143.659634
 30
0.0
  0
SPLINE
  5
349
100
AcDbEntity
  8
0
 62
7
100
AcDbSpline
 70
8
 71
3
 72
8
 73
4
 74
0
 40
0
 40
0
 40
0
 40
0
 40
1
 40
1
 40
1
 40
1
 10
86.173469
 20
143.659634
 30
0.0
 10
88.549799
 20
143.659634
 30
0.0
 10
90.648859
 20
145.207928
 30
0.0
 10
91.350530
 20
147.478303
 30
0.0
  0
SPLINE
  5
34a
100
AcDbEntity
  8
0
 62
7
100
AcDbSpline
 70
8
 71
3
 72
8
 73
4
 74
0
 40
0
 40
0
 40
0
 40
0
 40
1
 40
1
 40
1
 40
1
 10
91.350530
 20
234.176969
 30
0.0
 10
90.648859
 20
236.447344
 30
0.0
 10
88.549799
 20
237.995638
 30
0.0
 10
86.173469
 20
237.995638
 30
0.0
  0
SPLINE
  5
34b
100
AcDbEntity
  8
0
 62
7
100
AcDbSpline
 70
8
 71
3
 72
8
 73
4
 74
0
 40
0
 40
0
 40
0
 40
0
 40
1
 40
1
 40
1
 40
1
 10
86.173469
 20
237.995638
 30
0.0
 10
83.797140
 20
237.995638
 30
0.0
 10
81.698080
 20
236.447344
 30
0.0
 10
80.996409
 20
234.176969
 30
0.0
  0
SPLINE
  5
34c
100
AcDbEntity
  8
0
 62
7
100
AcDbSpline
 70
8
 71
3
 72
8
 73
4
 74
0
 40
0
 40
0
 40
0
 40
0
 40
1
 40
1
 40
1
 40
1
 10
163.675481
 20
57.893479
 30
0.0
 10
164.014460
 20
57.774419
 30
0.0
 10
164.386852
 20
57.794895
 30
0.0
 10
164.710735
 20
57.950401
 30
0.0
  0
SPLINE
  5
34d
100
AcDbEntity
  8
0
 62
7
100
AcDbSpline
 70
8
 71
3
 72
8
 73
4
 74
0
 40
0
 40
0
 40
0
 40
0
 40
1
 40
1
 40
1
 40
1
 10
164.710735
 20
57.950401
 30
0.0
 10
165.034618
 20
58.105908
 30
0.0
 10
165.283460
 20
58.383708
 30
0.0
 10
165.402520
 20
58.722688
 30
0.0
  0
SPLINE
  5
34e
100
AcDbEntity
  8
0
 62
7
100
AcDbSpline
 70
8
 71
3
 72
8
 73
4
 74
0
 40
0
 40
0
 40
0
 40
0
 40
1
 40
1
 40
1
 40
1
 10
165.706510
 20
59.588187
 30
0.0
 10
165.954438
 20
60.294074
 30
0.0
 10
165.583189
 20
61.067295
 30
0.0
 10
164.877301
 20
61.315223
 30
0.0
  0
SPLINE
  5
34f
100
AcDbEntity
  8
0
 62
7
100
AcDbSpline
 70
8
 71
3
 72
8
 73
4
 74
0
 40
0
 40
0
 40
0
 40
0
 40
1
 40
1
 40
1
 40
1
 10
187.330723
 20
125.218654
 30
0.0
 10
187.669703
 20
125.099594
 30
0.0
 10
188.042095
 20
125.120070
 30
0.0
 10
188.365978
 20
125.275576
 30
0.0
  0
SPLINE
  5
350
100
AcDbEntity
  8
0
 62
7
100
AcDbSpline
 70
8
 71
3
 72
8
 73
4
 74
0
 40
0
 40
0
 40
0
 40
0
 40
1
 40
1
 40
1
 40
1
 10
188.365978
 20
125.275576
 30
0.0
 10
188.689861
 20
125.431083
 30
0.0
 10
188.938703
 20
125.708883
 30
0.0
 10
189.057763
 20
126.047863
 30
0.0
  0
SPLINE
  5
351
100
AcDbEntity
  8
0
 62
7
100
AcDbSpline
 70
8
 71
3
 72
8
 73
4
 74
0
 40
0
 40
0
 40
0
 40
0
 40
1
 40
1
 40
1
 40
1
 10
189.361753
 20
126.913362
 30
0.0
 10
189.609681
 20
127.619249
 30
0.0
 10
189.238432
 20
128.392470
 30
0.0
 10
188.532544
 20
128.640398
 30
0.0
  0
LWPOLYLINE
  5
352
100
AcDbEntity
  8
0
 62
7
100
AcDbPolyline
 90
3
 70
0
 10
220.049578
 20
248.677321
 30
0.0
 10
220.049578
 20
256.663239
 30
0.0
 10
133.350912
 20
256.663239
 30
0.0
  0
ENDSEC
  0
SECTION
  2
OBJECTS
  0
DICTIONARY
  5
C
330
0
100
AcDbDictionary
  3
ACAD_GROUP
350
D
  3
ACAD_MLINESTYLE
350
17
  0
DICTIONARY
  5
D
330
C
100
AcDbDictionary
  0
DICTIONARY
  5
1A
330
C
100
AcDbDictionary
  0
DICTIONARY
  5
17
330
C
100
AcDbDictionary
  3
STANDARD
350
18
  0
DICTIONARY
  5
19
330
C
100
AcDbDictionary
  0
ENDSEC
  0
EOF
