 0
SECTION
 2
ENTITIES
  0
LINE
 8
Layer0
10
300.255608985109
20
128.041667852233
30
0.0
11
302.184761230122
21
125.440507164479
31
0.0
  0
LINE
 8
Layer0
10
295.328191937786
20
139.937504915347
30
0.0
11
296.11507511193
21
136.796091192482
31
0.0
  0
LINE
 8
Layer0
10
309.360288501446
20
173.813982747863
30
0.0
11
306.759127813692
21
171.88483050285
31
0.0
  0
LINE
 8
Layer0
10
304.359582411937
20
169.710009321035
30
0.0
11
302.184761230122
21
167.31046391928
31
0.0
  0
LINE
 8
Layer0
10
295.328191937786
20
152.813466168412
30
0.0
11
294.85301021091
21
149.610051172755
31
0.0
  0
LINE
 8
Layer0
10
294.85301021091
20
149.610051172755
30
0.0
11
294.694106191093
21
146.375485541879
31
0.0
  0
LINE
 8
Layer0
10
294.694106191093
20
146.375485541879
30
0.0
11
294.85301021091
21
143.140919911004
31
0.0
  0
LINE
 8
Layer0
10
297.20608161822
20
133.746932273831
30
0.0
11
298.590704467597
21
130.819393226621
31
0.0
  0
LINE
 8
Layer0
10
300.255608985109
20
164.709303231526
30
0.0
11
298.590704467597
21
161.931577857137
31
0.0
  0
LINE
 8
Layer0
10
302.184761230122
20
167.31046391928
30
0.0
11
300.255608985109
21
164.709303231526
31
0.0
  0
LINE
 8
Layer0
10
296.11507511193
20
155.954879891277
30
0.0
11
295.328191937786
21
152.813466168412
31
0.0
  0
LINE
 8
Layer0
10
294.85301021091
20
143.140919911004
30
0.0
11
295.328191937786
21
139.937504915347
31
0.0
  0
LINE
 8
Layer0
10
297.20608161822
20
159.004038809927
30
0.0
11
296.11507511193
21
155.954879891277
31
0.0
  0
LINE
 8
Layer0
10
296.11507511193
20
136.796091192482
30
0.0
11
297.20608161822
21
133.746932273831
31
0.0
  0
LINE
 8
Layer0
10
306.759127813692
20
171.88483050285
30
0.0
11
304.359582411937
21
169.710009321035
31
0.0
  0
LINE
 8
Layer0
10
298.590704467597
20
161.931577857137
30
0.0
11
297.20608161822
21
159.004038809927
31
0.0
  0
LINE
 8
Layer0
10
298.590704467597
20
130.819393226621
30
0.0
11
300.255608985109
21
128.041667852233
31
0.0
  0
LINE
 8
Layer0
10
355.132603397077
20
128.041667852233
30
0.0
11
356.797507914588
21
130.819393226621
31
0.0
  0
LINE
 8
Layer0
10
360.060020444399
20
139.937504915347
30
0.0
11
360.535202171275
21
143.140919911004
31
0.0
  0
LINE
 8
Layer0
10
360.060020444399
20
152.813466168412
30
0.0
11
359.273137270255
21
155.954879891277
31
0.0
  0
LINE
 8
Layer0
10
358.182130763965
20
159.004038809927
30
0.0
11
356.797507914588
21
161.931577857137
31
0.0
  0
LINE
 8
Layer0
10
353.203451152063
20
125.440507164479
30
0.0
11
355.132603397077
21
128.041667852233
31
0.0
  0
LINE
 8
Layer0
10
355.132603397077
20
164.709303231526
30
0.0
11
353.203451152063
21
167.31046391928
31
0.0
  0
LINE
 8
Layer0
10
356.797507914588
20
161.931577857137
30
0.0
11
355.132603397077
21
164.709303231526
31
0.0
  0
LINE
 8
Layer0
10
353.203451152063
20
167.31046391928
30
0.0
11
351.028629970249
21
169.710009321035
31
0.0
  0
LINE
 8
Layer0
10
348.629084568493
20
171.88483050285
30
0.0
11
346.027923880739
21
173.813982747863
31
0.0
  0
LINE
 8
Layer0
10
351.028629970249
20
169.710009321035
30
0.0
11
348.629084568493
21
171.88483050285
31
0.0
  0
LINE
 8
Layer0
10
358.182130763965
20
133.746932273831
30
0.0
11
359.273137270255
21
136.796091192482
31
0.0
  0
LINE
 8
Layer0
10
359.273137270255
20
136.796091192482
30
0.0
11
360.060020444399
21
139.937504915347
31
0.0
  0
LINE
 8
Layer0
10
309.360288501446
20
118.936988335895
30
0.0
11
311.211774804373
21
117.827250152893
31
0.0
  0
LINE
 8
Layer0
10
360.694106191093
20
146.375485541879
30
0.0
11
360.535202171275
21
149.610051172755
31
0.0
  0
LINE
 8
Layer0
10
306.759127813692
20
120.866140580909
30
0.0
11
309.360288501446
21
118.936988335895
31
0.0
  0
LINE
 8
Layer0
10
360.535202171275
20
149.610051172755
30
0.0
11
360.060020444399
21
152.813466168412
31
0.0
  0
LINE
 8
Layer0
10
359.273137270255
20
155.954879891277
30
0.0
11
358.182130763965
21
159.004038809927
31
0.0
  0
LINE
 8
Layer0
10
346.027923880739
20
173.813982747863
30
0.0
11
344.176437577813
21
174.923720930866
31
0.0
  0
LINE
 8
Layer0
10
356.797507914588
20
130.819393226621
30
0.0
11
358.182130763965
21
133.746932273831
31
0.0
  0
LINE
 8
Layer0
10
312.693709899563
20
168.825165074048
30
0.0
11
310.565487518674
21
167.246767782673
31
0.0
  0
LINE
 8
Layer0
10
310.565487518674
20
167.246767782673
30
0.0
11
308.602223099056
21
165.467368633916
31
0.0
  0
LINE
 8
Layer0
10
360.535202171275
20
143.140919911004
30
0.0
11
360.694106191093
21
146.375485541879
31
0.0
  0
LINE
 8
Layer0
10
308.602223099056
20
165.467368633916
30
0.0
11
306.822823950299
21
163.504104214298
31
0.0
  0
LINE
 8
Layer0
10
306.822823950299
20
163.504104214298
30
0.0
11
305.244426658924
21
161.375881833409
31
0.0
  0
LINE
 8
Layer0
10
302.184761230122
20
125.440507164479
30
0.0
11
304.359582411937
21
123.040961762723
31
0.0
  0
LINE
 8
Layer0
10
305.244426658924
20
161.375881833409
30
0.0
11
303.882232053687
21
159.103197436181
31
0.0
  0
LINE
 8
Layer0
10
303.882232053687
20
159.103197436181
30
0.0
11
302.749358813288
21
156.707938215737
31
0.0
  0
LINE
 8
Layer0
10
346.027923880739
20
118.936988335895
30
0.0
11
348.629084568493
21
120.866140580909
31
0.0
  0
LINE
 8
Layer0
10
302.749358813288
20
156.707938215737
30
0.0
11
301.856717126323
21
154.21317182775
31
0.0
  0
LINE
 8
Layer0
10
304.359582411937
20
123.040961762723
30
0.0
11
306.759127813692
21
120.866140580909
31
0.0
  0
LINE
 8
Layer0
10
348.629084568493
20
120.866140580909
30
0.0
11
351.028629970249
21
123.040961762723
31
0.0
  0
LINE
 8
Layer0
10
351.028629970249
20
123.040961762723
30
0.0
11
353.203451152063
21
125.440507164479
31
0.0
  0
LINE
 8
Layer0
10
300.694106191093
20
146.375485541879
30
0.0
11
300.824118570943
21
143.729022752981
31
0.0
  0
LINE
 8
Layer0
10
301.856717126323
20
138.537799256009
30
0.0
11
302.749358813288
21
136.043032868022
31
0.0
  0
LINE
 8
Layer0
10
303.882232053687
20
133.647773647577
30
0.0
11
305.244426658924
21
131.37508925035
31
0.0
  0
LINE
 8
Layer0
10
354.17530876198
20
141.108046847444
30
0.0
11
354.564093811242
21
143.729022752981
31
0.0
  0
LINE
 8
Layer0
10
344.822724863511
20
125.504203301086
30
0.0
11
346.785989283129
21
127.283602449843
31
0.0
  0
LINE
 8
Layer0
10
305.244426658924
20
131.37508925035
30
0.0
11
306.822823950299
21
129.246866869461
31
0.0
  0
LINE
 8
Layer0
10
348.565388431886
20
129.246866869461
30
0.0
11
350.143785723261
21
131.37508925035
31
0.0
  0
LINE
 8
Layer0
10
354.564093811242
20
149.021948330778
30
0.0
11
354.17530876198
21
151.642924236315
31
0.0
  0
LINE
 8
Layer0
10
302.749358813288
20
136.043032868022
30
0.0
11
303.882232053687
21
133.647773647577
31
0.0
  0
LINE
 8
Layer0
10
350.143785723261
20
161.375881833409
30
0.0
11
348.565388431886
21
163.504104214298
31
0.0
  0
LINE
 8
Layer0
10
352.638853568897
20
136.043032868022
30
0.0
11
353.531495255862
21
138.537799256009
31
0.0
  0
LINE
 8
Layer0
10
353.531495255862
20
138.537799256009
30
0.0
11
354.17530876198
21
141.108046847444
31
0.0
  0
LINE
 8
Layer0
10
354.694106191093
20
146.375485541879
30
0.0
11
354.564093811242
21
149.021948330778
31
0.0
  0
LINE
 8
Layer0
10
348.565388431886
20
163.504104214298
30
0.0
11
346.785989283129
21
165.467368633916
31
0.0
  0
LINE
 8
Layer0
10
300.824118570943
20
143.729022752981
30
0.0
11
301.212903620205
21
141.108046847444
31
0.0
  0
LINE
 8
Layer0
10
306.822823950299
20
129.246866869461
30
0.0
11
308.602223099056
21
127.283602449843
31
0.0
  0
LINE
 8
Layer0
10
312.693709899563
20
123.925806009711
30
0.0
11
314.208562329231
21
123.017838405436
31
0.0
  0
LINE
 8
Layer0
10
301.856717126323
20
154.21317182775
30
0.0
11
301.212903620205
21
151.642924236315
31
0.0
  0
LINE
 8
Layer0
10
310.565487518674
20
125.504203301086
30
0.0
11
312.693709899563
21
123.925806009711
31
0.0
  0
LINE
 8
Layer0
10
308.602223099056
20
127.283602449843
30
0.0
11
310.565487518674
21
125.504203301086
31
0.0
  0
LINE
 8
Layer0
10
342.694502482622
20
123.925806009711
30
0.0
11
344.822724863511
21
125.504203301086
31
0.0
  0
LINE
 8
Layer0
10
350.143785723261
20
131.37508925035
30
0.0
11
351.505980328498
21
133.647773647577
31
0.0
  0
LINE
 8
Layer0
10
354.564093811242
20
143.729022752981
30
0.0
11
354.694106191093
21
146.375485541879
31
0.0
  0
LINE
 8
Layer0
10
301.212903620205
20
151.642924236315
30
0.0
11
300.824118570943
21
149.021948330778
31
0.0
  0
LINE
 8
Layer0
10
351.505980328498
20
133.647773647577
30
0.0
11
352.638853568897
21
136.043032868022
31
0.0
  0
LINE
 8
Layer0
10
300.824118570943
20
149.021948330778
30
0.0
11
300.694106191093
21
146.375485541879
31
0.0
  0
LINE
 8
Layer0
10
354.17530876198
20
151.642924236315
30
0.0
11
353.531495255862
21
154.21317182775
31
0.0
  0
LINE
 8
Layer0
10
301.212903620205
20
141.108046847444
30
0.0
11
301.856717126323
21
138.537799256009
31
0.0
  0
LINE
 8
Layer0
10
346.785989283129
20
127.283602449843
30
0.0
11
348.565388431886
21
129.246866869461
31
0.0
  0
LINE
 8
Layer0
10
353.531495255862
20
154.21317182775
30
0.0
11
352.638853568897
21
156.707938215737
31
0.0
  0
LINE
 8
Layer0
10
352.638853568897
20
156.707938215737
30
0.0
11
351.505980328498
21
159.103197436181
31
0.0
  0
LINE
 8
Layer0
10
351.505980328498
20
159.103197436181
30
0.0
11
350.143785723261
21
161.375881833409
31
0.0
  0
LINE
 8
Layer0
10
311.211774804373
20
174.923720930866
30
0.0
11
309.360288501446
21
173.813982747863
31
0.0
  0
LINE
 8
Layer0
10
314.208562329231
20
169.733132678323
30
0.0
11
312.693709899563
21
168.825165074048
31
0.0
  0
LINE
 8
Layer0
10
314.208562329231
20
169.733132678323
30
0.0
11
311.211774804373
21
174.923720930866
31
0.0
  0
LINE
 8
Layer0
10
341.179650052954
20
123.017838405436
30
0.0
11
342.694502482622
21
123.925806009711
31
0.0
  0
LINE
 8
Layer0
10
314.208562329231
20
123.017838405436
30
0.0
11
311.211774804373
21
117.827250152893
31
0.0
  0
LINE
 8
Layer0
10
344.176437577813
20
117.827250152893
30
0.0
11
346.027923880739
21
118.936988335895
31
0.0
  0
LINE
 8
Layer0
10
346.785989283129
20
165.467368633916
30
0.0
11
344.822724863511
21
167.246767782673
31
0.0
  0
LINE
 8
Layer0
10
342.694502482622
20
168.825165074048
30
0.0
11
341.179650052954
21
169.733132678323
31
0.0
  0
LINE
 8
Layer0
10
341.179650052954
20
169.733132678323
30
0.0
11
344.176437577813
21
174.923720930866
31
0.0
  0
LINE
 8
Layer0
10
344.822724863511
20
167.246767782673
30
0.0
11
342.694502482622
21
168.825165074048
31
0.0
  0
LINE
 8
Layer0
10
341.179650052954
20
123.017838405436
30
0.0
11
344.176437577813
21
117.827250152893
31
0.0
  0
LINE
 8
Layer0
10
309.829647972669
20
112.9534349673
30
0.0
11
313.191604043114
21
111.363348167885
31
0.0
  0
LINE
 8
Layer0
10
316.693227137119
20
110.110447390964
30
0.0
11
320.300794710105
21
109.206798755922
31
0.0
  0
LINE
 8
Layer0
10
313.191604043114
20
111.363348167885
30
0.0
11
316.693227137119
21
110.110447390964
31
0.0
  0
LINE
 8
Layer0
10
362.706243565087
20
131.872983393901
30
0.0
11
363.959144342008
21
135.374606487906
31
0.0
  0
LINE
 8
Layer0
10
365.59097060027
20
146.37548554188
30
0.0
11
365.408486839873
21
150.090027818724
31
0.0
  0
LINE
 8
Layer0
10
361.116156765672
20
164.239943760303
30
0.0
11
359.204197348873
21
167.429855332398
31
0.0
  0
LINE
 8
Layer0
10
365.408486839873
20
150.090027818724
30
0.0
11
364.86279297705
21
153.768797022867
31
0.0
  0
LINE
 8
Layer0
10
362.706243565087
20
160.877987689857
30
0.0
11
361.116156765672
21
164.239943760303
31
0.0
  0
LINE
 8
Layer0
10
359.204197348873
20
167.429855332398
30
0.0
11
356.988778529056
21
170.417001813922
31
0.0
  0
LINE
 8
Layer0
10
327.694106191093
20
108.478621132702
30
0.0
11
331.408648467937
21
108.661104893099
31
0.0
  0
LINE
 8
Layer0
10
364.86279297705
20
153.768797022867
30
0.0
11
363.959144342008
21
157.376364595853
31
0.0
  0
LINE
 8
Layer0
10
363.959144342008
20
157.376364595853
30
0.0
11
362.706243565087
21
160.877987689857
31
0.0
  0
LINE
 8
Layer0
10
351.735622463135
20
175.670157879843
30
0.0
11
348.748475981611
21
177.88557669966
31
0.0
  0
LINE
 8
Layer0
10
354.491236000529
20
119.578355732443
30
0.0
11
356.988778529056
21
122.333969269837
31
0.0
  0
LINE
 8
Layer0
10
345.558564409516
20
179.797536116459
30
0.0
11
342.196608339071
21
181.387622915873
31
0.0
  0
LINE
 8
Layer0
10
320.300794710105
20
109.206798755922
30
0.0
11
323.979563914248
21
108.661104893099
31
0.0
  0
LINE
 8
Layer0
10
342.196608339071
20
181.387622915873
30
0.0
11
338.694985245067
21
182.640523692795
31
0.0
  0
LINE
 8
Layer0
10
338.694985245067
20
182.640523692795
30
0.0
11
335.08741767208
21
183.544172327837
31
0.0
  0
LINE
 8
Layer0
10
361.116156765672
20
128.511027323456
30
0.0
11
362.706243565087
21
131.872983393901
31
0.0
  0
LINE
 8
Layer0
10
364.862792977051
20
138.982174060892
30
0.0
11
365.408486839873
21
142.660943265035
31
0.0
  0
LINE
 8
Layer0
10
356.988778529056
20
170.417001813922
30
0.0
11
354.491236000529
21
173.172615351316
31
0.0
  0
LINE
 8
Layer0
10
354.491236000529
20
173.172615351316
30
0.0
11
351.735622463135
21
175.670157879843
31
0.0
  0
LINE
 8
Layer0
10
342.196608339071
20
111.363348167885
30
0.0
11
345.558564409516
21
112.9534349673
31
0.0
  0
LINE
 8
Layer0
10
331.408648467937
20
108.661104893099
30
0.0
11
335.087417672081
21
109.206798755922
31
0.0
  0
LINE
 8
Layer0
10
365.408486839873
20
142.660943265035
30
0.0
11
365.59097060027
21
146.37548554188
31
0.0
  0
LINE
 8
Layer0
10
348.748475981611
20
177.88557669966
30
0.0
11
345.558564409516
21
179.797536116459
31
0.0
  0
LINE
 8
Layer0
10
356.988778529056
20
122.333969269837
30
0.0
11
359.204197348873
21
125.321115751361
31
0.0
  0
LINE
 8
Layer0
10
345.558564409516
20
112.9534349673
30
0.0
11
348.748475981611
21
114.865394384099
31
0.0
  0
LINE
 8
Layer0
10
363.959144342008
20
135.374606487906
30
0.0
11
364.862792977051
21
138.982174060892
31
0.0
  0
LINE
 8
Layer0
10
323.979563914248
20
108.661104893099
30
0.0
11
327.694106191093
21
108.478621132702
31
0.0
  0
LINE
 8
Layer0
10
338.694985245067
20
110.110447390964
30
0.0
11
342.196608339071
21
111.363348167885
31
0.0
  0
LINE
 8
Layer0
10
348.748475981611
20
114.865394384099
30
0.0
11
351.735622463135
21
117.080813203915
31
0.0
  0
LINE
 8
Layer0
10
335.087417672081
20
109.206798755922
30
0.0
11
338.694985245067
21
110.110447390964
31
0.0
  0
LINE
 8
Layer0
10
351.735622463135
20
117.080813203915
30
0.0
11
354.491236000529
21
119.578355732443
31
0.0
  0
LINE
 8
Layer0
10
359.204197348873
20
125.321115751361
30
0.0
11
361.116156765672
21
128.511027323456
31
0.0
  0
LINE
 8
Layer0
10
298.399433853128
20
170.417001813921
30
0.0
11
296.184015033312
21
167.429855332398
31
0.0
  0
LINE
 8
Layer0
10
292.681968817099
20
160.877987689858
30
0.0
11
291.429068040177
21
157.376364595853
31
0.0
  0
LINE
 8
Layer0
10
331.408648467937
20
184.08986619066
30
0.0
11
327.694106191093
21
184.272349951056
31
0.0
  0
LINE
 8
Layer0
10
291.429068040177
20
157.376364595853
30
0.0
11
290.525419405135
21
153.768797022867
31
0.0
  0
LINE
 8
Layer0
10
289.979725542312
20
142.660943265035
30
0.0
11
290.525419405135
21
138.982174060891
31
0.0
  0
LINE
 8
Layer0
10
290.525419405135
20
138.982174060891
30
0.0
11
291.429068040177
21
135.374606487906
31
0.0
  0
LINE
 8
Layer0
10
290.525419405135
20
153.768797022867
30
0.0
11
289.979725542313
21
150.090027818724
31
0.0
  0
LINE
 8
Layer0
10
296.184015033312
20
125.321115751361
30
0.0
11
298.399433853129
21
122.333969269837
31
0.0
  0
LINE
 8
Layer0
10
292.681968817098
20
131.872983393901
30
0.0
11
294.272055616513
21
128.511027323456
31
0.0
  0
LINE
 8
Layer0
10
291.429068040177
20
135.374606487906
30
0.0
11
292.681968817098
21
131.872983393901
31
0.0
  0
LINE
 8
Layer0
10
309.829647972669
20
179.797536116459
30
0.0
11
306.639736400574
21
177.88557669966
31
0.0
  0
LINE
 8
Layer0
10
298.399433853129
20
122.333969269837
30
0.0
11
300.896976381656
21
119.578355732443
31
0.0
  0
LINE
 8
Layer0
10
303.65258991905
20
117.080813203915
30
0.0
11
306.639736400574
21
114.865394384099
31
0.0
  0
LINE
 8
Layer0
10
306.639736400574
20
114.865394384099
30
0.0
11
309.829647972669
21
112.9534349673
31
0.0
  0
LINE
 8
Layer0
10
300.896976381656
20
173.172615351316
30
0.0
11
298.399433853128
21
170.417001813921
31
0.0
  0
LINE
 8
Layer0
10
294.272055616513
20
164.239943760303
30
0.0
11
292.681968817099
21
160.877987689858
31
0.0
  0
LINE
 8
Layer0
10
294.272055616513
20
128.511027323456
30
0.0
11
296.184015033312
21
125.321115751361
31
0.0
  0
LINE
 8
Layer0
10
300.896976381656
20
119.578355732443
30
0.0
11
303.65258991905
21
117.080813203915
31
0.0
  0
LINE
 8
Layer0
10
289.797241781916
20
146.375485541879
30
0.0
11
289.979725542312
21
142.660943265035
31
0.0
  0
LINE
 8
Layer0
10
289.979725542313
20
150.090027818724
30
0.0
11
289.797241781916
21
146.375485541879
31
0.0
  0
LINE
 8
Layer0
10
335.08741767208
20
183.544172327837
30
0.0
11
331.408648467937
21
184.08986619066
31
0.0
  0
LINE
 8
Layer0
10
320.300794710105
20
183.544172327837
30
0.0
11
316.693227137119
21
182.640523692795
31
0.0
  0
LINE
 8
Layer0
10
306.639736400574
20
177.88557669966
30
0.0
11
303.65258991905
21
175.670157879843
31
0.0
  0
LINE
 8
Layer0
10
327.694106191093
20
184.272349951056
30
0.0
11
323.979563914248
21
184.08986619066
31
0.0
  0
LINE
 8
Layer0
10
313.191604043114
20
181.387622915873
30
0.0
11
309.829647972669
21
179.797536116459
31
0.0
  0
LINE
 8
Layer0
10
316.693227137119
20
182.640523692795
30
0.0
11
313.191604043114
21
181.387622915873
31
0.0
  0
LINE
 8
Layer0
10
296.184015033312
20
167.429855332398
30
0.0
11
294.272055616513
21
164.239943760303
31
0.0
  0
LINE
 8
Layer0
10
323.979563914248
20
184.08986619066
30
0.0
11
320.300794710105
21
183.544172327837
31
0.0
  0
LINE
 8
Layer0
10
303.65258991905
20
175.670157879843
30
0.0
11
300.896976381656
21
173.172615351316
31
0.0
 0
ENDSEC
 0
EOF
